  0
SECTION
  2
HEADER
  9
$ACADVER
  1
AC1009
  9
$INSBASE
 10
0.0
 20
0.0
 30
0.0
  9
$EXTMIN
 10
0.0
 20
-2.960436562073669
 30
0.0
  9
$EXTMAX
 10
170.9999999999998863
 20
165.0000007599595051
 30
0.0
  9
$LIMMIN
 10
0.0
 20
0.0
  9
$LIMMAX
 10
375.0
 20
270.0
  9
$ORTHOMODE
 70
     1
  9
$REGENMODE
 70
     1
  9
$FILLMODE
 70
     1
  9
$QTEXTMODE
 70
     0
  9
$MIRRTEXT
 70
     0
  9
$DRAGMODE
 70
     2
  9
$LTSCALE
 40
5.0
  9
$OSMODE
 70
    37
  9
$ATTMODE
 70
     1
  9
$TEXTSIZE
 40
4.000000000000048
  9
$TRACEWID
 40
0.05
  9
$TEXTSTYLE
  7
STANDARD
  9
$CLAYER
  8
0
  9
$CELTYPE
  6
BYLAYER
  9
$CECOLOR
 62
   256
  9
$DIMSCALE
 40
1.0
  9
$DIMASZ
 40
3.0
  9
$DIMEXO
 40
2.0
  9
$DIMDLI
 40
0.38
  9
$DIMRND
 40
0.0
  9
$DIMDLE
 40
0.0
  9
$DIMEXE
 40
2.0
  9
$DIMTP
 40
0.0
  9
$DIMTM
 40
0.0
  9
$DIMTXT
 40
3.2000000000000002
  9
$DIMCEN
 40
0.0
  9
$DIMTSZ
 40
0.0
  9
$DIMTOL
 70
     0
  9
$DIMLIM
 70
     0
  9
$DIMTIH
 70
     0
  9
$DIMTOH
 70
     0
  9
$DIMSE1
 70
     0
  9
$DIMSE2
 70
     0
  9
$DIMTAD
 70
     1
  9
$DIMZIN
 70
     8
  9
$DIMBLK
  1

  9
$DIMASO
 70
     0
  9
$DIMSHO
 70
     0
  9
$DIMPOST
  1

  9
$DIMAPOST
  1

  9
$DIMALT
 70
     0
  9
$DIMALTD
 70
     2
  9
$DIMALTF
 40
25.3999999999999986
  9
$DIMLFAC
 40
1.0
  9
$DIMTOFL
 70
     0
  9
$DIMTVP
 40
1.6000000000000001
  9
$DIMTIX
 70
     1
  9
$DIMSOXD
 70
     0
  9
$DIMSAH
 70
     0
  9
$DIMBLK1
  1

  9
$DIMBLK2
  1

  9
$DIMSTYLE
  2
STANDARD
  9
$DIMCLRD
 70
     4
  9
$DIMCLRE
 70
     4
  9
$DIMCLRT
 70
     4
  9
$DIMTFAC
 40
1.0
  9
$DIMGAP
 40
0.09
  9
$LUNITS
 70
     2
  9
$LUPREC
 70
     1
  9
$SKETCHINC
 40
0.1
  9
$FILLETRAD
 40
22.0
  9
$AUNITS
 70
     0
  9
$AUPREC
 70
     0
  9
$MENU
  1
E:\r13\win\SUPPORT\ACAD
  9
$ELEVATION
 40
0.0
  9
$PELEVATION
 40
0.0
  9
$THICKNESS
 40
0.0
  9
$LIMCHECK
 70
     0
  9
$BLIPMODE
 70
     0
  9
$CHAMFERA
 40
1.1999999999999991
  9
$CHAMFERB
 40
1.1999999999999991
  9
$SKPOLY
 70
     0
  9
$TDCREATE
 40
2449954.6020138887688518
  9
$TDUPDATE
 40
2460713.4587962958030403
  9
$TDINDWG
 40
0.5703642824
  9
$TDUSRTIMER
 40
0.5703642824
  9
$USRTIMER
 70
     1
  9
$ANGBASE
 50
0.0
  9
$ANGDIR
 70
     0
  9
$PDMODE
 70
     0
  9
$PDSIZE
 40
0.0
  9
$PLINEWID
 40
0.0
  9
$COORDS
 70
     1
  9
$SPLFRAME
 70
     0
  9
$SPLINETYPE
 70
     6
  9
$SPLINESEGS
 70
     8
  9
$ATTDIA
 70
     1
  9
$ATTREQ
 70
     1
  9
$HANDLING
 70
     1
  9
$HANDSEED
  5
5706
  9
$SURFTAB1
 70
     6
  9
$SURFTAB2
 70
     6
  9
$SURFTYPE
 70
     6
  9
$SURFU
 70
     6
  9
$SURFV
 70
     6
  9
$UCSNAME
  2

  9
$UCSORG
 10
0.0
 20
0.0
 30
0.0
  9
$UCSXDIR
 10
1.0
 20
0.0
 30
0.0
  9
$UCSYDIR
 10
0.0
 20
1.0
 30
0.0
  9
$PUCSNAME
  2

  9
$PUCSORG
 10
0.0
 20
0.0
 30
0.0
  9
$PUCSXDIR
 10
1.0
 20
0.0
 30
0.0
  9
$PUCSYDIR
 10
0.0
 20
1.0
 30
0.0
  9
$USERI1
 70
     0
  9
$USERI2
 70
     1
  9
$USERI3
 70
     0
  9
$USERI4
 70
     0
  9
$USERI5
 70
     0
  9
$USERR1
 40
0.0
  9
$USERR2
 40
0.0
  9
$USERR3
 40
0.0
  9
$USERR4
 40
0.0
  9
$USERR5
 40
0.0
  9
$WORLDVIEW
 70
     1
  9
$SHADEDGE
 70
     3
  9
$SHADEDIF
 70
    70
  9
$TILEMODE
 70
     1
  9
$MAXACTVP
 70
    16
  9
$PLIMCHECK
 70
     0
  9
$PEXTMIN
 10
1.0000000000000000E+20
 20
1.0000000000000000E+20
 30
1.0000000000000000E+20
  9
$PEXTMAX
 10
-1.0000000000000000E+20
 20
-1.0000000000000000E+20
 30
-1.0000000000000000E+20
  9
$PLIMMIN
 10
0.0
 20
0.0
  9
$PLIMMAX
 10
12.0
 20
9.0
  9
$UNITMODE
 70
     0
  9
$VISRETAIN
 70
     0
  9
$PLINEGEN
 70
     0
  9
$PSLTSCALE
 70
     0
  0
ENDSEC
  0
SECTION
  2
TABLES
  0
TABLE
  2
VPORT
 70
     1
  0
VPORT
  2
*ACTIVE
 70
     0
 10
0.0
 20
0.0
 11
1.0
 21
1.0
 12
126.0130544953907048
 22
81.0182604357398191
 13
0.0
 23
0.0
 14
10.0
 24
10.0
 15
10.0
 25
10.0
 16
0.0
 26
0.0
 36
1.0
 17
0.0
 27
0.0
 37
0.0
 40
169.2882839755108932
 41
2.3485221674876842
 42
50.0
 43
0.0
 44
0.0
 50
0.0
 51
0.0
 71
     0
 72
   500
 73
     1
 74
     0
 75
     0
 76
     0
 77
     0
 78
     2
  0
ENDTAB
  0
TABLE
  2
LTYPE
 70
     5
  0
LTYPE
  2
CONTINUOUS
 70
     0
  3
Solid Line
 72
    65
 73
     0
 40
0.0
  0
LTYPE
  2
CENTER
 70
     0
  3
____ _ ____ _ ____ _ ____ _ ____ _ ____ _ ____
 72
    65
 73
     4
 40
2.0
 49
1.25
 49
-0.25
 49
0.25
 49
-0.25
  0
LTYPE
  2
HIDDEN
 70
     0
  3
_ _ _ _ _ _ _ _ _ _ _ _ _ _ _ _ _ _ _ _ _ _ _
 72
    65
 73
     2
 40
0.375
 49
0.25
 49
-0.125
  0
LTYPE
  2
PHANTOM
 70
     0
  3
_____ _ _ _____ _ _ _____ _ _ _____ _ _ ____
 72
    65
 73
     6
 40
2.5
 49
1.25
 49
-0.25
 49
0.25
 49
-0.25
 49
0.25
 49
-0.25
  0
LTYPE
  2
PHANTOM2
 70
     0
  3
___ _ _ ___ _ _ ___ _ _ ___ _ _
 72
    65
 73
     6
 40
1.25
 49
0.625
 49
-0.125
 49
0.125
 49
-0.125
 49
0.125
 49
-0.125
  0
ENDTAB
  0
TABLE
  2
LAYER
 70
     7
  0
LAYER
  2
0
 70
     0
 62
     7
  6
CONTINUOUS
  0
LAYER
  2
1
 70
     0
 62
     1
  6
CENTER
  0
LAYER
  2
3
 70
     0
 62
     3
  6
CONTINUOUS
  0
LAYER
  2
2
 70
     0
 62
     2
  6
HIDDEN
  0
LAYER
  2
5
 70
     0
 62
     3
  6
PHANTOM
  0
LAYER
  2
DEFPOINTS
 70
     0
 62
     7
  6
CONTINUOUS
  0
LAYER
  2
4
 70
     0
 62
     4
  6
CONTINUOUS
  0
ENDTAB
  0
TABLE
  2
STYLE
 70
     2
  0
STYLE
  2
STANDARD
 70
     0
 40
0.0
 41
1.0
 50
0.0
 71
     0
 42
4.000000000000048
  3
SIMPLEX
  4
BIGFONT
  0
STYLE
  2
STANDARD1
 70
     0
 40
0.0
 41
1.0
 50
0.0
 71
     0
 42
3.0
  3
txt
  4

  0
ENDTAB
  0
TABLE
  2
VIEW
 70
     1
  0
VIEW
  2
ALL
 70
     0
 40
270.0
 10
220.785953177257511
 20
135.0
 41
441.571906354515022
 11
0.0
 21
0.0
 31
1.0
 12
0.0
 22
0.0
 32
0.0
 42
50.0
 43
0.0
 44
0.0
 50
0.0
 71
     0
  0
ENDTAB
  0
TABLE
  2
UCS
 70
     0
  0
ENDTAB
  0
TABLE
  2
APPID
 70
     8
  0
APPID
  2
ACAD
 70
     0
  0
APPID
  2
ACAD_EXEMPT_FROM_CAD_STANDARDS
 70
     0
  0
APPID
  2
ACAD_MLEADERVER
 70
     0
  0
APPID
  2
ACAD_NAV_VCDISPLAY
 70
     0
  0
APPID
  2
ACAD_DSTYLE_DIMJAG
 70
     0
  0
APPID
  2
ACAD_DSTYLE_DIMTALN
 70
     0
  0
APPID
  2
ACAECLAYERSTANDARD
 70
     0
  0
APPID
  2
ACCMTRANSPARENCY
 70
     0
  0
ENDTAB
  0
TABLE
  2
DIMSTYLE
 70
     2
  0
DIMSTYLE
  2
STANDARD
 70
     0
  3

  4

  5

  6

  7

 40
1.0
 41
0.18
 42
0.0625
 43
0.38
 44
0.18
 45
0.0
 46
0.0
 47
0.0
 48
0.0
140
0.18
141
0.09
142
0.0
143
25.3999999999999986
144
1.0
145
0.0
146
1.0
147
0.09
 71
     0
 72
     0
 73
     1
 74
     1
 75
     0
 76
     0
 77
     0
 78
     0
170
     0
171
     2
172
     0
173
     0
174
     0
175
     0
176
     0
177
     0
178
     0
  0
DIMSTYLE
  2
ISO-25
 70
     0
  3

  4

  5

  6

  7

 40
1.0
 41
2.5
 42
0.625
 43
3.75
 44
1.25
 45
0.0
 46
0.0
 47
0.0
 48
0.0
140
2.5
141
2.5
142
0.0
143
0.03937007874016
144
1.0
145
0.0
146
1.0
147
0.625
 71
     0
 72
     0
 73
     0
 74
     0
 75
     0
 76
     0
 77
     1
 78
     8
170
     0
171
     3
172
     1
173
     0
174
     0
175
     0
176
     0
177
     0
178
     0
  0
ENDTAB
  0
ENDSEC
  0
SECTION
  2
BLOCKS
  0
BLOCK
  8
0
  2
$MODEL_SPACE
 70
     0
 10
0.0
 20
0.0
 30
0.0
  3
$MODEL_SPACE
  1

  0
ENDBLK
  5
1126
  8
0
  0
BLOCK
 67
     1
  8
0
  2
$PAPER_SPACE
 70
     0
 10
0.0
 20
0.0
 30
0.0
  3
$PAPER_SPACE
  1

  0
ENDBLK
  5
1124
 67
     1
  8
0
  0
ENDSEC
  0
SECTION
  2
ENTITIES
  0
TEXT
  5
5088
  8
0
 62
     3
 10
0.0
 20
0.0
 30
0.0
 40
10.0
  1
QCPSC0828-14
  7
STANDARD1
  0
CIRCLE
  5
55E6
  8
0
 10
85.9999999999999432
 20
74.0
 30
0.0
 40
3.5
  0
CIRCLE
  5
55E7
  8
0
 10
72.0
 20
72.0
 30
0.0
 40
7.0
  0
ARC
  5
55E8
  8
0
 10
72.0
 20
74.0
 30
0.0
 40
20.0000000000000284
 50
146.6329870307671115
 51
33.3670129692329169
  0
CIRCLE
  5
55E9
  8
0
 10
57.9999999999999432
 20
74.0
 30
0.0
 40
3.5
  0
LINE
  5
55EA
  8
0
 10
55.2967069115099434
 20
85.0000000000000568
 30
0.0
 11
88.7032930884900566
 21
85.0000000000000568
 31
0.0
  0
CIRCLE
  5
55EB
  8
0
 10
85.9999999999999432
 20
74.0
 30
0.0
 40
2.75
  0
LINE
  5
55EC
  8
0
 10
85.9999999999999432
 20
75.4433756729741276
 30
0.0
 11
84.7499999999999432
 21
74.7216878364870354
 31
0.0
  0
LINE
  5
55ED
  8
0
 10
84.7499999999999432
 20
74.7216878364870354
 30
0.0
 11
84.7499999999999432
 21
73.2783121635130215
 31
0.0
  0
LINE
  5
55EE
  8
0
 10
84.7499999999999432
 20
73.2783121635130215
 30
0.0
 11
85.9999999999999432
 21
72.5566243270259861
 31
0.0
  0
LINE
  5
55EF
  8
0
 10
85.9999999999999432
 20
72.5566243270259861
 30
0.0
 11
87.2499999999997868
 21
73.2783121635130215
 31
0.0
  0
LINE
  5
55F0
  8
0
 10
87.2499999999997868
 20
73.2783121635130215
 30
0.0
 11
87.2499999999997868
 21
74.7216878364870354
 31
0.0
  0
LINE
  5
55F1
  8
0
 10
87.2499999999997868
 20
74.7216878364870354
 30
0.0
 11
85.9999999999999432
 21
75.4433756729741276
 31
0.0
  0
CIRCLE
  5
55F2
  8
0
 10
57.9999999999999432
 20
74.0
 30
0.0
 40
2.75
  0
LINE
  5
55F3
  8
0
 10
57.9999999999999432
 20
75.4433756729741276
 30
0.0
 11
56.7499999999998224
 21
74.7216878364870354
 31
0.0
  0
LINE
  5
55F4
  8
0
 10
59.2499999999999432
 20
74.7216878364870354
 30
0.0
 11
57.9999999999999432
 21
75.4433756729741276
 31
0.0
  0
LINE
  5
55F5
  8
0
 10
57.9999999999999432
 20
72.5566243270259861
 30
0.0
 11
59.2499999999999432
 21
73.2783121635130215
 31
0.0
  0
LINE
  5
55F6
  8
0
 10
59.2499999999999432
 20
73.2783121635130215
 30
0.0
 11
59.2499999999999432
 21
74.7216878364870354
 31
0.0
  0
LINE
  5
55F7
  8
0
 10
56.7499999999998224
 20
73.2783121635130215
 30
0.0
 11
57.9999999999999432
 21
72.5566243270259861
 31
0.0
  0
LINE
  5
55F8
  8
0
 10
56.7499999999998224
 20
74.7216878364870354
 30
0.0
 11
56.7499999999998224
 21
73.2783121635130215
 31
0.0
  0
LINE
  5
55F9
  8
0
 10
143.9999999999998863
 20
54.0
 30
0.0
 11
164.0
 21
54.0000000000001066
 31
0.0
  0
LINE
  5
55FA
  8
0
 10
164.0
 20
72.5000000000000568
 30
0.0
 11
168.0000000000001137
 21
72.5000000000001137
 31
0.0
  0
LINE
  5
55FB
  8
0
 10
168.0000000000001137
 20
75.5000000000001137
 30
0.0
 11
164.0
 21
75.5000000000000568
 31
0.0
  0
LINE
  5
55FC
  8
0
 10
143.9999999999998863
 20
85.0000000000000568
 30
0.0
 11
144.0
 21
53.9999999999999503
 31
0.0
  0
LINE
  5
55FD
  8
0
 10
143.9999999999998863
 20
85.0000000000000568
 30
0.0
 11
164.0
 21
85.0000000000000568
 31
0.0
  0
LINE
  5
55FE
  8
0
 10
164.0
 20
54.0000000000000497
 30
0.0
 11
164.0
 21
85.0000000000000568
 31
0.0
  0
LINE
  5
55FF
  8
0
 10
168.0000000000001137
 20
72.5000000000001137
 30
0.0
 11
168.0000000000001137
 21
75.5000000000001137
 31
0.0
  0
LINE
  5
5600
  8
0
 10
51.9999999999997726
 20
158.0000007599591072
 30
0.0
 11
51.9999999999999432
 21
138.0000007599589935
 31
0.0
  0
LINE
  5
5601
  8
0
 10
91.9999999999999289
 20
138.0000007599593062
 30
0.0
 11
91.9999999999998295
 21
158.0000007599593062
 31
0.0
  0
LINE
  5
5602
  8
0
 10
87.4999999999998437
 20
158.0000007599591925
 30
0.0
 11
87.4999999999998437
 21
162.0000007599593062
 31
0.0
  0
LINE
  5
5603
  8
0
 10
84.4999999999998295
 20
162.0000007599593062
 30
0.0
 11
84.4999999999998863
 21
158.0000007599591925
 31
0.0
  0
LINE
  5
5604
  8
0
 10
59.4999999999998295
 20
158.0000007599591072
 30
0.0
 11
59.4999999999997726
 21
162.0000007599591072
 31
0.0
  0
LINE
  5
5605
  8
0
 10
56.4999999999997726
 20
162.0000007599591072
 30
0.0
 11
56.4999999999998295
 21
158.0000007599589935
 31
0.0
  0
LINE
  5
5606
  8
0
 10
51.9999999999998792
 20
138.0000007599591925
 30
0.0
 11
91.9999999999999289
 21
138.0000007599591925
 31
0.0
  0
LINE
  5
5607
  8
0
 10
55.2967069115099434
 20
138.0000007599591925
 30
0.0
 11
55.2967069115097729
 21
158.0000007599591072
 31
0.0
  0
LINE
  5
5608
  8
0
 10
91.9999999999997158
 20
158.0000007599593062
 30
0.0
 11
51.9999999999997726
 21
158.0000007599591925
 31
0.0
  0
LINE
  5
5609
  8
0
 10
88.7032930884900566
 20
138.0000007599591925
 30
0.0
 11
88.703293088489886
 21
158.0000007599593062
 31
0.0
  0
CIRCLE
  5
560A
  8
0
 10
71.9999999999998863
 20
148.0000007599591925
 30
0.0
 40
7.349999999999965
  0
CIRCLE
  5
560B
  8
3
 10
82.9999999999998153
 20
148.0000007599591925
 30
0.0
 40
1.0
  0
CIRCLE
  5
560C
  8
3
 10
60.9999999999997726
 20
148.0000007599591072
 30
0.0
 40
1.0
  0
LINE
  5
560D
  8
0
 10
64.9999999999997726
 20
150.2410942430605871
 30
0.0
 11
64.9999999999998863
 21
145.7589072768577125
 31
0.0
  0
LINE
  5
560E
  8
0
 10
78.9999999999999432
 20
145.7589072768577125
 30
0.0
 11
78.9999999999998295
 21
150.2410942430607008
 31
0.0
  0
LINE
  5
560F
  8
0
 10
87.4999999999998437
 20
162.0000007599593062
 30
0.0
 11
84.4999999999998295
 21
162.0000007599593062
 31
0.0
  0
LINE
  5
5610
  8
0
 10
59.4999999999997726
 20
162.0000007599591072
 30
0.0
 11
56.4999999999997726
 21
162.0000007599591072
 31
0.0
  0
CIRCLE
  5
5611
  8
0
 10
82.9999999999998863
 20
148.0000007599593062
 30
0.0
 40
0.7835
  0
CIRCLE
  5
5612
  8
0
 10
60.9999999999999432
 20
148.0000007599591925
 30
0.0
 40
0.7835
  0
LINE
  5
5613
  8
3
 10
59.2294999999999732
 20
158.0000007599591925
 30
0.0
 11
59.2294999999999234
 21
162.0000007599591925
 31
0.0
  0
LINE
  5
5614
  8
3
 10
56.77049999999997
 20
158.0000007599591925
 30
0.0
 11
56.7704999999999131
 21
162.0000007599591925
 31
0.0
  0
LINE
  5
5615
  8
1
 10
57.9999999999999432
 20
165.0000007599591925
 30
0.0
 11
57.9999999999999432
 21
135.0000007599593062
 31
0.0
  0
LINE
  5
5616
  8
1
 10
60.9999999999999432
 20
152.0000007599591925
 30
0.0
 11
60.9999999999999432
 21
144.0000007599591925
 31
0.0
  0
LINE
  5
5617
  8
1
 10
82.9999999999998863
 20
152.0000007599593062
 30
0.0
 11
82.9999999999998863
 21
144.0000007599593062
 31
0.0
  0
LINE
  5
5618
  8
1
 10
72.0000000000001137
 20
133.0000007599593062
 30
0.0
 11
71.9999999999998863
 21
163.0000007599591925
 31
0.0
  0
LINE
  5
5619
  8
1
 10
56.9999999999999432
 20
148.0000007599591925
 30
0.0
 11
86.9999999999998863
 21
148.0000007599593062
 31
0.0
  0
LINE
  5
561A
  8
3
 10
84.7704999999999558
 20
158.0000007599593914
 30
0.0
 11
84.7704999999999131
 21
162.0000007599595051
 31
0.0
  0
LINE
  5
561B
  8
3
 10
87.2294999999999732
 20
158.0000007599595051
 30
0.0
 11
87.2294999999999163
 21
162.0000007599595904
 31
0.0
  0
LINE
  5
561C
  8
1
 10
85.9999999999998295
 20
165.0000007599595051
 30
0.0
 11
86.0000000000005116
 21
135.0000007599595904
 31
0.0
  0
LINE
  5
561D
  8
1
 10
82.0
 20
72.0
 30
0.0
 11
62.0
 21
72.0
 31
0.0
  0
LINE
  5
561E
  8
1
 10
72.0
 20
90.0000000000000568
 30
0.0
 11
71.9999999999999432
 21
48.9999999999999503
 31
0.0
  0
LINE
  5
561F
  8
1
 10
51.4999999999999503
 20
74.0
 30
0.0
 11
64.4999999999999432
 21
74.0
 31
0.0
  0
LINE
  5
5620
  8
1
 10
57.9999999999999432
 20
80.5
 30
0.0
 11
57.9999999999999432
 21
67.5
 31
0.0
  0
LINE
  5
5621
  8
1
 10
85.9999999999999432
 20
67.5
 30
0.0
 11
85.9999999999999432
 21
80.5
 31
0.0
  0
LINE
  5
5622
  8
1
 10
93.2285726143957163
 20
74.0
 30
0.0
 11
79.4999999999999432
 21
74.0
 31
0.0
  0
LINE
  5
5623
  8
1
 10
154.0
 20
90.0000000000000568
 30
0.0
 11
153.9999999999998863
 21
48.9999999999999503
 31
0.0
  0
LINE
  5
5624
  8
3
 10
163.999999999999801
 20
75.22950000000003
 30
0.0
 11
167.9999999999998863
 21
75.2295000000000869
 31
0.0
  0
LINE
  5
5625
  8
3
 10
163.9999999999998863
 20
72.7705000000000837
 30
0.0
 11
168.0
 21
72.7705000000000837
 31
0.0
  0
LINE
  5
5626
  8
1
 10
170.9999999999998863
 20
74.0000000000001705
 30
0.0
 11
141.0
 21
73.9999999999995453
 31
0.0
  0
LINE
  5
5627
  8
2
 10
81.9999999999997726
 20
81.0000000000000568
 30
0.0
 11
83.9999999999997726
 21
81.0000000000000568
 31
0.0
  0
LINE
  5
5628
  8
2
 10
81.9999999999997726
 20
85.0000000000000568
 30
0.0
 11
81.9999999999997726
 21
81.0000000000000568
 31
0.0
  0
LINE
  5
5629
  8
2
 10
83.9999999999997726
 20
81.0000000000000568
 30
0.0
 11
83.9999999999997726
 21
85.0000000000000568
 31
0.0
  0
LINE
  5
562A
  8
2
 10
83.7834999999997763
 20
81.0000000000000568
 30
0.0
 11
83.7834999999997763
 21
85.0000000000000568
 31
0.0
  0
LINE
  5
562B
  8
2
 10
82.216499999999769
 20
81.0000000000000568
 30
0.0
 11
82.216499999999769
 21
85.0000000000000568
 31
0.0
  0
LINE
  5
562C
  8
1
 10
82.9999999999997726
 20
78.0000000000000568
 30
0.0
 11
82.9999999999997726
 21
88.0000000000000568
 31
0.0
  0
LINE
  5
562D
  8
2
 10
62.0000000000002274
 20
85.0000000000000568
 30
0.0
 11
62.0000000000001705
 21
81.0000000000000568
 31
0.0
  0
LINE
  5
562E
  8
2
 10
60.0000000000002274
 20
81.0000000000000568
 30
0.0
 11
60.0000000000002274
 21
85.0000000000000568
 31
0.0
  0
LINE
  5
562F
  8
2
 10
60.21650000000011
 20
81.0000000000000568
 30
0.0
 11
60.21650000000011
 21
85.0000000000000568
 31
0.0
  0
LINE
  5
5630
  8
2
 10
61.7835000000001173
 20
81.0000000000000568
 30
0.0
 11
61.7835000000001173
 21
85.0000000000000568
 31
0.0
  0
LINE
  5
5631
  8
1
 10
61.0000000000002203
 20
78.0000000000000568
 30
0.0
 11
61.0000000000002203
 21
88.0000000000000568
 31
0.0
  0
LINE
  5
5632
  8
2
 10
62.0000000000002274
 20
81.0000000000000568
 30
0.0
 11
60.0000000000002274
 21
81.0000000000000568
 31
0.0
  0
LINE
  5
5633
  8
2
 10
64.6499999999999204
 20
85.0000000000000568
 30
0.0
 11
64.6499999999999204
 21
72.0
 31
0.0
  0
LINE
  5
5634
  8
2
 10
79.3500000000000227
 20
85.0000000000000568
 30
0.0
 11
79.3499999999999659
 21
72.0
 31
0.0
  0
LINE
  5
5635
  8
2
 10
79.3499999999999659
 20
72.0
 30
0.0
 11
79.0
 21
72.0
 31
0.0
  0
LINE
  5
5636
  8
2
 10
64.6500000000000341
 20
72.0
 30
0.0
 11
65.0
 21
72.0
 31
0.0
  0
LINE
  5
5637
  8
2
 10
61.5
 20
142.0000007599591072
 30
0.0
 11
54.5
 21
142.0000007599589935
 31
0.0
  0
LINE
  5
5638
  8
2
 10
60.75
 20
139.0000007599591072
 30
0.0
 11
55.25
 21
139.0000007599589935
 31
0.0
  0
LINE
  5
5639
  8
2
 10
61.5
 20
138.0000007599591072
 30
0.0
 11
61.5
 21
142.0000007599591072
 31
0.0
  0
LINE
  5
563A
  8
2
 10
54.5
 20
142.0000007599589935
 30
0.0
 11
54.5
 21
138.0000007599589935
 31
0.0
  0
LINE
  5
563B
  8
2
 10
55.25
 20
142.0000007599589935
 30
0.0
 11
55.25
 21
139.0000007599589935
 31
0.0
  0
LINE
  5
563C
  8
2
 10
60.75
 20
139.0000007599591072
 30
0.0
 11
60.75
 21
142.0000007599591072
 31
0.0
  0
LINE
  5
563D
  8
2
 10
59.75
 20
142.0000007599589935
 30
0.0
 11
59.75
 21
158.0000007599591925
 31
0.0
  0
LINE
  5
563E
  8
2
 10
56.25
 20
158.0000007599591072
 30
0.0
 11
56.25
 21
142.0000007599589935
 31
0.0
  0
LINE
  5
563F
  8
2
 10
59.5
 20
142.0000007599589935
 30
0.0
 11
59.5
 21
158.0000007599591925
 31
0.0
  0
LINE
  5
5640
  8
2
 10
56.5
 20
158.0000007599591925
 30
0.0
 11
56.5
 21
142.0000007599589935
 31
0.0
  0
LINE
  5
5641
  8
2
 10
82.5
 20
142.0000007599591925
 30
0.0
 11
89.5000000000000142
 21
142.0000007599591925
 31
0.0
  0
LINE
  5
5642
  8
2
 10
83.2500000000000568
 20
139.0000007599591925
 30
0.0
 11
88.7500000000000568
 21
139.0000007599591925
 31
0.0
  0
LINE
  5
5643
  8
2
 10
82.5000000000000568
 20
138.0000007599591925
 30
0.0
 11
82.5
 21
142.0000007599591925
 31
0.0
  0
LINE
  5
5644
  8
2
 10
89.5000000000000142
 20
142.0000007599591925
 30
0.0
 11
89.5000000000000568
 21
138.0000007599591925
 31
0.0
  0
LINE
  5
5645
  8
2
 10
83.2500000000000568
 20
139.0000007599591925
 30
0.0
 11
83.2500000000000142
 21
142.0000007599591925
 31
0.0
  0
LINE
  5
5646
  8
2
 10
84.25
 20
142.0000007599591925
 30
0.0
 11
84.2499999999998863
 21
158.0000007599593062
 31
0.0
  0
LINE
  5
5647
  8
2
 10
87.7499999999998863
 20
158.0000007599593062
 30
0.0
 11
87.75
 21
142.0000007599591925
 31
0.0
  0
LINE
  5
5648
  8
2
 10
84.5000000000000142
 20
142.0000007599591925
 30
0.0
 11
84.4999999999998863
 21
158.0000007599593062
 31
0.0
  0
LINE
  5
5649
  8
2
 10
87.4999999999998863
 20
158.0000007599593062
 30
0.0
 11
87.5
 21
142.0000007599591925
 31
0.0
  0
LINE
  5
564A
  8
2
 10
64.9999999999997726
 20
150.2410942430605871
 30
0.0
 11
64.9999999999997158
 21
158.0000007599591925
 31
0.0
  0
LINE
  5
564B
  8
2
 10
64.9999999999998863
 20
145.7589072768577125
 30
0.0
 11
64.9999999999999432
 21
138.0000007599591925
 31
0.0
  0
LINE
  5
564C
  8
2
 10
79.0000000000003411
 20
150.2410942430603882
 30
0.0
 11
79.0000000000005684
 21
158.0000007599591072
 31
0.0
  0
LINE
  5
564D
  8
2
 10
79.0000000000001137
 20
145.7589072768575136
 30
0.0
 11
78.9999999999998863
 21
138.0000007599589935
 31
0.0
  0
LINE
  5
5651
  8
1
 10
169.0
 20
72.0000000000000142
 30
0.0
 11
139.0
 21
72.0000000000000142
 31
0.0
  0
LINE
  5
566D
  8
2
 10
59.2295000000007121
 20
143.5000007599589935
 30
0.0
 11
59.5
 21
143.0314810165129131
 31
0.0
  0
LINE
  5
566E
  8
2
 10
56.7704999999992879
 20
143.5000007599589935
 30
0.0
 11
56.5
 21
143.0314810165129131
 31
0.0
  0
LINE
  5
566F
  8
2
 10
56.5
 20
143.5000007599589935
 30
0.0
 11
59.5
 21
143.5000007599589935
 31
0.0
  0
LINE
  5
5679
  8
2
 10
87.2295000000007121
 20
143.5000007599591925
 30
0.0
 11
87.5
 21
143.0314810165131121
 31
0.0
  0
LINE
  5
567A
  8
2
 10
84.7704999999992879
 20
143.5000007599591925
 30
0.0
 11
84.5000000000000142
 21
143.0314810165131121
 31
0.0
  0
LINE
  5
567B
  8
2
 10
84.5000000000000142
 20
143.5000007599591925
 30
0.0
 11
87.5
 21
143.5000007599591925
 31
0.0
  0
LINE
  5
5684
  8
2
 10
56.7704999999999274
 20
158.0000007599595051
 30
0.0
 11
56.77049999999997
 21
143.5000007599589935
 31
0.0
  0
LINE
  5
5685
  8
2
 10
59.2294999999999305
 20
158.0000007599591925
 30
0.0
 11
59.2294999999999874
 21
143.5000007599589935
 31
0.0
  0
LINE
  5
568E
  8
2
 10
84.7704999999999558
 20
158.000000759960102
 30
0.0
 11
84.7705000000000268
 21
143.5000007599591925
 31
0.0
  0
LINE
  5
568F
  8
2
 10
87.2294999999999732
 20
158.000000759959903
 30
0.0
 11
87.2295000000000158
 21
143.5000007599591925
 31
0.0
  0
LINE
  5
569B
  8
2
 10
88.7500000000000568
 20
139.0000007599591925
 30
0.0
 11
88.75
 21
142.0000007599591925
 31
0.0
  0
ENDSEC
  0
EOF
