  0
SECTION
  2
HEADER
  9
$ACADVER
  1
AC1009
  9
$INSBASE
 10
0.0
 20
0.0
 30
0.0
  9
$EXTMIN
 10
0.0
 20
-2.960436562073669
 30
0.0
  9
$EXTMAX
 10
169.5
 20
163.50000075995919
 30
0.0
  9
$LIMMIN
 10
0.0
 20
0.0
  9
$LIMMAX
 10
375.0
 20
270.0
  9
$ORTHOMODE
 70
     1
  9
$REGENMODE
 70
     1
  9
$FILLMODE
 70
     1
  9
$QTEXTMODE
 70
     0
  9
$MIRRTEXT
 70
     0
  9
$DRAGMODE
 70
     2
  9
$LTSCALE
 40
5.0
  9
$OSMODE
 70
    37
  9
$ATTMODE
 70
     1
  9
$TEXTSIZE
 40
4.000000000000048
  9
$TRACEWID
 40
0.05
  9
$TEXTSTYLE
  7
STANDARD
  9
$CLAYER
  8
0
  9
$CELTYPE
  6
BYLAYER
  9
$CECOLOR
 62
   256
  9
$DIMSCALE
 40
1.0
  9
$DIMASZ
 40
3.0
  9
$DIMEXO
 40
2.0
  9
$DIMDLI
 40
0.38
  9
$DIMRND
 40
0.0
  9
$DIMDLE
 40
0.0
  9
$DIMEXE
 40
2.0
  9
$DIMTP
 40
0.0
  9
$DIMTM
 40
0.0
  9
$DIMTXT
 40
3.2000000000000002
  9
$DIMCEN
 40
0.0
  9
$DIMTSZ
 40
0.0
  9
$DIMTOL
 70
     0
  9
$DIMLIM
 70
     0
  9
$DIMTIH
 70
     0
  9
$DIMTOH
 70
     0
  9
$DIMSE1
 70
     0
  9
$DIMSE2
 70
     0
  9
$DIMTAD
 70
     1
  9
$DIMZIN
 70
     8
  9
$DIMBLK
  1

  9
$DIMASO
 70
     0
  9
$DIMSHO
 70
     0
  9
$DIMPOST
  1

  9
$DIMAPOST
  1

  9
$DIMALT
 70
     0
  9
$DIMALTD
 70
     2
  9
$DIMALTF
 40
25.399999999999999
  9
$DIMLFAC
 40
1.0
  9
$DIMTOFL
 70
     0
  9
$DIMTVP
 40
1.6000000000000001
  9
$DIMTIX
 70
     1
  9
$DIMSOXD
 70
     0
  9
$DIMSAH
 70
     0
  9
$DIMBLK1
  1

  9
$DIMBLK2
  1

  9
$DIMSTYLE
  2
STANDARD
  9
$DIMCLRD
 70
     4
  9
$DIMCLRE
 70
     4
  9
$DIMCLRT
 70
     4
  9
$DIMTFAC
 40
1.0
  9
$DIMGAP
 40
0.09
  9
$LUNITS
 70
     2
  9
$LUPREC
 70
     1
  9
$SKETCHINC
 40
0.1
  9
$FILLETRAD
 40
22.0
  9
$AUNITS
 70
     0
  9
$AUPREC
 70
     0
  9
$MENU
  1
E:\r13\win\SUPPORT\ACAD
  9
$ELEVATION
 40
0.0
  9
$PELEVATION
 40
0.0
  9
$THICKNESS
 40
0.0
  9
$LIMCHECK
 70
     0
  9
$BLIPMODE
 70
     0
  9
$CHAMFERA
 40
1.1999999999999991
  9
$CHAMFERB
 40
1.1999999999999991
  9
$SKPOLY
 70
     0
  9
$TDCREATE
 40
2449954.6020138888
  9
$TDUPDATE
 40
2459814.6761381719
  9
$TDINDWG
 40
0.5532475694
  9
$TDUSRTIMER
 40
0.5532475694
  9
$USRTIMER
 70
     1
  9
$ANGBASE
 50
0.0
  9
$ANGDIR
 70
     0
  9
$PDMODE
 70
     0
  9
$PDSIZE
 40
0.0
  9
$PLINEWID
 40
0.0
  9
$COORDS
 70
     1
  9
$SPLFRAME
 70
     0
  9
$SPLINETYPE
 70
     6
  9
$SPLINESEGS
 70
     8
  9
$ATTDIA
 70
     0
  9
$ATTREQ
 70
     1
  9
$HANDLING
 70
     1
  9
$HANDSEED
  5
53B6
  9
$SURFTAB1
 70
     6
  9
$SURFTAB2
 70
     6
  9
$SURFTYPE
 70
     6
  9
$SURFU
 70
     6
  9
$SURFV
 70
     6
  9
$UCSNAME
  2

  9
$UCSORG
 10
0.0
 20
0.0
 30
0.0
  9
$UCSXDIR
 10
1.0
 20
0.0
 30
0.0
  9
$UCSYDIR
 10
0.0
 20
1.0
 30
0.0
  9
$PUCSNAME
  2

  9
$PUCSORG
 10
0.0
 20
0.0
 30
0.0
  9
$PUCSXDIR
 10
1.0
 20
0.0
 30
0.0
  9
$PUCSYDIR
 10
0.0
 20
1.0
 30
0.0
  9
$USERI1
 70
     0
  9
$USERI2
 70
     1
  9
$USERI3
 70
     0
  9
$USERI4
 70
     0
  9
$USERI5
 70
     0
  9
$USERR1
 40
0.0
  9
$USERR2
 40
0.0
  9
$USERR3
 40
0.0
  9
$USERR4
 40
0.0
  9
$USERR5
 40
0.0
  9
$WORLDVIEW
 70
     1
  9
$SHADEDGE
 70
     3
  9
$SHADEDIF
 70
    70
  9
$TILEMODE
 70
     1
  9
$MAXACTVP
 70
    16
  9
$PLIMCHECK
 70
     0
  9
$PEXTMIN
 10
1.0000000000000000E+020
 20
1.0000000000000000E+020
 30
1.0000000000000000E+020
  9
$PEXTMAX
 10
-1.0000000000000000E+020
 20
-1.0000000000000000E+020
 30
-1.0000000000000000E+020
  9
$PLIMMIN
 10
0.0
 20
0.0
  9
$PLIMMAX
 10
12.0
 20
9.0
  9
$UNITMODE
 70
     0
  9
$VISRETAIN
 70
     0
  9
$PLINEGEN
 70
     0
  9
$PSLTSCALE
 70
     0
  0
ENDSEC
  0
SECTION
  2
TABLES
  0
TABLE
  2
VPORT
 70
     1
  0
VPORT
  2
*ACTIVE
 70
     0
 10
0.0
 20
0.0
 11
1.0
 21
1.0
 12
241.5050141257494
 22
100.0
 13
0.0
 23
0.0
 14
10.0
 24
10.0
 15
10.0
 25
10.0
 16
0.0
 26
0.0
 36
1.0
 17
0.0
 27
0.0
 37
0.0
 40
200.07703582780499
 41
2.4148802017654472
 42
50.0
 43
0.0
 44
0.0
 50
0.0
 51
0.0
 71
     0
 72
   500
 73
     1
 74
     0
 75
     0
 76
     0
 77
     0
 78
     2
  0
ENDTAB
  0
TABLE
  2
LTYPE
 70
     5
  0
LTYPE
  2
CONTINUOUS
 70
     0
  3
Solid Line
 72
    65
 73
     0
 40
0.0
  0
LTYPE
  2
CENTER
 70
     0
  3
____ _ ____ _ ____ _ ____ _ ____ _ ____ _ ____
 72
    65
 73
     4
 40
2.0
 49
1.25
 49
-0.25
 49
0.25
 49
-0.25
  0
LTYPE
  2
HIDDEN
 70
     0
  3
_ _ _ _ _ _ _ _ _ _ _ _ _ _ _ _ _ _ _ _ _ _ _
 72
    65
 73
     2
 40
0.375
 49
0.25
 49
-0.125
  0
LTYPE
  2
PHANTOM
 70
     0
  3
_____ _ _ _____ _ _ _____ _ _ _____ _ _ ____
 72
    65
 73
     6
 40
2.5
 49
1.25
 49
-0.25
 49
0.25
 49
-0.25
 49
0.25
 49
-0.25
  0
LTYPE
  2
PHANTOM2
 70
     0
  3
___ _ _ ___ _ _ ___ _ _ ___ _ _
 72
    65
 73
     6
 40
1.25
 49
0.625
 49
-0.125
 49
0.125
 49
-0.125
 49
0.125
 49
-0.125
  0
ENDTAB
  0
TABLE
  2
LAYER
 70
     7
  0
LAYER
  2
0
 70
     0
 62
     7
  6
CONTINUOUS
  0
LAYER
  2
1
 70
     0
 62
     1
  6
CENTER
  0
LAYER
  2
3
 70
     0
 62
     3
  6
CONTINUOUS
  0
LAYER
  2
2
 70
     0
 62
     2
  6
HIDDEN
  0
LAYER
  2
5
 70
     0
 62
     3
  6
PHANTOM
  0
LAYER
  2
DEFPOINTS
 70
     0
 62
     7
  6
CONTINUOUS
  0
LAYER
  2
4
 70
     0
 62
     4
  6
CONTINUOUS
  0
ENDTAB
  0
TABLE
  2
STYLE
 70
     2
  0
STYLE
  2
STANDARD
 70
     0
 40
0.0
 41
1.0
 50
0.0
 71
     0
 42
4.000000000000048
  3
SIMPLEX
  4
BIGFONT
  0
STYLE
  2
STANDARD1
 70
     0
 40
0.0
 41
1.0
 50
0.0
 71
     0
 42
3.0
  3
txt
  4

  0
ENDTAB
  0
TABLE
  2
VIEW
 70
     1
  0
VIEW
  2
ALL
 70
     0
 40
270.0
 10
220.78595317725751
 20
135.0
 41
441.57190635451502
 11
0.0
 21
0.0
 31
1.0
 12
0.0
 22
0.0
 32
0.0
 42
50.0
 43
0.0
 44
0.0
 50
0.0
 71
     0
  0
ENDTAB
  0
TABLE
  2
UCS
 70
     0
  0
ENDTAB
  0
TABLE
  2
APPID
 70
     8
  0
APPID
  2
ACAD
 70
     0
  0
APPID
  2
ACAD_EXEMPT_FROM_CAD_STANDARDS
 70
     0
  0
APPID
  2
ACAD_MLEADERVER
 70
     0
  0
APPID
  2
ACAD_NAV_VCDISPLAY
 70
     0
  0
APPID
  2
ACAD_DSTYLE_DIMJAG
 70
     0
  0
APPID
  2
ACAD_DSTYLE_DIMTALN
 70
     0
  0
APPID
  2
ACAECLAYERSTANDARD
 70
     0
  0
APPID
  2
ACCMTRANSPARENCY
 70
     0
  0
ENDTAB
  0
TABLE
  2
DIMSTYLE
 70
     1
  0
DIMSTYLE
  2
STANDARD
 70
     0
  3

  4

  5

  6

  7

 40
1.0
 41
0.18
 42
0.0625
 43
0.38
 44
0.18
 45
0.0
 46
0.0
 47
0.0
 48
0.0
140
0.18
141
0.09
142
0.0
143
25.399999999999999
144
1.0
145
0.0
146
1.0
147
0.09
 71
     0
 72
     0
 73
     1
 74
     1
 75
     0
 76
     0
 77
     0
 78
     0
170
     0
171
     2
172
     0
173
     0
174
     0
175
     0
176
     0
177
     0
178
     0
  0
ENDTAB
  0
ENDSEC
  0
SECTION
  2
BLOCKS
  0
BLOCK
  8
0
  2
$MODEL_SPACE
 70
     0
 10
0.0
 20
0.0
 30
0.0
  3
$MODEL_SPACE
  1

  0
ENDBLK
  5
1126
  8
0
  0
BLOCK
 67
     1
  8
0
  2
$PAPER_SPACE
 70
     0
 10
0.0
 20
0.0
 30
0.0
  3
$PAPER_SPACE
  1

  0
ENDBLK
  5
1124
 67
     1
  8
0
  0
ENDSEC
  0
SECTION
  2
ENTITIES
  0
LINE
  5
46F0
  8
0
 10
55.999999240040779
 20
73.443375716917217
 30
0.0
 11
57.249999910593033
 21
72.721687858458608
 31
0.0
  0
CIRCLE
  5
46F1
  8
0
 10
56.0
 20
72.0
 30
0.0
 40
2.75
  0
LINE
  5
46F2
  8
0
 10
57.249999910593033
 20
71.278312141541392
 30
0.0
 11
57.249999910593033
 21
72.721687858458608
 31
0.0
  0
LINE
  5
46F3
  8
0
 10
55.999999240040779
 20
70.556624283082783
 30
0.0
 11
57.249999910593033
 21
71.278312141541392
 31
0.0
  0
LINE
  5
46F4
  8
0
 10
55.999999240040779
 20
70.556624283082783
 30
0.0
 11
54.750000432133668
 21
71.278312141541392
 31
0.0
  0
LINE
  5
46F5
  8
0
 10
55.999999240040779
 20
73.443375716917217
 30
0.0
 11
54.750000432133668
 21
72.721687858458608
 31
0.0
  0
LINE
  5
46F6
  8
0
 10
54.750000432133668
 20
72.721687858458608
 30
0.0
 11
54.750000432133668
 21
71.278312141541392
 31
0.0
  0
LINE
  5
46F7
  8
0
 10
88.000000759959235
 20
73.443375716917217
 30
0.0
 11
89.249999567866325
 21
72.721687858458608
 31
0.0
  0
CIRCLE
  5
46F8
  8
0
 10
88.0
 20
72.0
 30
0.0
 40
2.75
  0
LINE
  5
46F9
  8
0
 10
89.249999567866325
 20
71.278312141541392
 30
0.0
 11
89.249999567866325
 21
72.721687858458608
 31
0.0
  0
LINE
  5
46FA
  8
0
 10
88.000000759959235
 20
70.556624283082783
 30
0.0
 11
89.249999567866325
 21
71.278312141541392
 31
0.0
  0
LINE
  5
46FB
  8
0
 10
88.000000759959235
 20
70.556624283082783
 30
0.0
 11
86.750000089406967
 21
71.278312141541392
 31
0.0
  0
LINE
  5
46FC
  8
0
 10
88.000000759959235
 20
73.443375716917217
 30
0.0
 11
86.750000089406967
 21
72.721687858458608
 31
0.0
  0
LINE
  5
46FD
  8
0
 10
86.750000089406967
 20
72.721687858458608
 30
0.0
 11
86.750000089406967
 21
71.278312141541392
 31
0.0
  0
CIRCLE
  5
46FF
  8
0
 10
88.0
 20
72.0
 30
0.0
 40
3.5
  0
CIRCLE
  5
4701
  8
0
 10
56.0
 20
71.999999999999986
 30
0.0
 40
3.5
  0
CIRCLE
  5
4705
  8
0
 10
72.0
 20
72.0
 30
0.0
 40
10.0
  0
LINE
  5
4707
  8
0
 10
56.900331124663353
 20
88.000000759959235
 30
0.0
 11
87.099668875336647
 21
88.000000759959235
 31
0.0
  0
ARC
  5
4709
  8
0
 10
72.0
 20
72.0
 30
0.0
 40
22.000000000000011
 50
133.34175822722341
 51
46.658241772776542
  0
LINE
  5
470B
  8
2
 10
60.199999555945389
 20
87.549999661743655
 30
0.0
 11
61.799999631941382
 21
87.549999661743655
 31
0.0
  0
LINE
  5
470D
  8
2
 10
82.200000368058696
 20
87.549999661743655
 30
0.0
 11
83.800000444054604
 21
87.549999661743655
 31
0.0
  0
LINE
  5
470F
  8
2
 10
60.199999555945389
 20
81.999999776482596
 30
0.0
 11
61.799999631941382
 21
81.999999776482596
 31
0.0
  0
LINE
  5
4711
  8
2
 10
82.200000368058696
 20
81.999999776482596
 30
0.0
 11
83.800000444054547
 21
81.999999776482596
 31
0.0
  0
LINE
  5
4716
  8
2
 10
79.350000087171793
 20
78.784939207136645
 30
0.0
 11
79.350000087171793
 21
88.000000759959235
 31
0.0
  0
LINE
  5
4717
  8
2
 10
64.649999912828207
 20
88.000000759959235
 30
0.0
 11
64.649999912828207
 21
78.781172007322326
 31
0.0
  0
LINE
  5
4718
  8
2
 10
59.750000320374959
 20
88.000000759959235
 30
0.0
 11
60.199999555945389
 21
87.549999661743655
 31
0.0
  0
LINE
  5
4719
  8
2
 10
61.799999631941319
 20
87.549999661743655
 30
0.0
 11
62.249999798834317
 21
88.000000759959235
 31
0.0
  0
LINE
  5
471A
  8
2
 10
81.750000201165676
 20
88.000000759959235
 30
0.0
 11
82.200000368058696
 21
87.549999661743655
 31
0.0
  0
LINE
  5
471B
  8
2
 10
83.800000444054604
 20
87.549999661743655
 30
0.0
 11
84.249999679625034
 21
88.000000759959235
 31
0.0
  0
LINE
  5
471C
  8
2
 10
60.199999555945389
 20
87.549999661743655
 30
0.0
 11
60.199999555945389
 21
81.999999776482596
 31
0.0
  0
LINE
  5
471D
  8
2
 10
61.799999631941319
 20
81.999999776482596
 30
0.0
 11
61.799999631941319
 21
87.549999661743655
 31
0.0
  0
LINE
  5
471E
  8
2
 10
82.200000368058696
 20
87.549999661743655
 30
0.0
 11
82.200000368058696
 21
81.999999776482596
 31
0.0
  0
LINE
  5
471F
  8
2
 10
83.800000444054604
 20
81.999999776482596
 30
0.0
 11
83.800000444054604
 21
87.549999661743655
 31
0.0
  0
LINE
  5
4720
  8
2
 10
60.199999555945389
 20
81.999999776482596
 30
0.0
 11
61.000000059604638
 21
81.519311599433436
 31
0.0
  0
LINE
  5
4721
  8
2
 10
61.000000059604638
 20
81.519311599433436
 30
0.0
 11
61.799999631941319
 21
81.999999776482596
 31
0.0
  0
LINE
  5
4722
  8
2
 10
82.200000368058696
 20
81.999999776482596
 30
0.0
 11
82.999999940395355
 21
81.519311599433436
 31
0.0
  0
LINE
  5
4723
  8
2
 10
82.999999940395355
 20
81.519311599433436
 30
0.0
 11
83.800000444054604
 21
81.999999776482596
 31
0.0
  0
LINE
  5
4724
  8
2
 10
60.000048269648971
 20
87.749951775682135
 30
0.0
 11
60.000048269648971
 21
83.999999999999986
 31
0.0
  0
LINE
  5
4725
  8
2
 10
60.000048269648971
 20
83.999999999999986
 30
0.0
 11
61.999951730351029
 21
83.999999999999986
 31
0.0
  0
LINE
  5
4726
  8
2
 10
61.999951730351029
 20
83.999999999999986
 30
0.0
 11
61.999951730351029
 21
87.749952173975217
 31
0.0
  0
LINE
  5
4727
  8
2
 10
82.000000109451832
 20
87.750000334272016
 30
0.0
 11
82.000000109451832
 21
83.999999999999986
 31
0.0
  0
LINE
  5
4728
  8
2
 10
82.000000109451832
 20
83.999999999999986
 30
0.0
 11
83.999999890548168
 21
83.999999999999986
 31
0.0
  0
LINE
  5
4729
  8
2
 10
83.999999890548168
 20
83.999999999999986
 30
0.0
 11
83.999999890548168
 21
87.749999936078609
 31
0.0
  0
LINE
  5
4736
  8
0
 10
144.5
 20
49.999999999999993
 30
0.0
 11
163.5
 21
49.999999999999993
 31
0.0
  0
LINE
  5
4737
  8
0
 10
163.5
 20
49.999999999999993
 30
0.0
 11
164.0
 21
50.499999999999979
 31
0.0
  0
LINE
  5
4738
  8
0
 10
144.0
 20
50.5
 30
0.0
 11
144.5
 21
49.999999999999993
 31
0.0
  0
LINE
  5
473C
  8
0
 10
144.5
 20
88.000000000000014
 30
0.0
 11
163.5
 21
88.000000000000014
 31
0.0
  0
LINE
  5
473E
  8
0
 10
163.5
 20
88.000000000000014
 30
0.0
 11
164.0
 21
87.500000000000014
 31
0.0
  0
LINE
  5
473F
  8
0
 10
164.0
 20
87.500000000000014
 30
0.0
 11
164.0
 21
50.499999999999979
 31
0.0
  0
LINE
  5
4740
  8
0
 10
144.0
 20
50.5
 30
0.0
 11
144.0
 21
87.499999999999986
 31
0.0
  0
LINE
  5
4741
  8
0
 10
144.0
 20
87.499999999999986
 30
0.0
 11
144.5
 21
88.000000000000014
 31
0.0
  0
LINE
  5
47B6
  8
0
 10
57.5
 20
158.00000075995919
 30
0.0
 11
57.5
 21
161.40000075995931
 31
0.0
  0
LINE
  5
47B7
  8
0
 10
54.500000000000057
 20
161.4000007599592
 30
0.0
 11
54.5
 21
158.00000075995919
 31
0.0
  0
LINE
  5
47BA
  8
0
 10
50.0
 20
157.50000075995931
 30
0.0
 11
50.0
 21
138.50000075995919
 31
0.0
  0
LINE
  5
47BB
  8
0
 10
94.0
 20
138.50000075995919
 30
0.0
 11
94.0
 21
157.50000075995931
 31
0.0
  0
LINE
  5
47BC
  8
0
 10
94.0
 20
157.50000075995931
 30
0.0
 11
93.499999999999986
 21
158.00000075995931
 31
0.0
  0
LINE
  5
47BD
  8
0
 10
50.5
 20
158.00000075995931
 30
0.0
 11
50.0
 21
157.50000075995931
 31
0.0
  0
LINE
  5
47BE
  8
0
 10
50.0
 20
138.50000075995919
 30
0.0
 11
50.5
 21
138.00000075995919
 31
0.0
  0
LINE
  5
47BF
  8
0
 10
93.499999999999986
 20
138.00000075995919
 30
0.0
 11
94.0
 21
138.50000075995919
 31
0.0
  0
LINE
  5
47C3
  8
0
 10
57.100335574248611
 20
158.00000075995931
 30
0.0
 11
56.900331129458493
 21
157.50000075995931
 31
0.0
  0
LINE
  5
47C5
  8
0
 10
87.099668870541507
 20
157.50000075995931
 30
0.0
 11
86.899664425751325
 21
158.00000075995931
 31
0.0
  0
LINE
  5
47C8
  8
0
 10
87.099668870541507
 20
138.50000075995919
 30
0.0
 11
87.099668870541507
 21
157.50000075995931
 31
0.0
  0
LINE
  5
47CB
  8
0
 10
56.900331129458493
 20
138.50000075995919
 30
0.0
 11
56.900331129458493
 21
157.50000075995931
 31
0.0
  0
LINE
  5
47D1
  8
0
 10
50.5
 20
158.00000075995931
 30
0.0
 11
93.499999999999886
 21
158.00000075995931
 31
0.0
  0
CIRCLE
  5
47D2
  8
0
 10
72.0
 20
148.00000075995919
 30
0.0
 40
7.3499999999999943
  0
CIRCLE
  5
47D3
  8
0
 10
83.0
 20
148.00000075995919
 30
0.0
 40
0.8000000000000113
  0
CIRCLE
  5
47D4
  8
0
 10
61.0
 20
148.00000075995919
 30
0.0
 40
0.8000000000000113
  0
LINE
  5
47D5
  8
0
 10
93.499999999999986
 20
138.00000075995919
 30
0.0
 11
50.5
 21
138.00000075995919
 31
0.0
  0
LINE
  5
47D7
  8
0
 10
86.899664425751325
 20
138.00000075995919
 30
0.0
 11
87.099668870541507
 21
138.50000075995919
 31
0.0
  0
LINE
  5
47D8
  8
0
 10
56.900331129458493
 20
138.50000075995919
 30
0.0
 11
57.100335574248682
 21
138.00000075995919
 31
0.0
  0
LINE
  5
47DA
  8
2
 10
58.75
 20
139.00000075995919
 30
0.0
 11
53.25
 21
139.00000075995919
 31
0.0
  0
LINE
  5
47E0
  8
2
 10
90.750000000000014
 20
139.00000075995919
 30
0.0
 11
85.25
 21
139.00000075995919
 31
0.0
  0
LINE
  5
47E8
  8
2
 10
91.5
 20
142.00000075995919
 30
0.0
 11
84.500000000000014
 21
142.00000075995919
 31
0.0
  0
LINE
  5
47E9
  8
2
 10
59.5
 20
142.00000075995919
 30
0.0
 11
52.5
 21
142.00000075995919
 31
0.0
  0
LINE
  5
47EC
  8
2
 10
58.75
 20
139.00000075995919
 30
0.0
 11
58.75
 21
142.00000075995919
 31
0.0
  0
LINE
  5
47ED
  8
2
 10
53.25
 20
142.00000075995919
 30
0.0
 11
53.25
 21
139.00000075995919
 31
0.0
  0
LINE
  5
47EE
  8
2
 10
57.5
 20
142.00000075995919
 30
0.0
 11
57.5
 21
158.00000075995919
 31
0.0
  0
LINE
  5
47EF
  8
2
 10
54.5
 20
158.00000075995919
 30
0.0
 11
54.5
 21
142.00000075995919
 31
0.0
  0
LINE
  5
47F0
  8
2
 10
90.750000000000014
 20
139.00000075995919
 30
0.0
 11
90.750000000000014
 21
142.00000075995919
 31
0.0
  0
LINE
  5
47F1
  8
2
 10
85.25
 20
142.00000075995919
 30
0.0
 11
85.25
 21
139.00000075995919
 31
0.0
  0
LINE
  5
47F2
  8
2
 10
89.500000000000014
 20
142.00000075995919
 30
0.0
 11
89.500000000000014
 21
158.00000075995919
 31
0.0
  0
LINE
  5
47F3
  8
2
 10
86.5
 20
158.00000075995919
 30
0.0
 11
86.5
 21
142.00000075995919
 31
0.0
  0
LINE
  5
47F8
  8
2
 10
62.0
 20
158.00000075995931
 30
0.0
 11
61.999999999999943
 21
138.00000075995919
 31
0.0
  0
LINE
  5
47F9
  8
2
 10
82.0
 20
138.00000075995919
 30
0.0
 11
82.0
 21
158.00000075995931
 31
0.0
  0
LINE
  5
47FE
  8
2
 10
91.500000000000057
 20
138.00000075995919
 30
0.0
 11
91.5
 21
142.00000075995919
 31
0.0
  0
LINE
  5
47FF
  8
2
 10
84.500000000000014
 20
142.00000075995919
 30
0.0
 11
84.499999999999929
 21
138.00000075995919
 31
0.0
  0
LINE
  5
4800
  8
2
 10
59.5
 20
138.00000075995919
 30
0.0
 11
59.5
 21
142.00000075995919
 31
0.0
  0
LINE
  5
4801
  8
2
 10
52.5
 20
142.00000075995919
 30
0.0
 11
52.499999999999943
 21
138.00000075995919
 31
0.0
  0
LINE
  5
4806
  8
2
 10
89.749999999999986
 20
142.00000075995919
 30
0.0
 11
89.749999999999986
 21
158.00000075995931
 31
0.0
  0
LINE
  5
4807
  8
2
 10
86.250000000000057
 20
158.00000075995931
 30
0.0
 11
86.25
 21
142.00000075995919
 31
0.0
  0
LINE
  5
4808
  8
2
 10
57.75
 20
142.00000075995919
 30
0.0
 11
57.75
 21
158.00000075995931
 31
0.0
  0
LINE
  5
4809
  8
2
 10
54.250000000000057
 20
158.00000075995931
 30
0.0
 11
54.25
 21
142.00000075995919
 31
0.0
  0
CIRCLE
  5
480A
  8
3
 10
61.0
 20
148.00000075995919
 30
0.0
 40
0.9999999999999975
  0
CIRCLE
  5
480B
  8
3
 10
83.0
 20
148.00000075995919
 30
0.0
 40
0.9999999999999975
  0
LINE
  5
501A
  8
3
 10
57.229500000000769
 20
158.00000075995931
 30
0.0
 11
57.229500000000769
 21
161.67050075995849
 31
0.0
  0
LINE
  5
501B
  8
3
 10
54.770499999999288
 20
158.00000075995931
 30
0.0
 11
54.770499999999288
 21
161.67050075995849
 31
0.0
  0
LINE
  5
501C
  8
0
 10
57.5
 20
161.4000007599592
 30
0.0
 11
54.5
 21
161.4000007599592
 31
0.0
  0
LINE
  5
501D
  8
0
 10
56.89999999999997
 20
162.00000075995919
 30
0.0
 11
57.5
 21
161.4000007599592
 31
0.0
  0
LINE
  5
501E
  8
0
 10
54.5
 20
161.4000007599592
 30
0.0
 11
55.100000000000023
 21
162.00000075995919
 31
0.0
  0
LINE
  5
501F
  8
0
 10
55.100000000000023
 20
162.00000075995919
 30
0.0
 11
56.89999999999997
 21
162.00000075995919
 31
0.0
  0
LINE
  5
5021
  8
2
 10
57.229500000000712
 20
143.50000075995919
 30
0.0
 11
57.229500000000769
 21
158.00000075995931
 31
0.0
  0
LINE
  5
5022
  8
2
 10
57.229500000000712
 20
143.50000075995919
 30
0.0
 11
57.5
 21
143.03148101651311
 31
0.0
  0
LINE
  5
5023
  8
2
 10
54.770499999999288
 20
143.50000075995919
 30
0.0
 11
54.5
 21
143.03148101651311
 31
0.0
  0
LINE
  5
5024
  8
2
 10
54.770499999999288
 20
143.50000075995919
 30
0.0
 11
54.770499999999288
 21
158.00000075995931
 31
0.0
  0
LINE
  5
5025
  8
2
 10
54.5
 20
143.50000075995919
 30
0.0
 11
57.5
 21
143.50000075995919
 31
0.0
  0
LINE
  5
5026
  8
0
 10
89.500000000000014
 20
158.00000075995919
 30
0.0
 11
89.500000000000014
 21
161.40000075995931
 31
0.0
  0
LINE
  5
5027
  8
0
 10
86.500000000000057
 20
161.4000007599592
 30
0.0
 11
86.5
 21
158.00000075995919
 31
0.0
  0
LINE
  5
5028
  8
3
 10
89.229500000000755
 20
158.00000075995931
 30
0.0
 11
89.229500000000755
 21
161.67050075995849
 31
0.0
  0
LINE
  5
5029
  8
3
 10
86.770499999999274
 20
158.00000075995931
 30
0.0
 11
86.770499999999274
 21
161.67050075995849
 31
0.0
  0
LINE
  5
502A
  8
0
 10
89.500000000000014
 20
161.4000007599592
 30
0.0
 11
86.5
 21
161.4000007599592
 31
0.0
  0
LINE
  5
502B
  8
0
 10
88.899999999999977
 20
162.00000075995919
 30
0.0
 11
89.500000000000014
 21
161.4000007599592
 31
0.0
  0
LINE
  5
502C
  8
0
 10
86.5
 20
161.4000007599592
 30
0.0
 11
87.100000000000023
 21
162.00000075995919
 31
0.0
  0
LINE
  5
502D
  8
0
 10
87.100000000000023
 20
162.00000075995919
 30
0.0
 11
88.899999999999977
 21
162.00000075995919
 31
0.0
  0
LINE
  5
502E
  8
2
 10
89.229500000000712
 20
143.50000075995919
 30
0.0
 11
89.229500000000755
 21
158.00000075995931
 31
0.0
  0
LINE
  5
502F
  8
2
 10
89.229500000000712
 20
143.50000075995919
 30
0.0
 11
89.500000000000014
 21
143.03148101651311
 31
0.0
  0
LINE
  5
5030
  8
2
 10
86.770499999999274
 20
143.50000075995919
 30
0.0
 11
86.5
 21
143.03148101651311
 31
0.0
  0
LINE
  5
5031
  8
2
 10
86.770499999999274
 20
143.50000075995919
 30
0.0
 11
86.770499999999274
 21
158.00000075995931
 31
0.0
  0
LINE
  5
5032
  8
2
 10
86.5
 20
143.50000075995919
 30
0.0
 11
89.500000000000014
 21
143.50000075995919
 31
0.0
  0
LINE
  5
503A
  8
0
 10
164.0
 20
70.500000000000014
 30
0.0
 11
167.40000000000009
 21
70.500000000000014
 31
0.0
  0
LINE
  5
503B
  8
0
 10
167.39999999999989
 20
73.500000000000014
 30
0.0
 11
164.0
 21
73.500000000000014
 31
0.0
  0
LINE
  5
503C
  8
3
 10
164.0
 20
70.770499999999188
 30
0.0
 11
167.67049999999929
 21
70.770499999999188
 31
0.0
  0
LINE
  5
503D
  8
3
 10
164.0
 20
73.229500000000726
 30
0.0
 11
167.67049999999929
 21
73.229500000000726
 31
0.0
  0
LINE
  5
503E
  8
0
 10
167.40000000000009
 20
70.500000000000014
 30
0.0
 11
167.39999999999989
 21
73.500000000000014
 31
0.0
  0
LINE
  5
503F
  8
0
 10
168.0
 20
71.100000000000037
 30
0.0
 11
167.39999999999989
 21
70.500000000000014
 31
0.0
  0
LINE
  5
5040
  8
0
 10
167.39999999999989
 20
73.500000000000014
 30
0.0
 11
168.0
 21
72.899999999999991
 31
0.0
  0
LINE
  5
5041
  8
0
 10
168.0
 20
72.899999999999991
 30
0.0
 11
168.0
 21
71.100000000000037
 31
0.0
  0
LINE
  5
5042
  8
1
 10
72.0
 20
47.0
 30
0.0
 11
72.0
 21
91.000000759959235
 31
0.0
  0
LINE
  5
5043
  8
1
 10
56.0
 20
163.50000075995919
 30
0.0
 11
56.0
 21
136.50000075995919
 31
0.0
  0
LINE
  5
5044
  8
1
 10
88.0
 20
163.50000075995919
 30
0.0
 11
88.0
 21
136.50000075995919
 31
0.0
  0
LINE
  5
5045
  8
1
 10
83.0
 20
150.50000075995919
 30
0.0
 11
83.0
 21
145.50000075995919
 31
0.0
  0
LINE
  5
5046
  8
1
 10
61.0
 20
150.50000075995919
 30
0.0
 11
61.0
 21
145.50000075995919
 31
0.0
  0
LINE
  5
5047
  8
1
 10
97.0
 20
72.0
 30
0.0
 11
47.0
 21
72.0
 31
0.0
  0
LINE
  5
5048
  8
1
 10
47.0
 20
148.00000075995919
 30
0.0
 11
97.0
 21
148.00000075995919
 31
0.0
  0
LINE
  5
504E
  8
1
 10
72.0
 20
135.00000075995919
 30
0.0
 11
72.0
 21
161.00000075995931
 31
0.0
  0
LINE
  5
5057
  8
1
 10
88.0
 20
77.0
 30
0.0
 11
88.0
 21
67.0
 31
0.0
  0
LINE
  5
5058
  8
1
 10
83.0
 20
89.500000759959235
 30
0.0
 11
83.0
 21
80.019311635247462
 31
0.0
  0
LINE
  5
5059
  8
1
 10
61.0
 20
89.500000759959235
 30
0.0
 11
61.0
 21
80.019311635247462
 31
0.0
  0
LINE
  5
505A
  8
1
 10
56.0
 20
76.999999999999986
 30
0.0
 11
56.0
 21
66.999999999999986
 31
0.0
  0
LINE
  5
506D
  8
1
 10
169.5
 20
72.000000000000014
 30
0.0
 11
142.5
 21
72.000000000000014
 31
0.0
  0
TEXT
  5
5088
  8
0
 62
     3
 10
0.0
 20
0.0
 30
0.0
 40
10.0
  1
QCPSC0828-20
  7
STANDARD1
  0
ENDSEC
  0
EOF
