  0
SECTION
  2
HEADER
  9
$ACADVER
  1
AC1009
  9
$INSBASE
 10
0.0
 20
0.0
 30
0.0
  9
$EXTMIN
 10
0.0
 20
-2.960436562073669
 30
0.0
  9
$EXTMAX
 10
169.50000000000011
 20
163.50000075995919
 30
0.0
  9
$LIMMIN
 10
0.0
 20
0.0
  9
$LIMMAX
 10
375.0
 20
270.0
  9
$ORTHOMODE
 70
     1
  9
$REGENMODE
 70
     1
  9
$FILLMODE
 70
     1
  9
$QTEXTMODE
 70
     0
  9
$MIRRTEXT
 70
     0
  9
$DRAGMODE
 70
     2
  9
$LTSCALE
 40
5.0
  9
$OSMODE
 70
    37
  9
$ATTMODE
 70
     1
  9
$TEXTSIZE
 40
4.000000000000048
  9
$TRACEWID
 40
0.05
  9
$TEXTSTYLE
  7
STANDARD
  9
$CLAYER
  8
0
  9
$CELTYPE
  6
BYLAYER
  9
$CECOLOR
 62
   256
  9
$DIMSCALE
 40
1.0
  9
$DIMASZ
 40
3.0
  9
$DIMEXO
 40
2.0
  9
$DIMDLI
 40
0.38
  9
$DIMRND
 40
0.0
  9
$DIMDLE
 40
0.0
  9
$DIMEXE
 40
2.0
  9
$DIMTP
 40
0.0
  9
$DIMTM
 40
0.0
  9
$DIMTXT
 40
3.2000000000000002
  9
$DIMCEN
 40
0.0
  9
$DIMTSZ
 40
0.0
  9
$DIMTOL
 70
     0
  9
$DIMLIM
 70
     0
  9
$DIMTIH
 70
     0
  9
$DIMTOH
 70
     0
  9
$DIMSE1
 70
     0
  9
$DIMSE2
 70
     0
  9
$DIMTAD
 70
     1
  9
$DIMZIN
 70
     8
  9
$DIMBLK
  1

  9
$DIMASO
 70
     0
  9
$DIMSHO
 70
     0
  9
$DIMPOST
  1

  9
$DIMAPOST
  1

  9
$DIMALT
 70
     0
  9
$DIMALTD
 70
     2
  9
$DIMALTF
 40
25.399999999999999
  9
$DIMLFAC
 40
1.0
  9
$DIMTOFL
 70
     0
  9
$DIMTVP
 40
1.6000000000000001
  9
$DIMTIX
 70
     1
  9
$DIMSOXD
 70
     0
  9
$DIMSAH
 70
     0
  9
$DIMBLK1
  1

  9
$DIMBLK2
  1

  9
$DIMSTYLE
  2
STANDARD
  9
$DIMCLRD
 70
     4
  9
$DIMCLRE
 70
     4
  9
$DIMCLRT
 70
     4
  9
$DIMTFAC
 40
1.0
  9
$DIMGAP
 40
0.09
  9
$LUNITS
 70
     2
  9
$LUPREC
 70
     1
  9
$SKETCHINC
 40
0.1
  9
$FILLETRAD
 40
22.0
  9
$AUNITS
 70
     0
  9
$AUPREC
 70
     0
  9
$MENU
  1
E:\r13\win\SUPPORT\ACAD
  9
$ELEVATION
 40
0.0
  9
$PELEVATION
 40
0.0
  9
$THICKNESS
 40
0.0
  9
$LIMCHECK
 70
     0
  9
$BLIPMODE
 70
     0
  9
$CHAMFERA
 40
1.1999999999999991
  9
$CHAMFERB
 40
1.1999999999999991
  9
$SKPOLY
 70
     0
  9
$TDCREATE
 40
2449954.6020138888
  9
$TDUPDATE
 40
2459814.6761422688
  9
$TDINDWG
 40
0.554965544
  9
$TDUSRTIMER
 40
0.554965544
  9
$USRTIMER
 70
     1
  9
$ANGBASE
 50
0.0
  9
$ANGDIR
 70
     0
  9
$PDMODE
 70
     0
  9
$PDSIZE
 40
0.0
  9
$PLINEWID
 40
0.0
  9
$COORDS
 70
     1
  9
$SPLFRAME
 70
     0
  9
$SPLINETYPE
 70
     6
  9
$SPLINESEGS
 70
     8
  9
$ATTDIA
 70
     0
  9
$ATTREQ
 70
     1
  9
$HANDLING
 70
     1
  9
$HANDSEED
  5
53B6
  9
$SURFTAB1
 70
     6
  9
$SURFTAB2
 70
     6
  9
$SURFTYPE
 70
     6
  9
$SURFU
 70
     6
  9
$SURFV
 70
     6
  9
$UCSNAME
  2

  9
$UCSORG
 10
0.0
 20
0.0
 30
0.0
  9
$UCSXDIR
 10
1.0
 20
0.0
 30
0.0
  9
$UCSYDIR
 10
0.0
 20
1.0
 30
0.0
  9
$PUCSNAME
  2

  9
$PUCSORG
 10
0.0
 20
0.0
 30
0.0
  9
$PUCSXDIR
 10
1.0
 20
0.0
 30
0.0
  9
$PUCSYDIR
 10
0.0
 20
1.0
 30
0.0
  9
$USERI1
 70
     0
  9
$USERI2
 70
     1
  9
$USERI3
 70
     0
  9
$USERI4
 70
     0
  9
$USERI5
 70
     0
  9
$USERR1
 40
0.0
  9
$USERR2
 40
0.0
  9
$USERR3
 40
0.0
  9
$USERR4
 40
0.0
  9
$USERR5
 40
0.0
  9
$WORLDVIEW
 70
     1
  9
$SHADEDGE
 70
     3
  9
$SHADEDIF
 70
    70
  9
$TILEMODE
 70
     1
  9
$MAXACTVP
 70
    16
  9
$PLIMCHECK
 70
     0
  9
$PEXTMIN
 10
1.0000000000000000E+020
 20
1.0000000000000000E+020
 30
1.0000000000000000E+020
  9
$PEXTMAX
 10
-1.0000000000000000E+020
 20
-1.0000000000000000E+020
 30
-1.0000000000000000E+020
  9
$PLIMMIN
 10
0.0
 20
0.0
  9
$PLIMMAX
 10
12.0
 20
9.0
  9
$UNITMODE
 70
     0
  9
$VISRETAIN
 70
     0
  9
$PLINEGEN
 70
     0
  9
$PSLTSCALE
 70
     0
  0
ENDSEC
  0
SECTION
  2
TABLES
  0
TABLE
  2
VPORT
 70
     1
  0
VPORT
  2
*ACTIVE
 70
     0
 10
0.0
 20
0.0
 11
1.0
 21
1.0
 12
241.51013073050919
 22
100.0
 13
0.0
 23
0.0
 14
10.0
 24
10.0
 15
10.0
 25
10.0
 16
0.0
 26
0.0
 36
1.0
 17
0.0
 27
0.0
 37
0.0
 40
200.10023007644469
 41
2.4148802017654472
 42
50.0
 43
0.0
 44
0.0
 50
0.0
 51
0.0
 71
     0
 72
   500
 73
     1
 74
     0
 75
     0
 76
     0
 77
     0
 78
     2
  0
ENDTAB
  0
TABLE
  2
LTYPE
 70
     5
  0
LTYPE
  2
CONTINUOUS
 70
     0
  3
Solid Line
 72
    65
 73
     0
 40
0.0
  0
LTYPE
  2
CENTER
 70
     0
  3
____ _ ____ _ ____ _ ____ _ ____ _ ____ _ ____
 72
    65
 73
     4
 40
2.0
 49
1.25
 49
-0.25
 49
0.25
 49
-0.25
  0
LTYPE
  2
HIDDEN
 70
     0
  3
_ _ _ _ _ _ _ _ _ _ _ _ _ _ _ _ _ _ _ _ _ _ _
 72
    65
 73
     2
 40
0.375
 49
0.25
 49
-0.125
  0
LTYPE
  2
PHANTOM
 70
     0
  3
_____ _ _ _____ _ _ _____ _ _ _____ _ _ ____
 72
    65
 73
     6
 40
2.5
 49
1.25
 49
-0.25
 49
0.25
 49
-0.25
 49
0.25
 49
-0.25
  0
LTYPE
  2
PHANTOM2
 70
     0
  3
___ _ _ ___ _ _ ___ _ _ ___ _ _
 72
    65
 73
     6
 40
1.25
 49
0.625
 49
-0.125
 49
0.125
 49
-0.125
 49
0.125
 49
-0.125
  0
ENDTAB
  0
TABLE
  2
LAYER
 70
     7
  0
LAYER
  2
0
 70
     0
 62
     7
  6
CONTINUOUS
  0
LAYER
  2
1
 70
     0
 62
     1
  6
CENTER
  0
LAYER
  2
3
 70
     0
 62
     3
  6
CONTINUOUS
  0
LAYER
  2
2
 70
     0
 62
     2
  6
HIDDEN
  0
LAYER
  2
5
 70
     0
 62
     3
  6
PHANTOM
  0
LAYER
  2
DEFPOINTS
 70
     0
 62
     7
  6
CONTINUOUS
  0
LAYER
  2
4
 70
     0
 62
     4
  6
CONTINUOUS
  0
ENDTAB
  0
TABLE
  2
STYLE
 70
     2
  0
STYLE
  2
STANDARD
 70
     0
 40
0.0
 41
1.0
 50
0.0
 71
     0
 42
4.000000000000048
  3
SIMPLEX
  4
BIGFONT
  0
STYLE
  2
STANDARD1
 70
     0
 40
0.0
 41
1.0
 50
0.0
 71
     0
 42
3.0
  3
txt
  4

  0
ENDTAB
  0
TABLE
  2
VIEW
 70
     1
  0
VIEW
  2
ALL
 70
     0
 40
270.0
 10
220.78595317725751
 20
135.0
 41
441.57190635451502
 11
0.0
 21
0.0
 31
1.0
 12
0.0
 22
0.0
 32
0.0
 42
50.0
 43
0.0
 44
0.0
 50
0.0
 71
     0
  0
ENDTAB
  0
TABLE
  2
UCS
 70
     0
  0
ENDTAB
  0
TABLE
  2
APPID
 70
     8
  0
APPID
  2
ACAD
 70
     0
  0
APPID
  2
ACAD_EXEMPT_FROM_CAD_STANDARDS
 70
     0
  0
APPID
  2
ACAD_MLEADERVER
 70
     0
  0
APPID
  2
ACAD_NAV_VCDISPLAY
 70
     0
  0
APPID
  2
ACAD_DSTYLE_DIMJAG
 70
     0
  0
APPID
  2
ACAD_DSTYLE_DIMTALN
 70
     0
  0
APPID
  2
ACAECLAYERSTANDARD
 70
     0
  0
APPID
  2
ACCMTRANSPARENCY
 70
     0
  0
ENDTAB
  0
TABLE
  2
DIMSTYLE
 70
     1
  0
DIMSTYLE
  2
STANDARD
 70
     0
  3

  4

  5

  6

  7

 40
1.0
 41
0.18
 42
0.0625
 43
0.38
 44
0.18
 45
0.0
 46
0.0
 47
0.0
 48
0.0
140
0.18
141
0.09
142
0.0
143
25.399999999999999
144
1.0
145
0.0
146
1.0
147
0.09
 71
     0
 72
     0
 73
     1
 74
     1
 75
     0
 76
     0
 77
     0
 78
     0
170
     0
171
     2
172
     0
173
     0
174
     0
175
     0
176
     0
177
     0
178
     0
  0
ENDTAB
  0
ENDSEC
  0
SECTION
  2
BLOCKS
  0
BLOCK
  8
0
  2
$MODEL_SPACE
 70
     0
 10
0.0
 20
0.0
 30
0.0
  3
$MODEL_SPACE
  1

  0
ENDBLK
  5
1126
  8
0
  0
BLOCK
 67
     1
  8
0
  2
$PAPER_SPACE
 70
     0
 10
0.0
 20
0.0
 30
0.0
  3
$PAPER_SPACE
  1

  0
ENDBLK
  5
1124
 67
     1
  8
0
  0
ENDSEC
  0
SECTION
  2
ENTITIES
  0
LINE
  5
4DD1
  8
0
 10
90.0
 20
73.443375672974071
 30
0.0
 11
91.25
 21
72.721687836487035
 31
0.0
  0
CIRCLE
  5
4DD2
  8
0
 10
90.0
 20
72.0
 30
0.0
 40
2.75
  0
LINE
  5
4DD3
  8
0
 10
91.25
 20
71.278312163512965
 30
0.0
 11
91.25
 21
72.721687836487035
 31
0.0
  0
LINE
  5
4DD4
  8
0
 10
90.0
 20
70.556624327025958
 30
0.0
 11
91.25
 21
71.278312163512965
 31
0.0
  0
LINE
  5
4DD5
  8
0
 10
90.0
 20
70.556624327025958
 30
0.0
 11
88.75
 21
71.278312163512965
 31
0.0
  0
LINE
  5
4DD6
  8
0
 10
90.0
 20
73.443375672974071
 30
0.0
 11
88.75
 21
72.721687836487035
 31
0.0
  0
LINE
  5
4DD7
  8
0
 10
88.75
 20
72.721687836487035
 30
0.0
 11
88.75
 21
71.278312163512965
 31
0.0
  0
LINE
  5
4DD8
  8
0
 10
54.0
 20
73.443375672974071
 30
0.0
 11
55.25
 21
72.721687836487035
 31
0.0
  0
CIRCLE
  5
4DD9
  8
0
 10
54.0
 20
72.0
 30
0.0
 40
2.75
  0
LINE
  5
4DDA
  8
0
 10
55.25
 20
71.278312163512965
 30
0.0
 11
55.25
 21
72.721687836487035
 31
0.0
  0
LINE
  5
4DDB
  8
0
 10
54.0
 20
70.556624327025958
 30
0.0
 11
55.25
 21
71.278312163512965
 31
0.0
  0
LINE
  5
4DDC
  8
0
 10
54.0
 20
70.556624327025958
 30
0.0
 11
52.75
 21
71.278312163512965
 31
0.0
  0
LINE
  5
4DDD
  8
0
 10
54.0
 20
73.443375672974071
 30
0.0
 11
52.75
 21
72.721687836487035
 31
0.0
  0
LINE
  5
4DDE
  8
0
 10
52.75
 20
72.721687836487035
 30
0.0
 11
52.75
 21
71.278312163512965
 31
0.0
  0
CIRCLE
  5
4DE0
  8
0
 10
90.0
 20
72.0
 30
0.0
 40
3.5
  0
CIRCLE
  5
4DE2
  8
0
 10
54.0
 20
71.999999999999972
 30
0.0
 40
3.499999999999992
  0
CIRCLE
  5
4DE6
  8
0
 10
72.0
 20
72.0
 30
0.0
 40
12.5
  0
LINE
  5
4DE8
  8
0
 10
56.711115148579317
 20
90.499999999999943
 30
0.0
 11
87.288884851420548
 21
90.499999999999943
 31
0.0
  0
ARC
  5
4DEA
  8
0
 10
72.0
 20
72.0
 30
0.0
 40
23.999999999999989
 50
129.57121945723259
 51
50.42878054276742
  0
LINE
  5
4DF7
  8
2
 10
79.349999999999909
 20
82.123754962512933
 30
0.0
 11
79.349999999999909
 21
90.499999999999943
 31
0.0
  0
LINE
  5
4DF8
  8
2
 10
64.649999999999977
 20
90.499999999999929
 30
0.0
 11
64.649999999999977
 21
82.11527683742186
 31
0.0
  0
LINE
  5
4E17
  8
0
 10
144.50000000000011
 20
48.0
 30
0.0
 11
163.50000000000011
 21
48.0
 31
0.0
  0
LINE
  5
4E18
  8
0
 10
163.50000000000011
 20
48.0
 30
0.0
 11
164.00000000000011
 21
48.5
 31
0.0
  0
LINE
  5
4E19
  8
0
 10
144.00000000000011
 20
48.499999999999972
 30
0.0
 11
144.50000000000011
 21
48.0
 31
0.0
  0
LINE
  5
4E1D
  8
0
 10
144.50000000000011
 20
90.499999999999943
 30
0.0
 11
163.50000000000011
 21
90.499999999999943
 31
0.0
  0
LINE
  5
4E1F
  8
0
 10
163.50000000000011
 20
90.499999999999943
 30
0.0
 11
164.00000000000011
 21
89.999999999999957
 31
0.0
  0
LINE
  5
4E20
  8
0
 10
164.00000000000011
 20
89.999999999999957
 30
0.0
 11
164.00000000000011
 21
48.500000000000028
 31
0.0
  0
LINE
  5
4E21
  8
0
 10
144.00000000000011
 20
48.500000000000028
 30
0.0
 11
144.00000000000011
 21
90.000000000000014
 31
0.0
  0
LINE
  5
4E22
  8
0
 10
144.00000000000011
 20
90.000000000000014
 30
0.0
 11
144.50000000000011
 21
90.499999999999943
 31
0.0
  0
LINE
  5
4E58
  8
0
 10
48.0
 20
157.50000075995919
 30
0.0
 11
48.0
 21
138.50000075995919
 31
0.0
  0
LINE
  5
4E59
  8
0
 10
96.0
 20
138.50000075995919
 30
0.0
 11
96.0
 21
157.50000075995919
 31
0.0
  0
LINE
  5
4E5A
  8
0
 10
96.0
 20
157.50000075995919
 30
0.0
 11
95.5
 21
158.00000075995919
 31
0.0
  0
LINE
  5
4E5B
  8
0
 10
48.5
 20
158.00000075995919
 30
0.0
 11
48.0
 21
157.50000075995919
 31
0.0
  0
LINE
  5
4E5C
  8
0
 10
48.0
 20
138.50000075995919
 30
0.0
 11
48.499999999999879
 21
138.00000075995919
 31
0.0
  0
LINE
  5
4E5D
  8
0
 10
95.5
 20
138.00000075995919
 30
0.0
 11
96.0
 21
138.50000075995919
 31
0.0
  0
LINE
  5
4E61
  8
0
 10
56.711115148579317
 20
138.50000075995919
 30
0.0
 11
56.711115148579317
 21
157.50000075995919
 31
0.0
  0
LINE
  5
4E63
  8
0
 10
87.288884851420548
 20
138.50000075995919
 30
0.0
 11
87.288884851420548
 21
157.50000075995919
 31
0.0
  0
LINE
  5
4E67
  8
0
 10
56.89205507026179
 20
158.00000075995919
 30
0.0
 11
56.711115148579317
 21
157.50000075995919
 31
0.0
  0
LINE
  5
4E69
  8
0
 10
87.288884851420548
 20
157.50000075995919
 30
0.0
 11
87.107944929738096
 21
158.00000075995919
 31
0.0
  0
LINE
  5
4E6F
  8
0
 10
48.5
 20
158.00000075995919
 30
0.0
 11
95.500000000000114
 21
158.00000075995919
 31
0.0
  0
CIRCLE
  5
4E70
  8
0
 10
72.0
 20
148.00000075995919
 30
0.0
 40
7.3499999999999943
  0
LINE
  5
4E73
  8
0
 10
95.5
 20
138.00000075995919
 30
0.0
 11
48.499999999999879
 21
138.00000075995919
 31
0.0
  0
LINE
  5
4E75
  8
0
 10
87.107944929738096
 20
138.00000075995919
 30
0.0
 11
87.288884851420548
 21
138.50000075995919
 31
0.0
  0
LINE
  5
4E76
  8
0
 10
56.711115148579317
 20
138.50000075995919
 30
0.0
 11
56.89205507026179
 21
138.00000075995919
 31
0.0
  0
LINE
  5
4E86
  8
2
 10
93.499999999999986
 20
142.00000075995919
 30
0.0
 11
86.5
 21
142.00000075995919
 31
0.0
  0
LINE
  5
4E87
  8
2
 10
57.5
 20
142.00000075995919
 30
0.0
 11
50.5
 21
142.00000075995919
 31
0.0
  0
LINE
  5
4E96
  8
2
 10
59.499999999999879
 20
158.00000075995919
 30
0.0
 11
59.5
 21
138.00000075995919
 31
0.0
  0
LINE
  5
4E97
  8
2
 10
84.500000000000014
 20
138.00000075995919
 30
0.0
 11
84.500000000000014
 21
158.00000075995919
 31
0.0
  0
LINE
  5
4E9C
  8
2
 10
93.499999999999886
 20
138.00000075995919
 30
0.0
 11
93.499999999999986
 21
142.00000075995919
 31
0.0
  0
LINE
  5
4E9D
  8
2
 10
86.5
 20
142.00000075995919
 30
0.0
 11
86.5
 21
138.00000075995919
 31
0.0
  0
LINE
  5
4E9E
  8
2
 10
57.499999999999893
 20
138.00000075995919
 30
0.0
 11
57.5
 21
142.00000075995919
 31
0.0
  0
LINE
  5
4E9F
  8
2
 10
50.5
 20
142.00000075995919
 30
0.0
 11
50.5
 21
138.00000075995919
 31
0.0
  0
LINE
  5
4EA4
  8
2
 10
91.75
 20
142.00000075995919
 30
0.0
 11
91.750000000000114
 21
158.00000075995919
 31
0.0
  0
LINE
  5
4EA5
  8
2
 10
88.250000000000014
 20
158.00000075995919
 30
0.0
 11
88.250000000000014
 21
142.00000075995919
 31
0.0
  0
LINE
  5
4EA6
  8
2
 10
55.75
 20
142.00000075995919
 30
0.0
 11
55.75
 21
158.00000075995919
 31
0.0
  0
LINE
  5
4EA7
  8
2
 10
52.25
 20
158.00000075995919
 30
0.0
 11
52.25
 21
142.00000075995919
 31
0.0
  0
LINE
  5
509A
  8
0
 10
164.00000000000011
 20
70.5
 30
0.0
 11
167.4000000000002
 21
70.5
 31
0.0
  0
LINE
  5
509B
  8
0
 10
167.40000000000009
 20
73.5
 30
0.0
 11
164.00000000000011
 21
73.5
 31
0.0
  0
LINE
  5
509C
  8
3
 10
164.00000000000011
 20
70.770499999999174
 30
0.0
 11
167.67049999999941
 21
70.770499999999174
 31
0.0
  0
LINE
  5
509D
  8
3
 10
164.00000000000011
 20
73.229500000000712
 30
0.0
 11
167.67049999999941
 21
73.229500000000712
 31
0.0
  0
LINE
  5
509E
  8
0
 10
167.4000000000002
 20
70.5
 30
0.0
 11
167.40000000000009
 21
73.5
 31
0.0
  0
LINE
  5
509F
  8
0
 10
168.00000000000011
 20
71.100000000000023
 30
0.0
 11
167.40000000000009
 21
70.5
 31
0.0
  0
LINE
  5
50A0
  8
0
 10
167.40000000000009
 20
73.5
 30
0.0
 11
168.00000000000011
 21
72.899999999999977
 31
0.0
  0
LINE
  5
50A1
  8
0
 10
168.00000000000011
 20
72.899999999999977
 30
0.0
 11
168.00000000000011
 21
71.100000000000023
 31
0.0
  0
LINE
  5
50A2
  8
1
 10
169.50000000000011
 20
72.0
 30
0.0
 11
142.50000000000011
 21
72.0
 31
0.0
  0
LINE
  5
50A3
  8
1
 10
72.0
 20
45.000000000000007
 30
0.0
 11
72.0
 21
93.499999999999957
 31
0.0
  0
LINE
  5
50A4
  8
1
 10
99.0
 20
72.0
 30
0.0
 11
45.0
 21
72.0
 31
0.0
  0
LINE
  5
50A5
  8
1
 10
54.0
 20
76.999999999999972
 30
0.0
 11
54.0
 21
66.999999999999972
 31
0.0
  0
LINE
  5
50A6
  8
1
 10
90.0
 20
77.0
 30
0.0
 11
90.0
 21
67.0
 31
0.0
  0
LINE
  5
50A7
  8
1
 10
83.0
 20
91.999999999999943
 30
0.0
 11
83.0
 21
82.519310875288184
 31
0.0
  0
LINE
  5
50A8
  8
1
 10
61.0
 20
91.999999999999943
 30
0.0
 11
61.0
 21
82.519310875288184
 31
0.0
  0
LINE
  5
50A9
  8
1
 10
72.0
 20
135.00000075995919
 30
0.0
 11
72.0
 21
161.00000075995931
 31
0.0
  0
LINE
  5
50AA
  8
1
 10
45.0
 20
148.00000075995919
 30
0.0
 11
99.0
 21
148.00000075995919
 31
0.0
  0
LINE
  5
50AC
  8
0
 10
55.5
 20
158.00000075995919
 30
0.0
 11
55.5
 21
161.40000075995931
 31
0.0
  0
LINE
  5
50AD
  8
0
 10
52.5
 20
161.4000007599592
 30
0.0
 11
52.5
 21
158.00000075995919
 31
0.0
  0
LINE
  5
50AE
  8
2
 10
56.75
 20
139.00000075995919
 30
0.0
 11
51.25
 21
139.00000075995919
 31
0.0
  0
LINE
  5
50AF
  8
2
 10
56.75
 20
139.00000075995919
 30
0.0
 11
56.75
 21
142.00000075995919
 31
0.0
  0
LINE
  5
50B0
  8
2
 10
51.25
 20
142.00000075995919
 30
0.0
 11
51.25
 21
139.00000075995919
 31
0.0
  0
LINE
  5
50B1
  8
2
 10
55.5
 20
142.00000075995919
 30
0.0
 11
55.5
 21
158.00000075995919
 31
0.0
  0
LINE
  5
50B2
  8
2
 10
52.5
 20
158.00000075995919
 30
0.0
 11
52.5
 21
142.00000075995919
 31
0.0
  0
LINE
  5
50B3
  8
3
 10
55.229500000000833
 20
158.00000075995931
 30
0.0
 11
55.229500000000833
 21
161.67050075995849
 31
0.0
  0
LINE
  5
50B4
  8
3
 10
52.770499999999281
 20
158.00000075995931
 30
0.0
 11
52.770499999999281
 21
161.67050075995849
 31
0.0
  0
LINE
  5
50B5
  8
0
 10
55.5
 20
161.4000007599592
 30
0.0
 11
52.5
 21
161.4000007599592
 31
0.0
  0
LINE
  5
50B6
  8
0
 10
54.899999999999977
 20
162.00000075995919
 30
0.0
 11
55.5
 21
161.4000007599592
 31
0.0
  0
LINE
  5
50B7
  8
0
 10
52.5
 20
161.4000007599592
 30
0.0
 11
53.100000000000023
 21
162.00000075995919
 31
0.0
  0
LINE
  5
50B8
  8
0
 10
53.100000000000023
 20
162.00000075995919
 30
0.0
 11
54.899999999999977
 21
162.00000075995919
 31
0.0
  0
LINE
  5
50B9
  8
2
 10
55.229500000000712
 20
143.50000075995919
 30
0.0
 11
55.229500000000833
 21
158.00000075995931
 31
0.0
  0
LINE
  5
50BA
  8
2
 10
55.229500000000712
 20
143.50000075995919
 30
0.0
 11
55.5
 21
143.03148101651311
 31
0.0
  0
LINE
  5
50BB
  8
2
 10
52.770499999999281
 20
143.50000075995919
 30
0.0
 11
52.5
 21
143.03148101651311
 31
0.0
  0
LINE
  5
50BC
  8
2
 10
52.770499999999281
 20
143.50000075995919
 30
0.0
 11
52.770499999999281
 21
158.00000075995931
 31
0.0
  0
LINE
  5
50BD
  8
2
 10
52.5
 20
143.50000075995919
 30
0.0
 11
55.5
 21
143.50000075995919
 31
0.0
  0
LINE
  5
50BE
  8
1
 10
54.0
 20
163.50000075995919
 30
0.0
 11
54.0
 21
136.50000075995919
 31
0.0
  0
LINE
  5
50BF
  8
0
 10
91.5
 20
158.00000075995919
 30
0.0
 11
91.5
 21
161.40000075995931
 31
0.0
  0
LINE
  5
50C0
  8
0
 10
88.499999999999986
 20
161.4000007599592
 30
0.0
 11
88.499999999999986
 21
158.00000075995919
 31
0.0
  0
LINE
  5
50C1
  8
2
 10
92.75
 20
139.00000075995919
 30
0.0
 11
87.249999999999986
 21
139.00000075995919
 31
0.0
  0
LINE
  5
50C2
  8
2
 10
92.75
 20
139.00000075995919
 30
0.0
 11
92.75
 21
142.00000075995919
 31
0.0
  0
LINE
  5
50C3
  8
2
 10
87.249999999999986
 20
142.00000075995919
 30
0.0
 11
87.249999999999986
 21
139.00000075995919
 31
0.0
  0
LINE
  5
50C4
  8
2
 10
91.5
 20
142.00000075995919
 30
0.0
 11
91.5
 21
158.00000075995919
 31
0.0
  0
LINE
  5
50C5
  8
2
 10
88.499999999999986
 20
158.00000075995919
 30
0.0
 11
88.499999999999986
 21
142.00000075995919
 31
0.0
  0
LINE
  5
50C6
  8
3
 10
91.229500000000826
 20
158.00000075995931
 30
0.0
 11
91.229500000000826
 21
161.67050075995849
 31
0.0
  0
LINE
  5
50C7
  8
3
 10
88.770499999999288
 20
158.00000075995931
 30
0.0
 11
88.770499999999288
 21
161.67050075995849
 31
0.0
  0
LINE
  5
50C8
  8
0
 10
91.5
 20
161.4000007599592
 30
0.0
 11
88.499999999999986
 21
161.4000007599592
 31
0.0
  0
LINE
  5
50C9
  8
0
 10
90.899999999999977
 20
162.00000075995919
 30
0.0
 11
91.5
 21
161.4000007599592
 31
0.0
  0
LINE
  5
50CA
  8
0
 10
88.499999999999986
 20
161.4000007599592
 30
0.0
 11
89.100000000000009
 21
162.00000075995919
 31
0.0
  0
LINE
  5
50CB
  8
0
 10
89.100000000000009
 20
162.00000075995919
 30
0.0
 11
90.899999999999977
 21
162.00000075995919
 31
0.0
  0
LINE
  5
50CC
  8
2
 10
91.229500000000726
 20
143.50000075995919
 30
0.0
 11
91.229500000000826
 21
158.00000075995931
 31
0.0
  0
LINE
  5
50CD
  8
2
 10
91.229500000000726
 20
143.50000075995919
 30
0.0
 11
91.5
 21
143.03148101651311
 31
0.0
  0
LINE
  5
50CE
  8
2
 10
88.770499999999288
 20
143.50000075995919
 30
0.0
 11
88.499999999999986
 21
143.03148101651311
 31
0.0
  0
LINE
  5
50CF
  8
2
 10
88.770499999999288
 20
143.50000075995919
 30
0.0
 11
88.770499999999288
 21
158.00000075995931
 31
0.0
  0
LINE
  5
50D0
  8
2
 10
88.499999999999986
 20
143.50000075995919
 30
0.0
 11
91.5
 21
143.50000075995919
 31
0.0
  0
LINE
  5
50D1
  8
1
 10
90.0
 20
163.50000075995919
 30
0.0
 11
90.0
 21
136.50000075995919
 31
0.0
  0
TEXT
  5
514D
  8
0
 62
     3
 10
0.0
 20
0.0
 30
0.0
 40
10.0
  1
QCPSC0828-25
  7
STANDARD1
  0
CIRCLE
  5
5161
  8
0
 10
83.0
 20
148.00000075995919
 30
0.0
 40
0.8000000000000113
  0
CIRCLE
  5
5162
  8
0
 10
61.0
 20
148.00000075995919
 30
0.0
 40
0.8000000000000113
  0
CIRCLE
  5
5163
  8
3
 10
61.0
 20
148.00000075995919
 30
0.0
 40
0.9999999999999975
  0
CIRCLE
  5
5164
  8
3
 10
83.0
 20
148.00000075995919
 30
0.0
 40
0.9999999999999975
  0
LINE
  5
5165
  8
1
 10
83.0
 20
150.50000075995919
 30
0.0
 11
83.0
 21
145.50000075995919
 31
0.0
  0
LINE
  5
5166
  8
1
 10
61.0
 20
150.50000075995919
 30
0.0
 11
61.0
 21
145.50000075995919
 31
0.0
  0
LINE
  5
516D
  8
2
 10
60.199999555945389
 20
90.049998901784363
 30
0.0
 11
61.799999631941319
 21
90.049998901784363
 31
0.0
  0
LINE
  5
516E
  8
2
 10
60.199999555945389
 20
84.499999016523304
 30
0.0
 11
61.799999631941319
 21
84.499999016523304
 31
0.0
  0
LINE
  5
516F
  8
2
 10
59.750000320374959
 20
90.499999999999943
 30
0.0
 11
60.199999555945389
 21
90.049998901784363
 31
0.0
  0
LINE
  5
5170
  8
2
 10
61.799999631941319
 20
90.049998901784363
 30
0.0
 11
62.249999798834317
 21
90.499999999999943
 31
0.0
  0
LINE
  5
5171
  8
2
 10
60.199999555945389
 20
90.049998901784363
 30
0.0
 11
60.199999555945389
 21
84.499999016523304
 31
0.0
  0
LINE
  5
5172
  8
2
 10
61.799999631941319
 20
84.499999016523304
 30
0.0
 11
61.799999631941319
 21
90.049998901784363
 31
0.0
  0
LINE
  5
5173
  8
2
 10
60.199999555945389
 20
84.499999016523304
 30
0.0
 11
61.000000059604638
 21
84.019310839474144
 31
0.0
  0
LINE
  5
5174
  8
2
 10
61.000000059604638
 20
84.019310839474144
 30
0.0
 11
61.799999631941319
 21
84.499999016523304
 31
0.0
  0
LINE
  5
5175
  8
2
 10
60.000048269648907
 20
90.249951015722857
 30
0.0
 11
60.000048269648907
 21
86.499999240040694
 31
0.0
  0
LINE
  5
5176
  8
2
 10
60.000048269648907
 20
86.499999240040694
 30
0.0
 11
61.999951730351093
 21
86.499999240040694
 31
0.0
  0
LINE
  5
5177
  8
2
 10
61.999951730351093
 20
86.499999240040694
 30
0.0
 11
61.999951730351093
 21
90.249951414015939
 31
0.0
  0
LINE
  5
5178
  8
2
 10
82.199999555945396
 20
90.049998901784363
 30
0.0
 11
83.799999631941319
 21
90.049998901784363
 31
0.0
  0
LINE
  5
5179
  8
2
 10
82.199999555945396
 20
84.499999016523304
 30
0.0
 11
83.799999631941319
 21
84.499999016523304
 31
0.0
  0
LINE
  5
517A
  8
2
 10
81.750000320374966
 20
90.499999999999943
 30
0.0
 11
82.199999555945396
 21
90.049998901784363
 31
0.0
  0
LINE
  5
517B
  8
2
 10
83.799999631941319
 20
90.049998901784363
 30
0.0
 11
84.249999798834324
 21
90.499999999999943
 31
0.0
  0
LINE
  5
517C
  8
2
 10
82.199999555945396
 20
90.049998901784363
 30
0.0
 11
82.199999555945396
 21
84.499999016523304
 31
0.0
  0
LINE
  5
517D
  8
2
 10
83.799999631941319
 20
84.499999016523304
 30
0.0
 11
83.799999631941319
 21
90.049998901784363
 31
0.0
  0
LINE
  5
517E
  8
2
 10
82.199999555945396
 20
84.499999016523304
 30
0.0
 11
83.000000059604645
 21
84.019310839474144
 31
0.0
  0
LINE
  5
517F
  8
2
 10
83.000000059604645
 20
84.019310839474144
 30
0.0
 11
83.799999631941319
 21
84.499999016523304
 31
0.0
  0
LINE
  5
5180
  8
2
 10
82.000048269648914
 20
90.249951015722857
 30
0.0
 11
82.000048269648914
 21
86.499999240040694
 31
0.0
  0
LINE
  5
5181
  8
2
 10
82.000048269648914
 20
86.499999240040694
 30
0.0
 11
83.999951730351086
 21
86.499999240040694
 31
0.0
  0
LINE
  5
5182
  8
2
 10
83.999951730351086
 20
86.499999240040694
 30
0.0
 11
83.999951730351086
 21
90.249951414015939
 31
0.0
  0
ENDSEC
  0
EOF
