  0
SECTION
  2
HEADER
  9
$ACADVER
  1
AC1009
  9
$INSBASE
 10
0.0
 20
0.0
 30
0.0
  9
$EXTMIN
 10
0.0
 20
-2.960436562073669
 30
0.0
  9
$EXTMAX
 10
172.0000000000001137
 20
168.0000007599595904
 30
0.0
  9
$LIMMIN
 10
0.0
 20
0.0
  9
$LIMMAX
 10
375.0
 20
270.0
  9
$ORTHOMODE
 70
     1
  9
$REGENMODE
 70
     1
  9
$FILLMODE
 70
     1
  9
$QTEXTMODE
 70
     0
  9
$MIRRTEXT
 70
     0
  9
$DRAGMODE
 70
     2
  9
$LTSCALE
 40
5.0
  9
$OSMODE
 70
    37
  9
$ATTMODE
 70
     1
  9
$TEXTSIZE
 40
4.000000000000048
  9
$TRACEWID
 40
0.05
  9
$TEXTSTYLE
  7
STANDARD
  9
$CLAYER
  8
1
  9
$CELTYPE
  6
BYLAYER
  9
$CECOLOR
 62
   256
  9
$DIMSCALE
 40
1.0
  9
$DIMASZ
 40
3.0
  9
$DIMEXO
 40
2.0
  9
$DIMDLI
 40
0.38
  9
$DIMRND
 40
0.0
  9
$DIMDLE
 40
0.0
  9
$DIMEXE
 40
2.0
  9
$DIMTP
 40
0.0
  9
$DIMTM
 40
0.0
  9
$DIMTXT
 40
3.2000000000000002
  9
$DIMCEN
 40
0.0
  9
$DIMTSZ
 40
0.0
  9
$DIMTOL
 70
     0
  9
$DIMLIM
 70
     0
  9
$DIMTIH
 70
     0
  9
$DIMTOH
 70
     0
  9
$DIMSE1
 70
     0
  9
$DIMSE2
 70
     0
  9
$DIMTAD
 70
     1
  9
$DIMZIN
 70
     8
  9
$DIMBLK
  1

  9
$DIMASO
 70
     0
  9
$DIMSHO
 70
     0
  9
$DIMPOST
  1

  9
$DIMAPOST
  1

  9
$DIMALT
 70
     0
  9
$DIMALTD
 70
     2
  9
$DIMALTF
 40
25.3999999999999986
  9
$DIMLFAC
 40
1.0
  9
$DIMTOFL
 70
     0
  9
$DIMTVP
 40
1.6000000000000001
  9
$DIMTIX
 70
     1
  9
$DIMSOXD
 70
     0
  9
$DIMSAH
 70
     0
  9
$DIMBLK1
  1

  9
$DIMBLK2
  1

  9
$DIMSTYLE
  2
STANDARD
  9
$DIMCLRD
 70
     4
  9
$DIMCLRE
 70
     4
  9
$DIMCLRT
 70
     4
  9
$DIMTFAC
 40
1.0
  9
$DIMGAP
 40
0.09
  9
$LUNITS
 70
     2
  9
$LUPREC
 70
     1
  9
$SKETCHINC
 40
0.1
  9
$FILLETRAD
 40
22.0
  9
$AUNITS
 70
     0
  9
$AUPREC
 70
     0
  9
$MENU
  1
E:\r13\win\SUPPORT\ACAD
  9
$ELEVATION
 40
0.0
  9
$PELEVATION
 40
0.0
  9
$THICKNESS
 40
0.0
  9
$LIMCHECK
 70
     0
  9
$BLIPMODE
 70
     0
  9
$CHAMFERA
 40
1.1999999999999991
  9
$CHAMFERB
 40
1.1999999999999991
  9
$SKPOLY
 70
     0
  9
$TDCREATE
 40
2449954.6020138887688518
  9
$TDUPDATE
 40
2460713.4588310187682509
  9
$TDINDWG
 40
0.5931883565
  9
$TDUSRTIMER
 40
0.5931883565
  9
$USRTIMER
 70
     1
  9
$ANGBASE
 50
0.0
  9
$ANGDIR
 70
     0
  9
$PDMODE
 70
     0
  9
$PDSIZE
 40
0.0
  9
$PLINEWID
 40
0.0
  9
$COORDS
 70
     1
  9
$SPLFRAME
 70
     0
  9
$SPLINETYPE
 70
     6
  9
$SPLINESEGS
 70
     8
  9
$ATTDIA
 70
     1
  9
$ATTREQ
 70
     1
  9
$HANDLING
 70
     1
  9
$HANDSEED
  5
5D7C
  9
$SURFTAB1
 70
     6
  9
$SURFTAB2
 70
     6
  9
$SURFTYPE
 70
     6
  9
$SURFU
 70
     6
  9
$SURFV
 70
     6
  9
$UCSNAME
  2

  9
$UCSORG
 10
0.0
 20
0.0
 30
0.0
  9
$UCSXDIR
 10
1.0
 20
0.0
 30
0.0
  9
$UCSYDIR
 10
0.0
 20
1.0
 30
0.0
  9
$PUCSNAME
  2

  9
$PUCSORG
 10
0.0
 20
0.0
 30
0.0
  9
$PUCSXDIR
 10
1.0
 20
0.0
 30
0.0
  9
$PUCSYDIR
 10
0.0
 20
1.0
 30
0.0
  9
$USERI1
 70
     0
  9
$USERI2
 70
     1
  9
$USERI3
 70
     0
  9
$USERI4
 70
     0
  9
$USERI5
 70
     0
  9
$USERR1
 40
0.0
  9
$USERR2
 40
0.0
  9
$USERR3
 40
0.0
  9
$USERR4
 40
0.0
  9
$USERR5
 40
0.0
  9
$WORLDVIEW
 70
     1
  9
$SHADEDGE
 70
     3
  9
$SHADEDIF
 70
    70
  9
$TILEMODE
 70
     1
  9
$MAXACTVP
 70
    16
  9
$PLIMCHECK
 70
     0
  9
$PEXTMIN
 10
1.0000000000000000E+20
 20
1.0000000000000000E+20
 30
1.0000000000000000E+20
  9
$PEXTMAX
 10
-1.0000000000000000E+20
 20
-1.0000000000000000E+20
 30
-1.0000000000000000E+20
  9
$PLIMMIN
 10
0.0
 20
0.0
  9
$PLIMMAX
 10
12.0
 20
9.0
  9
$UNITMODE
 70
     0
  9
$VISRETAIN
 70
     0
  9
$PLINEGEN
 70
     0
  9
$PSLTSCALE
 70
     0
  0
ENDSEC
  0
SECTION
  2
TABLES
  0
TABLE
  2
VPORT
 70
     1
  0
VPORT
  2
*ACTIVE
 70
     0
 10
0.0
 20
0.0
 11
1.0
 21
1.0
 12
127.2429390273365044
 22
82.5187974058649871
 13
0.0
 23
0.0
 14
10.0
 24
10.0
 15
10.0
 25
10.0
 16
0.0
 26
0.0
 36
1.0
 17
0.0
 27
0.0
 37
0.0
 40
172.3213876890418987
 41
2.3485221674876842
 42
50.0
 43
0.0
 44
0.0
 50
0.0
 51
0.0
 71
     0
 72
   500
 73
     1
 74
     0
 75
     0
 76
     0
 77
     0
 78
     2
  0
ENDTAB
  0
TABLE
  2
LTYPE
 70
     5
  0
LTYPE
  2
CONTINUOUS
 70
     0
  3
Solid Line
 72
    65
 73
     0
 40
0.0
  0
LTYPE
  2
CENTER
 70
     0
  3
____ _ ____ _ ____ _ ____ _ ____ _ ____ _ ____
 72
    65
 73
     4
 40
2.0
 49
1.25
 49
-0.25
 49
0.25
 49
-0.25
  0
LTYPE
  2
HIDDEN
 70
     0
  3
_ _ _ _ _ _ _ _ _ _ _ _ _ _ _ _ _ _ _ _ _ _ _
 72
    65
 73
     2
 40
0.375
 49
0.25
 49
-0.125
  0
LTYPE
  2
PHANTOM
 70
     0
  3
_____ _ _ _____ _ _ _____ _ _ _____ _ _ ____
 72
    65
 73
     6
 40
2.5
 49
1.25
 49
-0.25
 49
0.25
 49
-0.25
 49
0.25
 49
-0.25
  0
LTYPE
  2
PHANTOM2
 70
     0
  3
___ _ _ ___ _ _ ___ _ _ ___ _ _
 72
    65
 73
     6
 40
1.25
 49
0.625
 49
-0.125
 49
0.125
 49
-0.125
 49
0.125
 49
-0.125
  0
ENDTAB
  0
TABLE
  2
LAYER
 70
     7
  0
LAYER
  2
0
 70
     0
 62
     7
  6
CONTINUOUS
  0
LAYER
  2
1
 70
     0
 62
     1
  6
CENTER
  0
LAYER
  2
3
 70
     0
 62
     3
  6
CONTINUOUS
  0
LAYER
  2
2
 70
     0
 62
     2
  6
HIDDEN
  0
LAYER
  2
5
 70
     0
 62
     3
  6
PHANTOM
  0
LAYER
  2
DEFPOINTS
 70
     0
 62
     7
  6
CONTINUOUS
  0
LAYER
  2
4
 70
     0
 62
     4
  6
CONTINUOUS
  0
ENDTAB
  0
TABLE
  2
STYLE
 70
     2
  0
STYLE
  2
STANDARD
 70
     0
 40
0.0
 41
1.0
 50
0.0
 71
     0
 42
4.000000000000048
  3
SIMPLEX
  4
BIGFONT
  0
STYLE
  2
STANDARD1
 70
     0
 40
0.0
 41
1.0
 50
0.0
 71
     0
 42
3.0
  3
txt
  4

  0
ENDTAB
  0
TABLE
  2
VIEW
 70
     1
  0
VIEW
  2
ALL
 70
     0
 40
270.0
 10
220.785953177257511
 20
135.0
 41
441.571906354515022
 11
0.0
 21
0.0
 31
1.0
 12
0.0
 22
0.0
 32
0.0
 42
50.0
 43
0.0
 44
0.0
 50
0.0
 71
     0
  0
ENDTAB
  0
TABLE
  2
UCS
 70
     0
  0
ENDTAB
  0
TABLE
  2
APPID
 70
     8
  0
APPID
  2
ACAD
 70
     0
  0
APPID
  2
ACAD_EXEMPT_FROM_CAD_STANDARDS
 70
     0
  0
APPID
  2
ACAD_MLEADERVER
 70
     0
  0
APPID
  2
ACAD_NAV_VCDISPLAY
 70
     0
  0
APPID
  2
ACAD_DSTYLE_DIMJAG
 70
     0
  0
APPID
  2
ACAD_DSTYLE_DIMTALN
 70
     0
  0
APPID
  2
ACAECLAYERSTANDARD
 70
     0
  0
APPID
  2
ACCMTRANSPARENCY
 70
     0
  0
ENDTAB
  0
TABLE
  2
DIMSTYLE
 70
     2
  0
DIMSTYLE
  2
STANDARD
 70
     0
  3

  4

  5

  6

  7

 40
1.0
 41
0.18
 42
0.0625
 43
0.38
 44
0.18
 45
0.0
 46
0.0
 47
0.0
 48
0.0
140
0.18
141
0.09
142
0.0
143
25.3999999999999986
144
1.0
145
0.0
146
1.0
147
0.09
 71
     0
 72
     0
 73
     1
 74
     1
 75
     0
 76
     0
 77
     0
 78
     0
170
     0
171
     2
172
     0
173
     0
174
     0
175
     0
176
     0
177
     0
178
     0
  0
DIMSTYLE
  2
ISO-25
 70
     0
  3

  4

  5

  6

  7

 40
1.0
 41
2.5
 42
0.625
 43
3.75
 44
1.25
 45
0.0
 46
0.0
 47
0.0
 48
0.0
140
2.5
141
2.5
142
0.0
143
0.03937007874016
144
1.0
145
0.0
146
1.0
147
0.625
 71
     0
 72
     0
 73
     0
 74
     0
 75
     0
 76
     0
 77
     1
 78
     8
170
     0
171
     3
172
     1
173
     0
174
     0
175
     0
176
     0
177
     0
178
     0
  0
ENDTAB
  0
ENDSEC
  0
SECTION
  2
BLOCKS
  0
BLOCK
  8
0
  2
$MODEL_SPACE
 70
     0
 10
0.0
 20
0.0
 30
0.0
  3
$MODEL_SPACE
  1

  0
ENDBLK
  5
1126
  8
0
  0
BLOCK
 67
     1
  8
0
  2
$PAPER_SPACE
 70
     0
 10
0.0
 20
0.0
 30
0.0
  3
$PAPER_SPACE
  1

  0
ENDBLK
  5
1124
 67
     1
  8
0
  0
ENDSEC
  0
SECTION
  2
ENTITIES
  0
TEXT
  5
5088
  8
0
 62
     3
 10
0.0
 20
0.0
 30
0.0
 40
10.0
  1
QCPSC1036-15
  7
STANDARD1
  0
LINE
  5
5A55
  8
1
 10
134.9999999999998863
 20
72.0000000000000142
 30
0.0
 11
169.0
 21
72.0000000000000142
 31
0.0
  0
CIRCLE
  5
5C54
  8
0
 10
89.9999999999998863
 20
74.4999999999999432
 30
0.0
 40
3.5
  0
CIRCLE
  5
5C55
  8
0
 10
72.0
 20
72.0
 30
0.0
 40
7.5000000000001128
  0
ARC
  5
5C56
  8
0
 10
72.0
 20
74.4999999999999432
 30
0.0
 40
23.0000000000000995
 50
151.4281218576911101
 51
28.5718781423110499
  0
CIRCLE
  5
5C57
  8
0
 10
53.9999999999998792
 20
74.4999999999999432
 30
0.0
 40
3.4999999999998859
  0
LINE
  5
5C58
  8
0
 10
51.8009901232759375
 20
85.5000000000001137
 30
0.0
 11
92.1990098767241761
 21
85.5000000000001137
 31
0.0
  0
CIRCLE
  5
5C59
  8
0
 10
89.9999999999998863
 20
74.4999999999999432
 30
0.0
 40
2.7499999999998859
  0
LINE
  5
5C5A
  8
0
 10
89.9999999999998863
 20
75.9433756729740708
 30
0.0
 11
88.7499999999997584
 21
75.2216878364870354
 31
0.0
  0
LINE
  5
5C5B
  8
0
 10
88.7499999999997584
 20
75.2216878364870354
 30
0.0
 11
88.7499999999997584
 21
73.7783121635130215
 31
0.0
  0
LINE
  5
5C5C
  8
0
 10
88.7499999999997584
 20
73.7783121635130215
 30
0.0
 11
89.9999999999998863
 21
73.0566243270259292
 31
0.0
  0
LINE
  5
5C5D
  8
0
 10
89.9999999999998863
 20
73.0566243270259292
 30
0.0
 11
91.2499999999998863
 21
73.7783121635130215
 31
0.0
  0
LINE
  5
5C5E
  8
0
 10
91.2499999999998863
 20
73.7783121635130215
 30
0.0
 11
91.2499999999998863
 21
75.2216878364870354
 31
0.0
  0
LINE
  5
5C5F
  8
0
 10
91.2499999999998863
 20
75.2216878364870354
 30
0.0
 11
89.9999999999998863
 21
75.9433756729740708
 31
0.0
  0
CIRCLE
  5
5C60
  8
0
 10
53.9999999999998792
 20
74.4999999999999432
 30
0.0
 40
2.75
  0
LINE
  5
5C61
  8
0
 10
53.9999999999998792
 20
75.9433756729740708
 30
0.0
 11
52.7499999999998792
 21
75.2216878364870354
 31
0.0
  0
LINE
  5
5C62
  8
0
 10
55.2499999999998792
 20
75.2216878364870354
 30
0.0
 11
53.9999999999998792
 21
75.9433756729740708
 31
0.0
  0
LINE
  5
5C63
  8
0
 10
53.9999999999998792
 20
73.0566243270259292
 30
0.0
 11
55.2499999999998792
 21
73.7783121635130215
 31
0.0
  0
LINE
  5
5C64
  8
0
 10
55.2499999999998792
 20
73.7783121635130215
 30
0.0
 11
55.2499999999998792
 21
75.2216878364870354
 31
0.0
  0
LINE
  5
5C65
  8
0
 10
52.7499999999998792
 20
73.7783121635130215
 30
0.0
 11
53.9999999999998792
 21
73.0566243270259292
 31
0.0
  0
LINE
  5
5C66
  8
0
 10
52.7499999999998792
 20
75.2216878364870354
 30
0.0
 11
52.7499999999998792
 21
73.7783121635130215
 31
0.0
  0
LINE
  5
5C67
  8
0
 10
139.9999999999998863
 20
51.5
 30
0.0
 11
164.0
 21
51.5000000000001066
 31
0.0
  0
LINE
  5
5C68
  8
0
 10
164.0
 20
73.0000000000001137
 30
0.0
 11
169.0
 21
73.0000000000001137
 31
0.0
  0
LINE
  5
5C69
  8
0
 10
169.0
 20
76.0000000000001137
 30
0.0
 11
164.0
 21
76.0000000000001137
 31
0.0
  0
LINE
  5
5C6A
  8
0
 10
139.9999999999998863
 20
85.5000000000001137
 30
0.0
 11
140.0
 21
51.4999999999999503
 31
0.0
  0
LINE
  5
5C6B
  8
0
 10
139.9999999999998863
 20
85.5000000000001137
 30
0.0
 11
164.0
 21
85.5000000000001137
 31
0.0
  0
LINE
  5
5C6C
  8
0
 10
164.0
 20
51.5000000000000497
 30
0.0
 11
164.0
 21
85.5000000000001137
 31
0.0
  0
LINE
  5
5C6D
  8
0
 10
169.0
 20
73.0000000000001137
 30
0.0
 11
169.0
 21
76.0000000000001137
 31
0.0
  0
LINE
  5
5C6E
  8
0
 10
48.9999999999998792
 20
160.0000007599589935
 30
0.0
 11
49.0000000000001066
 21
136.0000007599589082
 31
0.0
  0
LINE
  5
5C6F
  8
0
 10
95.0
 20
136.0000007599593062
 30
0.0
 11
94.9999999999998863
 21
160.0000007599593914
 31
0.0
  0
LINE
  5
5C70
  8
0
 10
91.5
 20
160.0000007599593062
 30
0.0
 11
91.4999999999998863
 21
165.0000007599593914
 31
0.0
  0
LINE
  5
5C71
  8
0
 10
88.4999999999998863
 20
165.0000007599593914
 30
0.0
 11
88.4999999999999858
 21
160.0000007599593062
 31
0.0
  0
LINE
  5
5C72
  8
0
 10
55.4999999999998934
 20
160.0000007599589935
 30
0.0
 11
55.4999999999998934
 21
165.0000007599589935
 31
0.0
  0
LINE
  5
5C73
  8
0
 10
52.4999999999998934
 20
165.0000007599589935
 30
0.0
 11
52.4999999999998934
 21
160.0000007599589935
 31
0.0
  0
LINE
  5
5C74
  8
0
 10
49.0
 20
136.0000007599591072
 30
0.0
 11
95.0000000000001137
 21
136.0000007599593062
 31
0.0
  0
LINE
  5
5C75
  8
0
 10
51.8009901232759375
 20
136.0000007599593062
 30
0.0
 11
51.8009901232757102
 21
160.0000007599589935
 31
0.0
  0
LINE
  5
5C76
  8
0
 10
95.0
 20
160.0000007599593914
 30
0.0
 11
48.9999999999998792
 21
160.0000007599589082
 31
0.0
  0
LINE
  5
5C77
  8
0
 10
92.1990098767241761
 20
136.0000007599593062
 30
0.0
 11
92.1990098767240625
 21
160.0000007599593914
 31
0.0
  0
CIRCLE
  5
5C78
  8
0
 10
72.0
 20
148.0000007599591925
 30
0.0
 40
8.8499999999999091
  0
CIRCLE
  5
5C79
  8
3
 10
57.9999999999998934
 20
148.0000007599589935
 30
0.0
 40
1.5
  0
CIRCLE
  5
5C7A
  8
3
 10
85.9999999999998863
 20
148.0000007599591925
 30
0.0
 40
1.4999999999998861
  0
LINE
  5
5C7B
  8
0
 10
64.4999999999997726
 20
152.698138688968811
 30
0.0
 11
64.5
 21
143.3018628309494034
 31
0.0
  0
LINE
  5
5C7C
  8
0
 10
79.5
 20
143.3018628309494886
 30
0.0
 11
79.4999999999998863
 21
152.69813868896901
 31
0.0
  0
LINE
  5
5C7D
  8
0
 10
91.4999999999998863
 20
165.0000007599593914
 30
0.0
 11
88.4999999999998863
 21
165.0000007599593914
 31
0.0
  0
LINE
  5
5C7E
  8
0
 10
55.4999999999998934
 20
165.0000007599589935
 30
0.0
 11
52.4999999999998934
 21
165.0000007599589935
 31
0.0
  0
LINE
  5
5C7F
  8
3
 10
88.7704999999999558
 20
160.0000007599593914
 30
0.0
 11
88.7704999999998563
 21
165.0000007599595904
 31
0.0
  0
LINE
  5
5C80
  8
3
 10
91.2294999999999163
 20
160.0000007599593914
 30
0.0
 11
91.2294999999999163
 21
165.0000007599597041
 31
0.0
  0
LINE
  5
5C81
  8
1
 10
89.9999999999997584
 20
168.0000007599595904
 30
0.0
 11
90.0000000000005542
 21
133.0000007599593914
 31
0.0
  0
LINE
  5
5C82
  8
1
 10
72.0000000000001137
 20
131.0000007599593062
 30
0.0
 11
71.9999999999997726
 21
165.0000007599593062
 31
0.0
  0
CIRCLE
  5
5C83
  8
0
 10
85.9999999999998863
 20
148.0000007599593914
 30
0.0
 40
1.2295
  0
LINE
  5
5C84
  8
1
 10
90.5
 20
148.0000007599593914
 30
0.0
 11
53.4999999999998792
 21
148.0000007599591072
 31
0.0
  0
LINE
  5
5C85
  8
1
 10
85.9999999999998863
 20
152.5000007599595051
 30
0.0
 11
85.9999999999998863
 21
143.5000007599593062
 31
0.0
  0
LINE
  5
5C86
  8
1
 10
57.9999999999998934
 20
152.5000007599591072
 30
0.0
 11
57.9999999999998934
 21
143.5000007599591072
 31
0.0
  0
CIRCLE
  5
5C87
  8
0
 10
57.9999999999998934
 20
148.0000007599591072
 30
0.0
 40
1.2295
  0
LINE
  5
5C88
  8
3
 10
52.77049999999997
 20
160.0000007599589935
 30
0.0
 11
52.7704999999998492
 21
165.0000007599593062
 31
0.0
  0
LINE
  5
5C89
  8
3
 10
55.2294999999999092
 20
160.0000007599589935
 30
0.0
 11
55.2294999999999092
 21
165.0000007599593914
 31
0.0
  0
LINE
  5
5C8A
  8
1
 10
53.9999999999997726
 20
168.0000007599593062
 30
0.0
 11
54.0000000000005684
 21
133.0000007599589935
 31
0.0
  0
LINE
  5
5C8B
  8
1
 10
47.4999999999998792
 20
74.4999999999999432
 30
0.0
 11
60.4999999999998934
 21
74.4999999999999432
 31
0.0
  0
LINE
  5
5C8C
  8
1
 10
53.9999999999998792
 20
81.0
 30
0.0
 11
53.9999999999998792
 21
67.9999999999998863
 31
0.0
  0
LINE
  5
5C8D
  8
1
 10
83.4999999999998863
 20
74.4999999999999432
 30
0.0
 11
96.4999999999998863
 21
74.4999999999999432
 31
0.0
  0
LINE
  5
5C8E
  8
1
 10
89.9999999999998863
 20
81.0
 30
0.0
 11
89.9999999999998863
 21
67.9999999999998863
 31
0.0
  0
LINE
  5
5C8F
  8
1
 10
82.5000000000001137
 20
72.0
 30
0.0
 11
61.4999999999998792
 21
72.0
 31
0.0
  0
LINE
  5
5C90
  8
1
 10
72.0
 20
46.4999999999998792
 30
0.0
 11
72.0
 21
90.5
 31
0.0
  0
LINE
  5
5C91
  8
3
 10
163.999999999999801
 20
75.72950000000003
 30
0.0
 11
169.0000000000001137
 21
75.72950000000003
 31
0.0
  0
LINE
  5
5C92
  8
3
 10
163.999999999999801
 20
73.27049999999997
 30
0.0
 11
169.000000000000199
 21
73.2705000000000837
 31
0.0
  0
LINE
  5
5C93
  8
1
 10
172.0000000000001137
 20
74.5000000000001137
 30
0.0
 11
136.9999999999998863
 21
74.4999999999993747
 31
0.0
  0
LINE
  5
5C94
  8
1
 10
151.9999999999998863
 20
90.5250000000000909
 30
0.0
 11
151.9999999999998863
 21
46.525000000000027
 31
0.0
  0
LINE
  5
5C95
  8
2
 10
57.5
 20
140.0000007599587946
 30
0.0
 11
50.5
 21
140.0000007599587946
 31
0.0
  0
LINE
  5
5C96
  8
2
 10
56.75
 20
137.0000007599587946
 30
0.0
 11
51.25
 21
137.0000007599587946
 31
0.0
  0
LINE
  5
5C97
  8
2
 10
57.5
 20
136.0000007599587946
 30
0.0
 11
57.5
 21
140.0000007599587946
 31
0.0
  0
LINE
  5
5C98
  8
2
 10
50.5
 20
140.0000007599587946
 30
0.0
 11
50.5
 21
136.0000007599587946
 31
0.0
  0
LINE
  5
5C99
  8
2
 10
51.25
 20
140.0000007599587946
 30
0.0
 11
51.25
 21
137.0000007599587946
 31
0.0
  0
LINE
  5
5C9A
  8
2
 10
56.75
 20
137.0000007599587946
 30
0.0
 11
56.75
 21
140.0000007599587946
 31
0.0
  0
LINE
  5
5C9B
  8
2
 10
55.75
 20
140.0000007599587946
 30
0.0
 11
55.75
 21
160.0000007599589082
 31
0.0
  0
LINE
  5
5C9C
  8
2
 10
52.2499999999997726
 20
160.0000007599589082
 30
0.0
 11
52.25
 21
140.0000007599587946
 31
0.0
  0
LINE
  5
5C9D
  8
2
 10
55.5
 20
140.0000007599587946
 30
0.0
 11
55.4999999999997726
 21
160.0000007599589082
 31
0.0
  0
LINE
  5
5C9E
  8
2
 10
52.4999999999997726
 20
160.0000007599589082
 30
0.0
 11
52.5
 21
140.0000007599587946
 31
0.0
  0
LINE
  5
5C9F
  8
2
 10
93.4999999999999858
 20
140.0000007599593062
 30
0.0
 11
86.5
 21
140.0000007599593062
 31
0.0
  0
LINE
  5
5CA0
  8
2
 10
92.75
 20
137.0000007599593062
 30
0.0
 11
87.2499999999999858
 21
137.0000007599593062
 31
0.0
  0
LINE
  5
5CA1
  8
2
 10
93.4999999999999858
 20
136.0000007599593062
 30
0.0
 11
93.4999999999999858
 21
140.0000007599593062
 31
0.0
  0
LINE
  5
5CA2
  8
2
 10
86.5
 20
140.0000007599593062
 30
0.0
 11
86.5
 21
136.0000007599593062
 31
0.0
  0
LINE
  5
5CA3
  8
2
 10
87.2499999999999858
 20
140.0000007599593062
 30
0.0
 11
87.2499999999999858
 21
137.0000007599593062
 31
0.0
  0
LINE
  5
5CA4
  8
2
 10
92.75
 20
137.0000007599593062
 30
0.0
 11
92.75
 21
140.0000007599593062
 31
0.0
  0
LINE
  5
5CA5
  8
2
 10
91.75
 20
140.0000007599593062
 30
0.0
 11
91.75
 21
160.0000007599593914
 31
0.0
  0
LINE
  5
5CA6
  8
2
 10
88.2499999999997726
 20
160.0000007599593914
 30
0.0
 11
88.2500000000000142
 21
140.0000007599593062
 31
0.0
  0
LINE
  5
5CA7
  8
2
 10
91.5
 20
140.0000007599593062
 30
0.0
 11
91.4999999999997726
 21
160.0000007599593914
 31
0.0
  0
LINE
  5
5CA8
  8
2
 10
88.4999999999997868
 20
160.0000007599593914
 30
0.0
 11
88.4999999999999858
 21
140.0000007599593062
 31
0.0
  0
LINE
  5
5CA9
  8
2
 10
63.1500000000000909
 20
85.5000000000001137
 30
0.0
 11
63.1500000000000909
 21
72.0
 31
0.0
  0
LINE
  5
5CAA
  8
2
 10
80.8500000000000227
 20
85.5000000000001137
 30
0.0
 11
80.8500000000000227
 21
72.0
 31
0.0
  0
LINE
  5
5CAB
  8
2
 10
63.1500000000000909
 20
72.0
 30
0.0
 11
64.4999999999998863
 21
72.0
 31
0.0
  0
LINE
  5
5CAC
  8
2
 10
79.5000000000001137
 20
72.0
 30
0.0
 11
80.8500000000000227
 21
72.0
 31
0.0
  0
LINE
  5
5CAD
  8
2
 10
64.4999999999997726
 20
152.6981386889684131
 30
0.0
 11
64.4999999999996589
 21
160.0000007599589935
 31
0.0
  0
LINE
  5
5CAE
  8
2
 10
64.5
 20
143.3018628309494034
 30
0.0
 11
64.5
 21
136.0000007599591072
 31
0.0
  0
LINE
  5
5CAF
  8
2
 10
79.5000000000002274
 20
152.6981386889684984
 30
0.0
 11
79.5000000000001137
 21
160.0000007599591072
 31
0.0
  0
LINE
  5
5CB0
  8
2
 10
79.5000000000002274
 20
143.3018628309494886
 30
0.0
 11
79.5000000000004547
 21
136.0000007599593062
 31
0.0
  0
LINE
  5
5CCE
  8
2
 10
91.2294999999998737
 20
141.5000007599591072
 30
0.0
 11
91.2294999999997742
 21
160.0000007599591072
 31
0.0
  0
LINE
  5
5CCF
  8
2
 10
88.7704999999998563
 20
141.5000007599591072
 30
0.0
 11
88.7704999999997284
 21
160.0000007599591925
 31
0.0
  0
LINE
  5
5CD0
  8
2
 10
91.2295000000009964
 20
141.5000007599591072
 30
0.0
 11
91.5000000000002842
 21
141.0314810165129984
 31
0.0
  0
LINE
  5
5CD1
  8
2
 10
88.7704999999995721
 20
141.5000007599591072
 30
0.0
 11
88.5000000000002842
 21
141.0314810165129984
 31
0.0
  0
LINE
  5
5CD2
  8
2
 10
88.5000000000002842
 20
141.5000007599591072
 30
0.0
 11
91.5000000000002842
 21
141.5000007599591072
 31
0.0
  0
LINE
  5
5CDE
  8
2
 10
55.2294999999998879
 20
141.5000007599583114
 30
0.0
 11
55.2294999999997671
 21
160.0000007599583114
 31
0.0
  0
LINE
  5
5CDF
  8
2
 10
52.7704999999998492
 20
141.5000007599583114
 30
0.0
 11
52.7704999999997426
 21
160.0000007599583967
 31
0.0
  0
LINE
  5
5CE0
  8
2
 10
55.2295000000010035
 20
141.5000007599583114
 30
0.0
 11
55.5000000000002913
 21
141.0314810165122026
 31
0.0
  0
LINE
  5
5CE1
  8
2
 10
52.7704999999995721
 20
141.5000007599583114
 30
0.0
 11
52.5000000000002771
 21
141.0314810165122026
 31
0.0
  0
LINE
  5
5CE2
  8
2
 10
52.5000000000002771
 20
141.5000007599583114
 30
0.0
 11
55.5000000000002913
 21
141.5000007599583114
 31
0.0
  0
LINE
  5
5CF4
  8
2
 10
84.4999999999999147
 20
79.5000000000001137
 30
0.0
 11
87.4999999999999147
 21
79.5000000000001137
 31
0.0
  0
LINE
  5
5CF5
  8
2
 10
84.4999999999999147
 20
85.4750000000001364
 30
0.0
 11
84.4999999999999147
 21
79.5000000000001137
 31
0.0
  0
LINE
  5
5CF6
  8
2
 10
84.7704999999998847
 20
79.5000000000002274
 30
0.0
 11
84.7704999999998847
 21
85.4750000000002643
 31
0.0
  0
LINE
  5
5CF7
  8
2
 10
87.2295000000000016
 20
79.5000000000001137
 30
0.0
 11
87.2294999999998737
 21
85.4750000000003638
 31
0.0
  0
LINE
  5
5CF8
  8
1
 10
85.9999999999999147
 20
88.5000000000001137
 30
0.0
 11
85.9999999999999147
 21
76.5000000000001137
 31
0.0
  0
LINE
  5
5CF9
  8
2
 10
59.5000000000003126
 20
79.5000000000001137
 30
0.0
 11
56.5000000000003126
 21
79.5000000000001137
 31
0.0
  0
LINE
  5
5CFA
  8
2
 10
59.5000000000003126
 20
85.4750000000001364
 30
0.0
 11
59.5000000000003126
 21
79.5000000000001137
 31
0.0
  0
LINE
  5
5CFB
  8
2
 10
56.5000000000003126
 20
79.5000000000001137
 30
0.0
 11
56.5000000000003126
 21
85.4750000000001364
 31
0.0
  0
LINE
  5
5CFC
  8
2
 10
59.2295000000003427
 20
79.5000000000002274
 30
0.0
 11
59.2295000000003427
 21
85.4750000000002643
 31
0.0
  0
LINE
  5
5CFD
  8
2
 10
56.7705000000002187
 20
79.5000000000001137
 30
0.0
 11
56.7705000000003395
 21
85.4750000000003638
 31
0.0
  0
LINE
  5
5CFE
  8
1
 10
58.0000000000003126
 20
88.5000000000001137
 30
0.0
 11
58.0000000000003126
 21
76.5000000000001137
 31
0.0
  0
LINE
  5
5D06
  8
2
 10
87.4999999999999147
 20
79.5000000000001137
 30
0.0
 11
87.499999999999801
 21
85.4750000000003638
 31
0.0
  0
ENDSEC
  0
EOF
