  0
SECTION
  2
HEADER
  9
$ACADVER
  1
AC1009
  9
$INSBASE
 10
0.0
 20
0.0
 30
0.0
  9
$EXTMIN
 10
0.0
 20
-2.9604365620736548
 30
0.0
  9
$EXTMAX
 10
189.500002488493891
 20
177.5000017285346985
 30
0.0
  9
$LIMMIN
 10
0.0
 20
0.0
  9
$LIMMAX
 10
375.0
 20
270.0
  9
$ORTHOMODE
 70
     1
  9
$REGENMODE
 70
     1
  9
$FILLMODE
 70
     1
  9
$QTEXTMODE
 70
     0
  9
$MIRRTEXT
 70
     0
  9
$DRAGMODE
 70
     2
  9
$LTSCALE
 40
5.0
  9
$OSMODE
 70
    37
  9
$ATTMODE
 70
     1
  9
$TEXTSIZE
 40
4.000000000000048
  9
$TRACEWID
 40
0.05
  9
$TEXTSTYLE
  7
STANDARD
  9
$CLAYER
  8
0
  9
$CELTYPE
  6
BYLAYER
  9
$CECOLOR
 62
   256
  9
$DIMSCALE
 40
1.0
  9
$DIMASZ
 40
3.0
  9
$DIMEXO
 40
2.0
  9
$DIMDLI
 40
0.38
  9
$DIMRND
 40
0.0
  9
$DIMDLE
 40
0.0
  9
$DIMEXE
 40
2.0
  9
$DIMTP
 40
0.0
  9
$DIMTM
 40
0.0
  9
$DIMTXT
 40
3.2000000000000002
  9
$DIMCEN
 40
0.0
  9
$DIMTSZ
 40
0.0
  9
$DIMTOL
 70
     0
  9
$DIMLIM
 70
     0
  9
$DIMTIH
 70
     0
  9
$DIMTOH
 70
     0
  9
$DIMSE1
 70
     0
  9
$DIMSE2
 70
     0
  9
$DIMTAD
 70
     1
  9
$DIMZIN
 70
     8
  9
$DIMBLK
  1

  9
$DIMASO
 70
     0
  9
$DIMSHO
 70
     0
  9
$DIMPOST
  1

  9
$DIMAPOST
  1

  9
$DIMALT
 70
     0
  9
$DIMALTD
 70
     2
  9
$DIMALTF
 40
25.3999999999999986
  9
$DIMLFAC
 40
1.0
  9
$DIMTOFL
 70
     0
  9
$DIMTVP
 40
1.6000000000000001
  9
$DIMTIX
 70
     1
  9
$DIMSOXD
 70
     0
  9
$DIMSAH
 70
     0
  9
$DIMBLK1
  1

  9
$DIMBLK2
  1

  9
$DIMSTYLE
  2
STANDARD
  9
$DIMCLRD
 70
     4
  9
$DIMCLRE
 70
     4
  9
$DIMCLRT
 70
     4
  9
$DIMTFAC
 40
1.0
  9
$DIMGAP
 40
0.09
  9
$LUNITS
 70
     2
  9
$LUPREC
 70
     1
  9
$SKETCHINC
 40
0.1
  9
$FILLETRAD
 40
22.0
  9
$AUNITS
 70
     0
  9
$AUPREC
 70
     0
  9
$MENU
  1
E:\r13\win\SUPPORT\ACAD
  9
$ELEVATION
 40
0.0
  9
$PELEVATION
 40
0.0
  9
$THICKNESS
 40
0.0
  9
$LIMCHECK
 70
     0
  9
$BLIPMODE
 70
     0
  9
$CHAMFERA
 40
1.1999999999999991
  9
$CHAMFERB
 40
1.1999999999999991
  9
$SKPOLY
 70
     0
  9
$TDCREATE
 40
2449954.6020138887688518
  9
$TDUPDATE
 40
2460399.5762037038803101
  9
$TDINDWG
 40
0.6262799884
  9
$TDUSRTIMER
 40
0.6262799884
  9
$USRTIMER
 70
     1
  9
$ANGBASE
 50
0.0
  9
$ANGDIR
 70
     0
  9
$PDMODE
 70
     0
  9
$PDSIZE
 40
0.0
  9
$PLINEWID
 40
0.0
  9
$COORDS
 70
     1
  9
$SPLFRAME
 70
     0
  9
$SPLINETYPE
 70
     6
  9
$SPLINESEGS
 70
     8
  9
$ATTDIA
 70
     1
  9
$ATTREQ
 70
     1
  9
$HANDLING
 70
     1
  9
$HANDSEED
  5
591F
  9
$SURFTAB1
 70
     6
  9
$SURFTAB2
 70
     6
  9
$SURFTYPE
 70
     6
  9
$SURFU
 70
     6
  9
$SURFV
 70
     6
  9
$UCSNAME
  2

  9
$UCSORG
 10
0.0
 20
0.0
 30
0.0
  9
$UCSXDIR
 10
1.0
 20
0.0
 30
0.0
  9
$UCSYDIR
 10
0.0
 20
1.0
 30
0.0
  9
$PUCSNAME
  2

  9
$PUCSORG
 10
0.0
 20
0.0
 30
0.0
  9
$PUCSXDIR
 10
1.0
 20
0.0
 30
0.0
  9
$PUCSYDIR
 10
0.0
 20
1.0
 30
0.0
  9
$USERI1
 70
     0
  9
$USERI2
 70
     1
  9
$USERI3
 70
     0
  9
$USERI4
 70
     0
  9
$USERI5
 70
     0
  9
$USERR1
 40
0.0
  9
$USERR2
 40
0.0
  9
$USERR3
 40
0.0
  9
$USERR4
 40
0.0
  9
$USERR5
 40
0.0
  9
$WORLDVIEW
 70
     1
  9
$SHADEDGE
 70
     3
  9
$SHADEDIF
 70
    70
  9
$TILEMODE
 70
     1
  9
$MAXACTVP
 70
    16
  9
$PLIMCHECK
 70
     0
  9
$PEXTMIN
 10
1.0000000000000000E+20
 20
1.0000000000000000E+20
 30
1.0000000000000000E+20
  9
$PEXTMAX
 10
-1.0000000000000000E+20
 20
-1.0000000000000000E+20
 30
-1.0000000000000000E+20
  9
$PLIMMIN
 10
0.0
 20
0.0
  9
$PLIMMAX
 10
12.0
 20
9.0
  9
$UNITMODE
 70
     0
  9
$VISRETAIN
 70
     0
  9
$PLINEGEN
 70
     0
  9
$PSLTSCALE
 70
     0
  0
ENDSEC
  0
SECTION
  2
TABLES
  0
TABLE
  2
VPORT
 70
     1
  0
VPORT
  2
*ACTIVE
 70
     0
 10
0.0
 20
0.0
 11
1.0
 21
1.0
 12
223.109605911329993
 22
95.0
 13
0.0
 23
0.0
 14
10.0
 24
10.0
 15
10.0
 25
10.0
 16
0.0
 26
0.0
 36
1.0
 17
0.0
 27
0.0
 37
0.0
 40
190.0
 41
2.3485221674876842
 42
50.0
 43
0.0
 44
0.0
 50
0.0
 51
0.0
 71
     0
 72
   500
 73
     1
 74
     0
 75
     0
 76
     0
 77
     0
 78
     2
  0
ENDTAB
  0
TABLE
  2
LTYPE
 70
     4
  0
LTYPE
  2
CONTINUOUS
 70
     0
  3
Solid Line
 72
    65
 73
     0
 40
0.0
  0
LTYPE
  2
CENTER
 70
     0
  3
____ _ ____ _ ____ _ ____ _ ____ _ ____ _ ____
 72
    65
 73
     4
 40
2.0
 49
1.25
 49
-0.25
 49
0.25
 49
-0.25
  0
LTYPE
  2
HIDDEN
 70
     0
  3
_ _ _ _ _ _ _ _ _ _ _ _ _ _ _ _ _ _ _ _ _ _ _
 72
    65
 73
     2
 40
0.375
 49
0.25
 49
-0.125
  0
LTYPE
  2
PHANTOM2
 70
     0
  3
___ _ _ ___ _ _ ___ _ _ ___ _ _
 72
    65
 73
     6
 40
1.25
 49
0.625
 49
-0.125
 49
0.125
 49
-0.125
 49
0.125
 49
-0.125
  0
ENDTAB
  0
TABLE
  2
LAYER
 70
     5
  0
LAYER
  2
0
 70
     0
 62
     7
  6
CONTINUOUS
  0
LAYER
  2
1
 70
     0
 62
     1
  6
CENTER
  0
LAYER
  2
3
 70
     0
 62
     3
  6
CONTINUOUS
  0
LAYER
  2
2
 70
     0
 62
     2
  6
HIDDEN
  0
LAYER
  2
DEFPOINTS
 70
     0
 62
     7
  6
CONTINUOUS
  0
ENDTAB
  0
TABLE
  2
STYLE
 70
     2
  0
STYLE
  2
STANDARD
 70
     0
 40
0.0
 41
1.0
 50
0.0
 71
     0
 42
4.000000000000048
  3
SIMPLEX
  4
BIGFONT
  0
STYLE
  2
STANDARD1
 70
     0
 40
0.0
 41
1.0
 50
0.0
 71
     0
 42
3.0
  3
txt
  4

  0
ENDTAB
  0
TABLE
  2
VIEW
 70
     1
  0
VIEW
  2
ALL
 70
     0
 40
270.0
 10
220.785953177257511
 20
135.0
 41
441.571906354515022
 11
0.0
 21
0.0
 31
1.0
 12
0.0
 22
0.0
 32
0.0
 42
50.0
 43
0.0
 44
0.0
 50
0.0
 71
     0
  0
ENDTAB
  0
TABLE
  2
UCS
 70
     0
  0
ENDTAB
  0
TABLE
  2
APPID
 70
    10
  0
APPID
  2
ACAD
 70
     0
  0
APPID
  2
ACAD_EXEMPT_FROM_CAD_STANDARDS
 70
     0
  0
APPID
  2
ACAD_MLEADERVER
 70
     0
  0
APPID
  2
ACAD_NAV_VCDISPLAY
 70
     0
  0
APPID
  2
ACAD_DSTYLE_DIMJAG
 70
     0
  0
APPID
  2
ACAD_DSTYLE_DIMTALN
 70
     0
  0
APPID
  2
ACAECLAYERSTANDARD
 70
     0
  0
APPID
  2
ACCMTRANSPARENCY
 70
     0
  0
APPID
  2
ACAD_TC
 70
     0
  0
APPID
  2
ACAD_DSTYLE_DIMRADIAL_EXTENSION
 70
     0
  0
ENDTAB
  0
TABLE
  2
DIMSTYLE
 70
     1
  0
DIMSTYLE
  2
STANDARD
 70
     0
  3

  4

  5

  6

  7

 40
1.0
 41
0.18
 42
0.0625
 43
0.38
 44
0.18
 45
0.0
 46
0.0
 47
0.0
 48
0.0
140
0.18
141
0.09
142
0.0
143
25.3999999999999986
144
1.0
145
0.0
146
1.0
147
0.09
 71
     0
 72
     0
 73
     1
 74
     1
 75
     0
 76
     0
 77
     0
 78
     0
170
     0
171
     2
172
     0
173
     0
174
     0
175
     0
176
     0
177
     0
178
     0
  0
ENDTAB
  0
ENDSEC
  0
SECTION
  2
BLOCKS
  0
BLOCK
  8
0
  2
$MODEL_SPACE
 70
     0
 10
0.0
 20
0.0
 30
0.0
  3
$MODEL_SPACE
  1

  0
ENDBLK
  5
1126
  8
0
  0
BLOCK
 67
     1
  8
0
  2
$PAPER_SPACE
 70
     0
 10
0.0
 20
0.0
 30
0.0
  3
$PAPER_SPACE
  1

  0
ENDBLK
  5
1124
 67
     1
  8
0
  0
ENDSEC
  0
SECTION
  2
ENTITIES
  0
TEXT
  5
5233
  8
0
 62
     3
 10
0.0
 20
0.0000000000000142
 30
0.0
 40
10.0
  1
QCPSC2245-20
  7
STANDARD1
  0
LINE
  5
54CC
  8
0
 10
89.7320505976676941
 20
70.0000000000000142
 30
0.0
 11
88.866024911403656
 21
71.5000000130385303
 31
0.0
  0
LINE
  5
54CD
  8
0
 10
88.866024911403656
 20
71.5000000130385303
 30
0.0
 11
87.1339754015207149
 21
71.5000000130385303
 31
0.0
  0
CIRCLE
  5
54CE
  8
0
 10
88.0
 20
70.0000000000000142
 30
0.0
 40
3.5
  0
LINE
  5
54CF
  8
0
 10
86.267949715256691
 20
70.0000000000000142
 30
0.0
 11
87.1339754015207149
 21
71.5000000130385303
 31
0.0
  0
LINE
  5
54D0
  8
0
 10
86.267949715256691
 20
70.0000000000000142
 30
0.0
 11
87.1339754015207149
 21
68.4999999869614982
 31
0.0
  0
LINE
  5
54D1
  8
0
 10
87.1339754015207149
 20
68.4999999869614982
 30
0.0
 11
88.866024911403656
 21
68.4999999869614982
 31
0.0
  0
LINE
  5
54D2
  8
0
 10
89.7320505976676941
 20
70.0000000000000142
 30
0.0
 11
88.866024911403656
 21
68.4999999869614982
 31
0.0
  0
LINE
  5
54D3
  8
0
 10
53.7320502847433019
 20
70.0000000000000142
 30
0.0
 11
52.8660245984792709
 21
71.5000000130385303
 31
0.0
  0
LINE
  5
54D4
  8
0
 10
52.8660245984792709
 20
71.5000000130385303
 30
0.0
 11
51.1339750885963369
 21
71.5000000130385303
 31
0.0
  0
CIRCLE
  5
54D5
  8
0
 10
52.0
 20
70.0000000000000142
 30
0.0
 40
3.5
  0
LINE
  5
54D6
  8
0
 10
50.2679494023322988
 20
70.0000000000000142
 30
0.0
 11
51.1339750885963369
 21
71.5000000130385303
 31
0.0
  0
LINE
  5
54D7
  8
0
 10
50.2679494023322988
 20
70.0000000000000142
 30
0.0
 11
51.1339750885963369
 21
68.4999999869614982
 31
0.0
  0
LINE
  5
54D8
  8
0
 10
51.1339750885963369
 20
68.4999999869614982
 30
0.0
 11
52.8660245984792709
 21
68.4999999869614982
 31
0.0
  0
LINE
  5
54D9
  8
0
 10
53.7320502847433019
 20
70.0000000000000142
 30
0.0
 11
52.8660245984792709
 21
68.4999999869614982
 31
0.0
  0
CIRCLE
  5
54DF
  8
0
 10
88.0
 20
70.0000000000000142
 30
0.0
 40
4.0
  0
CIRCLE
  5
54E0
  8
0
 10
52.0
 20
70.0000000000000142
 30
0.0
 40
4.0
  0
LINE
  5
54E2
  8
0
 10
47.0217500627040792
 20
86.0000007599592351
 30
0.0
 11
92.9782499372959137
 21
86.0000007599592351
 31
0.0
  0
ARC
  5
54E4
  8
0
 10
70.0
 20
70.0000000000000142
 30
0.0
 40
27.9999999999999893
 50
145.1500954209541021
 51
34.8499045790458482
  0
CIRCLE
  5
54E5
  8
0
 10
70.0
 20
70.0000000000000142
 30
0.0
 40
10.0
  0
LINE
  5
54E7
  8
2
 10
79.9999997764825821
 20
70.0000000000000142
 30
0.0
 11
83.1000000983476639
 21
70.0000000000000142
 31
0.0
  0
LINE
  5
54E8
  8
2
 10
60.0000002235174108
 20
70.0000000000000142
 30
0.0
 11
56.899999901652329
 21
70.0000000000000142
 31
0.0
  0
LINE
  5
54EB
  8
2
 10
50.7999990880489278
 20
85.3000000864267491
 30
0.0
 11
54.2000007629394531
 21
85.3000000864267491
 31
0.0
  0
LINE
  5
54ED
  8
2
 10
85.7999992370605469
 20
85.3000000864267491
 30
0.0
 11
89.2000009119510651
 21
85.3000000864267491
 31
0.0
  0
LINE
  5
54EF
  8
2
 10
50.7999990880489278
 20
76.0000000521540784
 30
0.0
 11
54.2000007629394531
 21
76.0000000521540784
 31
0.0
  0
LINE
  5
54F0
  8
2
 10
85.7999992370605469
 20
76.0000000521540784
 30
0.0
 11
89.2000009119510651
 21
76.0000000521540784
 31
0.0
  0
LINE
  5
54F1
  8
2
 10
56.899999901652329
 20
86.0000007599592493
 30
0.0
 11
56.899999901652329
 21
70.0000000000000142
 31
0.0
  0
LINE
  5
54F2
  8
2
 10
83.1000000983476639
 20
70.0000000000000142
 30
0.0
 11
83.1000000983476639
 21
86.0000007599592493
 31
0.0
  0
LINE
  5
54F3
  8
2
 10
50.1000002771615911
 20
86.0000007599592351
 30
0.0
 11
50.7999990880489278
 21
85.3000000864267491
 31
0.0
  0
LINE
  5
54F4
  8
2
 10
54.2000007629394531
 20
85.3000000864267491
 30
0.0
 11
54.8999995738267828
 21
86.0000007599592351
 31
0.0
  0
LINE
  5
54F5
  8
2
 10
85.1000004261732101
 20
86.0000007599592351
 30
0.0
 11
85.7999992370605469
 21
85.3000000864267491
 31
0.0
  0
LINE
  5
54F6
  8
2
 10
89.2000009119510651
 20
85.3000000864267491
 30
0.0
 11
89.8999997228384018
 21
86.0000007599592351
 31
0.0
  0
LINE
  5
54F7
  8
2
 10
50.7999990880489278
 20
85.3000000864267491
 30
0.0
 11
50.7999990880489278
 21
76.0000000521540784
 31
0.0
  0
LINE
  5
54F8
  8
2
 10
54.2000007629394531
 20
76.0000000521540784
 30
0.0
 11
54.2000007629394531
 21
85.3000000864267491
 31
0.0
  0
LINE
  5
54F9
  8
2
 10
50.7999990880489278
 20
76.0000000521540784
 30
0.0
 11
52.4999999254941869
 21
74.9785370938480042
 31
0.0
  0
LINE
  5
54FA
  8
2
 10
52.4999999254941869
 20
74.9785370938480042
 30
0.0
 11
54.2000007629394531
 21
76.0000000521540784
 31
0.0
  0
LINE
  5
54FB
  8
2
 10
85.7999992370605469
 20
85.3000000864267491
 30
0.0
 11
85.7999992370605469
 21
76.0000000521540784
 31
0.0
  0
LINE
  5
54FC
  8
2
 10
89.2000009119510651
 20
76.0000000521540784
 30
0.0
 11
89.2000009119510651
 21
85.3000000864267491
 31
0.0
  0
LINE
  5
54FD
  8
2
 10
85.7999992370605469
 20
76.0000000521540784
 30
0.0
 11
87.500000074505806
 21
74.9785370938480042
 31
0.0
  0
LINE
  5
54FE
  8
2
 10
87.500000074505806
 20
74.9785370938480042
 30
0.0
 11
89.2000009119510651
 21
76.0000000521540784
 31
0.0
  0
LINE
  5
550C
  8
0
 10
41.9999991357326508
 20
167.5000012665987015
 30
0.0
 11
41.9999991357326508
 21
136.5000017732380968
 31
0.0
  0
LINE
  5
550D
  8
0
 10
98.000000864267335
 20
136.5000017732380968
 30
0.0
 11
98.000000864267335
 21
167.5000012665987015
 31
0.0
  0
LINE
  5
550E
  8
0
 10
98.000000864267335
 20
167.5000012665987015
 30
0.0
 11
97.4999998509883739
 21
168.0000022798776911
 31
0.0
  0
LINE
  5
550F
  8
0
 10
42.5000001490116119
 20
168.0000022798776911
 30
0.0
 11
41.9999991357326508
 21
167.5000012665987015
 31
0.0
  0
LINE
  5
5510
  8
0
 10
41.9999991357326508
 20
136.5000017732380968
 30
0.0
 11
42.5000001490116119
 21
136.0000007599591925
 31
0.0
  0
LINE
  5
5511
  8
0
 10
97.4999998509883739
 20
136.0000007599591925
 30
0.0
 11
98.000000864267335
 21
136.5000017732380968
 31
0.0
  0
LINE
  5
5517
  8
0
 10
47.0217500627040792
 20
136.5000017732380968
 30
0.0
 11
47.0217500627040792
 21
167.5000012665987015
 31
0.0
  0
LINE
  5
5519
  8
0
 10
92.9782499372959137
 20
136.5000017732380968
 30
0.0
 11
92.9782499372959137
 21
167.5000012665987015
 31
0.0
  0
LINE
  5
5521
  8
0
 10
47.0217500627040792
 20
167.5000012665987015
 30
0.0
 11
47.2843662649393011
 21
168.0000022798776911
 31
0.0
  0
LINE
  5
5522
  8
0
 10
42.5000001490116333
 20
168.0000022798776911
 30
0.0
 11
97.4999998509883739
 21
168.0000022798776911
 31
0.0
  0
LINE
  5
5523
  8
0
 10
92.7156337350606918
 20
168.0000022798776911
 30
0.0
 11
92.9782499372959137
 21
167.5000012665987015
 31
0.0
  0
CIRCLE
  5
5526
  8
0
 10
70.0
 20
152.0000015199184986
 30
0.0
 40
13.0999999999999908
  0
CIRCLE
  5
5527
  8
0
 10
52.5
 20
152.0000015199184134
 30
0.0
 40
1.699999999999988
  0
CIRCLE
  5
5528
  8
0
 10
87.5
 20
152.0000015199184986
 30
0.0
 40
1.7000000000000171
  0
LINE
  5
5529
  8
0
 10
97.4999998509884023
 20
136.0000007599591925
 30
0.0
 11
42.5000001490115835
 21
136.0000007599591925
 31
0.0
  0
LINE
  5
552A
  8
0
 10
47.0217500627040792
 20
136.5000017732380968
 30
0.0
 11
47.2843662649393011
 21
136.0000007599591925
 31
0.0
  0
LINE
  5
552B
  8
0
 10
92.7156337350606918
 20
136.0000007599591925
 30
0.0
 11
92.9782499372959137
 21
136.5000017732380968
 31
0.0
  0
LINE
  5
552E
  8
0
 10
60.0000002235174108
 20
160.4622703790664957
 30
0.0
 11
60.0000002235174108
 21
143.5377326607705015
 31
0.0
  0
LINE
  5
552F
  8
0
 10
79.9999997764825821
 20
143.5377326607705015
 30
0.0
 11
79.9999997764825821
 21
160.4622703790664957
 31
0.0
  0
LINE
  5
5539
  8
0
 10
148.5000010132789043
 20
41.9999991357326721
 30
0.0
 11
179.500000506639509
 21
41.9999991357326721
 31
0.0
  0
LINE
  5
553A
  8
0
 10
179.500000506639509
 20
41.9999991357326721
 30
0.0
 11
180.0000015199184134
 21
42.5000001490116333
 31
0.0
  0
LINE
  5
553B
  8
0
 10
148.0
 20
42.5000001490116333
 30
0.0
 11
148.5000010132789043
 21
41.9999991357326721
 31
0.0
  0
LINE
  5
553E
  8
0
 10
148.5000010132789043
 20
86.0000007599592351
 30
0.0
 11
179.500000506639509
 21
86.0000007599592351
 31
0.0
  0
LINE
  5
5540
  8
0
 10
180.0000015199184134
 20
85.4999997466802739
 30
0.0
 11
179.500000506639509
 21
86.0000007599592351
 31
0.0
  0
LINE
  5
5541
  8
0
 10
180.0000015199184134
 20
85.4999997466802739
 30
0.0
 11
180.0000015199184134
 21
42.5000001490116333
 31
0.0
  0
LINE
  5
5542
  8
0
 10
148.0
 20
42.5000001490116333
 30
0.0
 11
148.0
 21
85.4999997466802739
 31
0.0
  0
LINE
  5
5543
  8
0
 10
148.0
 20
85.4999997466802739
 30
0.0
 11
148.5000010132789043
 21
86.0000007599592351
 31
0.0
  0
LINE
  5
564B
  8
2
 10
50.4999999254941301
 20
78.0000007599592351
 30
0.0
 11
54.4999999254942509
 21
78.0000007599592351
 31
0.0
  0
LINE
  5
564C
  8
1
 10
52.4999999254941869
 20
73.4785370938480042
 30
0.0
 11
52.4999999254941869
 21
87.5000007599592351
 31
0.0
  0
LINE
  5
564D
  8
2
 10
50.4999999254941301
 20
78.0000007599592351
 30
0.0
 11
50.4999999254942011
 21
85.6000000472571543
 31
0.0
  0
LINE
  5
564E
  8
2
 10
54.4999999254941869
 20
78.0000007599592351
 30
0.0
 11
54.4999999254941869
 21
85.6000000472570974
 31
0.0
  0
LINE
  5
564F
  8
2
 10
85.5000000745057491
 20
78.0000007599592351
 30
0.0
 11
89.5000000745058628
 21
78.0000007599592351
 31
0.0
  0
LINE
  5
5650
  8
2
 10
89.500000074505806
 20
78.0000007599592351
 30
0.0
 11
89.500000074505806
 21
85.6000000472570974
 31
0.0
  0
LINE
  5
5651
  8
2
 10
85.5000000745057491
 20
78.0000007599592351
 30
0.0
 11
85.500000074505806
 21
85.6000000472571543
 31
0.0
  0
LINE
  5
5668
  8
1
 10
87.500000074505806
 20
73.4785370938480042
 30
0.0
 11
87.500000074505806
 21
87.5000007599592351
 31
0.0
  0
LINE
  5
5671
  8
1
 10
70.0
 20
39.0000000000000213
 30
0.0
 11
70.0
 21
89.0000007599592351
 31
0.0
  0
LINE
  5
5672
  8
1
 10
39.0
 20
70.0000000000000142
 30
0.0
 11
101.0
 21
70.0000000000000142
 31
0.0
  0
LINE
  5
5673
  8
1
 10
88.0
 20
75.5000000000000142
 30
0.0
 11
88.0
 21
64.5000000000000142
 31
0.0
  0
LINE
  5
567C
  8
1
 10
52.0
 20
75.5000000000000142
 30
0.0
 11
52.0
 21
64.5000000000000142
 31
0.0
  0
CIRCLE
  5
5726
  8
3
 10
52.5
 20
152.0000015199184134
 30
0.0
 40
2.0
  0
CIRCLE
  5
5727
  8
3
 10
87.5
 20
152.0000015199184986
 30
0.0
 40
2.0
  0
LINE
  5
5728
  8
1
 10
52.0000007748603821
 20
177.5000017285346985
 30
0.0
 11
52.0000007748603821
 21
134.5000007599591925
 31
0.0
  0
LINE
  5
5729
  8
1
 10
87.9999992251396037
 20
177.5000017285346985
 30
0.0
 11
87.9999992251396037
 21
134.5000007599591925
 31
0.0
  0
LINE
  5
572A
  8
2
 10
48.0000007748603821
 20
141.0000007599591925
 30
0.0
 11
48.0000007748603821
 21
136.0000007599591925
 31
0.0
  0
LINE
  5
572B
  8
2
 10
56.0000007748603821
 20
141.0000007599591925
 30
0.0
 11
56.0000007748603821
 21
136.0000007599591925
 31
0.0
  0
LINE
  5
572C
  8
2
 10
83.9999992251396748
 20
141.0000007599591925
 30
0.0
 11
83.9999992251396037
 21
136.0000007599591925
 31
0.0
  0
LINE
  5
572D
  8
2
 10
91.9999992251396748
 20
141.0000007599591925
 30
0.0
 11
91.9999992251396179
 21
136.0000007599591925
 31
0.0
  0
LINE
  5
572E
  8
2
 10
49.7500007748604318
 20
168.0000022798776911
 30
0.0
 11
49.7500007748603821
 21
141.0000007599591925
 31
0.0
  0
LINE
  5
572F
  8
2
 10
54.2500007748603821
 20
168.0000022798776911
 30
0.0
 11
54.2500007748603181
 21
141.0000007599591925
 31
0.0
  0
LINE
  5
5730
  8
2
 10
85.7499992251396179
 20
168.0000022798776911
 30
0.0
 11
85.7499992251396179
 21
141.0000007599591925
 31
0.0
  0
LINE
  5
5731
  8
2
 10
90.2499992251396748
 20
168.0000022798776911
 30
0.0
 11
90.2499992251396037
 21
141.0000007599591925
 31
0.0
  0
LINE
  5
5732
  8
2
 10
91.9999992251396748
 20
141.0000007599591925
 30
0.0
 11
83.9999992251396037
 21
141.0000007599591925
 31
0.0
  0
LINE
  5
5733
  8
2
 10
56.0000007748603821
 20
141.0000007599591925
 30
0.0
 11
48.0000007748603821
 21
141.0000007599591925
 31
0.0
  0
LINE
  5
5734
  8
2
 10
60.0000002235174108
 20
143.5377326607705015
 30
0.0
 11
60.0000002235173611
 21
136.0000007599591925
 31
0.0
  0
LINE
  5
5735
  8
2
 10
79.9999997764825821
 20
143.5377326607705015
 30
0.0
 11
79.9999997764825821
 21
136.0000007599591925
 31
0.0
  0
LINE
  5
5736
  8
2
 10
79.9999997764825821
 20
160.4622703790664957
 30
0.0
 11
79.9999997764825821
 21
168.0000022798776058
 31
0.0
  0
LINE
  5
5737
  8
2
 10
60.0000002235174108
 20
160.4622703790664957
 30
0.0
 11
60.0000002235174108
 21
168.0000022798776911
 31
0.0
  0
LINE
  5
57D1
  8
2
 10
54.0000007748603821
 20
141.0000007599591925
 30
0.0
 11
54.0000007748603821
 21
168.0000007599591925
 31
0.0
  0
LINE
  5
57D2
  8
0
 10
54.0000007748603821
 20
168.0000007599591925
 30
0.0
 11
54.0000007748603821
 21
175.2000007599592095
 31
0.0
  0
LINE
  5
57D3
  8
0
 10
54.0000007748603821
 20
175.2000007599592095
 30
0.0
 11
53.2000007748603707
 21
176.0000007599591925
 31
0.0
  0
LINE
  5
57D4
  8
3
 10
53.6210007748590485
 20
168.0000007599591925
 30
0.0
 11
53.6210007748590485
 21
175.5790007599605076
 31
0.0
  0
LINE
  5
57D5
  8
2
 10
53.6210007748589987
 20
143.1000007599591868
 30
0.0
 11
54.0000007748603821
 21
142.4435535038882108
 31
0.0
  0
LINE
  5
57D6
  8
2
 10
50.3790007748617725
 20
143.1000007599591868
 30
0.0
 11
50.0000007748603821
 21
142.4435535038882108
 31
0.0
  0
LINE
  5
57D7
  8
3
 10
50.3790007748617725
 20
168.0000007599591925
 30
0.0
 11
50.3790007748617725
 21
175.5790007599605929
 31
0.0
  0
LINE
  5
57D8
  8
2
 10
50.0000007748603821
 20
143.1000007599591868
 30
0.0
 11
54.0000007748603821
 21
143.1000007599591868
 31
0.0
  0
LINE
  5
57D9
  8
0
 10
54.0000007748603323
 20
175.2000007599592095
 30
0.0
 11
50.0000007748603821
 21
175.2000007599592095
 31
0.0
  0
LINE
  5
57DA
  8
0
 10
50.0000007748603821
 20
175.2000007599592095
 30
0.0
 11
50.8000007748603934
 21
176.0000007599591925
 31
0.0
  0
LINE
  5
57DB
  8
0
 10
50.8000007748603934
 20
176.0000007599591925
 30
0.0
 11
53.2000007748603707
 21
176.0000007599591925
 31
0.0
  0
LINE
  5
57DC
  8
2
 10
50.0000007748603821
 20
141.0000007599591925
 30
0.0
 11
50.0000007748603821
 21
168.0000007599591925
 31
0.0
  0
LINE
  5
57DD
  8
0
 10
50.0000007748603821
 20
168.0000007599591925
 30
0.0
 11
50.0000007748604389
 21
175.2000007599592095
 31
0.0
  0
LINE
  5
57DE
  8
2
 10
55.5000007748603821
 20
137.0000007599591925
 30
0.0
 11
48.5000007748602684
 21
137.0000007599591925
 31
0.0
  0
LINE
  5
57DF
  8
2
 10
55.5000007748603821
 20
141.0000007599591925
 30
0.0
 11
55.5000007748603821
 21
137.0000007599591925
 31
0.0
  0
LINE
  5
57E1
  8
2
 10
48.5000007748603323
 20
137.0000007599591925
 30
0.0
 11
48.5000007748603821
 21
141.0000007599591925
 31
0.0
  0
LINE
  5
57E2
  8
2
 10
50.3790007748617725
 20
143.1000007599591868
 30
0.0
 11
50.3790007748617725
 21
168.0000007599591925
 31
0.0
  0
LINE
  5
57E3
  8
2
 10
53.6210007748589987
 20
143.1000007599591868
 30
0.0
 11
53.6210007748589987
 21
168.0000007599591925
 31
0.0
  0
LINE
  5
57E4
  8
2
 10
89.9999992251396179
 20
141.0000007599591925
 30
0.0
 11
89.9999992251396179
 21
168.0000007599591925
 31
0.0
  0
LINE
  5
57E5
  8
0
 10
89.9999992251396179
 20
168.0000007599591925
 30
0.0
 11
89.9999992251396179
 21
175.2000007599592095
 31
0.0
  0
LINE
  5
57E6
  8
0
 10
89.9999992251396179
 20
175.2000007599592095
 30
0.0
 11
89.1999992251396066
 21
176.0000007599591925
 31
0.0
  0
LINE
  5
57E7
  8
3
 10
89.6209992251382914
 20
168.0000007599591925
 30
0.0
 11
89.6209992251382914
 21
175.5790007599605076
 31
0.0
  0
LINE
  5
57E8
  8
2
 10
89.6209992251382346
 20
143.1000007599591868
 30
0.0
 11
89.9999992251396179
 21
142.4435535038882108
 31
0.0
  0
LINE
  5
57E9
  8
2
 10
86.3789992251409871
 20
143.1000007599591868
 30
0.0
 11
85.9999992251396179
 21
142.4435535038882108
 31
0.0
  0
LINE
  5
57EA
  8
3
 10
86.3789992251409871
 20
168.0000007599591925
 30
0.0
 11
86.3789992251409871
 21
175.5790007599605929
 31
0.0
  0
LINE
  5
57EB
  8
2
 10
85.9999992251396179
 20
143.1000007599591868
 30
0.0
 11
89.9999992251396179
 21
143.1000007599591868
 31
0.0
  0
LINE
  5
57EC
  8
0
 10
89.9999992251395469
 20
175.2000007599592095
 30
0.0
 11
85.9999992251396179
 21
175.2000007599592095
 31
0.0
  0
LINE
  5
57ED
  8
0
 10
85.9999992251396179
 20
175.2000007599592095
 30
0.0
 11
86.7999992251396151
 21
176.0000007599591925
 31
0.0
  0
LINE
  5
57EE
  8
0
 10
86.7999992251396151
 20
176.0000007599591925
 30
0.0
 11
89.1999992251396066
 21
176.0000007599591925
 31
0.0
  0
LINE
  5
57EF
  8
2
 10
85.9999992251396179
 20
141.0000007599591925
 30
0.0
 11
85.9999992251396179
 21
168.0000007599591925
 31
0.0
  0
LINE
  5
57F0
  8
0
 10
85.9999992251396179
 20
168.0000007599591925
 30
0.0
 11
85.9999992251396748
 21
175.2000007599592095
 31
0.0
  0
LINE
  5
57F1
  8
2
 10
91.4999992251396037
 20
137.0000007599591925
 30
0.0
 11
84.4999992251395042
 21
137.0000007599591925
 31
0.0
  0
LINE
  5
57F2
  8
2
 10
91.4999992251396037
 20
141.0000007599591925
 30
0.0
 11
91.4999992251396037
 21
137.0000007599591925
 31
0.0
  0
LINE
  5
57F4
  8
2
 10
84.4999992251395611
 20
137.0000007599591925
 30
0.0
 11
84.4999992251396179
 21
141.0000007599591925
 31
0.0
  0
LINE
  5
57F5
  8
2
 10
86.3789992251409871
 20
143.1000007599591868
 30
0.0
 11
86.3789992251409871
 21
168.0000007599591925
 31
0.0
  0
LINE
  5
57F6
  8
2
 10
89.6209992251382346
 20
143.1000007599591868
 30
0.0
 11
89.6209992251382346
 21
168.0000007599591925
 31
0.0
  0
LINE
  5
57F7
  8
1
 10
52.5
 20
148.5000015199184134
 30
0.0
 11
52.5
 21
155.5000015199184134
 31
0.0
  0
LINE
  5
57F8
  8
1
 10
38.9999991357327076
 20
152.0000015199184134
 30
0.0
 11
101.0000008642673066
 21
152.0000015199184134
 31
0.0
  0
LINE
  5
57F9
  8
1
 10
70.0
 20
171.0000022798776911
 30
0.0
 11
70.0
 21
133.0000007599591925
 31
0.0
  0
LINE
  5
57FB
  8
1
 10
87.5
 20
148.5000015199184986
 30
0.0
 11
87.5
 21
155.5000015199184986
 31
0.0
  0
LINE
  5
5862
  8
1
 10
189.500002488493891
 20
70.0000000000000142
 30
0.0
 11
146.5
 21
70.0000000000000142
 31
0.0
  0
LINE
  5
5863
  8
0
 10
180.0000015199184134
 20
68.0000000000000142
 30
0.0
 11
187.200001519918402
 21
68.0000000000000142
 31
0.0
  0
LINE
  5
5864
  8
0
 10
187.200001519918402
 20
68.0000000000000142
 30
0.0
 11
188.0000015199184134
 21
68.8000000000000256
 31
0.0
  0
LINE
  5
5865
  8
3
 10
180.0000015199184134
 20
68.3790000000013407
 30
0.0
 11
187.5790015199197001
 21
68.3790000000013407
 31
0.0
  0
LINE
  5
5866
  8
3
 10
180.0000015199184134
 20
71.6209999999986309
 30
0.0
 11
187.5790015199198137
 21
71.6209999999986309
 31
0.0
  0
LINE
  5
5867
  8
0
 10
187.2000015199184872
 20
68.0000000000000711
 30
0.0
 11
187.200001519918402
 21
72.0000000000000142
 31
0.0
  0
LINE
  5
5868
  8
0
 10
187.200001519918402
 20
72.0000000000000142
 30
0.0
 11
188.0000015199184134
 21
71.2000000000000028
 31
0.0
  0
LINE
  5
5869
  8
0
 10
188.0000015199184134
 20
71.2000000000000028
 30
0.0
 11
188.0000015199184134
 21
68.8000000000000256
 31
0.0
  0
LINE
  5
586A
  8
0
 10
180.0000015199184134
 20
72.0000000000000142
 30
0.0
 11
187.200001519918402
 21
71.9999999999999432
 31
0.0
  0
ENDSEC
  0
EOF
