  0
SECTION
  2
HEADER
  9
$ACADVER
  1
AC1009
  9
$INSBASE
 10
0.0
 20
0.0
 30
0.0
  9
$EXTMIN
 10
0.0
 20
-136.73874119265989
 30
0.0
  9
$EXTMAX
 10
367.8318259200351
 20
193.4999989122152
 30
0.0
  9
$LIMMIN
 10
0.0
 20
0.0
  9
$LIMMAX
 10
187.5
 20
135.0
  9
$ORTHOMODE
 70
     1
  9
$REGENMODE
 70
     1
  9
$FILLMODE
 70
     1
  9
$QTEXTMODE
 70
     0
  9
$MIRRTEXT
 70
     0
  9
$DRAGMODE
 70
     2
  9
$LTSCALE
 40
5.0
  9
$OSMODE
 70
    37
  9
$ATTMODE
 70
     1
  9
$TEXTSIZE
 40
0.2
  9
$TRACEWID
 40
0.05
  9
$TEXTSTYLE
  7
STANDARD
  9
$CLAYER
  8
0
  9
$CELTYPE
  6
BYLAYER
  9
$CECOLOR
 62
   256
  9
$DIMSCALE
 40
0.5
  9
$DIMASZ
 40
3.0
  9
$DIMEXO
 40
2.0
  9
$DIMDLI
 40
0.3799999999999999
  9
$DIMRND
 40
0.0
  9
$DIMDLE
 40
0.0
  9
$DIMEXE
 40
2.0
  9
$DIMTP
 40
0.0
  9
$DIMTM
 40
0.0
  9
$DIMTXT
 40
3.2000000000000002
  9
$DIMCEN
 40
0.0
  9
$DIMTSZ
 40
0.0
  9
$DIMTOL
 70
     0
  9
$DIMLIM
 70
     0
  9
$DIMTIH
 70
     0
  9
$DIMTOH
 70
     0
  9
$DIMSE1
 70
     0
  9
$DIMSE2
 70
     0
  9
$DIMTAD
 70
     1
  9
$DIMZIN
 70
     8
  9
$DIMBLK
  1

  9
$DIMASO
 70
     0
  9
$DIMSHO
 70
     0
  9
$DIMPOST
  1

  9
$DIMAPOST
  1

  9
$DIMALT
 70
     0
  9
$DIMALTD
 70
     2
  9
$DIMALTF
 40
25.399999999999999
  9
$DIMLFAC
 40
1.0
  9
$DIMTOFL
 70
     0
  9
$DIMTVP
 40
1.6000000000000001
  9
$DIMTIX
 70
     0
  9
$DIMSOXD
 70
     0
  9
$DIMSAH
 70
     0
  9
$DIMBLK1
  1

  9
$DIMBLK2
  1

  9
$DIMSTYLE
  2
STANDARD
  9
$DIMCLRD
 70
     0
  9
$DIMCLRE
 70
     0
  9
$DIMCLRT
 70
     0
  9
$DIMTFAC
 40
1.0
  9
$DIMGAP
 40
1.0
  9
$LUNITS
 70
     2
  9
$LUPREC
 70
     1
  9
$SKETCHINC
 40
0.1
  9
$FILLETRAD
 40
0.4
  9
$AUNITS
 70
     0
  9
$AUPREC
 70
     0
  9
$MENU
  1
E:\r13\win\SUPPORT\ACAD
  9
$ELEVATION
 40
0.0
  9
$PELEVATION
 40
0.0
  9
$THICKNESS
 40
0.0
  9
$LIMCHECK
 70
     0
  9
$BLIPMODE
 70
     0
  9
$CHAMFERA
 40
0.5
  9
$CHAMFERB
 40
0.5
  9
$SKPOLY
 70
     0
  9
$TDCREATE
 40
2451824.6906229062
  9
$TDUPDATE
 40
2459439.725621134
  9
$TDINDWG
 40
0.9994195139
  9
$TDUSRTIMER
 40
0.9994195139
  9
$USRTIMER
 70
     1
  9
$ANGBASE
 50
0.0
  9
$ANGDIR
 70
     0
  9
$PDMODE
 70
     0
  9
$PDSIZE
 40
0.0
  9
$PLINEWID
 40
0.0
  9
$COORDS
 70
     1
  9
$SPLFRAME
 70
     0
  9
$SPLINETYPE
 70
     6
  9
$SPLINESEGS
 70
     8
  9
$ATTDIA
 70
     0
  9
$ATTREQ
 70
     1
  9
$HANDLING
 70
     1
  9
$HANDSEED
  5
D2B2
  9
$SURFTAB1
 70
     6
  9
$SURFTAB2
 70
     6
  9
$SURFTYPE
 70
     6
  9
$SURFU
 70
     6
  9
$SURFV
 70
     6
  9
$UCSNAME
  2

  9
$UCSORG
 10
0.0
 20
0.0
 30
0.0
  9
$UCSXDIR
 10
1.0
 20
0.0
 30
0.0
  9
$UCSYDIR
 10
0.0
 20
1.0
 30
0.0
  9
$PUCSNAME
  2

  9
$PUCSORG
 10
0.0
 20
0.0
 30
0.0
  9
$PUCSXDIR
 10
1.0
 20
0.0
 30
0.0
  9
$PUCSYDIR
 10
0.0
 20
1.0
 30
0.0
  9
$USERI1
 70
     0
  9
$USERI2
 70
     1
  9
$USERI3
 70
     0
  9
$USERI4
 70
     0
  9
$USERI5
 70
     0
  9
$USERR1
 40
0.0
  9
$USERR2
 40
0.0
  9
$USERR3
 40
0.0
  9
$USERR4
 40
0.0
  9
$USERR5
 40
0.0
  9
$WORLDVIEW
 70
     1
  9
$SHADEDGE
 70
     3
  9
$SHADEDIF
 70
    70
  9
$TILEMODE
 70
     1
  9
$MAXACTVP
 70
    16
  9
$PLIMCHECK
 70
     0
  9
$PEXTMIN
 10
1.0000000000000000E+020
 20
1.0000000000000000E+020
 30
1.0000000000000000E+020
  9
$PEXTMAX
 10
-1.0000000000000000E+020
 20
-1.0000000000000000E+020
 30
-1.0000000000000000E+020
  9
$PLIMMIN
 10
0.0
 20
0.0
  9
$PLIMMAX
 10
12.0
 20
9.0
  9
$UNITMODE
 70
     0
  9
$VISRETAIN
 70
     0
  9
$PLINEGEN
 70
     0
  9
$PSLTSCALE
 70
     0
  0
ENDSEC
  0
SECTION
  2
TABLES
  0
TABLE
  2
VPORT
 70
     1
  0
VPORT
  2
*ACTIVE
 70
     0
 10
0.0
 20
0.0
 11
1.0
 21
1.0
 12
390.29363784665583
 22
150.0
 13
0.0
 23
0.0
 14
5.0
 24
5.0
 15
5.0
 25
5.0
 16
0.0
 26
0.0
 36
1.0
 17
0.0
 27
0.0
 37
0.0
 40
300.0
 41
2.6019575856443709
 42
50.0
 43
0.0
 44
0.0
 50
0.0
 51
0.0
 71
     0
 72
   500
 73
     1
 74
     0
 75
     0
 76
     0
 77
     0
 78
     2
  0
ENDTAB
  0
TABLE
  2
LTYPE
 70
     5
  0
LTYPE
  2
CONTINUOUS
 70
     0
  3
Solid Line
 72
    65
 73
     0
 40
0.0
  0
LTYPE
  2
CENTER
 70
     0
  3
____ _ ____ _ ____ _ ____ _ ____ _ ____ _ ____
 72
    65
 73
     4
 40
2.0
 49
1.25
 49
-0.25
 49
0.25
 49
-0.25
  0
LTYPE
  2
PHANTOM2
 70
     0
  3
___ _ _ ___ _ _ ___ _ _ ___ _ _
 72
    65
 73
     6
 40
1.25
 49
0.625
 49
-0.125
 49
0.125
 49
-0.125
 49
0.125
 49
-0.125
  0
LTYPE
  2
PHANTOM
 70
     0
  3
_____ _ _ _____ _ _ _____ _ _ _____ _ _ ____
 72
    65
 73
     6
 40
2.5
 49
1.25
 49
-0.25
 49
0.25
 49
-0.25
 49
0.25
 49
-0.25
  0
LTYPE
  2
HIDDEN
 70
     0
  3
Hidden __ __ __ __ __ __ __ __ __ __ __ __ __ __
 72
    65
 73
     2
 40
1.905
 49
1.27
 49
-0.635
  0
ENDTAB
  0
TABLE
  2
LAYER
 70
     6
  0
LAYER
  2
0
 70
     0
 62
     7
  6
CONTINUOUS
  0
LAYER
  2
1
 70
     0
 62
     1
  6
CENTER
  0
LAYER
  2
DEFPOINTS
 70
     0
 62
     7
  6
CONTINUOUS
  0
LAYER
  2
5
 70
     0
 62
     3
  6
PHANTOM
  0
LAYER
  2
2
 70
     0
 62
     2
  6
HIDDEN
  0
LAYER
  2
3
 70
     0
 62
     3
  6
CONTINUOUS
  0
ENDTAB
  0
TABLE
  2
STYLE
 70
     2
  0
STYLE
  2
STANDARD
 70
     0
 40
0.0
 41
1.0
 50
0.0
 71
     0
 42
0.2
  3
TXT
  4
BIGFONT
  0
STYLE
  2
STANDARD1
 70
     0
 40
0.0
 41
1.0
 50
0.0
 71
     0
 42
3.0
  3
txt
  4

  0
ENDTAB
  0
TABLE
  2
VIEW
 70
     0
  0
ENDTAB
  0
TABLE
  2
UCS
 70
     0
  0
ENDTAB
  0
TABLE
  2
APPID
 70
    11
  0
APPID
  2
ACAD
 70
     0
  0
APPID
  2
ACAD_MLEADERVER
 70
     0
  0
APPID
  2
ACAD_EXEMPT_FROM_CAD_STANDARDS
 70
     0
  0
APPID
  2
ACAD_DSTYLE_DIMJAG
 70
     0
  0
APPID
  2
ACAD_DSTYLE_DIMTALN
 70
     0
  0
APPID
  2
ACAD_NAV_VCDISPLAY
 70
     0
  0
APPID
  2
ACADANNOTATIVE
 70
     0
  0
APPID
  2
ACAD_PSEXT
 70
     0
  0
APPID
  2
ACAD_DSTYLE_DIMRADIAL_EXTENSION
 70
     0
  0
APPID
  2
ACAECLAYERSTANDARD
 70
     0
  0
APPID
  2
ACCMTRANSPARENCY
 70
     0
  0
ENDTAB
  0
TABLE
  2
DIMSTYLE
 70
     1
  0
DIMSTYLE
  2
STANDARD
 70
     0
  3

  4

  5

  6

  7

 40
1.0
 41
0.18
 42
0.0625
 43
0.38
 44
0.18
 45
0.0
 46
0.0
 47
0.0
 48
0.0
140
0.18
141
0.09
142
0.0
143
25.399999999999999
144
1.0
145
0.0
146
1.0
147
0.09
 71
     0
 72
     0
 73
     1
 74
     1
 75
     0
 76
     0
 77
     0
 78
     0
170
     0
171
     2
172
     0
173
     0
174
     0
175
     0
176
     0
177
     0
178
     0
  0
ENDTAB
  0
ENDSEC
  0
SECTION
  2
BLOCKS
  0
BLOCK
  8
0
  2
$MODEL_SPACE
 70
     0
 10
0.0
 20
0.0
 30
0.0
  3
$MODEL_SPACE
  1

  0
ENDBLK
  5
9
  8
0
  0
BLOCK
 67
     1
  8
0
  2
$PAPER_SPACE
 70
     0
 10
0.0
 20
0.0
 30
0.0
  3
$PAPER_SPACE
  1

  0
ENDBLK
  5
E
 67
     1
  8
0
  0
ENDSEC
  0
SECTION
  2
ENTITIES
  0
TEXT
  5
56B3
  8
0
 62
     3
 10
147.83849258670111
 20
-121.7387411926599
 30
0.0
 40
3.2000000000000002
  1
組付け状態
 72
     1
 11
156.90515925336771
 21
-121.7387411926599
 31
0.0
  0
POLYLINE
  5
56C6
  8
5
 66
     1
 10
0.0
 20
0.0
 30
0.0
 70
     1
  0
VERTEX
  5
D1B9
  8
5
 10
119.4051592533678
 20
-10.0
 30
0.0
  0
VERTEX
  5
D1BA
  8
5
 10
245.40515925336791
 20
-10.0
 30
0.0
  0
VERTEX
  5
D1BB
  8
5
 10
245.4051592533678
 20
-136.73874119265989
 30
0.0
  0
VERTEX
  5
D1BC
  8
5
 10
119.4051592533677
 20
-136.73874119265989
 30
0.0
  0
SEQEND
  5
D1BD
  8
5
  0
TEXT
  5
56C8
  8
0
 62
     3
 10
199.65182592003441
 20
-121.7387411926599
 30
0.0
 40
3.2000000000000002
  1
取付け穴
 72
     1
 11
206.9051592533678
 21
-121.7387411926599
 31
0.0
  0
TEXT
  5
56D2
  8
0
 62
     3
 10
119.4051592533678
 20
0.0
 30
0.0
 40
3.2000000000000002
  1
■シャフトジョイントロック付きの取付け方法 (下図)
  0
TEXT
  5
5A7C
  8
0
 62
     3
 10
0.0
 20
0.0
 30
0.0
 40
10.0
  1
QCSJLK1118A
  7
STANDARD1
  0
TEXT
  5
5B0E
  8
0
 62
     3
 10
119.4051592533678
 20
-7.0
 30
0.0
 40
3.2000000000000002
  1
■Installation Instructions for Shaft Coupling Clamps With Safety Lock (see diagram below)
  0
TEXT
  5
5B15
  8
0
 62
     3
 10
135.68915925336779
 20
-128.7387411926598
 30
0.0
 40
3.2000000000000002
  1
Installed condition
 41
0.85
 72
     1
 11
156.90515925336771
 21
-128.7387411926598
 31
0.0
  0
TEXT
  5
5B16
  8
0
 62
     3
 10
188.1824925867011
 20
-128.7387411926598
 30
0.0
 40
3.2000000000000002
  1
Installation hole
 41
0.85
 72
     1
 11
206.9051592533678
 21
-128.7387411926598
 31
0.0
  0
LINE
  5
C47A
  8
0
 10
66.499999057501554
 20
110.29999971110369
 30
0.0
 11
66.393793359398842
 21
110.4062054674141
 31
0.0
  0
LINE
  5
C47B
  8
0
 10
51.607283562421799
 20
110.40728405537079
 30
0.0
 11
51.499999392777681
 21
110.29999971110369
 31
0.0
  0
LINE
  5
C47C
  8
0
 10
67.892270892858505
 20
116.5783137567341
 30
0.0
 11
67.999998837709427
 21
116.607179634273
 31
0.0
  0
LINE
  5
C47D
  8
0
 10
67.999998837709427
 20
119.39282040297979
 30
0.0
 11
67.891446882190166
 21
119.4219068987568
 31
0.0
  0
LINE
  5
C47E
  8
0
 10
50.108540083122307
 20
119.4219038701448
 30
0.0
 11
49.999999612569809
 21
119.39282040297979
 31
0.0
  0
LINE
  5
C47F
  8
0
 10
49.999999612569809
 20
116.607179634273
 30
0.0
 11
50.108465164899833
 21
116.5781163163483
 31
0.0
  0
ARC
  5
C480
  8
0
 10
66.999999225139618
 20
122.99999975860121
 30
0.0
 40
1.0
 50
0.0
 51
90.0
  0
ARC
  5
C481
  8
0
 10
50.999999225139618
 20
122.99999975860121
 30
0.0
 40
1.0
 50
90.0
 51
180.0
  0
LINE
  5
C482
  8
0
 10
49.999999612569809
 20
115.90486508980391
 30
0.0
 11
49.999999612569809
 21
112.99999978113919
 31
0.0
  0
LINE
  5
C483
  8
0
 10
49.999999612569809
 20
122.9999994412064
 30
0.0
 11
49.999999612569809
 21
120.0993887633085
 31
0.0
  0
LINE
  5
C484
  8
0
 10
67.999998837709427
 20
120.0993887633085
 30
0.0
 11
67.999998837709427
 21
122.9999994412064
 31
0.0
  0
LINE
  5
C485
  8
0
 10
67.999998837709427
 20
112.99999978113919
 30
0.0
 11
67.999998837709427
 21
115.90486508980391
 31
0.0
  0
ARC
  5
C486
  8
0
 10
50.999999225139618
 20
112.99999975860121
 30
0.0
 40
1.0
 50
180.0
 51
270.0
  0
ARC
  5
C487
  8
0
 10
66.999999225139618
 20
112.99999975860121
 30
0.0
 40
1.0
 50
270.0
 51
0.0
  0
LINE
  5
C488
  8
0
 10
66.499999057501554
 20
129.50000050663951
 30
0.0
 11
65.499999359250069
 21
130.5000006705522
 31
0.0
  0
LINE
  5
C489
  8
0
 10
52.499999091029167
 20
130.5000006705522
 30
0.0
 11
51.499999392777681
 21
129.50000050663951
 31
0.0
  0
LINE
  5
C48A
  8
0
 10
66.499999057501554
 20
123.9999996051192
 30
0.0
 11
66.499999057501554
 21
129.50000050663951
 31
0.0
  0
LINE
  5
C48B
  8
0
 10
66.499999057501554
 20
110.99160005874
 30
0.0
 11
66.499999057501554
 21
111.9999997336417
 31
0.0
  0
LINE
  5
C48C
  8
0
 10
66.499999057501554
 20
99.000000163912787
 30
0.0
 11
66.499999057501554
 21
107.0007530525327
 31
0.0
  0
LINE
  5
C48D
  8
0
 10
51.499999392777681
 20
107.0007530525327
 30
0.0
 11
51.499999392777681
 21
99.000000163912787
 31
0.0
  0
LINE
  5
C48E
  8
0
 10
51.499999392777681
 20
111.9999997336417
 30
0.0
 11
51.499999392777681
 21
110.99160005874
 31
0.0
  0
LINE
  5
C48F
  8
0
 10
51.499999392777681
 20
129.50000050663951
 30
0.0
 11
51.499999392777681
 21
123.9999996051192
 31
0.0
  0
LINE
  5
C490
  8
0
 10
51.499999392777681
 20
99.000000163912787
 30
0.0
 11
52.499999091029167
 21
98.000000000000014
 31
0.0
  0
LINE
  5
C491
  8
0
 10
65.499999359250069
 20
98.000000000000014
 30
0.0
 11
66.499999057501554
 21
99.000000163912787
 31
0.0
  0
ARC
  5
C492
  8
0
 10
54.599999225139527
 20
130.89999975860121
 30
0.0
 40
0.4000000000000057
 50
270.0
 51
0.0
  0
ARC
  5
C493
  8
0
 10
63.399999225139709
 20
130.89999975860121
 30
0.0
 40
0.4000000000000057
 50
180.0
 51
270.0
  0
LINE
  5
C494
  8
0
 10
62.999999415129423
 20
141.99999976158139
 30
0.0
 11
62.499999333173037
 21
142.4999989122152
 31
0.0
  0
LINE
  5
C495
  8
0
 10
55.499999117106199
 20
142.4999989122152
 30
0.0
 11
54.999999035149813
 21
141.99999976158139
 31
0.0
  0
LINE
  5
C496
  8
0
 10
62.999999415129423
 20
138.4991265386343
 30
0.0
 11
62.999999415129423
 21
141.99999976158139
 31
0.0
  0
LINE
  5
C497
  8
0
 10
62.999999415129423
 20
130.8999999910593
 30
0.0
 11
62.999999415129423
 21
134.50050237774849
 31
0.0
  0
LINE
  5
C498
  8
0
 10
54.999999035149813
 20
134.50050237774849
 30
0.0
 11
54.999999035149813
 21
130.8999999910593
 31
0.0
  0
LINE
  5
C499
  8
0
 10
54.999999035149813
 20
141.99999976158139
 30
0.0
 11
54.999999035149813
 21
138.4991265386343
 31
0.0
  0
LINE
  5
C49A
  8
0
 10
66.499999057501554
 20
110.29999971110369
 30
0.0
 11
66.499999057501554
 21
107.73508879542349
 31
0.0
  0
POLYLINE
  5
C49B
  8
0
 66
     1
 10
0.0
 20
0.0
 30
0.0
 70
   128
  0
VERTEX
  5
D1BF
  8
0
 10
66.499999057501554
 20
107.73508879542349
 30
0.0
  0
VERTEX
  5
D1C0
  8
0
 10
66.455961469560862
 20
107.6898707561195
 30
0.0
  0
VERTEX
  5
D1C1
  8
0
 10
66.388982146978378
 20
107.6213445067406
 30
0.0
  0
SEQEND
  5
D1C2
  8
0
  0
LINE
  5
C49C
  8
0
 10
51.499999392777681
 20
107.73508879542349
 30
0.0
 11
51.499999392777681
 21
110.29999971110369
 31
0.0
  0
POLYLINE
  5
C49D
  8
0
 66
     1
 10
0.0
 20
0.0
 30
0.0
 70
   128
  0
VERTEX
  5
D1C3
  8
0
 10
51.609840974211693
 20
107.622547077015
 30
0.0
  0
VERTEX
  5
D1C4
  8
0
 10
51.544036980718367
 20
107.6898707561195
 30
0.0
  0
VERTEX
  5
D1C5
  8
0
 10
51.499999392777681
 20
107.73508879542349
 30
0.0
  0
SEQEND
  5
D1C6
  8
0
  0
LINE
  5
C49E
  8
0
 10
67.999998837709427
 20
119.39282040297979
 30
0.0
 11
67.999998837709427
 21
116.607179634273
 31
0.0
  0
LINE
  5
C49F
  8
0
 10
49.999999612569809
 20
116.607179634273
 30
0.0
 11
49.999999612569809
 21
119.39282040297979
 31
0.0
  0
LINE
  5
C4A0
  8
0
 10
50.999998845160007
 20
123.9999996051192
 30
0.0
 11
66.999999605119228
 21
123.9999996051192
 31
0.0
  0
ARC
  5
C4A1
  8
0
 10
38.293717105684443
 20
117.8764774718248
 30
0.0
 40
11.915468297168021
 50
6.46063712071272
 51
10.751909091432941
  0
POLYLINE
  5
C4A2
  8
0
 66
     1
 10
0.0
 20
0.0
 30
0.0
 70
   128
  0
VERTEX
  5
D1C7
  8
0
 10
49.999999612569809
 20
115.90486508980391
 30
0.0
  0
VERTEX
  5
D1C8
  8
0
 10
49.999999612569809
 20
115.90486508980391
 30
0.0
  0
VERTEX
  5
D1C9
  8
0
 10
50.009545668959618
 20
115.9510368034244
 30
0.0
  0
VERTEX
  5
D1CA
  8
0
 10
50.048405103385448
 20
116.1724117137492
 30
0.0
  0
VERTEX
  5
D1CB
  8
0
 10
50.10654105246067
 20
116.5621264390647
 30
0.0
  0
VERTEX
  5
D1CC
  8
0
 10
50.138200432062149
 20
116.825207836926
 30
0.0
  0
VERTEX
  5
D1CD
  8
0
 10
50.166405536234379
 20
117.12184013053771
 30
0.0
  0
VERTEX
  5
D1CE
  8
0
 10
50.188677184283733
 20
117.45911999791861
 30
0.0
  0
VERTEX
  5
D1CF
  8
0
 10
50.200812317430973
 20
117.8194440454245
 30
0.0
  0
VERTEX
  5
D1D0
  8
0
 10
50.200635366141803
 20
118.1907348819077
 30
0.0
  0
VERTEX
  5
D1D1
  8
0
 10
50.187320247292519
 20
118.5671391449869
 30
0.0
  0
VERTEX
  5
D1D2
  8
0
 10
50.164639748632908
 20
118.8995486609638
 30
0.0
  0
VERTEX
  5
D1D3
  8
0
 10
50.133514948189259
 20
119.21721301227809
 30
0.0
  0
SEQEND
  5
D1D4
  8
0
  0
POLYLINE
  5
C4A3
  8
0
 66
     1
 10
0.0
 20
0.0
 30
0.0
 70
   128
  0
VERTEX
  5
D1D5
  8
0
 10
67.866483502089977
 20
119.21721301227809
 30
0.0
  0
VERTEX
  5
D1D6
  8
0
 10
67.835199445486069
 20
118.8976394496858
 30
0.0
  0
VERTEX
  5
D1D7
  8
0
 10
67.811467483639717
 20
118.5437657423317
 30
0.0
  0
VERTEX
  5
D1D8
  8
0
 10
67.79924201220274
 20
118.1838174834847
 30
0.0
  0
VERTEX
  5
D1D9
  8
0
 10
67.799367740750313
 20
117.808997400105
 30
0.0
  0
VERTEX
  5
D1DA
  8
0
 10
67.812281459569931
 20
117.44040879607201
 30
0.0
  0
VERTEX
  5
D1DB
  8
0
 10
67.837312616407871
 20
117.07734945416451
 30
0.0
  0
VERTEX
  5
D1DC
  8
0
 10
67.869810186326504
 20
116.7535262666643
 30
0.0
  0
VERTEX
  5
D1DD
  8
0
 10
67.907746680080891
 20
116.4575943276286
 30
0.0
  0
VERTEX
  5
D1DE
  8
0
 10
67.942172087728977
 20
116.2299944572151
 30
0.0
  0
VERTEX
  5
D1DF
  8
0
 10
67.972537860274315
 20
116.05016072466969
 30
0.0
  0
VERTEX
  5
D1E0
  8
0
 10
67.990926824510098
 20
115.9484765976667
 30
0.0
  0
VERTEX
  5
D1E1
  8
0
 10
67.999998837709427
 20
115.90486508980391
 30
0.0
  0
VERTEX
  5
D1E2
  8
0
 10
67.999998837709427
 20
115.90486508980391
 30
0.0
  0
SEQEND
  5
D1E3
  8
0
  0
ARC
  5
C4A4
  8
0
 10
79.682950261504175
 20
117.88000857930059
 30
0.0
 40
11.89188809112812
 50
169.2438343705829
 51
173.54361941727339
  0
LINE
  5
C4A5
  8
0
 10
66.999999605119228
 20
111.9999997336417
 30
0.0
 11
50.999998845160007
 21
111.9999997336417
 31
0.0
  0
LINE
  5
C4A6
  8
0
 10
66.499999057501554
 20
129.50000050663951
 30
0.0
 11
51.499999392777681
 21
129.50000050663951
 31
0.0
  0
LINE
  5
C4A9
  8
0
 10
52.499999091029167
 20
130.5000006705522
 30
0.0
 11
65.499999359250296
 21
130.5000006705522
 31
0.0
  0
LINE
  5
C4AA
  8
0
 10
51.499999392777681
 20
99.000000163912787
 30
0.0
 11
66.499999057501554
 21
99.000000163912787
 31
0.0
  0
POLYLINE
  5
C4AB
  8
0
 66
     1
 10
0.0
 20
0.0
 30
0.0
 70
   128
  0
VERTEX
  5
D1E4
  8
0
 10
51.499999392777681
 20
107.0007530525327
 30
0.0
  0
VERTEX
  5
D1E5
  8
0
 10
51.499999392777681
 20
107.0007530525327
 30
0.0
  0
VERTEX
  5
D1E6
  8
0
 10
51.521342046558857
 20
107.10384627059101
 30
0.0
  0
VERTEX
  5
D1E7
  8
0
 10
51.570142883807421
 20
107.3638128601015
 30
0.0
  0
VERTEX
  5
D1E8
  8
0
 10
51.634586215019233
 20
107.7838279325515
 30
0.0
  0
VERTEX
  5
D1E9
  8
0
 10
51.666933376342058
 20
108.05979394540191
 30
0.0
  0
VERTEX
  5
D1EA
  8
0
 10
51.693223215639591
 20
108.3648502845317
 30
0.0
  0
VERTEX
  5
D1EB
  8
0
 10
51.710567235946662
 20
108.703541804105
 30
0.0
  0
VERTEX
  5
D1EC
  8
0
 10
51.715215466916561
 20
109.059422744438
 30
0.0
  0
VERTEX
  5
D1ED
  8
0
 10
51.705944150686257
 20
109.414571898058
 30
0.0
  0
VERTEX
  5
D1EE
  8
0
 10
51.683006606996059
 20
109.76801265683019
 30
0.0
  0
VERTEX
  5
D1EF
  8
0
 10
51.650495067238808
 20
110.0889781974256
 30
0.0
  0
VERTEX
  5
D1F0
  8
0
 10
51.610576253384352
 20
110.3868994996883
 30
0.0
  0
VERTEX
  5
D1F1
  8
0
 10
51.572425089776523
 20
110.62308435980231
 30
0.0
  0
VERTEX
  5
D1F2
  8
0
 10
51.537136346101761
 20
110.8158071893267
 30
0.0
  0
VERTEX
  5
D1F3
  8
0
 10
51.51440741866827
 20
110.93045619968321
 30
0.0
  0
VERTEX
  5
D1F4
  8
0
 10
51.499999392777681
 20
110.99160005874
 30
0.0
  0
SEQEND
  5
D1F5
  8
0
  0
POLYLINE
  5
C4AC
  8
0
 66
     1
 10
0.0
 20
0.0
 30
0.0
 70
   128
  0
VERTEX
  5
D1F6
  8
0
 10
66.499999057501554
 20
110.99160005874
 30
0.0
  0
VERTEX
  5
D1F7
  8
0
 10
66.485029444098473
 20
110.9276976804249
 30
0.0
  0
VERTEX
  5
D1F8
  8
0
 10
66.440593250095844
 20
110.6965675153769
 30
0.0
  0
VERTEX
  5
D1F9
  8
0
 10
66.377846322953701
 20
110.3072622809559
 30
0.0
  0
VERTEX
  5
D1FA
  8
0
 10
66.344535708427429
 20
110.0461995247751
 30
0.0
  0
VERTEX
  5
D1FB
  8
0
 10
66.31588077545166
 20
109.7546831024811
 30
0.0
  0
VERTEX
  5
D1FC
  8
0
 10
66.294523220509291
 20
109.4247347228229
 30
0.0
  0
VERTEX
  5
D1FD
  8
0
 10
66.284896604716778
 20
109.074740672484
 30
0.0
  0
VERTEX
  5
D1FE
  8
0
 10
66.28894878923893
 20
108.71870210580531
 30
0.0
  0
VERTEX
  5
D1FF
  8
0
 10
66.307077448815107
 20
108.3605308104306
 30
0.0
  0
VERTEX
  5
D200
  8
0
 10
66.336228776723146
 20
108.0294321309775
 30
0.0
  0
VERTEX
  5
D201
  8
0
 10
66.374403223395348
 20
107.71733732149001
 30
0.0
  0
VERTEX
  5
D202
  8
0
 10
66.413258466869593
 20
107.4615025445819
 30
0.0
  0
VERTEX
  5
D203
  8
0
 10
66.451195426285267
 20
107.24572162330151
 30
0.0
  0
VERTEX
  5
D204
  8
0
 10
66.477881543338299
 20
107.1077154502273
 30
0.0
  0
VERTEX
  5
D205
  8
0
 10
66.499999057501554
 20
107.0007530525327
 30
0.0
  0
VERTEX
  5
D206
  8
0
 10
66.499999057501554
 20
107.0007530525327
 30
0.0
  0
SEQEND
  5
D207
  8
0
  0
LINE
  5
C4AD
  8
0
 10
65.499999359250069
 20
98.000000000000014
 30
0.0
 11
52.499999091029167
 21
98.000000000000014
 31
0.0
  0
LINE
  5
C4AE
  8
0
 10
62.999999415129423
 20
141.99999976158151
 30
0.0
 11
54.999999035149813
 21
141.99999976158139
 31
0.0
  0
LINE
  5
C4B1
  8
0
 10
55.499999117106199
 20
142.4999989122152
 30
0.0
 11
62.499999333173037
 21
142.4999989122152
 31
0.0
  0
ARC
  5
C4B2
  8
0
 10
49.355752689339852
 20
136.49981445819139
 30
0.0
 40
5.9878849026341481
 50
340.49477194446757
 51
19.505228055532442
  0
LINE
  5
C4B8
  8
0
 10
49.999999225139611
 20
112.99999975860121
 30
0.0
 11
67.999999225139604
 21
112.99999975860121
 31
0.0
  0
LINE
  5
C4BA
  8
0
 10
49.999999225139611
 20
122.99999975860121
 30
0.0
 11
67.999999225139604
 21
122.99999975860121
 31
0.0
  0
LINE
  5
C679
  8
0
 10
50.113233105980953
 20
182.92316016217001
 30
0.0
 11
49.999999225139611
 21
182.89281923524271
 31
0.0
  0
LINE
  5
C67A
  8
0
 10
49.999999225139611
 20
180.1071785891877
 30
0.0
 11
50.113233105980953
 21
180.0768376622604
 31
0.0
  0
LINE
  5
C67B
  8
0
 10
67.88676534429851
 20
180.0768376622604
 30
0.0
 11
67.999999225139604
 21
180.1071785891877
 31
0.0
  0
LINE
  5
C67C
  8
0
 10
67.999999225139604
 20
182.89281923524271
 30
0.0
 11
67.88676534429851
 21
182.92316016217001
 31
0.0
  0
LINE
  5
C67E
  8
0
 10
49.999999225139611
 20
180.1071785891877
 30
0.0
 11
49.999999225139611
 21
182.89281923524271
 31
0.0
  0
LINE
  5
C680
  8
0
 10
67.999999225139604
 20
182.89281923524271
 30
0.0
 11
67.999999225139604
 21
180.1071785891877
 31
0.0
  0
CIRCLE
  5
C682
  8
0
 10
58.999999225139618
 20
181.4999989122152
 30
0.0
 40
9.0000000000000142
  0
CIRCLE
  5
C685
  8
0
 10
58.999999225139618
 20
181.4999989122152
 30
0.0
 40
4.0
  0
CIRCLE
  5
C687
  8
0
 10
58.999999225139618
 20
181.4999989122152
 30
0.0
 40
6.5
  0
CIRCLE
  5
C688
  8
0
 10
58.999999225139618
 20
181.4999989122152
 30
0.0
 40
7.5
  0
LINE
  5
C689
  8
0
 10
64.291501847268819
 20
60.500000000000028
 30
0.0
 11
53.708496603010417
 21
60.500000000000028
 31
0.0
  0
LINE
  5
C68A
  8
0
 10
53.708496603010651
 20
57.500000000000028
 30
0.0
 11
64.291501847268819
 21
57.500000000000028
 31
0.0
  0
LINE
  5
C68B
  8
0
 10
66.360573493757101
 20
57.560574268617501
 30
0.0
 11
66.499999225139618
 21
57.700000000000017
 31
0.0
  0
LINE
  5
C68C
  8
0
 10
66.499999225139618
 20
60.300000000000011
 30
0.0
 11
66.360573493757315
 21
60.439425731382499
 31
0.0
  0
LINE
  5
C68D
  8
0
 10
51.639424956522127
 20
60.439425731382499
 30
0.0
 11
51.499999225139618
 21
60.300000000000011
 31
0.0
  0
LINE
  5
C68E
  8
0
 10
51.499999225139618
 20
57.700000000000017
 30
0.0
 11
51.639424956522127
 21
57.560574268617501
 31
0.0
  0
LINE
  5
C68F
  8
0
 10
67.88676534429851
 20
57.576838750045198
 30
0.0
 11
67.999999225139604
 21
57.607179676972457
 31
0.0
  0
LINE
  5
C690
  8
0
 10
67.999999225139604
 20
60.392820323027557
 30
0.0
 11
67.88676534429851
 21
60.423161249954831
 31
0.0
  0
LINE
  5
C691
  8
0
 10
50.113233105980953
 20
60.423161249954859
 30
0.0
 11
49.999999225139611
 21
60.392820323027593
 31
0.0
  0
LINE
  5
C692
  8
0
 10
49.999999225139611
 20
57.607179676972457
 30
0.0
 11
50.113233105980953
 21
57.576838750045198
 31
0.0
  0
LINE
  5
C693
  8
0
 10
53.508187138041421
 20
59.300000000000011
 30
0.0
 11
64.491811312238042
 21
59.300000000000011
 31
0.0
  0
LINE
  5
C694
  8
0
 10
64.491811312238042
 20
58.70000000000001
 30
0.0
 11
53.508187138041421
 21
58.70000000000001
 31
0.0
  0
LINE
  5
C697
  8
0
 10
51.499999225139618
 20
57.700000000000088
 30
0.0
 11
51.499999225139618
 21
60.300000000000011
 31
0.0
  0
LINE
  5
C699
  8
0
 10
66.499999225139618
 20
60.299999999999827
 30
0.0
 11
66.499999225139618
 21
57.70000000000023
 31
0.0
  0
LINE
  5
C69B
  8
0
 10
67.999999225139604
 20
60.392820323027557
 30
0.0
 11
67.999999225139604
 21
57.607179676972457
 31
0.0
  0
LINE
  5
C69C
  8
0
 10
49.999999225139611
 20
57.607179676972457
 30
0.0
 11
49.999999225139611
 21
60.392820323027593
 31
0.0
  0
CIRCLE
  5
C69D
  8
0
 10
58.999999225139618
 20
59.0
 30
0.0
 40
9.0000000000000142
  0
LINE
  5
C6A0
  8
0
 10
60.199999225139663
 20
53.632505239872131
 30
0.0
 11
59.999999225139611
 21
53.795194528130743
 31
0.0
  0
LINE
  5
C6A1
  8
0
 10
57.999999225139611
 20
53.795194528130743
 30
0.0
 11
57.799999225139793
 21
53.632505239872131
 31
0.0
  0
ARC
  5
C6A2
  8
0
 10
58.999999225139618
 20
59.0
 30
0.0
 40
5.300000000000022
 50
259.12428350536823
 51
280.87571649463177
  0
LINE
  5
C6A3
  8
0
 10
59.999999225139611
 20
53.795194528130743
 30
0.0
 11
59.999999225139611
 21
56.171572875253808
 31
0.0
  0
LINE
  5
C6A5
  8
0
 10
60.499999225139611
 20
56.401923788646677
 30
0.0
 11
60.499999225139611
 21
53.70849737787082
 31
0.0
  0
LINE
  5
C6A6
  8
0
 10
57.999999225139611
 20
56.171572875253808
 30
0.0
 11
57.999999225139611
 21
53.795194528130743
 31
0.0
  0
ARC
  5
C6A7
  8
0
 10
58.999999225139618
 20
59.0
 30
0.0
 40
3.0000000000000089
 50
240.0
 51
300.0
  0
LINE
  5
C6A8
  8
0
 10
57.499999225139611
 20
53.70849737787082
 30
0.0
 11
57.499999225139611
 21
56.401923788646677
 31
0.0
  0
LINE
  5
C6AA
  8
0
 10
59.999999225139611
 20
64.204805471869264
 30
0.0
 11
60.199999225139663
 21
64.367494760127869
 31
0.0
  0
LINE
  5
C6AB
  8
0
 10
60.499999225139611
 20
64.291502622129201
 30
0.0
 11
60.499999225139611
 21
61.598076211353337
 31
0.0
  0
LINE
  5
C6AC
  8
0
 10
59.999999225139611
 20
61.828427124746213
 30
0.0
 11
59.999999225139611
 21
64.204805471869264
 31
0.0
  0
ARC
  5
C6AE
  8
0
 10
58.999999225139618
 20
59.0
 30
0.0
 40
5.3000000000000211
 50
79.124283505368183
 51
100.8757164946318
  0
LINE
  5
C6AF
  8
0
 10
57.999999225139611
 20
64.204805471869264
 30
0.0
 11
57.999999225139611
 21
61.828427124746213
 31
0.0
  0
ARC
  5
C6B0
  8
0
 10
58.999999225139618
 20
59.0
 30
0.0
 40
3.0000000000000151
 50
60.0
 51
120.0
  0
LINE
  5
C6B1
  8
0
 10
57.799999225139793
 20
64.367494760127883
 30
0.0
 11
57.999999225139611
 21
64.204805471869264
 31
0.0
  0
LINE
  5
C6B2
  8
0
 10
57.499999225139611
 20
61.598076211353337
 30
0.0
 11
57.499999225139611
 21
64.291502622129201
 31
0.0
  0
ARC
  5
C6BE
  8
0
 10
58.999999225139618
 20
59.0
 30
0.0
 40
1.750000000000014
 50
58.997280866128129
 51
121.00271913387181
  0
ARC
  5
C6BF
  8
0
 10
58.999999225139618
 20
59.0
 30
0.0
 40
1.75
 50
238.9972808661276
 51
301.00271913387229
  0
CIRCLE
  5
C6C1
  8
0
 10
58.999999225139618
 20
59.000000000000028
 30
0.0
 40
6.5000000000000071
  0
CIRCLE
  5
C6C2
  8
0
 10
58.999999225139618
 20
59.000000000000028
 30
0.0
 40
7.5
  0
CIRCLE
  5
C6C4
  8
0
 10
58.999999225139618
 20
59.000000000000028
 30
0.0
 40
5.4999999999999956
  0
LINE
  5
C817
  8
3
 10
49.999999347296118
 20
122.0844772608381
 30
0.0
 11
50.915521845059182
 21
122.99999975860111
 31
0.0
  0
LINE
  5
C818
  8
3
 10
50.039702540437702
 20
119.8791164237124
 30
0.0
 11
53.160585875326433
 21
122.99999975860111
 31
0.0
  0
LINE
  5
C819
  8
3
 10
50.198824292811651
 20
117.79317414581909
 30
0.0
 11
55.405649905593691
 21
122.99999975860121
 31
0.0
  0
LINE
  5
C81A
  8
3
 10
50.0006581456812
 20
115.349943968421
 30
0.0
 11
57.650713935861177
 21
122.99999975860121
 31
0.0
  0
LINE
  5
C81B
  8
3
 10
50.000028456808188
 20
113.1042502492807
 30
0.0
 11
59.895777966128428
 21
122.99999975860111
 31
0.0
  0
LINE
  5
C81C
  8
3
 10
52.140841996395693
 20
112.99999975860111
 30
0.0
 11
62.140841996395693
 21
122.99999975860111
 31
0.0
  0
LINE
  5
C81D
  8
3
 10
54.385906026662951
 20
112.99999975860111
 30
0.0
 11
64.385906026662951
 21
122.99999975860111
 31
0.0
  0
LINE
  5
C81E
  8
3
 10
56.630970056930209
 20
112.99999975860111
 30
0.0
 11
66.630970056930437
 21
122.99999975860121
 31
0.0
  0
LINE
  5
C81F
  8
3
 10
58.876034087197468
 20
112.99999975860111
 30
0.0
 11
67.999999108120605
 21
122.1239647795242
 31
0.0
  0
LINE
  5
C820
  8
3
 10
61.12109811746496
 20
112.99999975860121
 30
0.0
 11
67.951479401021516
 21
119.8303810421577
 31
0.0
  0
LINE
  5
C821
  8
3
 10
63.366162147732211
 20
112.99999975860121
 30
0.0
 11
67.813155786283232
 21
117.4469933971521
 31
0.0
  0
LINE
  5
C822
  8
3
 10
65.61122617799947
 20
112.99999975860111
 30
0.0
 11
67.999999225139845
 21
115.3887728057415
 31
0.0
  0
LINE
  5
C823
  8
3
 10
67.856290208266714
 20
112.99999975860111
 30
0.0
 11
67.999999225139604
 21
113.143708775474
 31
0.0
  0
LINE
  5
C824
  8
3
 10
50.583581316759592
 20
112.99999975860111
 30
0.0
 11
50.000162814740399
 21
113.58341826062021
 31
0.0
  0
LINE
  5
C825
  8
3
 10
52.82864534702685
 20
112.99999975860111
 30
0.0
 11
50.000792150585092
 21
115.827852955043
 31
0.0
  0
LINE
  5
C826
  8
3
 10
55.073709377294108
 20
112.99999975860111
 30
0.0
 11
50.200023340966943
 21
117.87368579492821
 31
0.0
  0
LINE
  5
C827
  8
3
 10
57.318773407561359
 20
112.99999975860111
 30
0.0
 11
49.99999958289095
 21
120.31877358327159
 31
0.0
  0
LINE
  5
C828
  8
3
 10
59.563837437828617
 20
112.99999975860121
 30
0.0
 11
49.99999928333591
 21
122.56383791309381
 31
0.0
  0
LINE
  5
C829
  8
3
 10
61.808901468095883
 20
112.99999975860121
 30
0.0
 11
51.808901468095883
 21
122.99999975860121
 31
0.0
  0
LINE
  5
C82A
  8
3
 10
64.053965498363354
 20
112.99999975860111
 30
0.0
 11
54.053965498363141
 21
122.99999975860121
 31
0.0
  0
LINE
  5
C82B
  8
3
 10
66.299029528630626
 20
112.99999975860111
 30
0.0
 11
56.299029528630399
 21
122.99999975860121
 31
0.0
  0
LINE
  5
C82C
  8
3
 10
67.999999225139604
 20
113.5440940923593
 30
0.0
 11
58.544093558897657
 21
122.99999975860111
 31
0.0
  0
LINE
  5
C82D
  8
3
 10
67.999999225139845
 20
115.7891581226264
 30
0.0
 11
60.789157589164908
 21
122.99999975860111
 31
0.0
  0
LINE
  5
C82E
  8
3
 10
67.801728400591614
 20
118.23249297744179
 30
0.0
 11
63.034221619432401
 21
122.99999975860121
 31
0.0
  0
LINE
  5
C82F
  8
3
 10
67.999998861712584
 20
120.2792865465882
 30
0.0
 11
65.279285649699659
 21
122.99999975860101
 31
0.0
  0
LINE
  5
C830
  8
3
 10
67.999999161603228
 20
122.5243502769647
 30
0.0
 11
67.524349679966903
 21
122.99999975860101
 31
0.0
  0
LINE
  5
C85B
  8
1
 10
58.999999225139618
 20
193.4999989122152
 30
0.0
 11
58.999999225139618
 21
169.4999989122152
 31
0.0
  0
LINE
  5
C85D
  8
1
 10
46.999999225139618
 20
59.000000000000028
 30
0.0
 11
70.999999225139618
 21
59.000000000000028
 31
0.0
  0
LINE
  5
C85E
  8
1
 10
70.999999225139618
 20
181.4999989122152
 30
0.0
 11
46.999999225139618
 21
181.4999989122152
 31
0.0
  0
LINE
  5
C86A
  8
1
 10
58.999999225139618
 20
145.4999989122152
 30
0.0
 11
58.999999225139618
 21
95.000000000000014
 31
0.0
  0
LINE
  5
C86B
  8
1
 10
58.999999225139618
 20
71.000000000000014
 30
0.0
 11
58.999999225139618
 21
46.999999999999979
 31
0.0
  0
ARC
  5
C881
  8
0
 10
98.999998837709427
 20
122.99999975860121
 30
0.0
 40
1.0
 50
90.0
 51
180.0
  0
ARC
  5
C882
  8
0
 10
114.9999988377094
 20
122.99999975860121
 30
0.0
 40
1.0
 50
0.0
 51
90.0
  0
LINE
  5
C883
  8
0
 10
115.99999845027919
 20
122.9999994412064
 30
0.0
 11
115.99999845027919
 21
112.99999978113919
 31
0.0
  0
LINE
  5
C884
  8
0
 10
97.999999225139604
 20
112.99999978113919
 30
0.0
 11
97.999999225139604
 21
122.9999994412064
 31
0.0
  0
ARC
  5
C885
  8
0
 10
114.9999988377094
 20
112.99999975860121
 30
0.0
 40
1.0
 50
270.0
 51
0.0
  0
ARC
  5
C886
  8
0
 10
98.999998837709427
 20
112.99999975860121
 30
0.0
 40
1.0
 50
180.0
 51
270.0
  0
LINE
  5
C887
  8
0
 10
114.49999867007131
 20
99.000000163912787
 30
0.0
 11
113.49999897181991
 21
98.000000000000014
 31
0.0
  0
LINE
  5
C888
  8
0
 10
100.499998703599
 20
98.000000000000014
 30
0.0
 11
99.49999900534749
 21
99.000000163912787
 31
0.0
  0
LINE
  5
C889
  8
0
 10
99.49999900534749
 20
99.000000163912787
 30
0.0
 11
99.49999900534749
 21
111.9999997336417
 31
0.0
  0
LINE
  5
C88A
  8
0
 10
99.49999900534749
 20
123.9999996051192
 30
0.0
 11
99.49999900534749
 21
129.50000050663951
 31
0.0
  0
LINE
  5
C88B
  8
0
 10
114.49999867007131
 20
129.50000050663951
 30
0.0
 11
114.49999867007131
 21
123.9999996051192
 31
0.0
  0
LINE
  5
C88C
  8
0
 10
114.49999867007131
 20
111.9999997336417
 30
0.0
 11
114.49999867007131
 21
99.000000163912787
 31
0.0
  0
LINE
  5
C88D
  8
0
 10
99.49999900534749
 20
129.50000050663951
 30
0.0
 11
100.499998703599
 21
130.5000006705522
 31
0.0
  0
LINE
  5
C88E
  8
0
 10
113.49999897181991
 20
130.5000006705522
 30
0.0
 11
114.49999867007131
 21
129.50000050663951
 31
0.0
  0
ARC
  5
C88F
  8
0
 10
111.3999988377093
 20
130.89999975860121
 30
0.0
 40
0.4000000000000057
 50
180.0
 51
270.0
  0
ARC
  5
C890
  8
0
 10
102.59999883770929
 20
130.89999975860121
 30
0.0
 40
0.4000000000000199
 50
270.0
 51
0.0
  0
LINE
  5
C891
  8
0
 10
102.99999864771959
 20
130.8999999910593
 30
0.0
 11
102.99999864771959
 21
141.99999976158139
 31
0.0
  0
LINE
  5
C892
  8
0
 10
110.9999990276992
 20
141.99999976158139
 30
0.0
 11
110.9999990276992
 21
130.8999999910593
 31
0.0
  0
LINE
  5
C893
  8
0
 10
102.99999864771959
 20
141.99999976158139
 30
0.0
 11
103.49999872967599
 21
142.4999989122152
 31
0.0
  0
LINE
  5
C894
  8
0
 10
110.4999989457428
 20
142.4999989122152
 30
0.0
 11
110.9999990276992
 21
141.99999976158139
 31
0.0
  0
LINE
  5
C895
  8
0
 10
107.29999885195841
 20
107.5303059158399
 30
0.0
 11
107.29999885195861
 21
108.15147170983251
 31
0.0
  0
LINE
  5
C896
  8
0
 10
106.69999882346021
 20
108.15147170983251
 30
0.0
 11
106.69999882346021
 21
107.5303059158399
 31
0.0
  0
ARC
  5
C897
  8
0
 10
106.9999988377094
 20
108.99999975860121
 30
0.0
 40
0.9000000000000108
 50
289.4712206344995
 51
250.5287793655001
  0
CIRCLE
  5
C898
  8
0
 10
106.9999988377094
 20
117.99999975860121
 30
0.0
 40
1.5
  0
LINE
  5
C899
  8
0
 10
114.99999921768899
 20
123.9999996051192
 30
0.0
 11
98.999444794439569
 21
123.9999996051192
 31
0.0
  0
POLYLINE
  5
C89A
  8
0
 66
     1
 10
0.0
 20
0.0
 30
0.0
 70
   128
  0
VERTEX
  5
D208
  8
0
 10
105.45550768263639
 20
119.21721301227809
 30
0.0
  0
VERTEX
  5
D209
  8
0
 10
105.8343021851033
 20
119.6548386961222
 30
0.0
  0
VERTEX
  5
D20A
  8
0
 10
106.115853106603
 20
119.8563610687852
 30
0.0
  0
VERTEX
  5
D20B
  8
0
 10
106.430121215526
 20
120.0024259760976
 30
0.0
  0
VERTEX
  5
D20C
  8
0
 10
106.7333808296826
 20
120.0787255093455
 30
0.0
  0
VERTEX
  5
D20D
  8
0
 10
107.045620001445
 20
120.0993887633085
 30
0.0
  0
VERTEX
  5
D20E
  8
0
 10
107.604520029854
 20
119.98987454175951
 30
0.0
  0
VERTEX
  5
D20F
  8
0
 10
108.09966716449711
 20
119.70940116047861
 30
0.0
  0
VERTEX
  5
D210
  8
0
 10
108.5168110858649
 20
119.2590284645557
 30
0.0
  0
VERTEX
  5
D211
  8
0
 10
108.6849525291472
 20
118.962961949408
 30
0.0
  0
VERTEX
  5
D212
  8
0
 10
108.80561910569671
 20
118.6439546309411
 30
0.0
  0
VERTEX
  5
D213
  8
0
 10
108.87993596959861
 20
118.2839556150138
 30
0.0
  0
VERTEX
  5
D214
  8
0
 10
108.896146453917
 20
117.9163970537484
 30
0.0
  0
VERTEX
  5
D215
  8
0
 10
108.8511320250109
 20
117.54037789255381
 30
0.0
  0
VERTEX
  5
D216
  8
0
 10
108.7450323812663
 20
117.1773883998394
 30
0.0
  0
VERTEX
  5
D217
  8
0
 10
108.5792833892628
 20
116.8390091061592
 30
0.0
  0
VERTEX
  5
D218
  8
0
 10
108.3574416534975
 20
116.53523915633561
 30
0.0
  0
VERTEX
  5
D219
  8
0
 10
108.0951223103329
 20
116.2873769663274
 30
0.0
  0
VERTEX
  5
D21A
  8
0
 10
107.79126213863491
 20
116.09245068579909
 30
0.0
  0
VERTEX
  5
D21B
  8
0
 10
107.4879142525606
 20
115.97140762209889
 30
0.0
  0
VERTEX
  5
D21C
  8
0
 10
107.1671286318451
 20
115.90821785107249
 30
0.0
  0
VERTEX
  5
D21D
  8
0
 10
106.8744803761365
 20
115.90486508980391
 30
0.0
  0
VERTEX
  5
D21E
  8
0
 10
106.58557548420499
 20
115.9510368034244
 30
0.0
  0
VERTEX
  5
D21F
  8
0
 10
106.0678180493414
 20
116.1724117137492
 30
0.0
  0
VERTEX
  5
D220
  8
0
 10
105.61927563510829
 20
116.5621264390647
 30
0.0
  0
VERTEX
  5
D221
  8
0
 10
105.4268958233297
 20
116.8286365009844
 30
0.0
  0
VERTEX
  5
D222
  8
0
 10
105.2773204119876
 20
117.12184013053771
 30
0.0
  0
VERTEX
  5
D223
  8
0
 10
105.1658498309552
 20
117.4637440145016
 30
0.0
  0
VERTEX
  5
D224
  8
0
 10
105.1094141276553
 20
117.8194440454245
 30
0.0
  0
VERTEX
  5
D225
  8
0
 10
105.1108692027628
 20
118.1960206031799
 30
0.0
  0
VERTEX
  5
D226
  8
0
 10
105.1733370823785
 20
118.5671391449869
 30
0.0
  0
VERTEX
  5
D227
  8
0
 10
105.2884117653593
 20
118.90382063761351
 30
0.0
  0
VERTEX
  5
D228
  8
0
 10
105.45550768263639
 20
119.21721301227809
 30
0.0
  0
SEQEND
  5
D229
  8
0
  0
LINE
  5
C89B
  8
0
 10
98.999998457729816
 20
111.9999997336417
 30
0.0
 11
114.99999921768899
 21
111.9999997336417
 31
0.0
  0
LINE
  5
C89C
  8
0
 10
100.499998703599
 20
98.000000000000014
 30
0.0
 11
113.49999897181991
 21
98.000000000000014
 31
0.0
  0
LINE
  5
C89D
  8
0
 10
114.49999867007131
 20
99.000000163912787
 30
0.0
 11
99.49999900534749
 21
99.000000163912787
 31
0.0
  0
LINE
  5
C89E
  8
0
 10
99.49999900534749
 20
129.50000050663951
 30
0.0
 11
114.49999867007131
 21
129.50000050663951
 31
0.0
  0
POLYLINE
  5
C89F
  8
0
 66
     1
 10
0.0
 20
0.0
 30
0.0
 70
   128
  0
VERTEX
  5
D22A
  8
0
 10
108.45026447903361
 20
107.83786745928229
 30
0.0
  0
VERTEX
  5
D22B
  8
0
 10
108.09482847806061
 20
107.4231546390802
 30
0.0
  0
VERTEX
  5
D22C
  8
0
 10
107.82780065899711
 20
107.23015363514421
 30
0.0
  0
VERTEX
  5
D22D
  8
0
 10
107.528912818525
 20
107.09057445824151
 30
0.0
  0
VERTEX
  5
D22E
  8
0
 10
107.24430346279399
 20
107.0192840434611
 30
0.0
  0
VERTEX
  5
D22F
  8
0
 10
106.951235737215
 20
107.0007530525327
 30
0.0
  0
VERTEX
  5
D230
  8
0
 10
106.4345910982229
 20
107.10384627059101
 30
0.0
  0
VERTEX
  5
D231
  8
0
 10
105.9766529779881
 20
107.3638128601015
 30
0.0
  0
VERTEX
  5
D232
  8
0
 10
105.58554068673401
 20
107.7838279325515
 30
0.0
  0
VERTEX
  5
D233
  8
0
 10
105.424842024222
 20
108.06337977014481
 30
0.0
  0
VERTEX
  5
D234
  8
0
 10
105.30854241922501
 20
108.3648502845317
 30
0.0
  0
VERTEX
  5
D235
  8
0
 10
105.2348241629079
 20
108.7082633767277
 30
0.0
  0
VERTEX
  5
D236
  8
0
 10
105.2162043470889
 20
109.059422744438
 30
0.0
  0
VERTEX
  5
D237
  8
0
 10
105.25565901305519
 20
109.4196561044082
 30
0.0
  0
VERTEX
  5
D238
  8
0
 10
105.3532995702699
 20
109.76801265683019
 30
0.0
  0
VERTEX
  5
D239
  8
0
 10
105.50809073727579
 20
110.0937587926164
 30
0.0
  0
VERTEX
  5
D23A
  8
0
 10
105.7168665993958
 20
110.3868994996883
 30
0.0
  0
VERTEX
  5
D23B
  8
0
 10
105.9653039975092
 20
110.6268233871087
 30
0.0
  0
VERTEX
  5
D23C
  8
0
 10
106.2545628356747
 20
110.8158071893267
 30
0.0
  0
VERTEX
  5
D23D
  8
0
 10
106.5409832354635
 20
110.931831064634
 30
0.0
  0
VERTEX
  5
D23E
  8
0
 10
106.8444641696987
 20
110.99232500605279
 30
0.0
  0
VERTEX
  5
D23F
  8
0
 10
107.3849212098866
 20
110.9525354714133
 30
0.0
  0
VERTEX
  5
D240
  8
0
 10
107.8633698471822
 20
110.74860999546939
 30
0.0
  0
VERTEX
  5
D241
  8
0
 10
108.2821352593601
 20
110.3880553874187
 30
0.0
  0
VERTEX
  5
D242
  8
0
 10
108.60838687047359
 20
109.8634650716558
 30
0.0
  0
VERTEX
  5
D243
  8
0
 10
108.7178920116275
 20
109.5388757549226
 30
0.0
  0
VERTEX
  5
D244
  8
0
 10
108.7755163153633
 20
109.2005304545164
 30
0.0
  0
VERTEX
  5
D245
  8
0
 10
108.778659296222
 20
108.84025111049409
 30
0.0
  0
VERTEX
  5
D246
  8
0
 10
108.72376469895239
 20
108.48441440798339
 30
0.0
  0
VERTEX
  5
D247
  8
0
 10
108.6136900540441
 20
108.14940487220881
 30
0.0
  0
VERTEX
  5
D248
  8
0
 10
108.45026447903361
 20
107.83786745928229
 30
0.0
  0
SEQEND
  5
D249
  8
0
  0
LINE
  5
C8A0
  8
0
 10
113.49999897181991
 20
130.5000006705522
 30
0.0
 11
100.499998703599
 21
130.5000006705522
 31
0.0
  0
CIRCLE
  5
C8A1
  8
0
 10
106.9999988377094
 20
108.99999975860121
 30
0.0
 40
1.5
  0
LINE
  5
C8A2
  8
0
 10
102.99999864771959
 20
141.99999976158139
 30
0.0
 11
110.9999990276992
 21
141.99999976158139
 31
0.0
  0
POLYLINE
  5
C8A3
  8
0
 66
     1
 10
0.0
 20
0.0
 30
0.0
 70
   128
  0
VERTEX
  5
D24A
  8
0
 10
107.9425997287035
 20
134.86488606035709
 30
0.0
  0
VERTEX
  5
D24B
  8
0
 10
107.71693182876329
 20
134.7026980966329
 30
0.0
  0
VERTEX
  5
D24C
  8
0
 10
107.4649691127706
 20
134.58269159495831
 30
0.0
  0
VERTEX
  5
D24D
  8
0
 10
107.03660982660951
 20
134.50050237774849
 30
0.0
  0
VERTEX
  5
D24E
  8
0
 10
106.6035592649132
 20
134.55978105962271
 30
0.0
  0
VERTEX
  5
D24F
  8
0
 10
106.21664491016421
 20
134.74428537487981
 30
0.0
  0
VERTEX
  5
D250
  8
0
 10
105.8573549799621
 20
135.0663199573755
 30
0.0
  0
VERTEX
  5
D251
  8
0
 10
105.54887428414069
 20
135.56272420287129
 30
0.0
  0
VERTEX
  5
D252
  8
0
 10
105.4339658422395
 20
135.89030387997619
 30
0.0
  0
VERTEX
  5
D253
  8
0
 10
105.3691909601912
 20
136.23337145149699
 30
0.0
  0
VERTEX
  5
D254
  8
0
 10
105.356626487337
 20
136.60249184072009
 30
0.0
  0
VERTEX
  5
D255
  8
0
 10
105.4008424235508
 20
136.96870277822009
 30
0.0
  0
VERTEX
  5
D256
  8
0
 10
105.5011308472603
 20
137.31974060833451
 30
0.0
  0
VERTEX
  5
D257
  8
0
 10
105.655954494141
 20
137.64776359498501
 30
0.0
  0
VERTEX
  5
D258
  8
0
 10
105.8659629616886
 20
137.9434864521026
 30
0.0
  0
VERTEX
  5
D259
  8
0
 10
106.1286869063042
 20
138.19287787377829
 30
0.0
  0
VERTEX
  5
D25A
  8
0
 10
106.5580585983116
 20
138.42544402182099
 30
0.0
  0
VERTEX
  5
D25B
  8
0
 10
106.79950877791271
 20
138.48457555472851
 30
0.0
  0
VERTEX
  5
D25C
  8
0
 10
107.0482445703237
 20
138.4991265386343
 30
0.0
  0
VERTEX
  5
D25D
  8
0
 10
107.475024049636
 20
138.41361622512341
 30
0.0
  0
VERTEX
  5
D25E
  8
0
 10
107.85574487643311
 20
138.2046516537666
 30
0.0
  0
VERTEX
  5
D25F
  8
0
 10
108.20864634122699
 20
137.85138237476349
 30
0.0
  0
VERTEX
  5
D260
  8
0
 10
108.4996057162061
 20
137.31812383234501
 30
0.0
  0
VERTEX
  5
D261
  8
0
 10
108.5973572172224
 20
136.97685185074801
 30
0.0
  0
VERTEX
  5
D262
  8
0
 10
108.6425823578611
 20
136.6229623109102
 30
0.0
  0
VERTEX
  5
D263
  8
0
 10
108.6328595830127
 20
136.25396113097659
 30
0.0
  0
VERTEX
  5
D264
  8
0
 10
108.5665870178491
 20
135.8919262439012
 30
0.0
  0
VERTEX
  5
D265
  8
0
 10
108.44452403951431
 20
135.54820860922331
 30
0.0
  0
VERTEX
  5
D266
  8
0
 10
108.26814458239819
 20
135.23153658211231
 30
0.0
  0
VERTEX
  5
D267
  8
0
 10
107.9425997869111
 20
134.86488419771189
 30
0.0
  0
SEQEND
  5
D268
  8
0
  0
LINE
  5
C8A4
  8
0
 10
110.4999989457428
 20
142.4999989122152
 30
0.0
 11
103.49999872967599
 21
142.4999989122152
 31
0.0
  0
CIRCLE
  5
C8A5
  8
0
 10
106.9999988377094
 20
136.49999975860121
 30
0.0
 40
1.5
  0
LINE
  5
C8A6
  8
0
 10
106.9999988377094
 20
122.9999994412064
 30
0.0
 11
115.99999845027919
 21
122.9999994412064
 31
0.0
  0
LINE
  5
C8A7
  8
0
 10
115.9999988377094
 20
112.99999975860121
 30
0.0
 11
97.999998837709441
 21
112.99999975860121
 31
0.0
  0
LINE
  5
C8A8
  8
0
 10
115.9999988377094
 20
122.99999975860121
 30
0.0
 11
97.999998837709441
 21
122.99999975860121
 31
0.0
  0
LINE
  5
C8A9
  8
3
 10
115.9999988377094
 20
120.8918000954981
 30
0.0
 11
113.8917991746064
 21
122.99999975860121
 31
0.0
  0
LINE
  5
C8AA
  8
3
 10
115.9999988377094
 20
118.6467360652308
 30
0.0
 11
111.6467351443391
 21
122.99999975860121
 31
0.0
  0
LINE
  5
C8AB
  8
3
 10
115.9999988377094
 20
116.4016720349635
 30
0.0
 11
109.4016711140718
 21
122.99999975860111
 31
0.0
  0
LINE
  5
C8AC
  8
3
 10
115.9999988377094
 20
114.1566080046963
 30
0.0
 11
107.1566070838046
 21
122.99999975860111
 31
0.0
  0
LINE
  5
C8AD
  8
3
 10
114.9115430535373
 20
112.99999975860121
 30
0.0
 11
104.9115430535373
 21
122.99999975860111
 31
0.0
  0
LINE
  5
C8AE
  8
3
 10
112.6664790232701
 20
112.99999975860121
 30
0.0
 11
108.6608829106074
 21
117.00559587126379
 31
0.0
  0
LINE
  5
C8AF
  8
3
 10
105.93766051591339
 20
119.7288182659577
 30
0.0
 11
102.6664790232701
 21
122.99999975860111
 31
0.0
  0
LINE
  5
C8B0
  8
3
 10
110.4214149930023
 20
112.99999975860121
 30
0.0
 11
107.4562454001795
 21
115.965169351424
 31
0.0
  0
LINE
  5
C8B1
  8
3
 10
105.1273690979742
 20
118.2940456536295
 30
0.0
 11
100.4214149930026
 21
122.99999975860101
 31
0.0
  0
LINE
  5
C8B2
  8
3
 10
108.1763509627351
 20
112.99999975860121
 30
0.0
 11
98.176350962735341
 21
122.99999975860101
 31
0.0
  0
LINE
  5
C8B3
  8
3
 10
105.9312869324678
 20
112.99999975860121
 30
0.0
 11
97.999998837709214
 21
120.9312878533599
 31
0.0
  0
LINE
  5
C8B4
  8
3
 10
103.6862229022006
 20
112.99999975860121
 30
0.0
 11
97.999998837709214
 21
118.6862238230926
 31
0.0
  0
LINE
  5
C8B5
  8
3
 10
101.4411588719333
 20
112.99999975860111
 30
0.0
 11
97.999998837709214
 21
116.4411597928253
 31
0.0
  0
LINE
  5
C8B6
  8
3
 10
99.196094841666081
 20
112.99999975860111
 30
0.0
 11
97.999998837709214
 21
114.196095762558
 31
0.0
  0
LINE
  5
C8B7
  8
3
 10
114.2237397029064
 20
112.99999975860131
 30
0.0
 11
115.9999988377094
 21
114.7762588934044
 31
0.0
  0
LINE
  5
C8B8
  8
3
 10
111.9786756726391
 20
112.99999975860121
 30
0.0
 11
115.9999988377094
 21
117.0213229236717
 31
0.0
  0
LINE
  5
C8B9
  8
3
 10
109.7336116423719
 20
112.99999975860121
 30
0.0
 11
115.9999988377094
 21
119.266386953939
 31
0.0
  0
LINE
  5
C8BA
  8
3
 10
107.4885476121044
 20
112.99999975860121
 30
0.0
 11
115.9999988377094
 21
121.51145098420621
 31
0.0
  0
LINE
  5
C8BB
  8
3
 10
105.2434835818371
 20
112.99999975860121
 30
0.0
 11
115.2434835818369
 21
122.99999975860121
 31
0.0
  0
LINE
  5
C8BC
  8
3
 10
102.9984195515699
 20
112.99999975860131
 30
0.0
 11
106.139978311025
 21
116.1415585180564
 31
0.0
  0
LINE
  5
C8BD
  8
3
 10
108.7608173171111
 20
118.7623975241426
 30
0.0
 11
112.9984195515696
 21
122.99999975860111
 31
0.0
  0
LINE
  5
C8BE
  8
3
 10
100.75335552130259
 20
112.99999975860131
 30
0.0
 11
105.1784505875641
 21
117.4250948248629
 31
0.0
  0
LINE
  5
C8BF
  8
3
 10
107.6930710591357
 20
119.9397152964344
 30
0.0
 11
110.7533555213024
 21
122.99999975860111
 31
0.0
  0
LINE
  5
C8C0
  8
3
 10
98.508291491035166
 20
112.99999975860121
 30
0.0
 11
108.5082914910351
 21
122.99999975860121
 31
0.0
  0
LINE
  5
C8C1
  8
3
 10
97.999998837709441
 20
114.7367711355427
 30
0.0
 11
106.26322746076789
 21
122.99999975860121
 31
0.0
  0
LINE
  5
C8C2
  8
3
 10
97.999998837709441
 20
116.98183516581
 30
0.0
 11
104.01816343050061
 21
122.99999975860121
 31
0.0
  0
LINE
  5
C8C3
  8
3
 10
97.999998837709441
 20
119.2268991960773
 30
0.0
 11
101.77309940023341
 21
122.99999975860121
 31
0.0
  0
LINE
  5
C8C4
  8
3
 10
97.999998837709441
 20
121.4719632263446
 30
0.0
 11
99.528035369965906
 21
122.99999975860111
 31
0.0
  0
LINE
  5
C8C5
  8
1
 10
106.9999988377094
 20
145.4999989122152
 30
0.0
 11
106.9999988377094
 21
95.000000000000014
 31
0.0
  0
LINE
  5
C8C6
  8
1
 10
104.4999988377094
 20
136.49999975860121
 30
0.0
 11
109.4999988377094
 21
136.49999975860121
 31
0.0
  0
LINE
  5
C8C7
  8
1
 10
104.4999988377094
 20
117.99999975860121
 30
0.0
 11
109.4999988377094
 21
117.99999975860121
 31
0.0
  0
LINE
  5
C8C8
  8
1
 10
104.4999988377094
 20
108.99999975860121
 30
0.0
 11
109.4999988377094
 21
108.99999975860121
 31
0.0
  0
LINE
  5
D004
  8
0
 10
199.40515925336791
 20
-48.238740522107562
 30
0.0
 11
214.405159253368
 21
-48.238740522107577
 31
0.0
  0
LINE
  5
D005
  8
1
 10
206.905159253368
 20
-112.2387411926599
 30
0.0
 11
206.905159253368
 21
-91.238741192659873
 31
0.0
  0
CIRCLE
  5
D006
  8
0
 10
206.9051592533678
 20
-101.7387411926598
 30
0.0
 40
7.5
  0
LINE
  5
D007
  8
0
 10
214.405159253368
 20
-48.238740522107577
 30
0.0
 11
214.405159253368
 21
-31.23874052210757
 31
0.0
  0
LINE
  5
D008
  8
0
 10
199.40515925336791
 20
-48.238740522107577
 30
0.0
 11
199.40515925336791
 21
-31.23874052210757
 31
0.0
  0
LINE
  5
D00A
  8
1
 10
217.4051592533678
 20
-101.7387411926598
 30
0.0
 11
196.4051592533678
 21
-101.7387411926598
 31
0.0
  0
LINE
  5
D015
  8
1
 10
206.905159253368
 20
-51.238740522107577
 30
0.0
 11
206.905159253368
 21
-28.238740522107559
 31
0.0
  0
CIRCLE
  5
D016
  8
0
 10
206.9051592533678
 20
-101.7387411926598
 30
0.0
 40
4.0
  0
LINE
  5
D017
  8
0
 10
210.90515925336791
 20
-47.73874052210757
 30
0.0
 11
210.90515925336791
 21
-36.238740522107562
 31
0.0
  0
LINE
  5
D018
  8
0
 10
202.9051592533678
 20
-47.73874052210757
 30
0.0
 11
202.9051592533678
 21
-36.238740522107562
 31
0.0
  0
LINE
  5
D019
  8
0
 10
202.90515925336791
 20
-36.238740522107562
 30
0.0
 11
210.90515925336791
 21
-36.238740522107577
 31
0.0
  0
LINE
  5
D01A
  8
0
 10
206.90515925336791
 20
-33.835298045997348
 30
0.0
 11
210.90515925336791
 21
-36.238740522107577
 31
0.0
  0
LINE
  5
D01B
  8
0
 10
206.90515925336791
 20
-33.835298045997369
 30
0.0
 11
202.905159253368
 21
-36.23874052210757
 31
0.0
  0
LINE
  5
D025
  8
1
 10
197.40515925336791
 20
-43.23874052210757
 30
0.0
 11
216.405159253368
 21
-43.23874052210757
 31
0.0
  0
LINE
  5
D028
  8
0
 10
210.90515925336791
 20
-41.738740522107577
 30
0.0
 11
213.905159253368
 21
-41.738740522107562
 31
0.0
  0
LINE
  5
D029
  8
0
 10
210.90515925336791
 20
-44.73874052210757
 30
0.0
 11
213.905159253368
 21
-44.73874052210757
 31
0.0
  0
LINE
  5
D033
  8
0
 10
213.905159253368
 20
-44.73874052210757
 30
0.0
 11
214.405159253368
 21
-45.23874052210757
 31
0.0
  0
LINE
  5
D035
  8
0
 10
213.905159253368
 20
-41.738740522107577
 30
0.0
 11
214.405159253368
 21
-41.238740522107577
 31
0.0
  0
LINE
  5
D036
  8
0
 10
213.905159253368
 20
-41.738740522107577
 30
0.0
 11
213.905159253368
 21
-44.73874052210757
 31
0.0
  0
LINE
  5
D037
  8
0
 10
202.905159253368
 20
-44.73874052210757
 30
0.0
 11
199.905159253368
 21
-44.73874052210757
 31
0.0
  0
LINE
  5
D038
  8
0
 10
202.905159253368
 20
-41.738740522107577
 30
0.0
 11
199.905159253368
 21
-41.738740522107562
 31
0.0
  0
LINE
  5
D039
  8
0
 10
199.905159253368
 20
-44.73874052210757
 30
0.0
 11
199.40515925336791
 21
-45.23874052210757
 31
0.0
  0
LINE
  5
D03A
  8
0
 10
199.905159253368
 20
-41.738740522107577
 30
0.0
 11
199.40515925336791
 21
-41.238740522107577
 31
0.0
  0
LINE
  5
D03B
  8
0
 10
199.905159253368
 20
-41.738740522107577
 30
0.0
 11
199.905159253368
 21
-44.73874052210757
 31
0.0
  0
LINE
  5
D045
  8
2
 10
210.61325849691571
 20
-103.2387411926599
 30
0.0
 11
213.905159253368
 21
-103.2387411926598
 31
0.0
  0
LINE
  5
D046
  8
2
 10
210.61325849691571
 20
-100.2387411926599
 30
0.0
 11
213.905159253368
 21
-100.2387411926598
 31
0.0
  0
LINE
  5
D047
  8
2
 10
213.905159253368
 20
-103.2387411926598
 30
0.0
 11
214.18974854017219
 21
-103.52333047946399
 31
0.0
  0
LINE
  5
D048
  8
2
 10
213.905159253368
 20
-100.2387411926598
 30
0.0
 11
214.18974854017219
 21
-99.954151905855696
 31
0.0
  0
LINE
  5
D049
  8
2
 10
213.905159253368
 20
-100.2387411926598
 30
0.0
 11
213.905159253368
 21
-103.2387411926598
 31
0.0
  0
LINE
  5
D04A
  8
2
 10
203.19706000982001
 20
-103.2387411926599
 30
0.0
 11
199.905159253368
 21
-103.2387411926598
 31
0.0
  0
LINE
  5
D04B
  8
2
 10
203.19706000982001
 20
-100.2387411926599
 30
0.0
 11
199.905159253368
 21
-100.2387411926598
 31
0.0
  0
LINE
  5
D04C
  8
2
 10
199.905159253368
 20
-103.2387411926598
 30
0.0
 11
199.62056996656361
 21
-103.52333047946421
 31
0.0
  0
LINE
  5
D04D
  8
2
 10
199.905159253368
 20
-100.2387411926598
 30
0.0
 11
199.62056996656361
 21
-99.954151905855525
 31
0.0
  0
LINE
  5
D04E
  8
2
 10
199.905159253368
 20
-100.2387411926598
 30
0.0
 11
199.905159253368
 21
-103.2387411926598
 31
0.0
  0
LINE
  5
D04F
  8
0
 10
210.90515925336791
 20
-47.73874052210757
 30
0.0
 11
211.40515925336791
 21
-48.238740522107577
 31
0.0
  0
LINE
  5
D050
  8
0
 10
210.90515925336791
 20
-47.73874052210757
 30
0.0
 11
202.9051592533678
 21
-47.73874052210757
 31
0.0
  0
LINE
  5
D058
  8
0
 10
202.905159253368
 20
-47.73874052210757
 30
0.0
 11
202.405159253368
 21
-48.238740522107577
 31
0.0
  0
LINE
  5
D06B
  8
0
 10
149.40515925336811
 20
-48.238740522107634
 30
0.0
 11
152.90515925336811
 21
-48.238740522107634
 31
0.0
  0
LINE
  5
D06C
  8
0
 10
160.905159253368
 20
-47.738740522107641
 30
0.0
 11
161.40515925336811
 21
-48.238740522107648
 31
0.0
  0
LINE
  5
D06D
  8
1
 10
147.40515925336811
 20
-43.238740522107641
 30
0.0
 11
166.40515925336811
 21
-43.238740522107641
 31
0.0
  0
LINE
  5
D06E
  8
0
 10
160.7523958521744
 20
-44.738740522107641
 30
0.0
 11
163.90515925336811
 21
-44.738740522107641
 31
0.0
  0
LINE
  5
D06F
  8
0
 10
160.7524922193933
 20
-41.738740522107648
 30
0.0
 11
163.90515925336811
 21
-41.738740522107634
 31
0.0
  0
LINE
  5
D070
  8
0
 10
152.90515925336811
 20
-36.238740522107634
 30
0.0
 11
160.905159253368
 21
-36.238740522107648
 31
0.0
  0
LINE
  5
D072
  8
0
 10
164.40515925336811
 20
-48.238740522107648
 30
0.0
 11
164.40515925336811
 21
-31.238740522107641
 31
0.0
  0
LINE
  5
D073
  8
0
 10
163.90515925336811
 20
-44.738740522107641
 30
0.0
 11
164.40515925336811
 21
-45.238740522107641
 31
0.0
  0
LINE
  5
D074
  8
0
 10
149.40515925336811
 20
-48.238740522107648
 30
0.0
 11
149.40515925336811
 21
-31.238740522107641
 31
0.0
  0
LINE
  5
D079
  8
0
 10
163.90515925336811
 20
-41.738740522107648
 30
0.0
 11
164.40515925336811
 21
-41.238740522107648
 31
0.0
  0
LINE
  5
D07A
  8
0
 10
163.90515925336811
 20
-41.738740522107648
 30
0.0
 11
163.90515925336811
 21
-44.738740522107641
 31
0.0
  0
LINE
  5
D07B
  8
0
 10
153.05792265456191
 20
-44.738740522107641
 30
0.0
 11
149.90515925336811
 21
-44.738740522107641
 31
0.0
  0
LINE
  5
D07C
  8
0
 10
153.05782628734289
 20
-41.738740522107634
 30
0.0
 11
149.90515925336811
 21
-41.738740522107634
 31
0.0
  0
LINE
  5
D07D
  8
0
 10
149.90515925336811
 20
-44.738740522107641
 30
0.0
 11
149.40515925336811
 21
-45.238740522107641
 31
0.0
  0
LINE
  5
D07E
  8
0
 10
149.90515925336811
 20
-41.738740522107648
 30
0.0
 11
149.40515925336811
 21
-41.238740522107648
 31
0.0
  0
LINE
  5
D07F
  8
0
 10
149.90515925336811
 20
-41.738740522107648
 30
0.0
 11
149.90515925336811
 21
-44.738740522107641
 31
0.0
  0
LINE
  5
D081
  8
0
 10
152.9051592533682
 20
-47.738740522107641
 30
0.0
 11
152.4051592533682
 21
-48.238740522107648
 31
0.0
  0
LINE
  5
D082
  8
0
 10
164.40515908573011
 20
-69.438741481556136
 30
0.0
 11
164.29895338762731
 21
-69.332535725245776
 31
0.0
  0
LINE
  5
D083
  8
0
 10
149.51244359065029
 20
-69.331457137289036
 30
0.0
 11
149.4051594210062
 21
-69.438741481556136
 31
0.0
  0
LINE
  5
D084
  8
0
 10
165.797430921087
 20
-63.160427435925747
 30
0.0
 11
165.90515886593789
 21
-63.131561558386828
 31
0.0
  0
LINE
  5
D085
  8
0
 10
165.90515886593789
 20
-60.345920789680029
 30
0.0
 11
165.79660691041869
 21
-60.316834293903042
 31
0.0
  0
LINE
  5
D086
  8
0
 10
148.0137001113508
 20
-60.316837322515049
 30
0.0
 11
147.9051596407983
 21
-60.345920789680029
 31
0.0
  0
LINE
  5
D087
  8
0
 10
147.9051596407983
 20
-63.131561558386828
 30
0.0
 11
148.01362519312829
 21
-63.160624876311573
 31
0.0
  0
ARC
  5
D088
  8
0
 10
164.90515925336811
 20
-56.738741434058653
 30
0.0
 40
1.0
 50
0.0
 51
90.0
  0
ARC
  5
D089
  8
0
 10
148.90515925336811
 20
-56.73874143405871
 30
0.0
 40
1.0
 50
90.0
 51
180.0
  0
LINE
  5
D08A
  8
0
 10
147.9051596407983
 20
-63.833876102855953
 30
0.0
 11
147.9051596407983
 21
-66.738741411520692
 31
0.0
  0
LINE
  5
D08B
  8
0
 10
147.9051596407983
 20
-56.738741751453432
 30
0.0
 11
147.9051596407983
 21
-59.639352429351362
 31
0.0
  0
LINE
  5
D08C
  8
0
 10
165.90515886593789
 20
-59.639352429351362
 30
0.0
 11
165.90515886593789
 21
-56.738741751453432
 31
0.0
  0
LINE
  5
D08D
  8
0
 10
165.90515886593789
 20
-66.738741411520692
 30
0.0
 11
165.90515886593789
 21
-63.833876102855953
 31
0.0
  0
ARC
  5
D08E
  8
0
 10
148.90515925336811
 20
-66.73874143405871
 30
0.0
 40
1.0
 50
180.0
 51
270.0
  0
ARC
  5
D08F
  8
0
 10
164.90515925336811
 20
-66.738741434058682
 30
0.0
 40
1.0
 50
270.0
 51
0.0
  0
LINE
  5
D090
  8
0
 10
164.40515908573011
 20
-50.238740686020421
 30
0.0
 11
163.40515938747859
 21
-49.238740522107648
 31
0.0
  0
LINE
  5
D091
  8
0
 10
150.40515911925769
 20
-49.238740522107648
 30
0.0
 11
149.4051594210062
 21
-50.238740686020421
 31
0.0
  0
LINE
  5
D092
  8
0
 10
164.40515908573011
 20
-55.738741587540652
 30
0.0
 11
164.40515908573011
 21
-50.238740686020421
 31
0.0
  0
LINE
  5
D093
  8
0
 10
164.40515908573011
 20
-68.747141133919882
 30
0.0
 11
164.40515908573011
 21
-67.738741459018144
 31
0.0
  0
LINE
  5
D094
  8
0
 10
164.40515908573011
 20
-80.738741028747114
 30
0.0
 11
164.40515908573011
 21
-72.737988140127214
 31
0.0
  0
LINE
  5
D095
  8
0
 10
149.4051594210062
 20
-72.737988140127214
 30
0.0
 11
149.4051594210062
 21
-80.738741028747114
 31
0.0
  0
LINE
  5
D096
  8
0
 10
149.4051594210062
 20
-67.738741459018144
 30
0.0
 11
149.4051594210062
 21
-68.747141133919882
 31
0.0
  0
LINE
  5
D097
  8
0
 10
149.4051594210062
 20
-50.238740686020421
 30
0.0
 11
149.4051594210062
 21
-55.738741587540652
 31
0.0
  0
LINE
  5
D098
  8
0
 10
149.4051594210062
 20
-80.738741028747114
 30
0.0
 11
150.40515911925769
 21
-81.738741192659873
 31
0.0
  0
LINE
  5
D099
  8
0
 10
163.40515938747859
 20
-81.738741192659873
 30
0.0
 11
164.40515908573011
 21
-80.738741028747114
 31
0.0
  0
ARC
  5
D09A
  8
0
 10
152.50515925336799
 20
-48.83874143405869
 30
0.0
 40
0.4000000000000057
 50
270.0
 51
0.0
  0
ARC
  5
D09B
  8
0
 10
161.3051592533682
 20
-48.83874143405869
 30
0.0
 40
0.4000000000000057
 50
180.0
 51
270.0
  0
LINE
  5
D09C
  8
0
 10
160.9051592533682
 20
-37.738741431078481
 30
0.0
 11
160.40515917141181
 21
-37.238742280444669
 31
0.0
  0
LINE
  5
D09E
  8
0
 10
160.9051592533682
 20
-41.239614654025601
 30
0.0
 11
160.9051592533682
 21
-36.238740522107648
 31
0.0
  0
LINE
  5
D09F
  8
0
 10
160.9051592533682
 20
-48.83874143405869
 30
0.0
 11
160.9051592533682
 21
-45.238238814911412
 31
0.0
  0
LINE
  5
D0A0
  8
0
 10
152.9051592533682
 20
-45.238238814911391
 30
0.0
 11
152.90515925336811
 21
-48.83874143405869
 31
0.0
  0
LINE
  5
D0A1
  8
0
 10
152.9051592533682
 20
-36.238740522107648
 30
0.0
 11
152.9051592533682
 21
-41.239614654025601
 31
0.0
  0
LINE
  5
D0A2
  8
0
 10
164.40515908573011
 20
-69.438741481556136
 30
0.0
 11
164.40515908573011
 21
-72.003652397236365
 31
0.0
  0
POLYLINE
  5
D0A3
  8
0
 66
     1
 10
0.0
 20
0.0
 30
0.0
 70
   128
  0
VERTEX
  5
D269
  8
0
 10
164.40515908573011
 20
-72.003652397236365
 30
0.0
  0
VERTEX
  5
D26A
  8
0
 10
164.36112149778941
 20
-72.048870436540383
 30
0.0
  0
VERTEX
  5
D26B
  8
0
 10
164.2941421752069
 20
-72.117396685919303
 30
0.0
  0
SEQEND
  5
D26C
  8
0
  0
LINE
  5
D0A4
  8
0
 10
149.4051594210062
 20
-72.003652397236365
 30
0.0
 11
149.4051594210062
 21
-69.438741481556136
 31
0.0
  0
POLYLINE
  5
D0A5
  8
0
 66
     1
 10
0.0
 20
0.0
 30
0.0
 70
   128
  0
VERTEX
  5
D26D
  8
0
 10
149.51500100244019
 20
-72.116194115644845
 30
0.0
  0
VERTEX
  5
D26E
  8
0
 10
149.4491970089469
 20
-72.048870436540383
 30
0.0
  0
VERTEX
  5
D26F
  8
0
 10
149.4051594210062
 20
-72.003652397236365
 30
0.0
  0
SEQEND
  5
D270
  8
0
  0
LINE
  5
D0A6
  8
0
 10
165.90515886593789
 20
-60.345920789680029
 30
0.0
 11
165.90515886593789
 21
-63.131561558386828
 31
0.0
  0
LINE
  5
D0A7
  8
0
 10
147.9051596407983
 20
-63.131561558386828
 30
0.0
 11
147.9051596407983
 21
-60.345920789680029
 31
0.0
  0
LINE
  5
D0A8
  8
0
 10
148.9051588733885
 20
-55.738741587540652
 30
0.0
 11
164.90515963334769
 21
-55.738741587540652
 31
0.0
  0
ARC
  5
D0A9
  8
0
 10
136.1988771339129
 20
-61.862263720835038
 30
0.0
 40
11.915468297168021
 50
6.4606371207118407
 51
10.751909091432429
  0
POLYLINE
  5
D0AA
  8
0
 66
     1
 10
0.0
 20
0.0
 30
0.0
 70
   128
  0
VERTEX
  5
D271
  8
0
 10
147.9051596407983
 20
-63.833876102855953
 30
0.0
  0
VERTEX
  5
D272
  8
0
 10
147.9051596407983
 20
-63.833876102855953
 30
0.0
  0
VERTEX
  5
D273
  8
0
 10
147.91470569718811
 20
-63.787704389235522
 30
0.0
  0
VERTEX
  5
D274
  8
0
 10
147.95356513161391
 20
-63.56632947891071
 30
0.0
  0
VERTEX
  5
D275
  8
0
 10
148.01170108068919
 20
-63.176614753595139
 30
0.0
  0
VERTEX
  5
D276
  8
0
 10
148.04336046029059
 20
-62.913533355733897
 30
0.0
  0
VERTEX
  5
D277
  8
0
 10
148.0715655644629
 20
-62.616901062122132
 30
0.0
  0
VERTEX
  5
D278
  8
0
 10
148.0938372125122
 20
-62.279621194741281
 30
0.0
  0
VERTEX
  5
D279
  8
0
 10
148.1059723456595
 20
-61.919297147235419
 30
0.0
  0
VERTEX
  5
D27A
  8
0
 10
148.10579539437029
 20
-61.548006310752179
 30
0.0
  0
VERTEX
  5
D27B
  8
0
 10
148.09248027552101
 20
-61.171602047673012
 30
0.0
  0
VERTEX
  5
D27C
  8
0
 10
148.0697997768614
 20
-60.839192531696114
 30
0.0
  0
VERTEX
  5
D27D
  8
0
 10
148.03867497641781
 20
-60.5215281803818
 30
0.0
  0
SEQEND
  5
D27E
  8
0
  0
POLYLINE
  5
D0AB
  8
0
 66
     1
 10
0.0
 20
0.0
 30
0.0
 70
   128
  0
VERTEX
  5
D27F
  8
0
 10
165.7716435303185
 20
-60.5215281803818
 30
0.0
  0
VERTEX
  5
D280
  8
0
 10
165.74035947371459
 20
-60.841101742974068
 30
0.0
  0
VERTEX
  5
D281
  8
0
 10
165.71662751186821
 20
-61.194975450328137
 30
0.0
  0
VERTEX
  5
D282
  8
0
 10
165.70440204043121
 20
-61.554923709175142
 30
0.0
  0
VERTEX
  5
D283
  8
0
 10
165.70452776897881
 20
-61.929743792554881
 30
0.0
  0
VERTEX
  5
D284
  8
0
 10
165.7174414877984
 20
-62.298332396587881
 30
0.0
  0
VERTEX
  5
D285
  8
0
 10
165.74247264463639
 20
-62.661391738495382
 30
0.0
  0
VERTEX
  5
D286
  8
0
 10
165.774970214555
 20
-62.985214925995621
 30
0.0
  0
VERTEX
  5
D287
  8
0
 10
165.81290670830941
 20
-63.281146865031268
 30
0.0
  0
VERTEX
  5
D288
  8
0
 10
165.8473321159575
 20
-63.508746735444809
 30
0.0
  0
VERTEX
  5
D289
  8
0
 10
165.87769788850281
 20
-63.688580467990192
 30
0.0
  0
VERTEX
  5
D28A
  8
0
 10
165.89608685273859
 20
-63.79026459499314
 30
0.0
  0
VERTEX
  5
D28B
  8
0
 10
165.90515886593789
 20
-63.833876102855953
 30
0.0
  0
VERTEX
  5
D28C
  8
0
 10
165.90515886593789
 20
-63.833876102855953
 30
0.0
  0
SEQEND
  5
D28D
  8
0
  0
ARC
  5
D0AC
  8
0
 10
177.5881102897327
 20
-61.858732613359308
 30
0.0
 40
11.89188809112812
 50
169.24383437058259
 51
173.54361941727311
  0
LINE
  5
D0AD
  8
0
 10
164.90515963334769
 20
-67.738741459018144
 30
0.0
 11
148.9051588733885
 21
-67.738741459018144
 31
0.0
  0
LINE
  5
D0AE
  8
0
 10
164.40515908573011
 20
-50.238740686020421
 30
0.0
 11
149.4051594210062
 21
-50.238740686020421
 31
0.0
  0
LINE
  5
D0AF
  8
0
 10
150.40515911925769
 20
-49.238740522107648
 30
0.0
 11
163.40515938747879
 21
-49.238740522107648
 31
0.0
  0
LINE
  5
D0B0
  8
0
 10
149.4051594210062
 20
-80.738741028747114
 30
0.0
 11
164.40515908573011
 21
-80.738741028747114
 31
0.0
  0
POLYLINE
  5
D0B1
  8
0
 66
     1
 10
0.0
 20
0.0
 30
0.0
 70
   128
  0
VERTEX
  5
D28E
  8
0
 10
149.4051594210062
 20
-72.737988140127214
 30
0.0
  0
VERTEX
  5
D28F
  8
0
 10
149.4051594210062
 20
-72.737988140127214
 30
0.0
  0
VERTEX
  5
D290
  8
0
 10
149.42650207478741
 20
-72.634894922068867
 30
0.0
  0
VERTEX
  5
D291
  8
0
 10
149.47530291203589
 20
-72.374928332558426
 30
0.0
  0
VERTEX
  5
D292
  8
0
 10
149.53974624324769
 20
-71.954913260108384
 30
0.0
  0
VERTEX
  5
D293
  8
0
 10
149.57209340457061
 20
-71.67894724725798
 30
0.0
  0
VERTEX
  5
D294
  8
0
 10
149.59838324386811
 20
-71.373890908128175
 30
0.0
  0
VERTEX
  5
D295
  8
0
 10
149.61572726417521
 20
-71.035199388554844
 30
0.0
  0
VERTEX
  5
D296
  8
0
 10
149.62037549514511
 20
-70.679318448221835
 30
0.0
  0
VERTEX
  5
D297
  8
0
 10
149.61110417891479
 20
-70.32416929460183
 30
0.0
  0
VERTEX
  5
D298
  8
0
 10
149.58816663522461
 20
-69.970728535829636
 30
0.0
  0
VERTEX
  5
D299
  8
0
 10
149.5556550954673
 20
-69.649762995234283
 30
0.0
  0
VERTEX
  5
D29A
  8
0
 10
149.51573628161279
 20
-69.351841692971576
 30
0.0
  0
VERTEX
  5
D29B
  8
0
 10
149.47758511800501
 20
-69.115656832857582
 30
0.0
  0
VERTEX
  5
D29C
  8
0
 10
149.44229637433031
 20
-68.922934003333154
 30
0.0
  0
VERTEX
  5
D29D
  8
0
 10
149.41956744689679
 20
-68.808284992976624
 30
0.0
  0
VERTEX
  5
D29E
  8
0
 10
149.4051594210062
 20
-68.747141133919882
 30
0.0
  0
SEQEND
  5
D29F
  8
0
  0
POLYLINE
  5
D0B2
  8
0
 66
     1
 10
0.0
 20
0.0
 30
0.0
 70
   128
  0
VERTEX
  5
D2A0
  8
0
 10
164.40515908573011
 20
-68.747141133919882
 30
0.0
  0
VERTEX
  5
D2A1
  8
0
 10
164.39018947232699
 20
-68.811043512234974
 30
0.0
  0
VERTEX
  5
D2A2
  8
0
 10
164.34575327832431
 20
-69.042173677282932
 30
0.0
  0
VERTEX
  5
D2A3
  8
0
 10
164.28300635118219
 20
-69.431478911703977
 30
0.0
  0
VERTEX
  5
D2A4
  8
0
 10
164.24969573665589
 20
-69.692541667884726
 30
0.0
  0
VERTEX
  5
D2A5
  8
0
 10
164.22104080368021
 20
-69.98405809017882
 30
0.0
  0
VERTEX
  5
D2A6
  8
0
 10
164.19968324873781
 20
-70.314006469836983
 30
0.0
  0
VERTEX
  5
D2A7
  8
0
 10
164.1900566329453
 20
-70.664000520175847
 30
0.0
  0
VERTEX
  5
D2A8
  8
0
 10
164.1941088174674
 20
-71.020039086854595
 30
0.0
  0
VERTEX
  5
D2A9
  8
0
 10
164.2122374770436
 20
-71.378210382229241
 30
0.0
  0
VERTEX
  5
D2AA
  8
0
 10
164.24138880495161
 20
-71.709309061682376
 30
0.0
  0
VERTEX
  5
D2AB
  8
0
 10
164.27956325162381
 20
-72.021403871169824
 30
0.0
  0
VERTEX
  5
D2AC
  8
0
 10
164.31841849509809
 20
-72.277238648077983
 30
0.0
  0
VERTEX
  5
D2AD
  8
0
 10
164.35635545451379
 20
-72.493019569358381
 30
0.0
  0
VERTEX
  5
D2AE
  8
0
 10
164.38304157156679
 20
-72.631025742432627
 30
0.0
  0
VERTEX
  5
D2AF
  8
0
 10
164.40515908573011
 20
-72.737988140127214
 30
0.0
  0
VERTEX
  5
D2B0
  8
0
 10
164.40515908573011
 20
-72.737988140127214
 30
0.0
  0
SEQEND
  5
D2B1
  8
0
  0
LINE
  5
D0B3
  8
0
 10
163.40515938747859
 20
-81.738741192659873
 30
0.0
 11
150.40515911925769
 21
-81.738741192659873
 31
0.0
  0
LINE
  5
D0B4
  8
0
 10
160.9051592533682
 20
-37.738741431078431
 30
0.0
 11
152.9051592533682
 21
-37.738741431078481
 31
0.0
  0
LINE
  5
D0B5
  8
0
 10
153.4051593353245
 20
-37.238742280444669
 30
0.0
 11
160.40515917141181
 21
-37.238742280444669
 31
0.0
  0
ARC
  5
D0B6
  8
0
 10
147.2609127175684
 20
-43.238926734468507
 30
0.0
 40
5.9878849026341481
 50
340.49477194446791
 51
19.5052280555321
  0
LINE
  5
D0B8
  8
0
 10
147.90515925336811
 20
-66.73874143405871
 30
0.0
 11
165.90515925336811
 21
-66.73874143405871
 31
0.0
  0
LINE
  5
D0B9
  8
0
 10
147.90515925336811
 20
-56.738741434058682
 30
0.0
 11
165.90515925336811
 21
-56.738741434058682
 31
0.0
  0
LINE
  5
D0BA
  8
3
 10
147.90515937552459
 20
-57.654263931821802
 30
0.0
 11
148.8206818732877
 21
-56.738741434058781
 31
0.0
  0
LINE
  5
D0BB
  8
3
 10
147.9448625686662
 20
-59.859624768947519
 30
0.0
 11
151.0657459035549
 21
-56.738741434058788
 31
0.0
  0
LINE
  5
D0BC
  8
3
 10
148.10398432104009
 20
-61.94556704684075
 30
0.0
 11
153.31080993382221
 21
-56.73874143405871
 31
0.0
  0
LINE
  5
D0BD
  8
3
 10
147.90581817390969
 20
-64.388797224238886
 30
0.0
 11
155.5558739640897
 21
-56.73874143405871
 31
0.0
  0
LINE
  5
D0BE
  8
3
 10
147.90518848503669
 20
-66.634490943379177
 30
0.0
 11
157.8009379943569
 21
-56.738741434058738
 31
0.0
  0
LINE
  5
D0BF
  8
3
 10
150.04600202462419
 20
-66.738741434058738
 30
0.0
 11
160.04600202462419
 21
-56.738741434058738
 31
0.0
  0
LINE
  5
D0C0
  8
3
 10
152.29106605489139
 20
-66.738741434058767
 30
0.0
 11
162.2910660548915
 21
-56.738741434058767
 31
0.0
  0
LINE
  5
D0C1
  8
3
 10
154.5361300851587
 20
-66.738741434058781
 30
0.0
 11
164.5361300851589
 21
-56.738741434058667
 31
0.0
  0
LINE
  5
D0C2
  8
3
 10
156.78119411542599
 20
-66.738741434058795
 30
0.0
 11
165.90515913634911
 21
-57.614776413135679
 31
0.0
  0
LINE
  5
D0C3
  8
3
 10
159.0262581456935
 20
-66.738741434058696
 30
0.0
 11
165.85663942925001
 21
-59.908360150502162
 31
0.0
  0
LINE
  5
D0C4
  8
3
 10
161.27132217596071
 20
-66.73874143405871
 30
0.0
 11
165.7183158145117
 21
-62.291747795507732
 31
0.0
  0
LINE
  5
D0C5
  8
3
 10
163.51638620622799
 20
-66.738741434058724
 30
0.0
 11
165.90515925336831
 21
-64.349968386918349
 31
0.0
  0
LINE
  5
D0C6
  8
3
 10
165.76145023649519
 20
-66.738741434058738
 30
0.0
 11
165.90515925336811
 21
-66.595032417185863
 31
0.0
  0
LINE
  5
D0C7
  8
3
 10
148.48874134498811
 20
-66.738741434058767
 30
0.0
 11
147.9053228429689
 21
-66.155322932039638
 31
0.0
  0
LINE
  5
D0C8
  8
3
 10
150.7338053752554
 20
-66.738741434058753
 30
0.0
 11
147.90595217881361
 21
-63.910888237616902
 31
0.0
  0
LINE
  5
D0C9
  8
3
 10
152.9788694055226
 20
-66.738741434058738
 30
0.0
 11
148.1051833691954
 21
-61.865055397731638
 31
0.0
  0
LINE
  5
D0CA
  8
3
 10
155.22393343578989
 20
-66.738741434058738
 30
0.0
 11
147.9051596111195
 21
-59.419967609388287
 31
0.0
  0
LINE
  5
D0CB
  8
3
 10
157.46899746605709
 20
-66.73874143405871
 30
0.0
 11
147.9051593115644
 21
-57.174903279566053
 31
0.0
  0
LINE
  5
D0CC
  8
3
 10
159.7140614963244
 20
-66.73874143405871
 30
0.0
 11
149.7140614963244
 21
-56.738741434058689
 31
0.0
  0
LINE
  5
D0CD
  8
3
 10
161.95912552659189
 20
-66.738741434058795
 30
0.0
 11
151.95912552659161
 21
-56.738741434058682
 31
0.0
  0
LINE
  5
D0CE
  8
3
 10
164.20418955685909
 20
-66.738741434058781
 30
0.0
 11
154.20418955685889
 21
-56.738741434058667
 31
0.0
  0
LINE
  5
D0CF
  8
3
 10
165.90515925336811
 20
-66.194647100300543
 30
0.0
 11
156.44925358712621
 21
-56.738741434058753
 31
0.0
  0
LINE
  5
D0D0
  8
3
 10
165.90515925336831
 20
-63.949583070033491
 30
0.0
 11
158.69431761739341
 21
-56.738741434058738
 31
0.0
  0
LINE
  5
D0D1
  8
3
 10
165.70688842882009
 20
-61.506248215218079
 30
0.0
 11
160.93938164766089
 21
-56.738741434058717
 31
0.0
  0
LINE
  5
D0D2
  8
3
 10
165.90515888994111
 20
-59.459454646071698
 30
0.0
 11
163.18444567792821
 21
-56.738741434058838
 31
0.0
  0
LINE
  5
D0D3
  8
3
 10
165.90515918983169
 20
-57.214390915695127
 30
0.0
 11
165.42950970819541
 21
-56.738741434058817
 31
0.0
  0
LINE
  5
D0D4
  8
1
 10
156.90515925336811
 20
-28.238740522107641
 30
0.0
 11
156.90515925336811
 21
-84.738741192659887
 31
0.0
  0
ARC
  5
D0D9
  8
0
 10
68.644245760939384
 20
136.49981445819139
 30
0.0
 40
5.9878849026341481
 50
160.49477194446729
 51
199.50522805553251
  0
ARC
  5
D0DA
  8
0
 10
166.54940578916791
 20
-43.238926734468507
 30
0.0
 40
5.9878849026341481
 50
160.4947719444676
 51
199.50522805553231
  0
LINE
  5
D0DE
  8
0
 10
152.90515925336811
 20
-37.738741431078481
 30
0.0
 11
153.4051593353245
 21
-37.238742280444669
 31
0.0
  0
LINE
  5
D0DF
  8
0
 10
160.9051592533682
 20
-48.238740522107648
 30
0.0
 11
164.40515925336811
 21
-48.238740522107648
 31
0.0
  0
LINE
  5
D160
  8
0
 10
156.90515925336811
 20
-33.835298045997419
 30
0.0
 11
160.905159253368
 21
-36.238740522107648
 31
0.0
  0
LINE
  5
D161
  8
0
 10
156.90515925336811
 20
-33.83529804599744
 30
0.0
 11
152.9051592533682
 21
-36.238740522107641
 31
0.0
  0
ENDSEC
  0
EOF
