  0
SECTION
  2
HEADER
  9
$ACADVER
  1
AC1009
  9
$INSBASE
 10
0.0
 20
0.0
 30
0.0
  9
$EXTMIN
 10
0.0
 20
-295.54826157024132
 30
0.0
  9
$EXTMAX
 10
482.50000093124783
 20
201.69157769531009
 30
0.0
  9
$LIMMIN
 10
0.0
 20
0.0
  9
$LIMMAX
 10
187.5
 20
135.0
  9
$ORTHOMODE
 70
     1
  9
$REGENMODE
 70
     1
  9
$FILLMODE
 70
     1
  9
$QTEXTMODE
 70
     0
  9
$MIRRTEXT
 70
     0
  9
$DRAGMODE
 70
     2
  9
$LTSCALE
 40
5.0
  9
$OSMODE
 70
    37
  9
$ATTMODE
 70
     1
  9
$TEXTSIZE
 40
0.2
  9
$TRACEWID
 40
0.05
  9
$TEXTSTYLE
  7
STANDARD
  9
$CLAYER
  8
0
  9
$CELTYPE
  6
BYLAYER
  9
$CECOLOR
 62
   256
  9
$DIMSCALE
 40
0.5
  9
$DIMASZ
 40
3.0
  9
$DIMEXO
 40
2.0
  9
$DIMDLI
 40
0.3799999999999999
  9
$DIMRND
 40
0.0
  9
$DIMDLE
 40
0.0
  9
$DIMEXE
 40
2.0
  9
$DIMTP
 40
0.0
  9
$DIMTM
 40
0.0
  9
$DIMTXT
 40
3.2000000000000002
  9
$DIMCEN
 40
0.09
  9
$DIMTSZ
 40
0.0
  9
$DIMTOL
 70
     0
  9
$DIMLIM
 70
     0
  9
$DIMTIH
 70
     0
  9
$DIMTOH
 70
     0
  9
$DIMSE1
 70
     0
  9
$DIMSE2
 70
     0
  9
$DIMTAD
 70
     1
  9
$DIMZIN
 70
     8
  9
$DIMBLK
  1

  9
$DIMASO
 70
     0
  9
$DIMSHO
 70
     0
  9
$DIMPOST
  1

  9
$DIMAPOST
  1

  9
$DIMALT
 70
     0
  9
$DIMALTD
 70
     2
  9
$DIMALTF
 40
25.399999999999999
  9
$DIMLFAC
 40
1.0
  9
$DIMTOFL
 70
     0
  9
$DIMTVP
 40
1.6000000000000001
  9
$DIMTIX
 70
     1
  9
$DIMSOXD
 70
     0
  9
$DIMSAH
 70
     0
  9
$DIMBLK1
  1

  9
$DIMBLK2
  1

  9
$DIMSTYLE
  2
STANDARD
  9
$DIMCLRD
 70
     0
  9
$DIMCLRE
 70
     0
  9
$DIMCLRT
 70
     0
  9
$DIMTFAC
 40
1.0
  9
$DIMGAP
 40
1.0
  9
$LUNITS
 70
     2
  9
$LUPREC
 70
     1
  9
$SKETCHINC
 40
0.1
  9
$FILLETRAD
 40
0.4
  9
$AUNITS
 70
     0
  9
$AUPREC
 70
     0
  9
$MENU
  1
E:\r13\win\SUPPORT\ACAD
  9
$ELEVATION
 40
0.0
  9
$PELEVATION
 40
0.0
  9
$THICKNESS
 40
0.0
  9
$LIMCHECK
 70
     0
  9
$BLIPMODE
 70
     0
  9
$CHAMFERA
 40
0.0
  9
$CHAMFERB
 40
0.0
  9
$SKPOLY
 70
     0
  9
$TDCREATE
 40
2451824.6906229062
  9
$TDUPDATE
 40
2459627.4378353362
  9
$TDINDWG
 40
1.1027243171000001
  9
$TDUSRTIMER
 40
1.1027241319000001
  9
$USRTIMER
 70
     1
  9
$ANGBASE
 50
0.0
  9
$ANGDIR
 70
     0
  9
$PDMODE
 70
     0
  9
$PDSIZE
 40
0.0
  9
$PLINEWID
 40
0.0
  9
$COORDS
 70
     1
  9
$SPLFRAME
 70
     0
  9
$SPLINETYPE
 70
     6
  9
$SPLINESEGS
 70
     8
  9
$ATTDIA
 70
     0
  9
$ATTREQ
 70
     1
  9
$HANDLING
 70
     1
  9
$HANDSEED
  5
DCBE
  9
$SURFTAB1
 70
     6
  9
$SURFTAB2
 70
     6
  9
$SURFTYPE
 70
     6
  9
$SURFU
 70
     6
  9
$SURFV
 70
     6
  9
$UCSNAME
  2

  9
$UCSORG
 10
0.0
 20
0.0
 30
0.0
  9
$UCSXDIR
 10
1.0
 20
0.0
 30
0.0
  9
$UCSYDIR
 10
0.0
 20
1.0
 30
0.0
  9
$PUCSNAME
  2

  9
$PUCSORG
 10
0.0
 20
0.0
 30
0.0
  9
$PUCSXDIR
 10
1.0
 20
0.0
 30
0.0
  9
$PUCSYDIR
 10
0.0
 20
1.0
 30
0.0
  9
$USERI1
 70
     0
  9
$USERI2
 70
     1
  9
$USERI3
 70
     0
  9
$USERI4
 70
     0
  9
$USERI5
 70
     0
  9
$USERR1
 40
0.0
  9
$USERR2
 40
0.0
  9
$USERR3
 40
0.0
  9
$USERR4
 40
0.0
  9
$USERR5
 40
0.0
  9
$WORLDVIEW
 70
     1
  9
$SHADEDGE
 70
     3
  9
$SHADEDIF
 70
    70
  9
$TILEMODE
 70
     1
  9
$MAXACTVP
 70
    16
  9
$PLIMCHECK
 70
     0
  9
$PEXTMIN
 10
1.0000000000000000E+020
 20
1.0000000000000000E+020
 30
1.0000000000000000E+020
  9
$PEXTMAX
 10
-1.0000000000000000E+020
 20
-1.0000000000000000E+020
 30
-1.0000000000000000E+020
  9
$PLIMMIN
 10
0.0
 20
0.0
  9
$PLIMMAX
 10
12.0
 20
9.0
  9
$UNITMODE
 70
     0
  9
$VISRETAIN
 70
     0
  9
$PLINEGEN
 70
     0
  9
$PSLTSCALE
 70
     0
  0
ENDSEC
  0
SECTION
  2
TABLES
  0
TABLE
  2
VPORT
 70
     1
  0
VPORT
  2
*ACTIVE
 70
     0
 10
0.0
 20
0.0
 11
1.0
 21
1.0
 12
470.2201174571095
 22
-46.928340779738839
 13
0.0
 23
0.0
 14
5.0
 24
5.0
 15
5.0
 25
5.0
 16
0.0
 26
0.0
 36
1.0
 17
0.0
 27
0.0
 37
0.0
 40
501.72335424293152
 41
2.3805970149253728
 42
50.0
 43
0.0
 44
0.0
 50
0.0
 51
0.0
 71
     0
 72
   500
 73
     1
 74
     0
 75
     0
 76
     0
 77
     0
 78
     0
  0
ENDTAB
  0
TABLE
  2
LTYPE
 70
     5
  0
LTYPE
  2
CONTINUOUS
 70
     0
  3
Solid Line
 72
    65
 73
     0
 40
0.0
  0
LTYPE
  2
CENTER
 70
     0
  3
____ _ ____ _ ____ _ ____ _ ____ _ ____ _ ____
 72
    65
 73
     4
 40
2.0
 49
1.25
 49
-0.25
 49
0.25
 49
-0.25
  0
LTYPE
  2
PHANTOM2
 70
     0
  3
___ _ _ ___ _ _ ___ _ _ ___ _ _
 72
    65
 73
     6
 40
1.25
 49
0.625
 49
-0.125
 49
0.125
 49
-0.125
 49
0.125
 49
-0.125
  0
LTYPE
  2
HIDDEN
 70
     0
  3
__ __ __ __ __ __ __ __ __ __ __ __ __ __ __ __
 72
    65
 73
     2
 40
0.375
 49
0.25
 49
-0.125
  0
LTYPE
  2
PHANTOM
 70
     0
  3
_____ _ _ _____ _ _ _____ _ _ _____ _ _ ____
 72
    65
 73
     6
 40
2.5
 49
1.25
 49
-0.25
 49
0.25
 49
-0.25
 49
0.25
 49
-0.25
  0
ENDTAB
  0
TABLE
  2
LAYER
 70
     6
  0
LAYER
  2
0
 70
     0
 62
     7
  6
CONTINUOUS
  0
LAYER
  2
1
 70
     0
 62
     1
  6
CENTER
  0
LAYER
  2
2
 70
     0
 62
     2
  6
HIDDEN
  0
LAYER
  2
5
 70
     0
 62
     3
  6
PHANTOM
  0
LAYER
  2
3
 70
     0
 62
     3
  6
CONTINUOUS
  0
LAYER
  2
DEFPOINTS
 70
     0
 62
     7
  6
CONTINUOUS
  0
ENDTAB
  0
TABLE
  2
STYLE
 70
     2
  0
STYLE
  2
STANDARD
 70
     0
 40
0.0
 41
1.0
 50
0.0
 71
     0
 42
0.2
  3
TXT
  4
BIGFONT
  0
STYLE
  2
STANDARD1
 70
     0
 40
0.0
 41
1.0
 50
0.0
 71
     0
 42
3.0
  3
txt
  4

  0
ENDTAB
  0
TABLE
  2
VIEW
 70
     0
  0
ENDTAB
  0
TABLE
  2
UCS
 70
     0
  0
ENDTAB
  0
TABLE
  2
APPID
 70
    11
  0
APPID
  2
ACAD
 70
     0
  0
APPID
  2
ACAD_MLEADERVER
 70
     0
  0
APPID
  2
ACAD_EXEMPT_FROM_CAD_STANDARDS
 70
     0
  0
APPID
  2
ACAD_DSTYLE_DIMJAG
 70
     0
  0
APPID
  2
ACAD_DSTYLE_DIMTALN
 70
     0
  0
APPID
  2
ACAD_NAV_VCDISPLAY
 70
     0
  0
APPID
  2
ACAD_PSEXT
 70
     0
  0
APPID
  2
ACADANNOTATIVE
 70
     0
  0
APPID
  2
ACAECLAYERSTANDARD
 70
     0
  0
APPID
  2
ACCMTRANSPARENCY
 70
     0
  0
APPID
  2
ACAD_DSTYLE_DIMRADIAL_EXTENSION
 70
     0
  0
ENDTAB
  0
TABLE
  2
DIMSTYLE
 70
     1
  0
DIMSTYLE
  2
STANDARD
 70
     0
  3

  4

  5

  6

  7

 40
1.0
 41
0.18
 42
0.0625
 43
0.38
 44
0.18
 45
0.0
 46
0.0
 47
0.0
 48
0.0
140
0.18
141
0.09
142
0.0
143
25.399999999999999
144
1.0
145
0.0
146
1.0
147
0.09
 71
     0
 72
     0
 73
     1
 74
     1
 75
     0
 76
     0
 77
     0
 78
     0
170
     0
171
     2
172
     0
173
     0
174
     0
175
     0
176
     0
177
     0
178
     0
  0
ENDTAB
  0
ENDSEC
  0
SECTION
  2
BLOCKS
  0
BLOCK
  8
0
  2
$MODEL_SPACE
 70
     0
 10
0.0
 20
0.0
 30
0.0
  3
$MODEL_SPACE
  1

  0
ENDBLK
  5
9
  8
0
  0
BLOCK
 67
     1
  8
0
  2
$PAPER_SPACE
 70
     0
 10
0.0
 20
0.0
 30
0.0
  3
$PAPER_SPACE
  1

  0
ENDBLK
  5
E
 67
     1
  8
0
  0
ENDSEC
  0
SECTION
  2
ENTITIES
  0
TEXT
  5
7FEA
  8
0
 62
     3
 10
105.0
 20
0.0
 30
0.0
 40
3.2000000000000002
  1
■サムターンクランパーの取付け方法〈オフを上にする場合〉(下図)
  0
TEXT
  5
7FEB
  8
0
 62
     3
 10
155.0866666666665
 20
-19.168098188633891
 30
0.0
 40
3.2000000000000002
  1
6mmのプレートに固定する場合
 72
     1
 11
182.49999999999989
 21
-19.594764855300561
 31
0.0
 73
     1
  0
TEXT
  5
80DD
  8
0
 62
     3
 10
294.8866666666666
 20
-19.168098188633891
 30
0.0
 40
3.2000000000000002
  1
6mmを超え10mm以下のプレートに固定する場合
 72
     1
 11
337.5
 21
-19.594764855300561
 31
0.0
 73
     1
  0
TEXT
  5
8474
  8
0
 62
     3
 10
138.4333333333332
 20
-128.67484814095309
 30
0.0
 40
3.2000000000000002
  1
組付け状態
 72
     1
 11
147.49999999999989
 21
-128.67484814095309
 31
0.0
  0
POLYLINE
  5
8487
  8
5
 66
     1
 10
0.0
 20
0.0
 30
0.0
 70
     1
  0
VERTEX
  5
DB3F
  8
5
 10
105.0
 20
-10.0
 30
0.0
  0
VERTEX
  5
DB40
  8
5
 10
415.0
 20
-10.0
 30
0.0
  0
VERTEX
  5
DB41
  8
5
 10
415.0
 20
-295.54826157024132
 30
0.0
  0
VERTEX
  5
DB42
  8
5
 10
105.0
 20
-295.54826157024132
 30
0.0
  0
SEQEND
  5
DB43
  8
5
  0
TEXT
  5
8489
  8
0
 62
     3
 10
210.2466666666667
 20
-128.67484814095309
 30
0.0
 40
3.2000000000000002
  1
取付け穴
 72
     1
 11
217.5
 21
-128.67484814095309
 31
0.0
  0
TEXT
  5
848A
  8
0
 62
     3
 10
293.43333333333322
 20
-128.67484814095309
 30
0.0
 40
3.2000000000000002
  1
組付け状態
 72
     1
 11
302.49999999999989
 21
-128.67484814095309
 31
0.0
  0
TEXT
  5
848B
  8
0
 62
     3
 10
365.24666666666673
 20
-128.67484814095309
 30
0.0
 40
3.2000000000000002
  1
取付け穴
 72
     1
 11
372.5
 21
-128.67484814095309
 31
0.0
  0
TEXT
  5
87B9
  8
0
 62
     3
 10
0.0
 20
0.0
 30
0.0
 40
10.0
  1
QCTH0525-10
  7
STANDARD1
  0
TEXT
  5
884B
  8
0
 62
     3
 10
105.0
 20
-7.0
 30
0.0
 40
3.2000000000000002
  1
■Installation Instructions for Quarter-Turn Clamps〈For Y-axis Positioning of "OFF" Mark〉 (see diagram below)
  0
TEXT
  5
884C
  8
0
 62
     3
 10
123.7799999999999
 20
-26.168098188633891
 30
0.0
 40
3.2000000000000002
  1
For installation on plate of 6 mm thickness.
 72
     1
 11
182.49999999999989
 21
-26.594764855300561
 31
0.0
 73
     1
  0
TEXT
  5
884D
  8
0
 62
     3
 10
263.89999999999998
 20
-26.168098188633891
 30
0.0
 40
3.2000000000000002
  1
For installation on plate of over 6 to 10 mm thickness.
 72
     1
 11
337.5
 21
-26.594764855300561
 31
0.0
 73
     1
  0
TEXT
  5
884E
  8
0
 62
     3
 10
122.53999999999979
 20
-135.67484814095309
 30
0.0
 40
3.2000000000000002
  1
Installed condition
 72
     1
 11
147.49999999999989
 21
-135.67484814095309
 31
0.0
  0
TEXT
  5
884F
  8
0
 62
     3
 10
195.4733333333333
 20
-135.67484814095309
 30
0.0
 40
3.2000000000000002
  1
Installation hole
 72
     1
 11
217.5
 21
-135.67484814095309
 31
0.0
  0
TEXT
  5
8850
  8
0
 62
     3
 10
277.53999999999991
 20
-135.67484814095309
 30
0.0
 40
3.2000000000000002
  1
Installed condition
 72
     1
 11
302.49999999999989
 21
-135.67484814095309
 31
0.0
  0
TEXT
  5
8851
  8
0
 62
     3
 10
350.4733333333333
 20
-135.67484814095309
 30
0.0
 40
3.2000000000000002
  1
Installation hole
 72
     1
 11
372.5
 21
-135.67484814095309
 31
0.0
  0
LINE
  5
A73A
  8
1
 10
217.5
 20
-36.594764855300568
 30
0.0
 11
217.5
 21
-67.594764855300554
 31
0.0
  0
LINE
  5
A73C
  8
1
 10
202.0
 20
-52.094764855300568
 30
0.0
 11
233.0
 21
-52.094764855300568
 31
0.0
  0
LINE
  5
A73D
  8
0
 10
194.99999999999989
 20
-95.373270445642973
 30
0.0
 11
239.99999999999989
 21
-95.373270445642973
 31
0.0
  0
LINE
  5
A73E
  8
0
 10
210.5
 20
-96.373270445642987
 30
0.0
 11
209.5
 21
-95.373270445642973
 31
0.0
  0
LINE
  5
A73F
  8
0
 10
205.7999999999999
 20
-95.873270445642987
 30
0.0
 11
205.2999999999999
 21
-95.373270445642973
 31
0.0
  0
LINE
  5
A740
  8
0
 10
204.80000000000001
 20
-97.873270445643001
 30
0.0
 11
209.19999999999999
 21
-97.873270445643001
 31
0.0
  0
LINE
  5
A741
  8
0
 10
194.99999999999989
 20
-101.373270445643
 30
0.0
 11
239.99999999999989
 21
-101.373270445643
 31
0.0
  0
LINE
  5
A742
  8
0
 10
210.5
 20
-100.873270445643
 30
0.0
 11
210.0
 21
-101.373270445643
 31
0.0
  0
LINE
  5
A743
  8
0
 10
204.80000000000001
 20
-100.873270445643
 30
0.0
 11
204.30000000000001
 21
-101.373270445643
 31
0.0
  0
LINE
  5
A744
  8
1
 10
217.5
 20
-92.373270445642987
 30
0.0
 11
217.5
 21
-104.373270445643
 31
0.0
  0
LINE
  5
A749
  8
1
 10
224.84999999999991
 20
-39.364191419669282
 30
0.0
 11
220.65000000000001
 21
-46.63880481145862
 31
0.0
  0
LINE
  5
A74C
  8
1
 10
224.84999999999991
 20
-64.825338290931825
 30
0.0
 11
220.64999999999989
 21
-57.550724899142558
 31
0.0
  0
LINE
  5
A74F
  8
0
 10
210.5
 20
-96.373270445642987
 30
0.0
 11
210.5
 21
-100.873270445643
 31
0.0
  0
LINE
  5
A750
  8
1
 10
207.0
 20
-93.373270445642987
 30
0.0
 11
207.0
 21
-103.373270445643
 31
0.0
  0
LINE
  5
A751
  8
0
 10
205.7999999999999
 20
-95.873270445642987
 30
0.0
 11
205.7999999999999
 21
-97.873270445643001
 31
0.0
  0
LINE
  5
A752
  8
0
 10
204.80000000000001
 20
-97.873270445643001
 30
0.0
 11
204.80000000000001
 21
-100.873270445643
 31
0.0
  0
LINE
  5
A753
  8
0
 10
208.19999999999999
 20
-95.873270445642987
 30
0.0
 11
208.7000000000001
 21
-95.373270445642973
 31
0.0
  0
LINE
  5
A754
  8
0
 10
209.19999999999999
 20
-100.873270445643
 30
0.0
 11
209.69999999999999
 21
-101.373270445643
 31
0.0
  0
LINE
  5
A755
  8
0
 10
208.19999999999999
 20
-95.873270445642987
 30
0.0
 11
208.19999999999999
 21
-97.873270445643001
 31
0.0
  0
LINE
  5
A756
  8
0
 10
209.19999999999999
 20
-97.873270445643001
 30
0.0
 11
209.19999999999999
 21
-100.873270445643
 31
0.0
  0
LINE
  5
A757
  8
0
 10
205.7999999999999
 20
-95.873270445642987
 30
0.0
 11
208.19999999999999
 21
-95.873270445642987
 31
0.0
  0
LINE
  5
A758
  8
0
 10
204.80000000000001
 20
-100.873270445643
 30
0.0
 11
209.19999999999999
 21
-100.873270445643
 31
0.0
  0
LINE
  5
A759
  8
0
 10
224.5
 20
-96.373270445643016
 30
0.0
 11
225.5
 21
-95.373270445643016
 31
0.0
  0
LINE
  5
A75A
  8
0
 10
224.49999999999989
 20
-100.873270445643
 30
0.0
 11
224.99999999999989
 21
-101.373270445643
 31
0.0
  0
LINE
  5
A75B
  8
0
 10
224.5
 20
-96.373270445643016
 30
0.0
 11
224.49999999999989
 21
-100.873270445643
 31
0.0
  0
LINE
  5
A75C
  8
0
 10
210.5
 20
-96.373270445642987
 30
0.0
 11
224.5
 21
-96.373270445643215
 31
0.0
  0
LINE
  5
A75D
  8
0
 10
224.49999999999989
 20
-100.873270445643
 30
0.0
 11
210.5
 21
-100.8732704456431
 31
0.0
  0
LINE
  5
A75E
  8
1
 10
372.5
 20
-34.094764855300539
 30
0.0
 11
372.5
 21
-70.094764855300525
 31
0.0
  0
LINE
  5
A760
  8
1
 10
354.5
 20
-52.094764855300532
 30
0.0
 11
390.5
 21
-52.094764855300532
 31
0.0
  0
LINE
  5
A761
  8
0
 10
359.5
 20
-99.373270445643016
 30
0.0
 11
385.5
 21
-99.373270445642973
 31
0.0
  0
LINE
  5
A762
  8
0
 10
350.0
 20
-95.373270445642973
 30
0.0
 11
395.0
 21
-95.373270445642973
 31
0.0
  0
LINE
  5
A763
  8
0
 10
359.5
 20
-95.873270445642987
 30
0.0
 11
359.0
 21
-95.373270445642973
 31
0.0
  0
LINE
  5
A764
  8
0
 10
365.5
 20
-100.373270445643
 30
0.0
 11
364.5
 21
-99.373270445642973
 31
0.0
  0
LINE
  5
A767
  8
0
 10
350.0
 20
-105.373270445643
 30
0.0
 11
395.0
 21
-105.373270445643
 31
0.0
  0
LINE
  5
A768
  8
0
 10
365.5
 20
-104.873270445643
 30
0.0
 11
365.0
 21
-105.373270445643
 31
0.0
  0
LINE
  5
A76A
  8
1
 10
372.5
 20
-92.373270445642987
 30
0.0
 11
372.5
 21
-108.373270445643
 31
0.0
  0
LINE
  5
A76F
  8
1
 10
379.85000000000002
 20
-39.364191419669403
 30
0.0
 11
375.64999999999992
 21
-46.63880481145862
 31
0.0
  0
LINE
  5
A772
  8
1
 10
379.84999999999991
 20
-64.825338290931739
 30
0.0
 11
375.64999999999998
 21
-57.550724899142438
 31
0.0
  0
LINE
  5
A775
  8
0
 10
365.5
 20
-100.373270445643
 30
0.0
 11
365.5
 21
-104.873270445643
 31
0.0
  0
LINE
  5
A77F
  8
0
 10
379.5
 20
-100.373270445643
 30
0.0
 11
380.5
 21
-99.373270445643016
 31
0.0
  0
LINE
  5
A780
  8
0
 10
379.5
 20
-104.873270445643
 30
0.0
 11
380.0
 21
-105.373270445643
 31
0.0
  0
LINE
  5
A781
  8
0
 10
379.5
 20
-100.373270445643
 30
0.0
 11
379.5
 21
-104.873270445643
 31
0.0
  0
LINE
  5
A782
  8
0
 10
365.5
 20
-100.373270445643
 30
0.0
 11
379.5
 21
-100.3732704456432
 31
0.0
  0
LINE
  5
A783
  8
0
 10
379.5
 20
-104.873270445643
 30
0.0
 11
365.5
 21
-104.8732704456431
 31
0.0
  0
LINE
  5
A785
  8
0
 10
359.5
 20
-95.873270445642987
 30
0.0
 11
359.5
 21
-99.373270445642973
 31
0.0
  0
LINE
  5
A786
  8
0
 10
385.5
 20
-95.873270445642987
 30
0.0
 11
386.0
 21
-95.373270445642973
 31
0.0
  0
LINE
  5
A787
  8
0
 10
385.5
 20
-95.873270445642987
 30
0.0
 11
385.5
 21
-99.373270445642973
 31
0.0
  0
LINE
  5
A788
  8
0
 10
359.5
 20
-95.873270445642987
 30
0.0
 11
385.5
 21
-95.873270445642987
 31
0.0
  0
CIRCLE
  5
A78A
  8
0
 10
217.5
 20
-52.094764855300568
 30
0.0
 40
7.0
  0
CIRCLE
  5
A78B
  8
0
 10
372.5
 20
-52.094764855300532
 30
0.0
 40
7.0
  0
CIRCLE
  5
A78E
  8
0
 10
372.5
 20
-52.094764855300532
 30
0.0
 40
13.0
  0
CIRCLE
  5
A793
  8
2
 10
207.0
 20
-52.094764855300568
 30
0.0
 40
2.2000000000000002
  0
CIRCLE
  5
A794
  8
0
 10
207.0
 20
-52.094764855300568
 30
0.0
 40
1.1999999999999991
  0
CIRCLE
  5
A796
  8
1
 10
217.5
 20
-52.094764855300568
 30
0.0
 40
10.5
  0
CIRCLE
  5
A798
  8
2
 10
222.74999999999989
 20
-61.188031595037202
 30
0.0
 40
2.2000000000000002
  0
CIRCLE
  5
A79A
  8
0
 10
222.74999999999989
 20
-61.188031595037202
 30
0.0
 40
1.1999999999999991
  0
CIRCLE
  5
A79B
  8
2
 10
222.74999999999989
 20
-43.001498115563933
 30
0.0
 40
2.2000000000000002
  0
CIRCLE
  5
A79D
  8
0
 10
222.74999999999989
 20
-43.001498115563933
 30
0.0
 40
1.1999999999999991
  0
CIRCLE
  5
A836
  8
1
 10
372.5
 20
-52.094764855300532
 30
0.0
 40
10.5
  0
CIRCLE
  5
A838
  8
2
 10
361.99999999999989
 20
-52.094764855300561
 30
0.0
 40
2.2000000000000002
  0
CIRCLE
  5
A839
  8
0
 10
361.99999999999989
 20
-52.094764855300561
 30
0.0
 40
1.1999999999999991
  0
CIRCLE
  5
A83A
  8
2
 10
377.74999999999989
 20
-43.001498115563962
 30
0.0
 40
2.2000000000000002
  0
CIRCLE
  5
A83B
  8
0
 10
377.74999999999989
 20
-43.001498115563962
 30
0.0
 40
1.1999999999999991
  0
CIRCLE
  5
A83C
  8
2
 10
377.74999999999989
 20
-61.188031595037152
 30
0.0
 40
2.2000000000000002
  0
CIRCLE
  5
A83D
  8
0
 10
377.74999999999989
 20
-61.188031595037152
 30
0.0
 40
1.1999999999999991
  0
LINE
  5
A846
  8
0
 10
360.80000000000001
 20
-99.873270445642987
 30
0.0
 11
360.30000000000001
 21
-99.373270445642973
 31
0.0
  0
LINE
  5
A847
  8
0
 10
359.7999999999999
 20
-101.873270445643
 30
0.0
 11
364.19999999999999
 21
-101.873270445643
 31
0.0
  0
LINE
  5
A848
  8
0
 10
359.7999999999999
 20
-104.873270445643
 30
0.0
 11
359.2999999999999
 21
-105.373270445643
 31
0.0
  0
LINE
  5
A849
  8
1
 10
362.0
 20
-97.373270445642987
 30
0.0
 11
362.0
 21
-107.373270445643
 31
0.0
  0
LINE
  5
A84A
  8
0
 10
360.80000000000001
 20
-99.873270445642987
 30
0.0
 11
360.80000000000001
 21
-101.873270445643
 31
0.0
  0
LINE
  5
A84B
  8
0
 10
359.7999999999999
 20
-101.873270445643
 30
0.0
 11
359.7999999999999
 21
-104.873270445643
 31
0.0
  0
LINE
  5
A84C
  8
0
 10
363.2000000000001
 20
-99.873270445642987
 30
0.0
 11
363.69999999999999
 21
-99.373270445642973
 31
0.0
  0
LINE
  5
A84D
  8
0
 10
364.19999999999999
 20
-104.873270445643
 30
0.0
 11
364.7000000000001
 21
-105.373270445643
 31
0.0
  0
LINE
  5
A84E
  8
0
 10
363.2000000000001
 20
-99.873270445642987
 30
0.0
 11
363.2000000000001
 21
-101.873270445643
 31
0.0
  0
LINE
  5
A84F
  8
0
 10
364.19999999999999
 20
-101.873270445643
 30
0.0
 11
364.19999999999999
 21
-104.873270445643
 31
0.0
  0
LINE
  5
A850
  8
0
 10
360.80000000000001
 20
-99.873270445642987
 30
0.0
 11
363.2000000000001
 21
-99.873270445642987
 31
0.0
  0
LINE
  5
A851
  8
0
 10
359.7999999999999
 20
-104.873270445643
 30
0.0
 11
364.19999999999999
 21
-104.873270445643
 31
0.0
  0
LINE
  5
A939
  8
0
 10
124.9999999999998
 20
-95.373270445642973
 30
0.0
 11
169.99999999999969
 21
-95.373270445642973
 31
0.0
  0
LINE
  5
A93A
  8
0
 10
140.49999999999989
 20
-96.373270445642987
 30
0.0
 11
139.49999999999989
 21
-95.373270445642973
 31
0.0
  0
LINE
  5
A93B
  8
0
 10
135.79999999999981
 20
-95.873270445642987
 30
0.0
 11
135.29999999999981
 21
-95.373270445642973
 31
0.0
  0
LINE
  5
A93C
  8
0
 10
134.79999999999981
 20
-97.873270445643001
 30
0.0
 11
139.1999999999999
 21
-97.873270445643001
 31
0.0
  0
LINE
  5
A93D
  8
0
 10
124.9999999999998
 20
-101.373270445643
 30
0.0
 11
145.0000000558791
 21
-101.373270445643
 31
0.0
  0
LINE
  5
A93E
  8
0
 10
140.49999999999989
 20
-100.873270445643
 30
0.0
 11
139.99999999999989
 21
-101.373270445643
 31
0.0
  0
LINE
  5
A93F
  8
0
 10
134.79999999999981
 20
-100.873270445643
 30
0.0
 11
134.29999999999981
 21
-101.373270445643
 31
0.0
  0
LINE
  5
A941
  8
0
 10
140.49999999999989
 20
-95.373270445642973
 30
0.0
 11
140.49999999999989
 21
-100.873270445643
 31
0.0
  0
LINE
  5
A943
  8
0
 10
135.79999999999981
 20
-95.873270445642987
 30
0.0
 11
135.79999999999981
 21
-97.873270445643001
 31
0.0
  0
LINE
  5
A944
  8
0
 10
134.79999999999981
 20
-97.873270445643001
 30
0.0
 11
134.79999999999981
 21
-100.873270445643
 31
0.0
  0
LINE
  5
A945
  8
0
 10
138.1999999999999
 20
-95.873270445642987
 30
0.0
 11
138.6999999999999
 21
-95.373270445642973
 31
0.0
  0
LINE
  5
A946
  8
0
 10
139.1999999999999
 20
-100.873270445643
 30
0.0
 11
139.6999999999999
 21
-101.373270445643
 31
0.0
  0
LINE
  5
A947
  8
0
 10
138.1999999999999
 20
-95.873270445642987
 30
0.0
 11
138.1999999999999
 21
-97.873270445643001
 31
0.0
  0
LINE
  5
A948
  8
0
 10
139.1999999999999
 20
-97.873270445643001
 30
0.0
 11
139.1999999999999
 21
-100.873270445643
 31
0.0
  0
LINE
  5
A949
  8
0
 10
135.79999999999981
 20
-95.873270445642987
 30
0.0
 11
135.999999977648
 21
-95.873270445643016
 31
0.0
  0
LINE
  5
A94A
  8
0
 10
134.79999999999981
 20
-100.873270445643
 30
0.0
 11
139.1999999999999
 21
-100.873270445643
 31
0.0
  0
LINE
  5
A94B
  8
0
 10
154.49999999999989
 20
-96.373270445643016
 30
0.0
 11
155.49999999999989
 21
-95.373270445643016
 31
0.0
  0
LINE
  5
A94C
  8
0
 10
154.49999999999969
 20
-100.873270445643
 30
0.0
 11
154.9999999999998
 21
-101.373270445643
 31
0.0
  0
LINE
  5
A94D
  8
0
 10
154.49999999999989
 20
-95.373270445642973
 30
0.0
 11
154.49999999999969
 21
-100.873270445643
 31
0.0
  0
LINE
  5
A94F
  8
0
 10
154.49999999999969
 20
-100.873270445643
 30
0.0
 11
140.49999999999989
 21
-100.8732704456431
 31
0.0
  0
LINE
  5
A951
  8
0
 10
280.0
 20
-95.373270445643016
 30
0.0
 11
290.00618531784289
 21
-95.373270445643016
 31
0.0
  0
LINE
  5
A952
  8
0
 10
289.5
 20
-95.873270445643016
 30
0.0
 11
289.0
 21
-95.373270445643016
 31
0.0
  0
LINE
  5
A953
  8
0
 10
295.5
 20
-100.373270445643
 30
0.0
 11
294.5
 21
-99.373270445643016
 31
0.0
  0
LINE
  5
A954
  8
0
 10
280.0
 20
-105.373270445643
 30
0.0
 11
300.0000000558793
 21
-105.373270445643
 31
0.0
  0
LINE
  5
A955
  8
0
 10
295.5
 20
-104.873270445643
 30
0.0
 11
295.0
 21
-105.373270445643
 31
0.0
  0
LINE
  5
A958
  8
0
 10
309.5
 20
-100.373270445643
 30
0.0
 11
310.5
 21
-99.373270445643044
 31
0.0
  0
LINE
  5
A959
  8
0
 10
309.5
 20
-104.873270445643
 30
0.0
 11
310.0
 21
-105.373270445643
 31
0.0
  0
LINE
  5
A95D
  8
0
 10
289.5
 20
-95.873270445643016
 30
0.0
 11
289.5
 21
-99.373270445643016
 31
0.0
  0
LINE
  5
A95E
  8
0
 10
315.5
 20
-95.873270445643016
 30
0.0
 11
316.0
 21
-95.373270445643016
 31
0.0
  0
LINE
  5
A95F
  8
0
 10
315.5
 20
-95.873270445643016
 30
0.0
 11
315.5
 21
-99.373270445643016
 31
0.0
  0
LINE
  5
A960
  8
0
 10
289.5
 20
-95.873270445643016
 30
0.0
 11
289.99999981373543
 21
-95.873270445643016
 31
0.0
  0
LINE
  5
A961
  8
0
 10
290.7999999999999
 20
-99.873270445643016
 30
0.0
 11
290.30000000000001
 21
-99.373270445643016
 31
0.0
  0
LINE
  5
A963
  8
0
 10
289.80000000000001
 20
-104.873270445643
 30
0.0
 11
289.30000000000001
 21
-105.373270445643
 31
0.0
  0
LINE
  5
A965
  8
0
 10
290.7999999999999
 20
-99.873270445643016
 30
0.0
 11
290.7999999999999
 21
-101.873270445643
 31
0.0
  0
LINE
  5
A966
  8
0
 10
289.80000000000001
 20
-101.873270445643
 30
0.0
 11
289.80000000000001
 21
-104.873270445643
 31
0.0
  0
LINE
  5
A967
  8
0
 10
293.19999999999999
 20
-99.873270445643016
 30
0.0
 11
293.7000000000001
 21
-99.373270445643016
 31
0.0
  0
LINE
  5
A968
  8
0
 10
294.2000000000001
 20
-104.873270445643
 30
0.0
 11
294.69999999999999
 21
-105.373270445643
 31
0.0
  0
LINE
  5
A969
  8
0
 10
293.19999999999999
 20
-99.873270445643016
 30
0.0
 11
293.19999999999999
 21
-101.873270445643
 31
0.0
  0
LINE
  5
A96A
  8
0
 10
294.2000000000001
 20
-101.873270445643
 30
0.0
 11
294.2000000000001
 21
-104.873270445643
 31
0.0
  0
LINE
  5
A96B
  8
0
 10
290.7999999999999
 20
-99.873270445643016
 30
0.0
 11
290.9999999776482
 21
-99.873270445643016
 31
0.0
  0
LINE
  5
A96C
  8
0
 10
289.80000000000001
 20
-104.873270445643
 30
0.0
 11
294.2000000000001
 21
-104.873270445643
 31
0.0
  0
LINE
  5
A96D
  8
0
 10
135.09999964386199
 20
-97.873270389763647
 30
0.0
 11
135.09999964386199
 21
-99.873270368343213
 31
0.0
  0
LINE
  5
A96E
  8
0
 10
138.89999970793701
 20
-99.873270368343213
 30
0.0
 11
138.89999970793701
 21
-97.873270389763647
 31
0.0
  0
LINE
  5
A96F
  8
0
 10
138.00000030547349
 20
-97.873270389763647
 30
0.0
 11
138.00000030547349
 21
-95.373270445642973
 31
0.0
  0
LINE
  5
A970
  8
0
 10
135.999999977648
 20
-95.373270445642973
 30
0.0
 11
135.999999977648
 21
-97.873270389763647
 31
0.0
  0
LINE
  5
A996
  8
0
 10
140.49999978393291
 20
-99.873270368343213
 30
0.0
 11
141.49999994784571
 21
-100.87327041584059
 31
0.0
  0
LINE
  5
A997
  8
0
 10
153.50000005215381
 20
-100.87327041584059
 30
0.0
 11
154.50000021606661
 21
-99.873270368343213
 31
0.0
  0
LINE
  5
A99B
  8
0
 10
135.09999964386199
 20
-99.873270368343213
 30
0.0
 11
138.89999970793701
 21
-99.873270368343213
 31
0.0
  0
LINE
  5
A9B4
  8
0
 10
140.49999978393291
 20
-99.873270368343213
 30
0.0
 11
154.50000021606661
 21
-99.8732703683431
 31
0.0
  0
LINE
  5
A9B8
  8
1
 10
136.99999967589949
 20
-93.373270445642987
 30
0.0
 11
136.99999967589949
 21
-101.8732703683432
 31
0.0
  0
LINE
  5
AA0D
  8
0
 10
138.00000030547349
 20
-95.873270445643016
 30
0.0
 11
138.1999999999999
 21
-95.873270445642987
 31
0.0
  0
LINE
  5
AA0E
  8
0
 10
149.99999994412039
 20
-101.373270445643
 30
0.0
 11
169.99999999999969
 21
-101.373270445643
 31
0.0
  0
LINE
  5
AAFA
  8
0
 10
293.00000030547369
 20
-99.873270445643016
 30
0.0
 11
293.19999999999999
 21
-99.873270445643016
 31
0.0
  0
LINE
  5
AAFB
  8
0
 10
315.00000018626451
 20
-95.873270445643016
 30
0.0
 11
315.5
 21
-95.873270445643016
 31
0.0
  0
LINE
  5
AAFC
  8
0
 10
314.99381468215699
 20
-95.373270445643016
 30
0.0
 11
325.0
 21
-95.373270445643016
 31
0.0
  0
LINE
  5
AAFD
  8
0
 10
304.99999994412047
 20
-105.373270445643
 30
0.0
 11
325.0
 21
-105.373270445643
 31
0.0
  0
LINE
  5
ADE6
  8
0
 10
136.00000030174829
 20
-96.673270445643084
 30
0.0
 11
138.0000006295738
 21
-96.673270445643084
 31
0.0
  0
LINE
  5
ADE7
  8
3
 10
136.19999999999979
 20
-96.673270445643084
 30
0.0
 11
136.19999999999979
 21
-95.373270501522441
 31
0.0
  0
LINE
  5
ADE8
  8
3
 10
137.7999999999997
 20
-96.673270445643084
 30
0.0
 11
137.7999999999997
 21
-95.373270501522455
 31
0.0
  0
LINE
  5
ADE9
  8
3
 10
138.0000006295738
 20
-97.019681697611304
 30
0.0
 11
137.7999999999997
 21
-96.673270445643084
 31
0.0
  0
LINE
  5
ADEA
  8
3
 10
135.99999937042571
 20
-97.019681697611304
 30
0.0
 11
136.19999999999979
 21
-96.673270445643084
 31
0.0
  0
TEXT
  5
C22D
  8
0
 62
     3
 10
155.0866666666665
 20
-178.04294632958701
 30
0.0
 40
3.2000000000000002
  1
3mmのプレートに固定する場合
 72
     1
 11
182.49999999999989
 21
-178.46961299625369
 31
0.0
 73
     1
  0
TEXT
  5
C22E
  8
0
 62
     3
 10
123.7799999999999
 20
-185.04294632958701
 30
0.0
 40
3.2000000000000002
  1
For installation on plate of 3 mm thickness.
 72
     1
 11
182.49999999999989
 21
-185.46961299625369
 31
0.0
 73
     1
  0
TEXT
  5
C22F
  8
0
 62
     3
 10
295.68666666666661
 20
-178.04294632958701
 30
0.0
 40
3.2000000000000002
  1
3mmを超え6mm未満のプレートに固定する場合
 72
     1
 11
337.5
 21
-178.46961299625369
 31
0.0
 73
     1
  0
TEXT
  5
C230
  8
0
 62
     3
 10
264.7000000000001
 20
-185.04294632958701
 30
0.0
 40
3.2000000000000002
  1
For installation on plate of over 3 to 6 mm thickness.
 72
     1
 11
337.5
 21
-185.46961299625369
 31
0.0
 73
     1
  0
TEXT
  5
C240
  8
0
 62
     3
 10
138.4333333333332
 20
-282.54969625582919
 30
0.0
 40
3.2000000000000002
  1
組付け状態
 72
     1
 11
147.49999999999989
 21
-282.54969625582919
 31
0.0
  0
TEXT
  5
C241
  8
0
 62
     3
 10
210.2466666666667
 20
-282.54969625582919
 30
0.0
 40
3.2000000000000002
  1
取付け穴
 72
     1
 11
217.5
 21
-282.54969625582919
 31
0.0
  0
TEXT
  5
C242
  8
0
 62
     3
 10
293.43333333333322
 20
-282.54969625582919
 30
0.0
 40
3.2000000000000002
  1
組付け状態
 72
     1
 11
302.49999999999989
 21
-282.54969625582919
 31
0.0
  0
TEXT
  5
C243
  8
0
 62
     3
 10
365.24666666666673
 20
-282.54969625582919
 30
0.0
 40
3.2000000000000002
  1
取付け穴
 72
     1
 11
372.5
 21
-282.54969625582919
 31
0.0
  0
TEXT
  5
C244
  8
0
 62
     3
 10
122.53999999999979
 20
-289.54969625582919
 30
0.0
 40
3.2000000000000002
  1
Installed condition
 72
     1
 11
147.49999999999989
 21
-289.54969625582919
 31
0.0
  0
TEXT
  5
C245
  8
0
 62
     3
 10
195.4733333333333
 20
-289.54969625582919
 30
0.0
 40
3.2000000000000002
  1
Installation hole
 72
     1
 11
217.5
 21
-289.54969625582919
 31
0.0
  0
TEXT
  5
C246
  8
0
 62
     3
 10
277.53999999999991
 20
-289.54969625582919
 30
0.0
 40
3.2000000000000002
  1
Installed condition
 72
     1
 11
302.49999999999989
 21
-289.54969625582919
 31
0.0
  0
TEXT
  5
C247
  8
0
 62
     3
 10
350.4733333333333
 20
-289.54969625582919
 30
0.0
 40
3.2000000000000002
  1
Installation hole
 72
     1
 11
372.5
 21
-289.54969625582919
 31
0.0
  0
LINE
  5
C34E
  8
1
 10
217.5
 20
-195.4696129962536
 30
0.0
 11
217.5
 21
-226.4696129962536
 31
0.0
  0
LINE
  5
C34F
  8
1
 10
233.0
 20
-210.96961299625369
 30
0.0
 11
202.0
 21
-210.96961299625369
 31
0.0
  0
CIRCLE
  5
C350
  8
0
 10
217.5
 20
-210.96961299625369
 30
0.0
 40
7.0
  0
CIRCLE
  5
C351
  8
1
 10
217.5
 20
-210.96961299625369
 30
0.0
 40
10.5
  0
CIRCLE
  5
C352
  8
0
 10
207.0
 20
-210.96961299625369
 30
0.0
 40
1.1999999999999991
  0
CIRCLE
  5
C353
  8
2
 10
207.0
 20
-210.96961299625369
 30
0.0
 40
2.5
  0
LINE
  5
C354
  8
1
 10
220.5
 20
-205.773460573547
 30
0.0
 11
225.0
 21
-197.97923193948711
 31
0.0
  0
LINE
  5
C355
  8
1
 10
220.49999999999989
 20
-216.16576541896029
 30
0.0
 11
225.0
 21
-223.9599940530203
 31
0.0
  0
CIRCLE
  5
C356
  8
2
 10
222.75
 20
-201.876346256517
 30
0.0
 40
2.5
  0
CIRCLE
  5
C357
  8
0
 10
222.75
 20
-201.876346256517
 30
0.0
 40
1.1999999999999991
  0
CIRCLE
  5
C358
  8
0
 10
222.75
 20
-220.06287973599029
 30
0.0
 40
1.1999999999999991
  0
CIRCLE
  5
C359
  8
2
 10
222.75
 20
-220.06287973599029
 30
0.0
 40
2.5
  0
LINE
  5
C35A
  8
1
 10
217.5
 20
-249.24811858659609
 30
0.0
 11
217.50000000000011
 21
-262.24811858659609
 31
0.0
  0
LINE
  5
C35B
  8
0
 10
210.5
 20
-255.24811858659609
 30
0.0
 11
210.5
 21
-256.74811858659609
 31
0.0
  0
LINE
  5
C35C
  8
0
 10
224.5
 20
-255.24811858659609
 30
0.0
 11
224.5
 21
-256.74811858659609
 31
0.0
  0
LINE
  5
C35D
  8
1
 10
207.0
 20
-252.24811858659609
 30
0.0
 11
207.0
 21
-259.24811858659609
 31
0.0
  0
LINE
  5
C35E
  8
0
 10
195.0
 20
-254.24811858659609
 30
0.0
 11
240.0
 21
-254.24811858659609
 31
0.0
  0
LINE
  5
C35F
  8
0
 10
195.0
 20
-257.24811858659609
 30
0.0
 11
240.0
 21
-257.24811858659609
 31
0.0
  0
LINE
  5
C360
  8
0
 10
210.5
 20
-255.24811858659609
 30
0.0
 11
224.5
 21
-255.24811858659609
 31
0.0
  0
LINE
  5
C361
  8
0
 10
210.5
 20
-256.74811858659609
 30
0.0
 11
224.5
 21
-256.74811858659609
 31
0.0
  0
LINE
  5
C362
  8
0
 10
225.0
 20
-257.24811858659609
 30
0.0
 11
224.5
 21
-256.74811858659609
 31
0.0
  0
LINE
  5
C363
  8
0
 10
225.5
 20
-254.24811858659609
 30
0.0
 11
224.5
 21
-255.24811858659609
 31
0.0
  0
LINE
  5
C364
  8
0
 10
209.5
 20
-254.24811858659609
 30
0.0
 11
210.5
 21
-255.24811858659609
 31
0.0
  0
LINE
  5
C365
  8
0
 10
210.5
 20
-256.74811858659609
 30
0.0
 11
210.0
 21
-257.24811858659609
 31
0.0
  0
LINE
  5
C366
  8
0
 10
205.7999999999999
 20
-255.94811858659631
 30
0.0
 11
205.7999999999999
 21
-254.24811858659609
 31
0.0
  0
LINE
  5
C367
  8
0
 10
208.19999999999999
 20
-255.94811858659611
 30
0.0
 11
208.19999999999999
 21
-254.24811858659609
 31
0.0
  0
LINE
  5
C368
  8
0
 10
205.8000000000001
 20
-255.94811858659619
 30
0.0
 11
204.5
 21
-257.24811858659609
 31
0.0
  0
LINE
  5
C369
  8
0
 10
208.19999999999999
 20
-255.94811858659619
 30
0.0
 11
209.5
 21
-257.24811858659609
 31
0.0
  0
LINE
  5
C36A
  8
0
 10
205.7999999999999
 20
-255.94811858659631
 30
0.0
 11
208.19999999999999
 21
-255.94811858659611
 31
0.0
  0
LINE
  5
C3E6
  8
1
 10
372.5
 20
-192.9696129962536
 30
0.0
 11
372.5
 21
-228.9696129962536
 31
0.0
  0
LINE
  5
C3E7
  8
1
 10
390.5
 20
-210.96961299625369
 30
0.0
 11
354.5
 21
-210.96961299625369
 31
0.0
  0
CIRCLE
  5
C3E8
  8
0
 10
372.5
 20
-210.96961299625369
 30
0.0
 40
7.0
  0
CIRCLE
  5
C3E9
  8
1
 10
372.5
 20
-210.96961299625369
 30
0.0
 40
10.5
  0
CIRCLE
  5
C3EA
  8
0
 10
362.0
 20
-210.96961299625369
 30
0.0
 40
1.1999999999999991
  0
CIRCLE
  5
C3EB
  8
2
 10
362.0
 20
-210.96961299625369
 30
0.0
 40
2.5
  0
LINE
  5
C3EC
  8
1
 10
375.5
 20
-205.773460573547
 30
0.0
 11
380.0
 21
-197.97923193948711
 31
0.0
  0
LINE
  5
C3ED
  8
1
 10
375.5
 20
-216.16576541896029
 30
0.0
 11
380.0
 21
-223.9599940530203
 31
0.0
  0
CIRCLE
  5
C3EE
  8
2
 10
377.75
 20
-201.876346256517
 30
0.0
 40
2.5
  0
CIRCLE
  5
C3EF
  8
0
 10
377.75
 20
-201.876346256517
 30
0.0
 40
1.1999999999999991
  0
CIRCLE
  5
C3F0
  8
0
 10
377.75
 20
-220.06287973599029
 30
0.0
 40
1.1999999999999991
  0
CIRCLE
  5
C3F1
  8
2
 10
377.75
 20
-220.06287973599029
 30
0.0
 40
2.5
  0
LINE
  5
C3F2
  8
1
 10
372.5
 20
-249.24811858659609
 30
0.0
 11
372.5
 21
-264.24811858659609
 31
0.0
  0
LINE
  5
C3F3
  8
0
 10
365.5
 20
-257.24811858659609
 30
0.0
 11
365.5
 21
-258.74811858659609
 31
0.0
  0
LINE
  5
C3F4
  8
0
 10
379.5
 20
-257.24811858659609
 30
0.0
 11
379.5
 21
-258.74811858659609
 31
0.0
  0
LINE
  5
C3F5
  8
1
 10
362.0
 20
-254.24811858659609
 30
0.0
 11
362.0
 21
-261.24811858659609
 31
0.0
  0
LINE
  5
C3F6
  8
0
 10
359.5
 20
-256.24811858659609
 30
0.0
 11
385.5
 21
-256.24811858659609
 31
0.0
  0
LINE
  5
C3F7
  8
0
 10
350.0
 20
-259.24811858659609
 30
0.0
 11
395.0
 21
-259.24811858659609
 31
0.0
  0
LINE
  5
C3F8
  8
0
 10
350.0
 20
-254.24811858659609
 30
0.0
 11
395.0
 21
-254.24811858659609
 31
0.0
  0
LINE
  5
C3F9
  8
0
 10
385.5
 20
-254.74811858659609
 30
0.0
 11
386.0
 21
-254.24811858659609
 31
0.0
  0
LINE
  5
C3FA
  8
0
 10
365.5
 20
-257.24811858659609
 30
0.0
 11
379.5
 21
-257.24811858659609
 31
0.0
  0
LINE
  5
C3FB
  8
0
 10
365.5
 20
-258.74811858659609
 30
0.0
 11
379.5
 21
-258.74811858659609
 31
0.0
  0
LINE
  5
C3FC
  8
0
 10
380.0
 20
-259.24811858659609
 30
0.0
 11
379.5
 21
-258.74811858659609
 31
0.0
  0
LINE
  5
C3FD
  8
0
 10
380.5
 20
-256.24811858659609
 30
0.0
 11
379.5
 21
-257.24811858659609
 31
0.0
  0
LINE
  5
C3FE
  8
0
 10
364.5
 20
-256.24811858659609
 30
0.0
 11
365.5
 21
-257.24811858659609
 31
0.0
  0
LINE
  5
C3FF
  8
0
 10
365.5
 20
-258.74811858659609
 30
0.0
 11
365.0
 21
-259.24811858659609
 31
0.0
  0
LINE
  5
C400
  8
0
 10
360.80000000000001
 20
-257.94811858659619
 30
0.0
 11
360.80000000000001
 21
-256.24811858659609
 31
0.0
  0
LINE
  5
C401
  8
0
 10
363.2000000000001
 20
-257.94811858659602
 30
0.0
 11
363.2000000000001
 21
-256.24811858659609
 31
0.0
  0
LINE
  5
C402
  8
0
 10
360.80000000000018
 20
-257.94811858659619
 30
0.0
 11
359.5
 21
-259.24811858659609
 31
0.0
  0
LINE
  5
C403
  8
0
 10
363.2000000000001
 20
-257.94811858659619
 30
0.0
 11
364.5
 21
-259.24811858659609
 31
0.0
  0
LINE
  5
C404
  8
0
 10
360.80000000000001
 20
-257.94811858659619
 30
0.0
 11
363.2000000000001
 21
-257.94811858659602
 31
0.0
  0
CIRCLE
  5
C405
  8
0
 10
372.5
 20
-210.96961299625369
 30
0.0
 40
13.0
  0
LINE
  5
C406
  8
0
 10
385.5
 20
-254.74811858659609
 30
0.0
 11
385.5
 21
-256.24811858659609
 31
0.0
  0
LINE
  5
C407
  8
0
 10
359.5
 20
-254.74811858659729
 30
0.0
 11
359.5
 21
-256.24811858659609
 31
0.0
  0
LINE
  5
C408
  8
0
 10
359.5
 20
-254.74811858659729
 30
0.0
 11
359.0
 21
-254.2481185865974
 31
0.0
  0
LINE
  5
C409
  8
0
 10
359.5
 20
-254.74811858659729
 30
0.0
 11
385.5
 21
-254.74811858659729
 31
0.0
  0
LINE
  5
C47D
  8
0
 10
140.4999999999998
 20
-254.24811858659609
 30
0.0
 11
140.4999999999998
 21
-256.74811858659609
 31
0.0
  0
LINE
  5
C47E
  8
0
 10
154.49999999999969
 20
-254.24811858659609
 30
0.0
 11
154.49999999999969
 21
-256.74811858659609
 31
0.0
  0
LINE
  5
C480
  8
0
 10
124.9999999999998
 20
-254.24811858659609
 30
0.0
 11
169.99999999999969
 21
-254.24811858659609
 31
0.0
  0
LINE
  5
C481
  8
0
 10
124.9999999999998
 20
-257.24811858659609
 30
0.0
 11
145.0000000558791
 21
-257.24811858659609
 31
0.0
  0
LINE
  5
C483
  8
0
 10
140.4999999999998
 20
-256.74811858659609
 30
0.0
 11
154.49999999999969
 21
-256.74811858659609
 31
0.0
  0
LINE
  5
C484
  8
0
 10
154.9999999999998
 20
-257.24811858659609
 30
0.0
 11
154.49999999999969
 21
-256.74811858659609
 31
0.0
  0
LINE
  5
C485
  8
0
 10
155.49999999999969
 20
-254.24811858659609
 30
0.0
 11
154.49999999999969
 21
-255.24811858659609
 31
0.0
  0
LINE
  5
C486
  8
0
 10
139.4999999999998
 20
-254.24811858659609
 30
0.0
 11
140.4999999999998
 21
-255.24811858659609
 31
0.0
  0
LINE
  5
C487
  8
0
 10
140.4999999999998
 20
-256.74811858659609
 30
0.0
 11
139.99999999999969
 21
-257.24811858659609
 31
0.0
  0
LINE
  5
C488
  8
0
 10
135.7999999999997
 20
-255.94811858659631
 30
0.0
 11
135.7999999999997
 21
-254.24811858659609
 31
0.0
  0
LINE
  5
C489
  8
0
 10
138.19999999999979
 20
-255.94811858659611
 30
0.0
 11
138.19999999999979
 21
-254.24811858659609
 31
0.0
  0
LINE
  5
C48A
  8
0
 10
135.79999999999981
 20
-255.94811858659619
 30
0.0
 11
134.49999999999969
 21
-257.24811858659609
 31
0.0
  0
LINE
  5
C48B
  8
0
 10
138.19999999999979
 20
-255.94811858659619
 30
0.0
 11
139.4999999999998
 21
-257.24811858659609
 31
0.0
  0
LINE
  5
C48C
  8
0
 10
135.7999999999997
 20
-255.94811858659631
 30
0.0
 11
135.99999995250229
 21
-255.94811858659619
 31
0.0
  0
LINE
  5
C48E
  8
0
 10
295.5
 20
-256.24811858659609
 30
0.0
 11
295.5
 21
-258.74811858659609
 31
0.0
  0
LINE
  5
C48F
  8
0
 10
309.5
 20
-256.24811858659609
 30
0.0
 11
309.5
 21
-258.74811858659609
 31
0.0
  0
LINE
  5
C491
  8
0
 10
289.5
 20
-256.24811858659609
 30
0.0
 11
315.5
 21
-256.24811858659609
 31
0.0
  0
LINE
  5
C492
  8
0
 10
280.0
 20
-259.24811858659609
 30
0.0
 11
300.0000000558793
 21
-259.24811858659609
 31
0.0
  0
LINE
  5
C493
  8
0
 10
280.0
 20
-254.24811858659609
 30
0.0
 11
289.99999981373549
 21
-254.24811858659609
 31
0.0
  0
LINE
  5
C494
  8
0
 10
315.5
 20
-254.74811858659609
 30
0.0
 11
316.0
 21
-254.24811858659609
 31
0.0
  0
LINE
  5
C496
  8
0
 10
295.5
 20
-258.74811858659609
 30
0.0
 11
309.5
 21
-258.74811858659609
 31
0.0
  0
LINE
  5
C497
  8
0
 10
310.0
 20
-259.24811858659609
 30
0.0
 11
309.5
 21
-258.74811858659609
 31
0.0
  0
LINE
  5
C498
  8
0
 10
310.5
 20
-256.24811858659609
 30
0.0
 11
309.5
 21
-257.24811858659609
 31
0.0
  0
LINE
  5
C499
  8
0
 10
294.5
 20
-256.24811858659609
 30
0.0
 11
295.5
 21
-257.24811858659609
 31
0.0
  0
LINE
  5
C49A
  8
0
 10
295.5
 20
-258.74811858659609
 30
0.0
 11
295.0
 21
-259.24811858659609
 31
0.0
  0
LINE
  5
C49B
  8
0
 10
290.7999999999999
 20
-257.94811858659619
 30
0.0
 11
290.7999999999999
 21
-256.24811858659609
 31
0.0
  0
LINE
  5
C49C
  8
0
 10
293.19999999999999
 20
-257.94811858659602
 30
0.0
 11
293.19999999999999
 21
-256.24811858659609
 31
0.0
  0
LINE
  5
C49D
  8
0
 10
290.80000000000018
 20
-257.94811858659619
 30
0.0
 11
289.5
 21
-259.24811858659609
 31
0.0
  0
LINE
  5
C49E
  8
0
 10
293.19999999999999
 20
-257.94811858659619
 30
0.0
 11
294.5
 21
-259.24811858659609
 31
0.0
  0
LINE
  5
C49F
  8
0
 10
290.7999999999999
 20
-257.94811858659619
 30
0.0
 11
290.99999995250249
 21
-257.94811858659631
 31
0.0
  0
LINE
  5
C4A0
  8
0
 10
315.5
 20
-254.74811858659609
 30
0.0
 11
315.5
 21
-256.24811858659609
 31
0.0
  0
LINE
  5
C4A1
  8
0
 10
289.5
 20
-254.74811858659729
 30
0.0
 11
289.5
 21
-256.24811858659609
 31
0.0
  0
LINE
  5
C4A2
  8
0
 10
289.5
 20
-254.74811858659729
 30
0.0
 11
289.0
 21
-254.2481185865974
 31
0.0
  0
LINE
  5
C4A3
  8
0
 10
289.5
 20
-254.74811858659729
 30
0.0
 11
289.99999981373549
 21
-254.74811858659729
 31
0.0
  0
LINE
  5
C4CE
  8
0
 10
143.69999993592469
 20
-263.29969661047681
 30
0.0
 11
145.0000000558791
 21
-263.29969661047681
 31
0.0
  0
LINE
  5
C4CF
  8
0
 10
149.99999994412039
 20
-263.29969661047681
 30
0.0
 11
151.30000006407471
 21
-263.29969661047681
 31
0.0
  0
LINE
  5
C4D0
  8
0
 10
151.30000006407471
 20
-260.79969666635611
 30
0.0
 11
149.99999994412039
 21
-260.79969666635611
 31
0.0
  0
LINE
  5
C4D1
  8
0
 10
145.0000000558791
 20
-260.79969666635611
 30
0.0
 11
143.69999993592469
 21
-260.79969666635611
 31
0.0
  0
LINE
  5
C4D2
  8
0
 10
151.30000006407471
 20
-263.29969661047681
 30
0.0
 11
151.50000018998961
 21
-263.09969648456189
 31
0.0
  0
LINE
  5
C4D3
  8
0
 10
151.50000018998961
 20
-260.99969679227092
 30
0.0
 11
151.30000006407471
 21
-260.79969666635611
 31
0.0
  0
LINE
  5
C4D4
  8
0
 10
143.69999993592469
 20
-260.79969666635611
 30
0.0
 11
143.49999981000991
 21
-260.99969679227092
 31
0.0
  0
LINE
  5
C4D5
  8
0
 10
143.49999981000991
 20
-263.09969648456189
 30
0.0
 11
143.69999993592469
 21
-263.29969661047681
 31
0.0
  0
LINE
  5
C4E1
  8
0
 10
149.99999994412039
 20
-260.79969666635611
 30
0.0
 11
149.99999994412039
 21
-256.74811853071668
 31
0.0
  0
LINE
  5
C4E2
  8
0
 10
149.99999994412039
 20
-265.24969702323892
 30
0.0
 11
149.99999994412039
 21
-263.29969661047681
 31
0.0
  0
LINE
  5
C4E3
  8
0
 10
145.0000000558791
 20
-263.29969661047681
 30
0.0
 11
145.0000000558791
 21
-265.24969702323892
 31
0.0
  0
LINE
  5
C4E4
  8
0
 10
145.0000000558791
 20
-256.74811853071668
 30
0.0
 11
145.0000000558791
 21
-260.79969666635611
 31
0.0
  0
LINE
  5
C4E5
  8
0
 10
145.0000000558791
 20
-265.24969702323892
 30
0.0
 11
145.57735031936289
 21
-266.24969625582912
 31
0.0
  0
LINE
  5
C4E6
  8
0
 10
149.4226496806366
 20
-266.24969625582912
 30
0.0
 11
149.99999994412039
 21
-265.24969702323892
 31
0.0
  0
ARC
  5
C4E7
  8
0
 10
135.9999999999998
 20
-247.35916979882401
 30
0.0
 40
1.0
 50
110.0000000000018
 51
180.0
  0
ARC
  5
C4E8
  8
0
 10
158.9999999999998
 20
-247.35916979882401
 30
0.0
 40
1.0
 50
0.0
 51
69.999999999998238
  0
LINE
  5
C4E9
  8
0
 10
160.00000018626429
 20
-251.04811843460419
 30
0.0
 11
160.00000018626429
 21
-247.35916973998769
 31
0.0
  0
LINE
  5
C4EA
  8
0
 10
134.9999998137352
 20
-247.35916973998769
 30
0.0
 11
134.9999998137352
 21
-251.04811843460419
 31
0.0
  0
LINE
  5
C4EB
  8
0
 10
134.9999998137352
 20
-251.04811843460419
 30
0.0
 11
135.2000004053113
 21
-251.248118560519
 31
0.0
  0
LINE
  5
C4EC
  8
0
 10
159.79999959468819
 20
-251.248118560519
 30
0.0
 11
160.00000018626429
 21
-251.04811843460419
 31
0.0
  0
LINE
  5
C4ED
  8
0
 10
159.34201985597591
 20
-246.41947736939409
 30
0.0
 11
154.74999979138349
 21
-244.74811842640861
 31
0.0
  0
LINE
  5
C4EE
  8
0
 10
140.250000208616
 20
-244.74811842640861
 30
0.0
 11
135.65798014402361
 21
-246.41947736939409
 31
0.0
  0
LINE
  5
C4EF
  8
0
 10
140.49999978393291
 20
-255.74811848321929
 30
0.0
 11
141.49999994784571
 21
-256.74811853071668
 31
0.0
  0
LINE
  5
C4F0
  8
0
 10
153.50000005215381
 20
-256.74811853071668
 30
0.0
 11
154.50000021606661
 21
-255.74811848321929
 31
0.0
  0
LINE
  5
C4F6
  8
0
 10
151.30000006407471
 20
-263.29969661047681
 30
0.0
 11
151.30000006407471
 21
-260.79969666635611
 31
0.0
  0
LINE
  5
C4F7
  8
0
 10
143.69999993592469
 20
-260.79969666635611
 30
0.0
 11
143.69999993592469
 21
-263.29969661047681
 31
0.0
  0
LINE
  5
C4F8
  8
0
 10
151.50000018998961
 20
-260.99969679227092
 30
0.0
 11
151.50000018998961
 21
-263.09969648456189
 31
0.0
  0
LINE
  5
C4F9
  8
0
 10
143.49999981000991
 20
-263.09969648456189
 30
0.0
 11
143.49999981000991
 21
-260.99969679227092
 31
0.0
  0
POLYLINE
  5
C4FC
  8
0
 66
     1
 10
0.0
 20
0.0
 30
0.0
 70
   128
  0
VERTEX
  5
DB44
  8
0
 10
149.9949896614996
 20
-260.80983690654853
 30
0.0
  0
VERTEX
  5
DB45
  8
0
 10
149.99891029670809
 20
-260.80187735816457
 30
0.0
  0
VERTEX
  5
DB46
  8
0
 10
149.96036075986899
 20
-260.88098995124909
 30
0.0
  0
VERTEX
  5
DB47
  8
0
 10
149.87801857292629
 20
-261.06609496956679
 30
0.0
  0
VERTEX
  5
DB48
  8
0
 10
149.77016373537461
 20
-261.36694941407058
 30
0.0
  0
VERTEX
  5
DB49
  8
0
 10
149.68282523564969
 20
-261.77180139085272
 30
0.0
  0
VERTEX
  5
DB4A
  8
0
 10
149.66917507350419
 20
-262.18318985512468
 30
0.0
  0
VERTEX
  5
DB4B
  8
0
 10
149.7189652081577
 20
-262.53581046795472
 30
0.0
  0
VERTEX
  5
DB4C
  8
0
 10
149.80991188436721
 20
-262.85480055695388
 30
0.0
  0
VERTEX
  5
DB4D
  8
0
 10
149.9178174789993
 20
-263.12595931550482
 30
0.0
  0
VERTEX
  5
DB4E
  8
0
 10
149.98985644429899
 20
-263.27928388228628
 30
0.0
  0
VERTEX
  5
DB4F
  8
0
 10
149.99196239747079
 20
-263.28353862946852
 30
0.0
  0
SEQEND
  5
DB50
  8
0
  0
POLYLINE
  5
C4FD
  8
0
 66
     1
 10
0.0
 20
0.0
 30
0.0
 70
   128
  0
VERTEX
  5
DB51
  8
0
 10
145.00501033849989
 20
-263.28955590462311
 30
0.0
  0
VERTEX
  5
DB52
  8
0
 10
145.0010897032914
 20
-263.2975159186683
 30
0.0
  0
VERTEX
  5
DB53
  8
0
 10
145.0396392401305
 20
-263.21840332558372
 30
0.0
  0
VERTEX
  5
DB54
  8
0
 10
145.12198142707319
 20
-263.03329830726602
 30
0.0
  0
VERTEX
  5
DB55
  8
0
 10
145.22983626462491
 20
-262.73244339710101
 30
0.0
  0
VERTEX
  5
DB56
  8
0
 10
145.3171747643498
 20
-262.32759142031892
 30
0.0
  0
VERTEX
  5
DB57
  8
0
 10
145.3308249264953
 20
-261.91620295604679
 30
0.0
  0
VERTEX
  5
DB58
  8
0
 10
145.28103479184179
 20
-261.56358280887821
 30
0.0
  0
VERTEX
  5
DB59
  8
0
 10
145.19008811563231
 20
-261.24459225421771
 30
0.0
  0
VERTEX
  5
DB5A
  8
0
 10
145.08218252100019
 20
-260.97343396132811
 30
0.0
  0
VERTEX
  5
DB5B
  8
0
 10
145.01014355570049
 20
-260.82010892888519
 30
0.0
  0
VERTEX
  5
DB5C
  8
0
 10
145.0080376025287
 20
-260.8158546473644
 30
0.0
  0
SEQEND
  5
DB5D
  8
0
  0
LINE
  5
C4FE
  8
0
 10
145.0000000558791
 20
-265.24969702323892
 30
0.0
 11
149.99999994412039
 21
-265.24969702323892
 31
0.0
  0
LINE
  5
C4FF
  8
0
 10
149.4226496806366
 20
-266.24969625582912
 30
0.0
 11
145.57735031936289
 21
-266.24969625582912
 31
0.0
  0
LINE
  5
C500
  8
0
 10
159.79999959468819
 20
-251.248118560519
 30
0.0
 11
135.2000004053113
 21
-251.248118560519
 31
0.0
  0
LINE
  5
C501
  8
0
 10
154.74999979138349
 20
-244.74811842640861
 30
0.0
 11
140.250000208616
 21
-244.74811842640861
 31
0.0
  0
LINE
  5
C50D
  8
0
 10
140.49999978393291
 20
-255.74811848321929
 30
0.0
 11
154.50000021606661
 21
-255.74811848321909
 31
0.0
  0
LINE
  5
C50E
  8
0
 10
135.65798014402361
 20
-246.41947736939409
 30
0.0
 11
159.3420206690713
 21
-246.41947736939409
 31
0.0
  0
LINE
  5
C50F
  8
1
 10
147.49999999999989
 20
-271.29969617082912
 30
0.0
 11
147.49999999999969
 21
-227.24835512900299
 31
0.0
  0
LINE
  5
C510
  8
1
 10
141.49999981001
 20
-262.04969656130299
 30
0.0
 11
153.50000018998949
 21
-262.04969656130288
 31
0.0
  0
LINE
  5
C5C8
  8
0
 10
298.69999993592501
 20
-265.29969661047681
 30
0.0
 11
300.0000000558793
 21
-265.29969661047681
 31
0.0
  0
LINE
  5
C5C9
  8
0
 10
304.99999994412059
 20
-265.29969661047681
 30
0.0
 11
306.30000006407499
 21
-265.29969661047681
 31
0.0
  0
LINE
  5
C5CA
  8
0
 10
306.30000006407499
 20
-262.79969666635623
 30
0.0
 11
304.99999994412059
 21
-262.79969666635623
 31
0.0
  0
LINE
  5
C5CB
  8
0
 10
300.0000000558793
 20
-262.79969666635623
 30
0.0
 11
298.69999993592501
 21
-262.79969666635623
 31
0.0
  0
LINE
  5
C5CC
  8
0
 10
306.30000006407499
 20
-265.29969661047681
 30
0.0
 11
306.50000018998981
 21
-265.099696484562
 31
0.0
  0
LINE
  5
C5CD
  8
0
 10
306.50000018998981
 20
-262.99969679227098
 30
0.0
 11
306.30000006407499
 21
-262.79969666635623
 31
0.0
  0
LINE
  5
C5CE
  8
0
 10
298.69999993592501
 20
-262.79969666635623
 30
0.0
 11
298.49999981001019
 21
-262.99969679227098
 31
0.0
  0
LINE
  5
C5CF
  8
0
 10
298.49999981001019
 20
-265.099696484562
 30
0.0
 11
298.69999993592501
 21
-265.29969661047681
 31
0.0
  0
LINE
  5
C5DB
  8
0
 10
304.99999994412059
 20
-262.79969666635623
 30
0.0
 11
304.99999994412059
 21
-258.74811853071668
 31
0.0
  0
LINE
  5
C5DC
  8
0
 10
304.99999994412059
 20
-267.24969702323898
 30
0.0
 11
304.99999994412059
 21
-265.29969661047681
 31
0.0
  0
LINE
  5
C5DD
  8
0
 10
300.0000000558793
 20
-265.29969661047681
 30
0.0
 11
300.0000000558793
 21
-267.24969702323898
 31
0.0
  0
LINE
  5
C5DE
  8
0
 10
300.0000000558793
 20
-258.74811853071668
 30
0.0
 11
300.0000000558793
 21
-262.79969666635623
 31
0.0
  0
LINE
  5
C5DF
  8
0
 10
300.0000000558793
 20
-267.24969702323898
 30
0.0
 11
300.57735031936318
 21
-268.24969625582918
 31
0.0
  0
LINE
  5
C5E0
  8
0
 10
304.42264968063682
 20
-268.24969625582918
 30
0.0
 11
304.99999994412059
 21
-267.24969702323898
 31
0.0
  0
ARC
  5
C5E1
  8
0
 10
291.00000000000011
 20
-249.35916979882401
 30
0.0
 40
1.0
 50
110.0000000000035
 51
180.0
  0
ARC
  5
C5E2
  8
0
 10
314.0
 20
-249.35916979882401
 30
0.0
 40
1.0
 50
0.0
 51
69.999999999996504
  0
LINE
  5
C5E3
  8
0
 10
315.00000018626451
 20
-253.04811843460419
 30
0.0
 11
315.00000018626451
 21
-249.35916973998769
 31
0.0
  0
LINE
  5
C5E4
  8
0
 10
289.99999981373549
 20
-249.35916973998769
 30
0.0
 11
289.99999981373549
 21
-253.04811843460419
 31
0.0
  0
LINE
  5
C5E5
  8
0
 10
289.99999981373549
 20
-253.04811843460419
 30
0.0
 11
290.20000040531158
 21
-253.248118560519
 31
0.0
  0
LINE
  5
C5E6
  8
0
 10
314.79999959468842
 20
-253.248118560519
 30
0.0
 11
315.00000018626451
 21
-253.04811843460419
 31
0.0
  0
LINE
  5
C5E7
  8
0
 10
314.3420198559761
 20
-248.41947736939409
 30
0.0
 11
309.74999979138369
 21
-246.74811842640861
 31
0.0
  0
LINE
  5
C5E8
  8
0
 10
295.2500002086162
 20
-246.74811842640861
 30
0.0
 11
290.6579801440239
 21
-248.41947736939409
 31
0.0
  0
LINE
  5
C5E9
  8
0
 10
295.49999978393311
 20
-257.74811848321929
 30
0.0
 11
296.49999994784588
 21
-258.74811853071668
 31
0.0
  0
LINE
  5
C5EA
  8
0
 10
308.50000005215401
 20
-258.74811853071668
 30
0.0
 11
309.50000021606678
 21
-257.74811848321929
 31
0.0
  0
LINE
  5
C5EF
  8
0
 10
306.30000006407499
 20
-265.29969661047681
 30
0.0
 11
306.30000006407499
 21
-262.79969666635623
 31
0.0
  0
LINE
  5
C5F0
  8
0
 10
298.69999993592501
 20
-262.79969666635623
 30
0.0
 11
298.69999993592501
 21
-265.29969661047681
 31
0.0
  0
LINE
  5
C5F1
  8
0
 10
306.50000018998981
 20
-262.99969679227098
 30
0.0
 11
306.50000018998981
 21
-265.099696484562
 31
0.0
  0
LINE
  5
C5F2
  8
0
 10
298.49999981001019
 20
-265.099696484562
 30
0.0
 11
298.49999981001019
 21
-262.99969679227098
 31
0.0
  0
POLYLINE
  5
C5F5
  8
0
 66
     1
 10
0.0
 20
0.0
 30
0.0
 70
   128
  0
VERTEX
  5
DB5E
  8
0
 10
304.9949896614998
 20
-262.80983690654858
 30
0.0
  0
VERTEX
  5
DB5F
  8
0
 10
304.99891029670829
 20
-262.80187735816457
 30
0.0
  0
VERTEX
  5
DB60
  8
0
 10
304.96036075986922
 20
-262.88098995124921
 30
0.0
  0
VERTEX
  5
DB61
  8
0
 10
304.87801857292652
 20
-263.0660949695669
 30
0.0
  0
VERTEX
  5
DB62
  8
0
 10
304.77016373537481
 20
-263.36694941407069
 30
0.0
  0
VERTEX
  5
DB63
  8
0
 10
304.68282523564989
 20
-263.77180139085277
 30
0.0
  0
VERTEX
  5
DB64
  8
0
 10
304.66917507350439
 20
-264.18318985512479
 30
0.0
  0
VERTEX
  5
DB65
  8
0
 10
304.7189652081579
 20
-264.53581046795472
 30
0.0
  0
VERTEX
  5
DB66
  8
0
 10
304.80991188436752
 20
-264.85480055695399
 30
0.0
  0
VERTEX
  5
DB67
  8
0
 10
304.9178174789995
 20
-265.12595931550487
 30
0.0
  0
VERTEX
  5
DB68
  8
0
 10
304.98985644429922
 20
-265.27928388228639
 30
0.0
  0
VERTEX
  5
DB69
  8
0
 10
304.99196239747113
 20
-265.28353862946852
 30
0.0
  0
SEQEND
  5
DB6A
  8
0
  0
POLYLINE
  5
C5F6
  8
0
 66
     1
 10
0.0
 20
0.0
 30
0.0
 70
   128
  0
VERTEX
  5
DB6B
  8
0
 10
300.00501033850009
 20
-265.28955590462311
 30
0.0
  0
VERTEX
  5
DB6C
  8
0
 10
300.0010897032916
 20
-265.2975159186683
 30
0.0
  0
VERTEX
  5
DB6D
  8
0
 10
300.03963924013078
 20
-265.21840332558378
 30
0.0
  0
VERTEX
  5
DB6E
  8
0
 10
300.12198142707348
 20
-265.03329830726608
 30
0.0
  0
VERTEX
  5
DB6F
  8
0
 10
300.22983626462519
 20
-264.73244339710101
 30
0.0
  0
VERTEX
  5
DB70
  8
0
 10
300.31717476435
 20
-264.32759142031892
 30
0.0
  0
VERTEX
  5
DB71
  8
0
 10
300.3308249264955
 20
-263.9162029560469
 30
0.0
  0
VERTEX
  5
DB72
  8
0
 10
300.2810347918421
 20
-263.56358280887832
 30
0.0
  0
VERTEX
  5
DB73
  8
0
 10
300.19008811563248
 20
-263.24459225421771
 30
0.0
  0
VERTEX
  5
DB74
  8
0
 10
300.0821825210005
 20
-262.97343396132811
 30
0.0
  0
VERTEX
  5
DB75
  8
0
 10
300.01014355570078
 20
-262.8201089288853
 30
0.0
  0
VERTEX
  5
DB76
  8
0
 10
300.00803760252887
 20
-262.8158546473644
 30
0.0
  0
SEQEND
  5
DB77
  8
0
  0
LINE
  5
C5F7
  8
0
 10
300.0000000558793
 20
-267.24969702323898
 30
0.0
 11
304.99999994412059
 21
-267.24969702323898
 31
0.0
  0
LINE
  5
C5F8
  8
0
 10
304.42264968063682
 20
-268.24969625582918
 30
0.0
 11
300.57735031936318
 21
-268.24969625582918
 31
0.0
  0
LINE
  5
C5F9
  8
0
 10
314.79999959468842
 20
-253.248118560519
 30
0.0
 11
290.20000040531158
 21
-253.248118560519
 31
0.0
  0
LINE
  5
C5FA
  8
0
 10
309.74999979138369
 20
-246.74811842640861
 30
0.0
 11
295.2500002086162
 21
-246.74811842640861
 31
0.0
  0
LINE
  5
C5FC
  8
0
 10
295.49999978393311
 20
-257.74811848321929
 30
0.0
 11
309.50000021606678
 21
-257.74811848321917
 31
0.0
  0
LINE
  5
C5FD
  8
0
 10
290.6579801440239
 20
-248.41947736939409
 30
0.0
 11
314.34202066907147
 21
-248.41947736939409
 31
0.0
  0
LINE
  5
C5FE
  8
1
 10
302.50000000000011
 20
-273.29969617082918
 30
0.0
 11
302.49999999999989
 21
-229.2483551293422
 31
0.0
  0
LINE
  5
C5FF
  8
1
 10
296.49999981001031
 20
-264.04969656130311
 30
0.0
 11
308.50000018998981
 21
-264.04969656130288
 31
0.0
  0
LINE
  5
C765
  8
0
 10
160.00000018626429
 20
-253.94811863055449
 30
0.0
 11
160.00000018626429
 21
-251.54811851656061
 31
0.0
  0
LINE
  5
C766
  8
0
 10
159.6999997645614
 20
-254.24811858659609
 30
0.0
 11
160.00000018626429
 21
-253.94811863055449
 31
0.0
  0
LINE
  5
C767
  8
0
 10
160.00000018626429
 20
-251.54811851656061
 30
0.0
 11
159.6999997645614
 21
-251.248118560519
 31
0.0
  0
LINE
  5
C76E
  8
0
 10
134.9999998137352
 20
-251.54811851656061
 30
0.0
 11
134.9999998137352
 21
-253.94811863055449
 31
0.0
  0
LINE
  5
C770
  8
0
 10
134.9999998137352
 20
-253.94811863055449
 30
0.0
 11
135.30000023543809
 21
-254.24811858659609
 31
0.0
  0
LINE
  5
C773
  8
0
 10
135.30000023543809
 20
-251.248118560519
 30
0.0
 11
134.9999998137352
 21
-251.54811851656061
 31
0.0
  0
LINE
  5
C796
  8
0
 10
139.00000009499459
 20
-257.04811861772549
 30
0.0
 11
138.0000000474972
 21
-256.04811855567618
 31
0.0
  0
LINE
  5
C797
  8
0
 10
135.99999995250229
 20
-256.04811855567618
 30
0.0
 11
134.99999990500481
 21
-257.04811861772549
 31
0.0
  0
LINE
  5
C798
  8
0
 10
139.00000009499459
 20
-257.24811861267312
 30
0.0
 11
139.00000009499459
 21
-257.04811861772549
 31
0.0
  0
LINE
  5
C799
  8
0
 10
134.99999990500481
 20
-257.04811861772549
 30
0.0
 11
134.99999990500481
 21
-257.24811861267312
 31
0.0
  0
LINE
  5
C79A
  8
0
 10
138.0000000474972
 20
-256.04811855567618
 30
0.0
 11
138.0000000474972
 21
-254.24811858659609
 31
0.0
  0
LINE
  5
C79E
  8
0
 10
135.99999995250229
 20
-254.24811858659609
 30
0.0
 11
135.99999995250229
 21
-256.04811855567618
 31
0.0
  0
LINE
  5
C79F
  8
0
 10
138.0000000474972
 20
-256.04811855567618
 30
0.0
 11
135.99999995250229
 21
-256.04811855567618
 31
0.0
  0
LINE
  5
C7A0
  8
0
 10
139.00000009499459
 20
-257.04811861772549
 30
0.0
 11
134.99999990500481
 21
-257.04811861772549
 31
0.0
  0
LINE
  5
C7A4
  8
0
 10
136.00000030174829
 20
-255.70170831189421
 30
0.0
 11
138.0000006295738
 21
-255.70170831189421
 31
0.0
  0
LINE
  5
C7A5
  8
3
 10
136.1999999999997
 20
-255.70170831189421
 30
0.0
 11
136.1999999999997
 21
-254.24811858659609
 31
0.0
  0
LINE
  5
C7A7
  8
3
 10
137.79999999999961
 20
-255.70170831189421
 30
0.0
 11
137.79999999999961
 21
-254.24811858659609
 31
0.0
  0
LINE
  5
C7A9
  8
3
 10
138.0000006295738
 20
-256.04811956386237
 30
0.0
 11
137.79999999999961
 21
-255.70170831189421
 31
0.0
  0
LINE
  5
C7AA
  8
3
 10
135.99999937042571
 20
-256.04811956386237
 30
0.0
 11
136.19999999999979
 21
-255.70170831189421
 31
0.0
  0
LINE
  5
C7AC
  8
1
 10
136.99999999999969
 20
-259.24811858659598
 30
0.0
 11
136.99999999999969
 21
-249.248118560519
 31
0.0
  0
LINE
  5
C7EF
  8
0
 10
315.00000018626451
 20
-255.94811863055449
 30
0.0
 11
315.00000018626451
 21
-253.54811851656061
 31
0.0
  0
LINE
  5
C7F0
  8
0
 10
314.6999997645616
 20
-256.24811858659609
 30
0.0
 11
315.00000018626451
 21
-255.94811863055449
 31
0.0
  0
LINE
  5
C7F1
  8
0
 10
315.00000018626451
 20
-253.54811851656061
 30
0.0
 11
314.6999997645616
 21
-253.248118560519
 31
0.0
  0
LINE
  5
C7F3
  8
0
 10
289.99999981373549
 20
-253.54811851656061
 30
0.0
 11
289.99999981373549
 21
-255.94811863055449
 31
0.0
  0
LINE
  5
C7F5
  8
0
 10
289.99999981373549
 20
-255.94811863055449
 30
0.0
 11
290.30000023543829
 21
-256.24811858659609
 31
0.0
  0
LINE
  5
C7F8
  8
0
 10
290.30000023543829
 20
-253.248118560519
 30
0.0
 11
289.99999981373549
 21
-253.54811851656061
 31
0.0
  0
LINE
  5
C7F9
  8
0
 10
294.0000000949949
 20
-259.04811861772549
 30
0.0
 11
293.00000004749739
 21
-258.04811855567618
 31
0.0
  0
LINE
  5
C7FA
  8
0
 10
290.99999995250249
 20
-258.04811855567618
 30
0.0
 11
289.9999999050051
 21
-259.04811861772549
 31
0.0
  0
LINE
  5
C7FB
  8
0
 10
294.0000000949949
 20
-259.24811861267312
 30
0.0
 11
294.0000000949949
 21
-259.04811861772549
 31
0.0
  0
LINE
  5
C7FC
  8
0
 10
289.9999999050051
 20
-259.04811861772549
 30
0.0
 11
289.9999999050051
 21
-259.24811861267312
 31
0.0
  0
LINE
  5
C7FD
  8
0
 10
293.00000004749739
 20
-258.04811855567618
 30
0.0
 11
293.00000004749739
 21
-256.24811858659609
 31
0.0
  0
LINE
  5
C801
  8
0
 10
290.99999995250249
 20
-256.24811858659609
 30
0.0
 11
290.99999995250249
 21
-258.04811855567618
 31
0.0
  0
LINE
  5
C802
  8
0
 10
293.00000004749739
 20
-258.04811855567618
 30
0.0
 11
290.99999995250249
 21
-258.04811855567618
 31
0.0
  0
LINE
  5
C803
  8
0
 10
294.0000000949949
 20
-259.04811861772549
 30
0.0
 11
289.9999999050051
 21
-259.04811861772549
 31
0.0
  0
LINE
  5
C807
  8
0
 10
291.00000030174851
 20
-257.70170831189421
 30
0.0
 11
293.000000629574
 21
-257.70170831189421
 31
0.0
  0
LINE
  5
C808
  8
3
 10
291.19999999999999
 20
-257.70170831189421
 30
0.0
 11
291.19999999999999
 21
-256.24811858659609
 31
0.0
  0
LINE
  5
C80A
  8
3
 10
292.7999999999999
 20
-257.70170831189421
 30
0.0
 11
292.7999999999999
 21
-256.24811858659609
 31
0.0
  0
LINE
  5
C80C
  8
3
 10
293.000000629574
 20
-258.04811956386249
 30
0.0
 11
292.7999999999999
 21
-257.70170831189421
 31
0.0
  0
LINE
  5
C80D
  8
3
 10
290.99999937042588
 20
-258.04811956386249
 30
0.0
 11
291.19999999999999
 21
-257.70170831189421
 31
0.0
  0
LINE
  5
C80F
  8
1
 10
292.0
 20
-261.24811858659609
 30
0.0
 11
292.0
 21
-251.248118560519
 31
0.0
  0
LINE
  5
C811
  8
0
 10
138.0000000474972
 20
-255.94811858659611
 30
0.0
 11
138.19999999999979
 21
-255.94811858659611
 31
0.0
  0
LINE
  5
C812
  8
0
 10
149.99999994412039
 20
-257.24811858659609
 30
0.0
 11
169.99999999999969
 21
-257.24811858659609
 31
0.0
  0
LINE
  5
C82C
  8
0
 10
315.00000018626451
 20
-254.74811858659729
 30
0.0
 11
315.5
 21
-254.74811858659729
 31
0.0
  0
LINE
  5
C82D
  8
0
 10
315.00000018626451
 20
-254.24811858659609
 30
0.0
 11
325.0
 21
-254.24811858659609
 31
0.0
  0
LINE
  5
C82E
  8
0
 10
293.00000004749751
 20
-257.94811858659619
 30
0.0
 11
293.19999999999999
 21
-257.94811858659602
 31
0.0
  0
LINE
  5
C831
  8
0
 10
304.99999994412059
 20
-259.24811858659609
 30
0.0
 11
325.0
 21
-259.24811858659609
 31
0.0
  0
TEXT
  5
C872
  8
0
 62
     3
 10
117.0029346998537
 20
-158.84294632958699
 30
0.0
 40
3.2000000000000002
  1
スペーサー(ボルト付き)(QCASP)を使用する場合
  0
TEXT
  5
C873
  8
0
 62
     3
 10
117.0029346998537
 20
-165.84294632958699
 30
0.0
 40
3.2000000000000002
  1
To use with a spacer(QCASP)
 41
0.85
  0
LINE
  5
CE1D
  8
0
 10
410.8500004559935
 20
112.8332967267899
 30
0.0
 11
410.8500004559935
 21
110.83329674818999
 31
0.0
  0
LINE
  5
CE1E
  8
0
 10
414.6500005200935
 20
110.83329674818999
 30
0.0
 11
414.6500005200935
 21
112.8332967267899
 31
0.0
  0
LINE
  5
CE1F
  8
0
 10
413.7500006519935
 20
112.8332967267899
 30
0.0
 11
413.7500006519935
 21
115.33329667088999
 31
0.0
  0
LINE
  5
CE20
  8
0
 10
411.75000078979349
 20
115.33329667088999
 30
0.0
 11
411.75000078979349
 21
112.8332967267899
 31
0.0
  0
LINE
  5
CE21
  8
0
 10
395.10000020269348
 20
112.8332967267899
 30
0.0
 11
395.10000020269348
 21
110.83329674818999
 31
0.0
  0
LINE
  5
CE22
  8
0
 10
398.90000026679348
 20
110.83329674818999
 30
0.0
 11
398.90000026679348
 21
112.8332967267899
 31
0.0
  0
LINE
  5
CE23
  8
0
 10
398.00000086429361
 20
112.8332967267899
 30
0.0
 11
398.00000086429361
 21
115.33329667088999
 31
0.0
  0
LINE
  5
CE24
  8
0
 10
396.00000053649359
 20
115.33329667088999
 30
0.0
 11
396.00000053649359
 21
112.8332967267899
 31
0.0
  0
LINE
  5
CE25
  8
0
 10
406.15000052379349
 20
99.998421347989961
 30
0.0
 11
406.20000055529351
 21
99.94842143298996
 31
0.0
  0
LINE
  5
CE26
  8
0
 10
408.80000056239351
 20
99.94842143298996
 30
0.0
 11
408.85000059389353
 21
99.998421347989961
 31
0.0
  0
LINE
  5
CE27
  8
0
 10
413.00000052899361
 20
121.8332968049899
 30
0.0
 11
413.0000005289935
 21
123.39842164459
 31
0.0
  0
LINE
  5
CE28
  8
0
 10
402.00000058859348
 20
123.39842164459
 30
0.0
 11
402.00000058859348
 21
121.8332968049899
 31
0.0
  0
ARC
  5
CE2B
  8
0
 10
398.05544019575967
 20
123.89845451120129
 30
0.0
 40
0.500090182021642
 50
173.91218823798761
 51
270.86746770690303
  0
ARC
  5
CE2C
  8
0
 10
416.9446506869869
 20
123.8984248695219
 30
0.0
 40
0.5000036094860744
 50
269.92893924455319
 51
6.0483907597254456
  0
LINE
  5
CE2F
  8
0
 10
405.00000061469348
 20
100.9984215118899
 30
0.0
 11
405.5773508781935
 21
99.998421347989961
 31
0.0
  0
LINE
  5
CE30
  8
0
 10
409.42265023949358
 20
99.998421347989961
 30
0.0
 11
410.00000050299349
 21
100.9984215118899
 31
0.0
  0
LINE
  5
CE31
  8
0
 10
410.00000050299349
 20
100.9984215118899
 30
0.0
 11
410.00000050299349
 21
109.8332967006899
 31
0.0
  0
LINE
  5
CE32
  8
0
 10
405.00000061469348
 20
109.8332967006899
 30
0.0
 11
405.00000061469348
 21
100.9984215118899
 31
0.0
  0
ARC
  5
CE33
  8
0
 10
396.00000055879349
 20
119.2222454325899
 30
0.0
 40
1.0000000000000231
 50
109.9999999999991
 51
180.0
  0
ARC
  5
CE34
  8
0
 10
419.00000055879349
 20
119.2222454325899
 30
0.0
 40
1.0000000000000231
 50
0.0
 51
70.000000000000853
  0
LINE
  5
CE35
  8
0
 10
420.00000074509347
 20
115.5332967967899
 30
0.0
 11
420.00000074509347
 21
119.2222454913899
 31
0.0
  0
LINE
  5
CE36
  8
0
 10
395.0000003725936
 20
119.2222454913899
 30
0.0
 11
395.0000003725936
 21
115.5332967967899
 31
0.0
  0
LINE
  5
CE37
  8
0
 10
395.0000003725936
 20
115.5332967967899
 30
0.0
 11
395.20000096419352
 21
115.33329667088999
 31
0.0
  0
LINE
  5
CE38
  8
0
 10
419.8000001534935
 20
115.33329667088999
 30
0.0
 11
420.00000074509347
 21
115.5332967967899
 31
0.0
  0
LINE
  5
CE39
  8
0
 10
419.34202041479352
 20
120.1619378619899
 30
0.0
 11
414.75000035019349
 21
121.8332968049899
 31
0.0
  0
LINE
  5
CE3A
  8
0
 10
400.25000076749347
 20
121.8332968049899
 30
0.0
 11
395.65798070289361
 21
120.1619378619899
 31
0.0
  0
LINE
  5
CE3B
  8
0
 10
400.50000034279361
 20
110.83329674818999
 30
0.0
 11
401.50000050669348
 21
109.8332967006899
 31
0.0
  0
LINE
  5
CE3C
  8
0
 10
413.50000061099348
 20
109.8332967006899
 30
0.0
 11
414.50000077489352
 21
110.83329674818999
 31
0.0
  0
LINE
  5
CE3D
  8
0
 10
414.50000077489352
 20
112.8332967267899
 30
0.0
 11
414.50000077489352
 21
115.33329667088999
 31
0.0
  0
LINE
  5
CE3E
  8
0
 10
400.50000034279361
 20
115.33329667088999
 30
0.0
 11
400.50000034279361
 21
110.83329674818999
 31
0.0
  0
LINE
  5
CE3F
  8
0
 10
410.8500004559935
 20
112.8332967267899
 30
0.0
 11
414.6500005200935
 21
112.8332967267899
 31
0.0
  0
LINE
  5
CE41
  8
0
 10
411.10455233609349
 20
110.83329674818999
 30
0.0
 11
414.6500005200935
 21
110.83329674818999
 31
0.0
  0
LINE
  5
CE42
  8
0
 10
410.8500004559935
 20
110.83329674818999
 30
0.0
 11
411.10455233609349
 21
110.83329674818999
 31
0.0
  0
LINE
  5
CE43
  8
0
 10
395.10000020269348
 20
112.8332967267899
 30
0.0
 11
398.90000026679348
 21
112.8332967267899
 31
0.0
  0
LINE
  5
CE44
  8
0
 10
395.10000020269348
 20
110.83329674818999
 30
0.0
 11
398.90000026679348
 21
110.83329674818999
 31
0.0
  0
LINE
  5
CE45
  8
0
 10
408.80000056239351
 20
99.94842143298996
 30
0.0
 11
406.20000055529351
 21
99.94842143298996
 31
0.0
  0
CIRCLE
  5
CE46
  8
0
 10
407.50000055879349
 20
104.19842170069001
 30
0.0
 40
1.0499999999999821
  0
CIRCLE
  5
CE47
  8
0
 10
407.50000055879349
 20
104.19842170069001
 30
0.0
 40
1.25
  0
POLYLINE
  5
CE48
  8
0
 66
     1
 10
0.0
 20
0.0
 30
0.0
 70
   128
  0
VERTEX
  5
DB78
  8
0
 10
403.99352659479348
 20
123.8984217264899
 30
0.0
  0
VERTEX
  5
DB79
  8
0
 10
403.98676635699348
 20
123.85439531439
 30
0.0
  0
VERTEX
  5
DB7A
  8
0
 10
403.96487864669348
 20
123.8054366179899
 30
0.0
  0
VERTEX
  5
DB7B
  8
0
 10
403.92840526069352
 20
123.75889842898989
 30
0.0
  0
VERTEX
  5
DB7C
  8
0
 10
403.8329335208935
 20
123.68460310188991
 30
0.0
  0
VERTEX
  5
DB7D
  8
0
 10
403.54248730469351
 20
123.57066696078989
 30
0.0
  0
VERTEX
  5
DB7E
  8
0
 10
403.26222999029352
 20
123.5126520835899
 30
0.0
  0
VERTEX
  5
DB7F
  8
0
 10
403.00761524589348
 20
123.44005921419
 30
0.0
  0
VERTEX
  5
DB80
  8
0
 10
402.7779687941935
 20
123.39842164459
 30
0.0
  0
SEQEND
  5
DB81
  8
0
  0
LINE
  5
CE4A
  8
0
 10
411.05375241489349
 20
123.8984217264899
 30
0.0
 11
403.99352659479348
 21
123.8984217264899
 31
0.0
  0
POLYLINE
  5
CE4C
  8
0
 66
     1
 10
0.0
 20
0.0
 30
0.0
 70
   128
  0
VERTEX
  5
DB82
  8
0
 10
412.2277464531935
 20
123.39842164459
 30
0.0
  0
VERTEX
  5
DB83
  8
0
 10
412.02140448619349
 20
123.43694580288989
 30
0.0
  0
VERTEX
  5
DB84
  8
0
 10
411.79573804149339
 20
123.5141859718899
 30
0.0
  0
VERTEX
  5
DB85
  8
0
 10
411.5576314553935
 20
123.57349445609
 30
0.0
  0
VERTEX
  5
DB86
  8
0
 10
411.30494897259348
 20
123.64964404638999
 30
0.0
  0
VERTEX
  5
DB87
  8
0
 10
411.19420028299351
 20
123.7068356343899
 30
0.0
  0
VERTEX
  5
DB88
  8
0
 10
411.0923550371935
 20
123.79715157238989
 30
0.0
  0
VERTEX
  5
DB89
  8
0
 10
411.06616368519349
 20
123.8442839452899
 30
0.0
  0
VERTEX
  5
DB8A
  8
0
 10
411.05375241489349
 20
123.8984217264899
 30
0.0
  0
SEQEND
  5
DB8B
  8
0
  0
LINE
  5
CE4D
  8
0
 10
413.0000005289935
 20
122.49842131078999
 30
0.0
 11
402.00000058859348
 21
122.49842131078999
 31
0.0
  0
ARC
  5
CE4E
  8
0
 10
400.2393961834448
 20
130.24722330264891
 30
0.0
 40
2.0079980096055601
 50
116.7397946026136
 51
173.9663209163445
  0
ARC
  5
CE4F
  8
0
 10
414.76061749770491
 20
130.24723551087621
 30
0.0
 40
2.0079814541036152
 50
6.0333787260414029
 51
63.26036881293161
  0
LINE
  5
CE50
  8
0
 10
402.7779687941935
 20
123.39842164459
 30
0.0
 11
398.0630113556935
 21
123.39842164459
 31
0.0
  0
LINE
  5
CE51
  8
0
 10
416.94403056059349
 20
123.39842164459
 30
0.0
 11
412.2277464531935
 21
123.39842164459
 31
0.0
  0
ARC
  5
CE52
  8
0
 10
407.50000055879349
 20
115.9984217006899
 30
0.0
 40
18.000000000000011
 50
63.027673432099142
 51
116.9723265672979
  0
LINE
  5
CE54
  8
0
 10
409.42265023949358
 20
99.998421347989961
 30
0.0
 11
405.5773508781935
 21
99.998421347989961
 31
0.0
  0
LINE
  5
CE55
  8
0
 10
405.00000061469348
 20
100.9984215118899
 30
0.0
 11
410.00000050299349
 21
100.9984215118899
 31
0.0
  0
LINE
  5
CE57
  8
0
 10
419.8000001534935
 20
115.33329667088999
 30
0.0
 11
395.20000096419352
 21
115.33329667088999
 31
0.0
  0
LINE
  5
CE58
  8
0
 10
414.75000035019349
 20
121.8332968049899
 30
0.0
 11
400.25000076749347
 21
121.8332968049899
 31
0.0
  0
LINE
  5
CE59
  8
0
 10
415.57073675099349
 20
121.4591780074899
 30
0.0
 11
417.63476457449349
 21
120.76152892348991
 31
0.0
  0
LINE
  5
CE5A
  8
0
 10
415.50102446229351
 20
121.44385588848991
 30
0.0
 11
415.57073675099349
 21
121.4591780074899
 31
0.0
  0
LINE
  5
CE5B
  8
0
 10
417.97689244159352
 20
120.53669461548991
 30
0.0
 11
415.50102446229351
 21
121.44385588848991
 31
0.0
  0
LINE
  5
CE5C
  8
0
 10
418.04714117199359
 20
120.5486025058899
 30
0.0
 11
417.97689244159352
 21
120.53669461548991
 31
0.0
  0
LINE
  5
CE5D
  8
0
 10
416.14666942509348
 20
121.24773332418999
 30
0.0
 11
418.04714117199359
 21
120.5486025058899
 31
0.0
  0
LINE
  5
CE5E
  8
0
 10
418.2085533440935
 20
120.54998272598991
 30
0.0
 11
416.14666942509348
 21
121.24773332418999
 31
0.0
  0
LINE
  5
CE5F
  8
0
 10
418.28041046859352
 20
120.53888694878989
 30
0.0
 11
418.2085533440935
 21
120.54998272598991
 31
0.0
  0
LINE
  5
CE60
  8
0
 10
415.80454155809349
 20
121.44667500199
 30
0.0
 11
418.28041046859352
 21
120.53888694878989
 31
0.0
  0
LINE
  5
CE61
  8
0
 10
415.73429282759349
 20
121.46082086058991
 30
0.0
 11
415.80454155809349
 21
121.44667500199
 31
0.0
  0
LINE
  5
CE62
  8
0
 10
417.63476457449349
 20
120.76152892348991
 30
0.0
 11
415.73429282759349
 21
121.46082086058991
 31
0.0
  0
LINE
  5
CE63
  8
0
 10
413.50000061099348
 20
109.8332967006899
 30
0.0
 11
401.50000050669348
 21
109.8332967006899
 31
0.0
  0
LINE
  5
CE64
  8
0
 10
400.50000034279361
 20
110.83329674818999
 30
0.0
 11
410.8500004559935
 21
110.83329674818999
 31
0.0
  0
LINE
  5
CE82
  8
0
 10
395.65798070289361
 20
120.1619378619899
 30
0.0
 11
419.34202041479352
 21
120.1619378619899
 31
0.0
  0
POLYLINE
  5
CEA1
  8
0
 66
     1
 10
0.0
 20
0.0
 30
0.0
 70
   128
  0
VERTEX
  5
DB8C
  8
0
 10
417.9598855599935
 20
184.93302420241011
 30
0.0
  0
VERTEX
  5
DB8D
  8
0
 10
417.6395580917935
 20
184.63784977791011
 30
0.0
  0
VERTEX
  5
DB8E
  8
0
 10
417.41802603380103
 20
184.54549204398589
 30
0.0
  0
SEQEND
  5
DB8F
  8
0
  0
ARC
  5
CEA2
  8
0
 10
417.10633041039353
 20
185.56659981361011
 30
0.0
 40
1.063002562797984
 50
323.41429641399969
 51
9.5684816314989458
  0
ARC
  5
CEA3
  8
0
 10
417.13572450559349
 20
185.6115035109101
 30
0.0
 40
1.0273087854228611
 50
7.3708942188985347
 51
53.894171485501012
  0
ARC
  5
CEA4
  8
0
 10
416.9932093576935
 20
185.3654782789101
 30
0.0
 40
1.3104007429009761
 50
55.198791560598679
 51
101.2646560476002
  0
ARC
  5
CEA5
  8
0
 10
416.86242580169352
 20
185.34685786941009
 30
0.0
 40
1.309773542511077
 50
95.484858770898768
 51
122.37296839279929
  0
LINE
  5
CEA6
  8
0
 10
408.48302422559351
 20
193.53456012901009
 30
0.0
 11
407.45985818029351
 21
193.5656625777101
 31
0.0
  0
LINE
  5
CEA7
  8
0
 10
408.49321301099349
 20
193.8772244378101
 30
0.0
 11
408.48302422559351
 21
193.53456012901009
 31
0.0
  0
LINE
  5
CEA8
  8
0
 10
407.47004694019353
 20
193.9083268866101
 30
0.0
 11
408.49321301099349
 21
193.8772244378101
 31
0.0
  0
LINE
  5
CEA9
  8
0
 10
407.49203321149349
 20
194.63119246061009
 30
0.0
 11
407.47004694019353
 21
193.9083268866101
 31
0.0
  0
LINE
  5
CEAA
  8
0
 10
408.79941196649349
 20
194.59150973701011
 30
0.0
 11
407.49203321149349
 21
194.63119246061009
 31
0.0
  0
LINE
  5
CEAB
  8
0
 10
408.80960075189341
 20
194.93417404591011
 30
0.0
 11
408.79941196649349
 21
194.59150973701011
 31
0.0
  0
LINE
  5
CEAC
  8
0
 10
407.05659776469349
 20
194.98726315791009
 30
0.0
 11
408.80960075189341
 21
194.93417404591011
 31
0.0
  0
LINE
  5
CEAD
  8
0
 10
406.98098647879351
 20
192.48887207351009
 30
0.0
 11
407.05659776469349
 21
194.98726315791009
 31
0.0
  0
LINE
  5
CEAE
  8
0
 10
407.42661064469348
 20
192.47546568511001
 30
0.0
 11
406.98098647879351
 21
192.48887207351009
 31
0.0
  0
LINE
  5
CEAF
  8
0
 10
407.45985818029351
 20
193.5656625777101
 30
0.0
 11
407.42661064469348
 21
192.47546568511001
 31
0.0
  0
LINE
  5
CEB0
  8
0
 10
410.78284557909348
 20
192.99191758031009
 30
0.0
 11
409.79828953749347
 21
193.2723760604101
 31
0.0
  0
LINE
  5
CEB1
  8
0
 10
410.88044329549348
 20
193.33458095781009
 30
0.0
 11
410.78284557909348
 21
192.99191758031009
 31
0.0
  0
LINE
  5
CEB2
  8
0
 10
409.89588725389342
 20
193.61504036931009
 30
0.0
 11
410.88044329549348
 21
193.33458095781009
 31
0.0
  0
LINE
  5
CEB3
  8
0
 10
410.09054624479347
 20
194.29768677800999
 30
0.0
 11
409.89588725389342
 21
193.61504036931009
 31
0.0
  0
LINE
  5
CEB4
  8
0
 10
411.3485900498934
 20
193.93947217611009
 30
0.0
 11
410.09054624479347
 21
194.29768677800999
 31
0.0
  0
LINE
  5
CEB5
  8
0
 10
411.44618753349351
 20
194.28213555361009
 30
0.0
 11
411.3485900498934
 21
193.93947217611009
 31
0.0
  0
LINE
  5
CEB6
  8
0
 10
409.74251961339348
 20
194.7674430906101
 30
0.0
 11
411.44618753349351
 21
194.28213555361009
 31
0.0
  0
LINE
  5
CEB7
  8
0
 10
409.05719146139347
 20
192.36075002701011
 30
0.0
 11
409.74251961339348
 21
194.7674430906101
 31
0.0
  0
LINE
  5
CEB8
  8
0
 10
409.50281557629347
 20
192.2336589545101
 30
0.0
 11
409.05719146139347
 21
192.36075002701011
 31
0.0
  0
LINE
  5
CEB9
  8
0
 10
409.79828953749347
 20
193.2723760604101
 30
0.0
 11
409.50281557629347
 21
192.2336589545101
 31
0.0
  0
ARC
  5
CEBD
  8
0
 10
404.95026870149348
 20
193.28587842481011
 30
0.0
 40
1.3261038306312201
 50
330.962867435399
 51
16.823016542498902
  0
ARC
  5
CEBE
  8
0
 10
404.91067695039351
 20
193.38032525641009
 30
0.0
 40
1.340542457825165
 50
12.46510203120118
 51
57.723883265101527
  0
ARC
  5
CEBF
  8
0
 10
405.08678887149352
 20
193.59576035541011
 30
0.0
 40
1.0648900384516291
 50
59.545876599000032
 51
105.7940412226008
  0
ARC
  5
CEC0
  8
0
 10
405.04057894779351
 20
193.61578795141011
 30
0.0
 40
1.033777583248535
 50
103.6312154897016
 51
150.04825587260029
  0
ARC
  5
CEC1
  8
0
 10
405.30944673249348
 20
193.50194968641009
 30
0.0
 40
1.324051894874392
 50
151.5890925367988
 51
197.27522183399901
  0
ARC
  5
CEC2
  8
0
 10
405.33956953949348
 20
193.37374447521009
 30
0.0
 40
1.321290469244478
 50
191.56925693949859
 51
237.4170469355995
  0
ARC
  5
CEC3
  8
0
 10
405.16058233259349
 20
193.1443125048101
 30
0.0
 40
1.031940176395663
 50
238.93093852120089
 51
285.39588906390043
  0
ARC
  5
CEC4
  8
0
 10
405.20103913699347
 20
193.17817067501011
 30
0.0
 40
1.0549348725184671
 50
282.78833763629967
 51
329.46647483089998
  0
LINE
  5
CEC5
  8
0
 10
417.10209611890338
 20
182.89797053630389
 30
0.0
 11
417.63476457449349
 21
183.08812051541011
 31
0.0
  0
LINE
  5
CEC6
  8
0
 10
417.97689244159352
 20
181.51905140841009
 30
0.0
 11
416.0090504858008
 21
181.82976352702201
 31
0.0
  0
LINE
  5
CEC7
  8
0
 10
418.04714117199359
 20
181.9646757561101
 30
0.0
 11
417.97689244159352
 21
181.51905140841009
 31
0.0
  0
LINE
  5
CEC8
  8
0
 10
416.5222373287146
 20
182.20520094873791
 30
0.0
 11
418.04714117199359
 21
181.9646757561101
 31
0.0
  0
LINE
  5
CEC9
  8
0
 10
418.2085533440935
 20
182.98891417210999
 30
0.0
 11
416.82990578717278
 21
182.50450511617009
 31
0.0
  0
LINE
  5
CECA
  8
0
 10
418.28041046859352
 20
183.44311838731011
 30
0.0
 11
418.2085533440935
 21
182.98891417210999
 31
0.0
  0
LINE
  5
CECB
  8
0
 10
417.37142214463893
 20
183.58664290222731
 30
0.0
 11
418.28041046859352
 21
183.44311838731011
 31
0.0
  0
LINE
  5
CECC
  8
0
 10
417.63476457449349
 20
183.08812051541011
 30
0.0
 11
417.22808364361629
 21
183.15238173038469
 31
0.0
  0
POLYLINE
  5
CECD
  8
0
 66
     1
 10
0.0
 20
0.0
 30
0.0
 70
   128
  0
VERTEX
  5
DB90
  8
0
 10
415.48738803719351
 20
187.09874884221011
 30
0.0
  0
VERTEX
  5
DB91
  8
0
 10
415.87475210429352
 20
188.54441083961009
 30
0.0
  0
VERTEX
  5
DB92
  8
0
 10
416.25969287009349
 20
189.98103225601011
 30
0.0
  0
SEQEND
  5
DB93
  8
0
  0
LINE
  5
CECE
  8
0
 10
416.25969287009349
 20
189.98103225601011
 30
0.0
 11
415.42543645949348
 21
189.42965576421011
 31
0.0
  0
ARC
  5
CECF
  8
0
 10
407.50000055879349
 20
184.19157769531009
 30
0.0
 40
9.5000000000000036
 50
33.461505911597932
 51
56.538494088399851
  0
LINE
  5
CED0
  8
0
 10
412.73807862779353
 20
192.11701359601011
 30
0.0
 11
413.28945511959353
 21
192.95127000661009
 31
0.0
  0
POLYLINE
  5
CED1
  8
0
 66
     1
 10
0.0
 20
0.0
 30
0.0
 70
   128
  0
VERTEX
  5
DB94
  8
0
 10
413.28945511959353
 20
192.95127000661009
 30
0.0
  0
VERTEX
  5
DB95
  8
0
 10
411.85412591329361
 20
192.5666747614101
 30
0.0
  0
VERTEX
  5
DB96
  8
0
 10
410.40717170579347
 20
192.1789651736101
 30
0.0
  0
SEQEND
  5
DB97
  8
0
  0
ARC
  5
CED2
  8
0
 10
407.50000055879349
 20
184.19157769531009
 30
0.0
 40
8.5
 50
20.000000000000028
 51
70.000000000000838
  0
POLYLINE
  5
CED3
  8
0
 66
     1
 10
0.0
 20
0.0
 30
0.0
 70
   128
  0
VERTEX
  5
DB98
  8
0
 10
417.32542518713637
 20
184.9658236863277
 30
0.0
  0
VERTEX
  5
DB99
  8
0
 10
417.5436849519935
 20
185.07475642251009
 30
0.0
  0
VERTEX
  5
DB9A
  8
0
 10
417.68318030989349
 20
185.21133831231009
 30
0.0
  0
SEQEND
  5
DB9B
  8
0
  0
LINE
  5
CED4
  8
0
 10
416.80104833099341
 20
186.20983683501009
 30
0.0
 11
416.55132113338112
 21
186.1532780476324
 31
0.0
  0
ARC
  5
CED5
  8
0
 10
417.03343933729349
 20
185.19827771501011
 30
0.0
 40
1.037910127649412
 50
59.832727759100962
 51
102.9383685312996
  0
ARC
  5
CED6
  8
0
 10
417.2193060729935
 20
185.5882749218101
 30
0.0
 40
0.6083549233351777
 50
10.05598156489876
 51
56.507149168500163
  0
ARC
  5
CED7
  8
0
 10
417.19471662459353
 20
185.6084348237101
 30
0.0
 40
0.6295096593772103
 50
320.89061694479972
 51
7.8579605903980552
  0
ARC
  5
CED8
  8
0
 10
404.80120696099351
 20
193.39194061511009
 30
0.0
 40
0.9978960255021709
 50
9.5557331802006829
 51
54.71001650369903
  0
ARC
  5
CED9
  8
0
 10
404.78475186119351
 20
193.22858781681009
 30
0.0
 40
1.0532131496768811
 50
335.46826798230143
 51
18.203160843698079
  0
ARC
  5
CEDA
  8
0
 10
405.18545490639349
 20
193.09245463111009
 30
0.0
 40
0.6335876506115625
 50
284.9353488167007
 51
331.61970780809997
  0
ARC
  5
CEDB
  8
0
 10
405.2129843290935
 20
193.06182765511011
 30
0.0
 40
0.5971932446222455
 50
235.74620560330209
 51
283.14037368259989
  0
ARC
  5
CEDC
  8
0
 10
405.45691578419348
 20
193.36868426011
 30
0.0
 40
0.9885481863780155
 50
188.60166615949959
 51
234.07065021440059
  0
ARC
  5
CEDD
  8
0
 10
405.46206445709362
 20
193.5613268341101
 30
0.0
 40
1.0399014509895881
 50
156.0549693310013
 51
199.11280022389781
  0
ARC
  5
CEDE
  8
0
 10
405.06907594919352
 20
193.68613381851009
 30
0.0
 40
0.6317171062435794
 50
107.20581278060151
 51
151.93072167399859
  0
ARC
  5
CEDF
  8
0
 10
405.03459256329347
 20
193.67951521331011
 30
0.0
 40
0.6288083044920549
 50
56.930407756799937
 51
104.0243395506986
  0
CIRCLE
  5
CEE0
  8
0
 10
407.50000055879349
 20
184.19157769531009
 30
0.0
 40
12.50000000000003
  0
LINE
  5
CEFA
  8
0
 10
407.48105220989351
 20
188.49029215050999
 30
0.0
 11
407.49702182299342
 21
188.4903023950101
 31
0.0
  0
LINE
  5
CEFC
  8
0
 10
352.19326725233901
 20
112.8332967267899
 30
0.0
 11
352.19326725233901
 21
110.83329674818999
 31
0.0
  0
LINE
  5
CEFD
  8
0
 10
355.99326685073902
 20
110.83329674818999
 30
0.0
 11
355.99326685073902
 21
112.8332967267899
 31
0.0
  0
LINE
  5
CEFE
  8
0
 10
355.09326744823898
 20
112.8332967267899
 30
0.0
 11
355.09326744823898
 21
115.33329667088999
 31
0.0
  0
LINE
  5
CEFF
  8
0
 10
353.09326712043901
 20
115.33329667088999
 30
0.0
 11
353.09326712043901
 21
112.8332967267899
 31
0.0
  0
LINE
  5
CF00
  8
0
 10
334.00673389433899
 20
112.8332967267899
 30
0.0
 11
334.00673389433899
 21
110.83329674818999
 31
0.0
  0
LINE
  5
CF01
  8
0
 10
337.806733492739
 20
110.83329674818999
 30
0.0
 11
337.806733492739
 21
112.8332967267899
 31
0.0
  0
LINE
  5
CF02
  8
0
 10
336.906733624639
 20
112.8332967267899
 30
0.0
 11
336.906733624639
 21
115.33329667088999
 31
0.0
  0
LINE
  5
CF03
  8
0
 10
334.90673329683898
 20
115.33329667088999
 30
0.0
 11
334.90673329683898
 21
112.8332967267899
 31
0.0
  0
LINE
  5
CF04
  8
0
 10
343.100000340539
 20
112.8332967267899
 30
0.0
 11
343.100000340539
 21
110.83329674818999
 31
0.0
  0
LINE
  5
CF05
  8
0
 10
346.900000404639
 20
110.83329674818999
 30
0.0
 11
346.900000404639
 21
112.8332967267899
 31
0.0
  0
LINE
  5
CF06
  8
0
 10
346.00000042003899
 20
112.8332967267899
 30
0.0
 11
346.00000042003899
 21
115.33329667088999
 31
0.0
  0
LINE
  5
CF07
  8
0
 10
344.00000032503903
 20
115.33329667088999
 30
0.0
 11
344.00000032503903
 21
112.8332967267899
 31
0.0
  0
LINE
  5
CF08
  8
0
 10
343.65000033753898
 20
99.998421347989961
 30
0.0
 11
343.700000369039
 21
99.94842143298996
 31
0.0
  0
LINE
  5
CF09
  8
0
 10
346.300000376139
 20
99.94842143298996
 30
0.0
 11
346.35000040753903
 21
99.998421347989961
 31
0.0
  0
LINE
  5
CF0A
  8
0
 10
341.20000030843897
 20
105.44842186878989
 30
0.0
 11
341.000000182539
 21
105.2484217428899
 31
0.0
  0
LINE
  5
CF0B
  8
0
 10
341.000000182539
 20
103.1484215849899
 30
0.0
 11
341.20000030843897
 21
102.9484219246899
 31
0.0
  0
LINE
  5
CF0C
  8
0
 10
341.20000030843897
 20
102.9484219246899
 30
0.0
 11
342.50000042843902
 21
102.9484219246899
 31
0.0
  0
LINE
  5
CF0D
  8
0
 10
347.50000031663899
 20
102.9484219246899
 30
0.0
 11
348.80000043663898
 21
102.9484219246899
 31
0.0
  0
LINE
  5
CF0E
  8
0
 10
348.80000043663898
 20
105.44842186878989
 30
0.0
 11
347.50000031663899
 21
105.44842186878989
 31
0.0
  0
LINE
  5
CF0F
  8
0
 10
342.50000042843902
 20
105.44842186878989
 30
0.0
 11
341.20000030843897
 21
105.44842186878989
 31
0.0
  0
LINE
  5
CF10
  8
0
 10
348.80000043663898
 20
102.9484219246899
 30
0.0
 11
349.00000056253901
 21
103.1484215849899
 31
0.0
  0
LINE
  5
CF11
  8
0
 10
349.00000056253901
 20
105.2484217428899
 30
0.0
 11
348.80000043663898
 21
105.44842186878989
 31
0.0
  0
LINE
  5
CF14
  8
0
 10
340.70130873473897
 20
131.9803524159899
 30
0.0
 11
340.70127846673898
 21
131.97978058398991
 31
0.0
  0
LINE
  5
CF18
  8
0
 10
350.5000003427391
 20
121.8332968049899
 30
0.0
 11
350.50000034273899
 21
123.8984217264899
 31
0.0
  0
LINE
  5
CF19
  8
0
 10
339.50000040233903
 20
123.8984217264899
 30
0.0
 11
339.50000040233903
 21
121.8332968049899
 31
0.0
  0
LINE
  5
CF1C
  8
0
 10
347.50000031663899
 20
105.44842186878989
 30
0.0
 11
347.50000031663899
 21
109.8332967006899
 31
0.0
  0
LINE
  5
CF1D
  8
0
 10
347.50000031663899
 20
100.9984215118899
 30
0.0
 11
347.50000031663899
 21
102.9484219246899
 31
0.0
  0
LINE
  5
CF1E
  8
0
 10
342.50000042843902
 20
102.9484219246899
 30
0.0
 11
342.50000042843902
 21
100.9984215118899
 31
0.0
  0
LINE
  5
CF1F
  8
0
 10
342.50000042843902
 20
109.8332967006899
 30
0.0
 11
342.50000042843902
 21
105.44842186878989
 31
0.0
  0
LINE
  5
CF20
  8
0
 10
342.50000042843902
 20
100.9984215118899
 30
0.0
 11
343.07735069193899
 21
99.998421347989961
 31
0.0
  0
LINE
  5
CF21
  8
0
 10
346.92265005323901
 20
99.998421347989961
 30
0.0
 11
347.50000031663899
 21
100.9984215118899
 31
0.0
  0
ARC
  5
CF22
  8
0
 10
333.50000037253898
 20
119.2222454325899
 30
0.0
 40
1.0000000000000231
 50
109.9999999999992
 51
180.0
  0
ARC
  5
CF23
  8
0
 10
356.50000037253898
 20
119.2222454325899
 30
0.0
 40
1.0000000000000231
 50
0.0
 51
70.000000000000838
  0
LINE
  5
CF24
  8
0
 10
357.50000055883902
 20
115.5332967967899
 30
0.0
 11
357.50000055883902
 21
119.2222454913899
 31
0.0
  0
LINE
  5
CF25
  8
0
 10
332.50000018633898
 20
119.2222454913899
 30
0.0
 11
332.50000018633898
 21
115.5332967967899
 31
0.0
  0
LINE
  5
CF26
  8
0
 10
332.50000018633898
 20
115.5332967967899
 30
0.0
 11
332.70000077783902
 21
115.33329667088999
 31
0.0
  0
LINE
  5
CF27
  8
0
 10
357.29999996723899
 20
115.33329667088999
 30
0.0
 11
357.50000055883902
 21
115.5332967967899
 31
0.0
  0
LINE
  5
CF28
  8
0
 10
356.8420202285389
 20
120.1619378619899
 30
0.0
 11
352.25000016393898
 21
121.8332968049899
 31
0.0
  0
LINE
  5
CF2B
  8
0
 10
337.75000058113898
 20
121.8332968049899
 30
0.0
 11
333.157980516539
 21
120.1619378619899
 31
0.0
  0
LINE
  5
CF2C
  8
0
 10
338.00000015643889
 20
110.83329674818999
 30
0.0
 11
339.00000032043903
 21
109.8332967006899
 31
0.0
  0
LINE
  5
CF2D
  8
0
 10
351.00000042473903
 20
109.8332967006899
 30
0.0
 11
352.00000058863901
 21
110.83329674818999
 31
0.0
  0
LINE
  5
CF2E
  8
0
 10
352.00000058863901
 20
110.83329674818999
 30
0.0
 11
352.00000058863901
 21
115.33329667088999
 31
0.0
  0
LINE
  5
CF2F
  8
0
 10
338.00000015643889
 20
115.33329667088999
 30
0.0
 11
338.00000015643889
 21
110.83329674818999
 31
0.0
  0
LINE
  5
CF32
  8
0
 10
355.04326753323897
 20
112.8332967267899
 30
0.0
 11
355.99326685073902
 21
112.8332967267899
 31
0.0
  0
LINE
  5
CF33
  8
0
 10
352.19326725233901
 20
112.8332967267899
 30
0.0
 11
355.04326753323897
 21
112.8332967267899
 31
0.0
  0
LINE
  5
CF34
  8
0
 10
355.04326753323897
 20
110.83329674818999
 30
0.0
 11
355.99326685073902
 21
110.83329674818999
 31
0.0
  0
LINE
  5
CF35
  8
0
 10
352.19326725233901
 20
110.83329674818999
 30
0.0
 11
355.04326753323897
 21
110.83329674818999
 31
0.0
  0
LINE
  5
CF36
  8
0
 10
334.00673389433899
 20
110.83329674818999
 30
0.0
 11
337.806733492739
 21
110.83329674818999
 31
0.0
  0
LINE
  5
CF37
  8
0
 10
334.00673389433899
 20
112.8332967267899
 30
0.0
 11
337.806733492739
 21
112.8332967267899
 31
0.0
  0
LINE
  5
CF38
  8
0
 10
343.100000340539
 20
112.8332967267899
 30
0.0
 11
346.900000404639
 21
112.8332967267899
 31
0.0
  0
LINE
  5
CF39
  8
0
 10
343.100000340539
 20
110.83329674818999
 30
0.0
 11
346.900000404639
 21
110.83329674818999
 31
0.0
  0
LINE
  5
CF3A
  8
0
 10
346.300000376139
 20
99.94842143298996
 30
0.0
 11
343.700000369039
 21
99.94842143298996
 31
0.0
  0
LINE
  5
CF3B
  8
0
 10
341.20000030843897
 20
105.44842186878989
 30
0.0
 11
341.20000030843897
 21
102.9484219246899
 31
0.0
  0
LINE
  5
CF3C
  8
0
 10
341.000000182539
 20
103.1484215849899
 30
0.0
 11
341.000000182539
 21
105.2484217428899
 31
0.0
  0
LINE
  5
CF3D
  8
0
 10
348.80000043663898
 20
102.9484219246899
 30
0.0
 11
348.80000043663898
 21
105.44842186878989
 31
0.0
  0
LINE
  5
CF3E
  8
0
 10
349.00000056253901
 20
105.2484217428899
 30
0.0
 11
349.00000056253901
 21
103.1484215849899
 31
0.0
  0
POLYLINE
  5
CF3F
  8
0
 66
     1
 10
0.0
 20
0.0
 30
0.0
 70
   128
  0
VERTEX
  5
DB9C
  8
0
 10
349.23729224133899
 20
123.8984217264899
 30
0.0
  0
VERTEX
  5
DB9D
  8
0
 10
349.23168847343891
 20
123.85439531439
 30
0.0
  0
VERTEX
  5
DB9E
  8
0
 10
349.21342104673897
 20
123.8054366179899
 30
0.0
  0
VERTEX
  5
DB9F
  8
0
 10
349.18254816903902
 20
123.75889842898989
 30
0.0
  0
VERTEX
  5
DBA0
  8
0
 10
349.09910026943902
 20
123.68460310188991
 30
0.0
  0
VERTEX
  5
DBA1
  8
0
 10
348.823178261539
 20
123.57058127909001
 30
0.0
  0
VERTEX
  5
DBA2
  8
0
 10
348.50589575243902
 20
123.5126520835899
 30
0.0
  0
VERTEX
  5
DBA3
  8
0
 10
348.17505598073899
 20
123.4402529292899
 30
0.0
  0
VERTEX
  5
DBA4
  8
0
 10
347.820002986139
 20
123.39842164459
 30
0.0
  0
SEQEND
  5
DBA5
  8
0
  0
LINE
  5
CF40
  8
0
 10
347.820002986139
 20
123.39842164459
 30
0.0
 11
342.189588053139
 21
123.39842164459
 31
0.0
  0
POLYLINE
  5
CF41
  8
0
 66
     1
 10
0.0
 20
0.0
 30
0.0
 70
   128
  0
VERTEX
  5
DBA6
  8
0
 10
342.189588053139
 20
123.39842164459
 30
0.0
  0
VERTEX
  5
DBA7
  8
0
 10
341.86840237123897
 20
123.43694580288989
 30
0.0
  0
VERTEX
  5
DBA8
  8
0
 10
341.565376780939
 20
123.5141859718899
 30
0.0
  0
VERTEX
  5
DBA9
  8
0
 10
341.28739561883901
 20
123.57349445609
 30
0.0
  0
VERTEX
  5
DBAA
  8
0
 10
341.02855639533902
 20
123.64964404638999
 30
0.0
  0
VERTEX
  5
DBAB
  8
0
 10
340.92533605173901
 20
123.7068356343899
 30
0.0
  0
VERTEX
  5
DBAC
  8
0
 10
340.83526877693902
 20
123.79715157238989
 30
0.0
  0
VERTEX
  5
DBAD
  8
0
 10
340.81281971193903
 20
123.8442839452899
 30
0.0
  0
VERTEX
  5
DBAE
  8
0
 10
340.80228086563909
 20
123.8984217264899
 30
0.0
  0
SEQEND
  5
DBAF
  8
0
  0
LINE
  5
CF45
  8
0
 10
340.70128591733902
 20
131.9798159741899
 30
0.0
 11
340.70127567283902
 21
131.97982528748989
 31
0.0
  0
LINE
  5
CF4B
  8
0
 10
342.59385772053901
 20
133.87232118778991
 30
0.0
 11
342.59386703373889
 21
133.87231187458991
 31
0.0
  0
LINE
  5
CF4D
  8
0
 10
350.50000034273899
 20
122.49842131078999
 30
0.0
 11
339.50000040233903
 21
122.49842131078999
 31
0.0
  0
LINE
  5
CF4E
  8
0
 10
350.50000034273899
 20
123.8984217264899
 30
0.0
 11
349.23729224133899
 21
123.8984217264899
 31
0.0
  0
LINE
  5
CF4F
  8
0
 10
340.80228086563909
 20
123.8984217264899
 30
0.0
 11
339.50000040233903
 21
123.8984217264899
 31
0.0
  0
ARC
  5
CF50
  8
0
 10
342.69853456190879
 20
131.87506779324471
 30
0.0
 40
1.9999989641249201
 50
92.878386646459987
 51
176.98242134950769
  0
LINE
  5
CF53
  8
0
 10
342.50000042843902
 20
100.9984215118899
 30
0.0
 11
347.50000031663899
 21
100.9984215118899
 31
0.0
  0
LINE
  5
CF54
  8
0
 10
346.92265005323901
 20
99.998421347989961
 30
0.0
 11
343.07735069193899
 21
99.998421347989961
 31
0.0
  0
LINE
  5
CF57
  8
0
 10
357.29999996723899
 20
115.33329667088999
 30
0.0
 11
332.70000077783902
 21
115.33329667088999
 31
0.0
  0
LINE
  5
CF5F
  8
0
 10
352.25000016393898
 20
121.8332968049899
 30
0.0
 11
337.75000058113898
 21
121.8332968049899
 31
0.0
  0
ARC
  5
CF60
  8
0
 10
345.081862749739
 20
95.634828642189973
 30
0.0
 40
27.098492727867342
 50
108.3529688198993
 51
110.65779255039909
  0
ARC
  5
CF61
  8
0
 10
340.59643239683902
 20
107.06608671108989
 30
0.0
 40
14.8207316729267
 50
110.0227937883012
 51
113.53724762499949
  0
POLYLINE
  5
CF62
  8
0
 66
     1
 10
0.0
 20
0.0
 30
0.0
 70
   128
  0
VERTEX
  5
DBB0
  8
0
 10
334.571131207039
 20
120.55085630649
 30
0.0
  0
VERTEX
  5
DBB1
  8
0
 10
334.53481614593898
 20
120.5566929050899
 30
0.0
  0
VERTEX
  5
DBB2
  8
0
 10
334.561943709839
 20
120.59300144699
 30
0.0
  0
VERTEX
  5
DBB3
  8
0
 10
334.67784494163902
 20
120.65374323668991
 30
0.0
  0
SEQEND
  5
DBB4
  8
0
  0
ARC
  5
CF63
  8
0
 10
334.28057377103897
 20
123.1461572339899
 30
0.0
 40
2.6115149870479581
 50
276.38796028779802
 51
287.35706217869949
  0
ARC
  5
CF64
  8
0
 10
331.66340050873902
 20
132.6572451991899
 30
0.0
 40
12.474895276596939
 50
285.79803084189979
 51
290.74841512050108
  0
ARC
  5
CF65
  8
0
 10
333.731472976639
 20
127.6529781202899
 30
0.0
 40
7.0643712238939651
 50
289.44161373719851
 51
296.93210798109931
  0
POLYLINE
  5
CF66
  8
0
 66
     1
 10
0.0
 20
0.0
 30
0.0
 70
   128
  0
VERTEX
  5
DBB5
  8
0
 10
337.042174004039
 20
121.47969876908989
 30
0.0
  0
VERTEX
  5
DBB6
  8
0
 10
337.07674749193899
 20
121.4719762423899
 30
0.0
  0
VERTEX
  5
DBB7
  8
0
 10
337.048306763239
 20
121.42807462749001
 30
0.0
  0
VERTEX
  5
DBB8
  8
0
 10
336.93116966633897
 20
121.35478140348989
 30
0.0
  0
SEQEND
  5
DBB9
  8
0
  0
ARC
  5
CF67
  8
0
 10
337.37439827543898
 20
119.13144717869
 30
0.0
 40
2.3716362491951579
 50
98.052608884598456
 51
110.357556364801
  0
LINE
  5
CF68
  8
0
 10
351.00000042473903
 20
109.8332967006899
 30
0.0
 11
339.00000032043903
 21
109.8332967006899
 31
0.0
  0
LINE
  5
CF69
  8
0
 10
338.00000015643889
 20
110.83329674818999
 30
0.0
 11
343.100000340539
 21
110.83329674818999
 31
0.0
  0
LINE
  5
CF6A
  8
0
 10
346.900000404639
 20
110.83329674818999
 30
0.0
 11
352.00000058863901
 21
110.83329674818999
 31
0.0
  0
ARC
  5
CF75
  8
0
 10
338.81540660253899
 20
112.1421565562899
 30
0.0
 40
9.4179335217610891
 50
109.7432104673005
 51
113.99781398539911
  0
ARC
  5
CF76
  8
0
 10
341.78376101963897
 20
104.83000859198989
 30
0.0
 40
17.305999184679941
 50
108.1240825996009
 51
110.8152309381006
  0
ARC
  5
CF77
  8
0
 10
336.90069864553891
 20
119.9395775693899
 30
0.0
 40
1.4283244400324691
 50
97.619703130700714
 51
110.5088885451005
  0
POLYLINE
  5
CF78
  8
0
 66
     1
 10
0.0
 20
0.0
 30
0.0
 70
   128
  0
VERTEX
  5
DBBA
  8
0
 10
336.62336196753898
 20
121.27723948598999
 30
0.0
  0
VERTEX
  5
DBBB
  8
0
 10
336.71492028983897
 20
121.3327742510899
 30
0.0
  0
VERTEX
  5
DBBC
  8
0
 10
336.72816555953909
 20
121.34922047639
 30
0.0
  0
VERTEX
  5
DBBD
  8
0
 10
336.711306758239
 20
121.35528990569
 30
0.0
  0
SEQEND
  5
DBBE
  8
0
  0
ARC
  5
CF79
  8
0
 10
333.89072030243898
 20
126.9465249832899
 30
0.0
 40
6.2934989092023601
 50
289.29935228280033
 51
295.73444441629908
  0
ARC
  5
CF7A
  8
0
 10
332.04171410703901
 20
131.24901936358989
 30
0.0
 40
10.97007615063572
 50
286.77698839230021
 51
290.98717415620098
  0
ARC
  5
CF7B
  8
0
 10
334.61588750073901
 20
122.6137410726899
 30
0.0
 40
1.9595252328547681
 50
278.39576278220119
 51
287.59410717409759
  0
POLYLINE
  5
CF7C
  8
0
 66
     1
 10
0.0
 20
0.0
 30
0.0
 70
   128
  0
VERTEX
  5
DBBF
  8
0
 10
334.98511619863899
 20
120.7460130893899
 30
0.0
  0
VERTEX
  5
DBC0
  8
0
 10
334.89283237613898
 20
120.69432282388991
 30
0.0
  0
VERTEX
  5
DBC1
  8
0
 10
334.88291565333901
 20
120.68020956159
 30
0.0
  0
VERTEX
  5
DBC2
  8
0
 10
334.90199752153899
 20
120.67521580989001
 30
0.0
  0
SEQEND
  5
DBC3
  8
0
  0
LINE
  5
CF9C
  8
0
 10
333.157980516539
 20
120.1619378619899
 30
0.0
 11
356.8420202285389
 21
120.1619378619899
 31
0.0
  0
LINE
  5
CF9D
  8
0
 10
459.00673426684779
 20
113.02408959211439
 30
0.0
 11
459.00673426684779
 21
111.02408961351441
 31
0.0
  0
LINE
  5
CF9E
  8
0
 10
462.80673386524791
 20
111.02408961351441
 30
0.0
 11
462.80673386524791
 21
113.02408959211439
 31
0.0
  0
LINE
  5
CF9F
  8
0
 10
461.9067339971478
 20
113.02408959211439
 30
0.0
 11
461.9067339971478
 21
115.5240895362144
 31
0.0
  0
LINE
  5
CFA0
  8
0
 10
459.9067336692479
 20
115.5240895362144
 30
0.0
 11
459.9067336692479
 21
113.02408959211439
 31
0.0
  0
LINE
  5
CFA1
  8
0
 10
477.19326762474782
 20
113.02408959211439
 30
0.0
 11
477.19326762474782
 21
111.02408961351441
 31
0.0
  0
LINE
  5
CFA2
  8
0
 10
480.99326722314788
 20
111.02408961351441
 30
0.0
 11
480.99326722314788
 21
113.02408959211439
 31
0.0
  0
LINE
  5
CFA3
  8
0
 10
480.09326782074788
 20
113.02408959211439
 30
0.0
 11
480.09326782074788
 21
115.5240895362144
 31
0.0
  0
LINE
  5
CFA4
  8
0
 10
478.0932674929478
 20
115.5240895362144
 30
0.0
 11
478.0932674929478
 21
113.02408959211439
 31
0.0
  0
LINE
  5
CFA5
  8
0
 10
468.65000070994779
 20
100.1892142133144
 30
0.0
 11
468.70000074144792
 21
100.1392142983144
 31
0.0
  0
LINE
  5
CFA6
  8
0
 10
471.3000007485478
 20
100.1392142983144
 30
0.0
 11
471.35000078004788
 21
100.1892142133144
 31
0.0
  0
LINE
  5
CFA7
  8
0
 10
473.80000080904779
 20
103.13921479001441
 30
0.0
 11
474.00000093504781
 21
103.3392144503144
 31
0.0
  0
LINE
  5
CFA8
  8
0
 10
474.00000093504781
 20
105.4392146082144
 30
0.0
 11
473.80000080904779
 21
105.6392147341144
 31
0.0
  0
LINE
  5
CFA9
  8
0
 10
473.80000080904779
 20
105.6392147341144
 30
0.0
 11
472.5000006891479
 21
105.6392147341144
 31
0.0
  0
LINE
  5
CFAA
  8
0
 10
467.50000080084789
 20
105.6392147341144
 30
0.0
 11
466.20000068094788
 21
105.6392147341144
 31
0.0
  0
LINE
  5
CFAB
  8
0
 10
466.20000068094788
 20
103.13921479001441
 30
0.0
 11
467.50000080084789
 21
103.13921479001441
 31
0.0
  0
LINE
  5
CFAC
  8
0
 10
472.5000006891479
 20
103.13921479001441
 30
0.0
 11
473.80000080904779
 21
103.13921479001441
 31
0.0
  0
LINE
  5
CFAD
  8
0
 10
466.20000068094788
 20
105.6392147341144
 30
0.0
 11
466.0000005550479
 21
105.4392146082144
 31
0.0
  0
LINE
  5
CFAE
  8
0
 10
466.0000005550479
 20
103.3392144503144
 30
0.0
 11
466.20000068094788
 21
103.13921479001441
 31
0.0
  0
LINE
  5
CFB5
  8
0
 10
475.50000071524778
 20
122.0240896703144
 30
0.0
 11
475.50000071524789
 21
124.0892145918144
 31
0.0
  0
LINE
  5
CFB6
  8
0
 10
464.50000077484782
 20
124.0892145918144
 30
0.0
 11
464.50000077484771
 21
122.0240896703144
 31
0.0
  0
LINE
  5
CFB9
  8
0
 10
467.50000080084789
 20
101.1892143772144
 30
0.0
 11
468.07735106434779
 21
100.1892142133144
 31
0.0
  0
LINE
  5
CFBA
  8
0
 10
471.92265042564787
 20
100.1892142133144
 30
0.0
 11
472.5000006891479
 21
101.1892143772144
 31
0.0
  0
LINE
  5
CFBB
  8
0
 10
472.5000006891479
 20
105.6392147341144
 30
0.0
 11
472.5000006891479
 21
110.0240895660144
 31
0.0
  0
LINE
  5
CFBC
  8
0
 10
472.5000006891479
 20
101.1892143772144
 30
0.0
 11
472.5000006891479
 21
103.13921479001441
 31
0.0
  0
LINE
  5
CFBD
  8
0
 10
467.50000080084789
 20
103.13921479001441
 30
0.0
 11
467.50000080084789
 21
101.1892143772144
 31
0.0
  0
LINE
  5
CFBE
  8
0
 10
467.50000080084789
 20
110.0240895660144
 30
0.0
 11
467.50000080084789
 21
105.6392147341144
 31
0.0
  0
ARC
  5
CFBF
  8
0
 10
458.50000074504788
 20
119.4130382979144
 30
0.0
 40
1.0000000000000031
 50
109.9999999999992
 51
180.0
  0
ARC
  5
CFC0
  8
0
 10
481.50000074504783
 20
119.4130382979144
 30
0.0
 40
1.0000000000000031
 50
0.0
 51
70.000000000000838
  0
LINE
  5
CFC1
  8
0
 10
482.50000093124783
 20
115.72408966211439
 30
0.0
 11
482.50000093124783
 21
119.4130383567144
 31
0.0
  0
LINE
  5
CFC2
  8
0
 10
457.5000005587479
 20
119.4130383567144
 30
0.0
 11
457.5000005587479
 21
115.72408966211439
 31
0.0
  0
LINE
  5
CFC3
  8
0
 10
457.5000005587479
 20
115.72408966211439
 30
0.0
 11
457.70000115034787
 21
115.5240895362144
 31
0.0
  0
LINE
  5
CFC4
  8
0
 10
482.3000003397479
 20
115.5240895362144
 30
0.0
 11
482.50000093124783
 21
115.72408966211439
 31
0.0
  0
LINE
  5
CFC5
  8
0
 10
481.8420208883735
 20
120.3527309187003
 30
0.0
 11
477.2500005363479
 21
122.0240896703144
 31
0.0
  0
LINE
  5
CFC8
  8
0
 10
462.75000095364783
 20
122.0240896703144
 30
0.0
 11
458.15798088904791
 21
120.35273072731439
 31
0.0
  0
LINE
  5
CFCB
  8
0
 10
463.00000052894779
 20
111.02408961351441
 30
0.0
 11
464.00000069284778
 21
110.0240895660144
 31
0.0
  0
LINE
  5
CFCC
  8
0
 10
476.00000079714789
 20
110.0240895660144
 30
0.0
 11
477.00000096104787
 21
111.02408961351441
 31
0.0
  0
LINE
  5
CFCD
  8
0
 10
477.00000096104787
 20
111.02408961351441
 30
0.0
 11
477.00000096104787
 21
115.5240895362144
 31
0.0
  0
LINE
  5
CFCE
  8
0
 10
463.00000052894779
 20
115.5240895362144
 30
0.0
 11
463.00000052894779
 21
111.02408961351441
 31
0.0
  0
LINE
  5
CFD1
  8
0
 10
459.00673426684779
 20
113.02408959211439
 30
0.0
 11
462.80673386524791
 21
113.02408959211439
 31
0.0
  0
LINE
  5
CFD2
  8
0
 10
459.00673426684779
 20
111.02408961351441
 30
0.0
 11
462.80673386524791
 21
111.02408961351441
 31
0.0
  0
LINE
  5
CFD4
  8
0
 10
477.19326762474782
 20
113.02408959211439
 30
0.0
 11
480.99326722314788
 21
113.02408959211439
 31
0.0
  0
LINE
  5
CFD5
  8
0
 10
477.19326762474782
 20
111.02408961351441
 30
0.0
 11
480.99326722314788
 21
111.02408961351441
 31
0.0
  0
LINE
  5
CFD7
  8
0
 10
471.3000007485478
 20
100.1392142983144
 30
0.0
 11
468.70000074144792
 21
100.1392142983144
 31
0.0
  0
LINE
  5
CFD8
  8
0
 10
473.80000080904779
 20
103.13921479001441
 30
0.0
 11
473.80000080904779
 21
105.6392147341144
 31
0.0
  0
LINE
  5
CFD9
  8
0
 10
474.00000093504781
 20
105.4392146082144
 30
0.0
 11
474.00000093504781
 21
103.3392144503144
 31
0.0
  0
LINE
  5
CFDA
  8
0
 10
466.20000068094788
 20
105.6392147341144
 30
0.0
 11
466.20000068094788
 21
103.13921479001441
 31
0.0
  0
LINE
  5
CFDB
  8
0
 10
466.0000005550479
 20
103.3392144503144
 30
0.0
 11
466.0000005550479
 21
105.4392146082144
 31
0.0
  0
POLYLINE
  5
CFDC
  8
0
 66
     1
 10
0.0
 20
0.0
 30
0.0
 70
   128
  0
VERTEX
  5
DBC4
  8
0
 10
474.23729261374791
 20
124.0892145918144
 30
0.0
  0
VERTEX
  5
DBC5
  8
0
 10
474.23168884584783
 20
124.0451881797144
 30
0.0
  0
VERTEX
  5
DBC6
  8
0
 10
474.21342141924788
 20
123.99622948331439
 30
0.0
  0
VERTEX
  5
DBC7
  8
0
 10
474.18254854154782
 20
123.94969129431441
 30
0.0
  0
VERTEX
  5
DBC8
  8
0
 10
474.09910064184788
 20
123.8753959672144
 30
0.0
  0
VERTEX
  5
DBC9
  8
0
 10
473.82317863404779
 20
123.7613741444144
 30
0.0
  0
VERTEX
  5
DBCA
  8
0
 10
473.50589612494792
 20
123.7034449489144
 30
0.0
  0
VERTEX
  5
DBCB
  8
0
 10
473.17505635314791
 20
123.63104579461439
 30
0.0
  0
VERTEX
  5
DBCC
  8
0
 10
472.8200033586478
 20
123.5892145099144
 30
0.0
  0
SEQEND
  5
DBCD
  8
0
  0
LINE
  5
CFDD
  8
0
 10
472.8200033586478
 20
123.5892145099144
 30
0.0
 11
467.1895884256478
 21
123.5892145099144
 31
0.0
  0
POLYLINE
  5
CFDE
  8
0
 66
     1
 10
0.0
 20
0.0
 30
0.0
 70
   128
  0
VERTEX
  5
DBCE
  8
0
 10
467.1895884256478
 20
123.5892145099144
 30
0.0
  0
VERTEX
  5
DBCF
  8
0
 10
466.86840274364778
 20
123.62773866821441
 30
0.0
  0
VERTEX
  5
DBD0
  8
0
 10
466.5653771534478
 20
123.7049788372144
 30
0.0
  0
VERTEX
  5
DBD1
  8
0
 10
466.28739599134792
 20
123.7642873214144
 30
0.0
  0
VERTEX
  5
DBD2
  8
0
 10
466.02855676784782
 20
123.84043691171441
 30
0.0
  0
VERTEX
  5
DBD3
  8
0
 10
465.9253364242478
 20
123.8976284997144
 30
0.0
  0
VERTEX
  5
DBD4
  8
0
 10
465.83526914934788
 20
123.9879444377144
 30
0.0
  0
VERTEX
  5
DBD5
  8
0
 10
465.81282008434789
 20
124.0350768106144
 30
0.0
  0
VERTEX
  5
DBD6
  8
0
 10
465.8022812380479
 20
124.0892145918144
 30
0.0
  0
SEQEND
  5
DBD7
  8
0
  0
LINE
  5
CFE8
  8
0
 10
465.8022812380479
 20
124.0892145918144
 30
0.0
 11
464.50000077484782
 21
124.0892145918144
 31
0.0
  0
LINE
  5
CFE9
  8
0
 10
475.50000071524789
 20
124.0892145918144
 30
0.0
 11
474.23729261374791
 21
124.0892145918144
 31
0.0
  0
LINE
  5
CFEA
  8
0
 10
475.50000071524789
 20
122.6892141761144
 30
0.0
 11
464.50000077484782
 21
122.6892141761144
 31
0.0
  0
LINE
  5
CFED
  8
0
 10
471.92265042564787
 20
100.1892142133144
 30
0.0
 11
468.07735106434779
 21
100.1892142133144
 31
0.0
  0
LINE
  5
CFEE
  8
0
 10
467.50000080084789
 20
101.1892143772144
 30
0.0
 11
472.5000006891479
 21
101.1892143772144
 31
0.0
  0
ARC
  5
CFF0
  8
0
 10
465.19462600647029
 20
104.3892147620643
 30
0.0
 40
2.6224516911996858
 50
331.53295606099772
 51
28.467043939003052
  0
ARC
  5
CFF2
  8
0
 10
474.80276381575482
 20
104.3892147620644
 30
0.0
 40
2.6201560921795131
 50
151.5057343185664
 51
208.49426568143369
  0
LINE
  5
CFF5
  8
0
 10
482.3000003397479
 20
115.5240895362144
 30
0.0
 11
457.70000115034787
 21
115.5240895362144
 31
0.0
  0
POLYLINE
  5
CFF6
  8
0
 66
     1
 10
0.0
 20
0.0
 30
0.0
 70
   128
  0
VERTEX
  5
DBD8
  8
0
 10
470.24487926854789
 20
121.1827421696144
 30
0.0
  0
VERTEX
  5
DBD9
  8
0
 10
470.22569728314778
 20
121.27338500191441
 30
0.0
  0
VERTEX
  5
DBDA
  8
0
 10
470.24722739464789
 20
121.3653214411144
 30
0.0
  0
VERTEX
  5
DBDB
  8
0
 10
470.32289077634778
 20
121.45786975931441
 30
0.0
  0
VERTEX
  5
DBDC
  8
0
 10
470.4647420020479
 20
121.5452520312144
 30
0.0
  0
SEQEND
  5
DBDD
  8
0
  0
ARC
  5
CFF7
  8
0
 10
470.81818036844783
 20
121.4940991068144
 30
0.0
 40
0.6523935112030768
 50
208.50616194739851
 51
263.24535873510018
  0
ARC
  5
CFF8
  8
0
 10
471.50766031434779
 20
123.65763117141429
 30
0.0
 40
2.913938409991558
 50
254.75496655309931
 51
270.86640046669919
  0
ARC
  5
CFF9
  8
0
 10
471.63262091684783
 20
122.6221802405144
 30
0.0
 40
1.8798958363253391
 50
267.53358377659748
 51
289.16979919559799
  0
POLYLINE
  5
CFFA
  8
0
 66
     1
 10
0.0
 20
0.0
 30
0.0
 70
   128
  0
VERTEX
  5
DBDE
  8
0
 10
472.45905765324778
 20
121.18370236321439
 30
0.0
  0
VERTEX
  5
DBDF
  8
0
 10
472.47854324984792
 20
121.0741266744144
 30
0.0
  0
VERTEX
  5
DBE0
  8
0
 10
472.45356052174787
 20
120.99345365031439
 30
0.0
  0
VERTEX
  5
DBE1
  8
0
 10
472.3811553138479
 20
120.9165562080144
 30
0.0
  0
VERTEX
  5
DBE2
  8
0
 10
472.2499200887479
 20
120.8465254070144
 30
0.0
  0
SEQEND
  5
DBE3
  8
0
  0
ARC
  5
CFFB
  8
0
 10
471.81389213994788
 20
120.8246778469144
 30
0.0
 40
0.7383340321289074
 50
29.09525346139991
 51
77.538311917801835
  0
ARC
  5
CFFC
  8
0
 10
471.20955159914791
 20
119.2652762631144
 30
0.0
 40
2.4048151529850701
 50
71.484819721401124
 51
90.548382436400615
  0
ARC
  5
CFFD
  8
0
 10
471.10886467384779
 20
119.9686212583143
 30
0.0
 40
1.7031320003285331
 50
87.386144100500715
 51
112.2221637455016
  0
LINE
  5
CFFE
  8
0
 10
479.34298317874777
 20
121.2435351820144
 30
0.0
 11
479.37413765852841
 21
121.2509669712352
 31
0.0
  0
LINE
  5
CFFF
  8
0
 10
479.68564748754778
 20
121.1191002415144
 30
0.0
 11
479.34298317874777
 21
121.2435351820144
 31
0.0
  0
LINE
  5
D000
  8
0
 10
479.71677803493043
 20
121.12625607105301
 30
0.0
 11
479.68564748754778
 21
121.1191002415144
 31
0.0
  0
LINE
  5
D001
  8
0
 10
480.39993278674791
 20
120.84817664191441
 30
0.0
 11
480.43961551034789
 21
120.86316348481439
 31
0.0
  0
LINE
  5
D002
  8
0
 10
480.74259709564791
 20
120.72394193571439
 30
0.0
 11
480.39993278674791
 21
120.84817664191441
 31
0.0
  0
LINE
  5
D003
  8
0
 10
480.80254632012088
 20
120.7310687272344
 30
0.0
 11
480.74259709564791
 21
120.72394193571439
 31
0.0
  0
LINE
  5
D006
  8
0
 10
478.8003406300478
 20
121.24420573431441
 30
0.0
 11
479.08079911014789
 21
121.2535189600144
 31
0.0
  0
LINE
  5
D007
  8
0
 10
479.14300400754792
 20
121.1149213971144
 30
0.0
 11
478.8003406300478
 21
121.24420573431441
 31
0.0
  0
LINE
  5
D008
  8
0
 10
479.42346341904789
 20
121.1238937588144
 30
0.0
 11
479.14300400754792
 21
121.1149213971144
 31
0.0
  0
LINE
  5
D009
  8
0
 10
480.1061098277479
 20
120.8656268330144
 30
0.0
 11
479.42346341904789
 21
121.1238937588144
 31
0.0
  0
LINE
  5
D00A
  8
0
 10
479.74789522584791
 20
120.8484187858144
 30
0.0
 11
480.1061098277479
 21
120.8656268330144
 31
0.0
  0
LINE
  5
D00B
  8
0
 10
480.0905586033478
 20
120.7193477215144
 30
0.0
 11
479.74789522584791
 21
120.8484187858144
 31
0.0
  0
LINE
  5
D00C
  8
0
 10
480.5758661403479
 20
120.7279903950144
 30
0.0
 11
480.0905586033478
 21
120.7193477215144
 31
0.0
  0
LINE
  5
D00D
  8
0
 10
478.16917307674788
 20
121.6360019655144
 30
0.0
 11
480.5758661403479
 21
120.7279903950144
 31
0.0
  0
LINE
  5
D00E
  8
0
 10
478.04208200424779
 20
121.6463899375144
 30
0.0
 11
478.16917307674788
 21
121.6360019655144
 31
0.0
  0
LINE
  5
D00F
  8
0
 10
479.08079911014789
 20
121.2535189600144
 30
0.0
 11
478.04208200424779
 21
121.6463899375144
 31
0.0
  0
LINE
  5
D010
  8
0
 10
477.2500005363479
 20
122.0240896703144
 30
0.0
 11
462.75000095364783
 21
122.0240896703144
 31
0.0
  0
LINE
  5
D011
  8
0
 10
468.15973539364791
 20
121.64997087281439
 30
0.0
 11
468.89654356514779
 21
120.9523217888144
 31
0.0
  0
LINE
  5
D012
  8
0
 10
467.71840106694788
 20
121.6346487538144
 30
0.0
 11
468.15973539364791
 21
121.64997087281439
 31
0.0
  0
LINE
  5
D013
  8
0
 10
467.32747445814789
 20
120.7274874808144
 30
0.0
 11
467.71840106694788
 21
121.6346487538144
 31
0.0
  0
LINE
  5
D014
  8
0
 10
467.77309880584778
 20
120.7393953712144
 30
0.0
 11
467.32747445814789
 21
120.7274874808144
 31
0.0
  0
LINE
  5
D015
  8
0
 10
468.07286278804781
 20
121.43852618951441
 30
0.0
 11
467.77309880584778
 21
120.7393953712144
 31
0.0
  0
LINE
  5
D016
  8
0
 10
468.79733722184778
 20
120.7407755913144
 30
0.0
 11
468.07286278804781
 21
121.43852618951441
 31
0.0
  0
LINE
  5
D017
  8
0
 10
469.25154143704788
 20
120.72967981411431
 30
0.0
 11
468.79733722184778
 21
120.7407755913144
 31
0.0
  0
LINE
  5
D018
  8
0
 10
469.64246807494789
 20
121.6374678673144
 30
0.0
 11
469.25154143704788
 21
120.72967981411431
 31
0.0
  0
LINE
  5
D019
  8
0
 10
469.19684387274788
 20
121.6516137259144
 30
0.0
 11
469.64246807494789
 21
121.6374678673144
 31
0.0
  0
LINE
  5
D01A
  8
0
 10
468.89654356514779
 20
120.9523217888144
 30
0.0
 11
469.19684387274788
 21
121.6516137259144
 31
0.0
  0
POLYLINE
  5
D01B
  8
0
 66
     1
 10
0.0
 20
0.0
 30
0.0
 70
   128
  0
VERTEX
  5
DBE4
  8
0
 10
472.90717189194783
 20
121.5691264854144
 30
0.0
  0
VERTEX
  5
DBE5
  8
0
 10
474.35283388934789
 20
121.2275732444144
 30
0.0
  0
VERTEX
  5
DBE6
  8
0
 10
475.78945530574788
 20
120.84118613471441
 30
0.0
  0
SEQEND
  5
DBE7
  8
0
  0
LINE
  5
D01C
  8
0
 10
475.78945530574788
 20
120.84118613471441
 30
0.0
 11
475.23807881394782
 21
121.2051563100144
 31
0.0
  0
LINE
  5
D01D
  8
0
 10
475.23807881394782
 20
121.2051563100144
 30
0.0
 11
477.92543664574782
 21
121.2051563100144
 31
0.0
  0
LINE
  5
D01E
  8
0
 10
477.92543664574782
 20
121.2051563100144
 30
0.0
 11
478.75969305634788
 21
120.84118613471441
 31
0.0
  0
POLYLINE
  5
D01F
  8
0
 66
     1
 10
0.0
 20
0.0
 30
0.0
 70
   128
  0
VERTEX
  5
DBE8
  8
0
 10
478.75969305634788
 20
120.84118613471441
 30
0.0
  0
VERTEX
  5
DBE9
  8
0
 10
478.3750978111479
 20
121.2272444875144
 30
0.0
  0
VERTEX
  5
DBEA
  8
0
 10
477.98738822334781
 20
121.5691264854144
 30
0.0
  0
SEQEND
  5
DBEB
  8
0
  0
LINE
  5
D020
  8
0
 10
477.98738822334781
 20
121.5691264854144
 30
0.0
 11
472.90717189194783
 21
121.5691264854144
 31
0.0
  0
ARC
  5
D031
  8
0
 10
471.12036861254791
 20
121.4117529769144
 30
0.0
 40
0.4843552087456415
 50
206.173291854501
 51
258.01159263580013
  0
POLYLINE
  5
D032
  8
0
 66
     1
 10
0.0
 20
0.0
 30
0.0
 70
   128
  0
VERTEX
  5
DBEC
  8
0
 10
470.8106236229479
 20
121.4682679759144
 30
0.0
  0
VERTEX
  5
DBED
  8
0
 10
470.68741843564783
 20
121.3676991077144
 30
0.0
  0
VERTEX
  5
DBEE
  8
0
 10
470.66683905894791
 20
121.2949991362144
 30
0.0
  0
VERTEX
  5
DBEF
  8
0
 10
470.68567721164789
 20
121.19810992341441
 30
0.0
  0
SEQEND
  5
DBF0
  8
0
  0
ARC
  5
D033
  8
0
 10
471.20743647674777
 20
120.5063702013144
 30
0.0
 40
1.040532445249702
 50
88.493204612800099
 51
112.4176756843985
  0
ARC
  5
D034
  8
0
 10
471.22892020584783
 20
120.11766367471439
 30
0.0
 40
1.4288912581460811
 50
70.966959060498439
 51
89.764318868600114
  0
ARC
  5
D035
  8
0
 10
471.56960845284777
 20
120.9894840335144
 30
0.0
 40
0.4950711536464901
 50
25.009695074798849
 51
75.340193809300501
  0
POLYLINE
  5
D036
  8
0
 66
     1
 10
0.0
 20
0.0
 30
0.0
 70
   128
  0
VERTEX
  5
DBF1
  8
0
 10
471.90403840964791
 20
120.9381098063144
 30
0.0
  0
VERTEX
  5
DBF2
  8
0
 10
472.01767338434792
 20
121.0248373584144
 30
0.0
  0
VERTEX
  5
DBF3
  8
0
 10
472.03860416074792
 20
121.0941380025144
 30
0.0
  0
VERTEX
  5
DBF4
  8
0
 10
472.01825988474781
 20
121.19878606361441
 30
0.0
  0
SEQEND
  5
DBF5
  8
0
  0
ARC
  5
D037
  8
0
 10
471.52236383234782
 20
121.9344774981144
 30
0.0
 40
1.066969568531805
 50
268.9559792190999
 51
290.96013710309887
  0
ARC
  5
D038
  8
0
 10
471.49717276954789
 20
122.5241906681144
 30
0.0
 40
1.656515592661711
 50
253.2496461763007
 51
270.19889066169941
  0
LINE
  5
D049
  8
0
 10
476.00000079714789
 20
110.0240895660144
 30
0.0
 11
464.00000069284778
 21
110.0240895660144
 31
0.0
  0
LINE
  5
D04A
  8
0
 10
463.00000052894779
 20
111.02408961351441
 30
0.0
 11
477.00000096104787
 21
111.02408961351441
 31
0.0
  0
LINE
  5
D067
  8
0
 10
482.50000093124783
 20
119.4130383567144
 30
0.0
 11
457.5000005587479
 21
119.4130383567144
 31
0.0
  0
LINE
  5
D069
  8
0
 10
406.25000058679348
 20
46.199999935899989
 30
0.0
 11
406.45000059629348
 21
45.99999981000002
 31
0.0
  0
LINE
  5
D06A
  8
0
 10
408.55000052139349
 20
45.99999981000002
 30
0.0
 11
408.75000053089349
 21
46.199999935899989
 31
0.0
  0
LINE
  5
D06B
  8
0
 10
408.75000053089349
 20
46.199999935899989
 30
0.0
 11
408.75000053089349
 21
47.834936482800003
 31
0.0
  0
LINE
  5
D06C
  8
0
 10
408.75000053089349
 20
52.165063517100009
 30
0.0
 11
408.75000053089349
 21
53.800000064099997
 31
0.0
  0
LINE
  5
D06D
  8
0
 10
406.25000058679348
 20
53.800000064099997
 30
0.0
 11
406.25000058679348
 21
52.165063517100009
 31
0.0
  0
LINE
  5
D06E
  8
0
 10
406.25000058679348
 20
47.834936482800003
 30
0.0
 11
406.25000058679348
 21
46.199999935899989
 31
0.0
  0
LINE
  5
D06F
  8
0
 10
408.75000053089349
 20
53.800000064099997
 30
0.0
 11
408.55000052139349
 21
54.00000019000003
 31
0.0
  0
LINE
  5
D070
  8
0
 10
406.45000059629348
 20
54.00000019000003
 30
0.0
 11
406.25000058679348
 21
53.800000064099997
 31
0.0
  0
CIRCLE
  5
D071
  8
0
 10
412.75000055879349
 20
59.093266739700027
 30
0.0
 40
1.8999999999999999
  0
LINE
  5
D072
  8
0
 10
412.30399755769349
 20
59.86576639110001
 30
0.0
 11
411.85799416159341
 21
59.093266911800022
 31
0.0
  0
LINE
  5
D073
  8
0
 10
411.85799416159341
 20
59.093266911800022
 30
0.0
 11
412.30399755769349
 21
58.320766501100017
 31
0.0
  0
LINE
  5
D074
  8
0
 10
412.30399755769349
 20
58.320766501100017
 30
0.0
 11
413.19600341849349
 21
58.320766501100017
 31
0.0
  0
LINE
  5
D075
  8
0
 10
413.19600341849349
 20
58.320766501100017
 30
0.0
 11
413.64200681449358
 21
59.093266911800022
 31
0.0
  0
LINE
  5
D076
  8
0
 10
413.64200681449358
 20
59.093266911800022
 30
0.0
 11
413.19600341849349
 21
59.86576639110001
 31
0.0
  0
LINE
  5
D077
  8
0
 10
413.19600341849349
 20
59.86576639110001
 30
0.0
 11
412.30399755769349
 21
59.86576639110001
 31
0.0
  0
LINE
  5
D078
  8
0
 10
413.64200681449358
 20
40.906733088199978
 30
0.0
 11
413.19600341849349
 21
41.679233498800052
 31
0.0
  0
LINE
  5
D079
  8
0
 10
413.19600341849349
 20
41.679233498800052
 30
0.0
 11
412.30399755769349
 21
41.679233498800052
 31
0.0
  0
LINE
  5
D07A
  8
0
 10
412.30399755769349
 20
41.679233498800052
 30
0.0
 11
411.85799416159341
 21
40.906733088199978
 31
0.0
  0
LINE
  5
D07B
  8
0
 10
411.85799416159341
 20
40.906733088199978
 30
0.0
 11
412.30399755769349
 21
40.134233608800002
 31
0.0
  0
LINE
  5
D07C
  8
0
 10
412.30399755769349
 20
40.134233608800002
 30
0.0
 11
413.19600341849349
 21
40.134233608800002
 31
0.0
  0
LINE
  5
D07D
  8
0
 10
413.19600341849349
 20
40.134233608800002
 30
0.0
 11
413.64200681449358
 21
40.906733088199978
 31
0.0
  0
CIRCLE
  5
D07E
  8
0
 10
412.75000055879349
 20
40.906733260199978
 30
0.0
 40
1.8999999999999999
  0
CIRCLE
  5
D07F
  8
0
 10
397.0000005587936
 20
50.0
 30
0.0
 40
1.899999999999991
  0
LINE
  5
D080
  8
0
 10
396.55399776999349
 20
49.22749999680002
 30
0.0
 11
397.44600363079348
 21
49.22749999680002
 31
0.0
  0
LINE
  5
D081
  8
0
 10
397.44600363079348
 20
49.22749999680002
 30
0.0
 11
397.89200656119363
 21
50.0
 31
0.0
  0
LINE
  5
D082
  8
0
 10
397.89200656119363
 20
50.0
 30
0.0
 11
397.44600363079348
 21
50.77250000320003
 31
0.0
  0
LINE
  5
D083
  8
0
 10
397.44600363079348
 20
50.77250000320003
 30
0.0
 11
396.55399776999349
 21
50.77250000320003
 31
0.0
  0
LINE
  5
D084
  8
0
 10
396.55399776999349
 20
50.77250000320003
 30
0.0
 11
396.10799483959352
 21
50.0
 31
0.0
  0
LINE
  5
D085
  8
0
 10
396.10799483959352
 20
50.0
 30
0.0
 11
396.55399776999349
 21
49.22749999680002
 31
0.0
  0
CIRCLE
  5
D086
  8
0
 10
407.50000055879349
 20
50.0
 30
0.0
 40
1.30000000000001
  0
LINE
  5
D087
  8
0
 10
408.36602595409352
 20
50.0
 30
0.0
 11
407.9330132564935
 21
50.750000006500038
 31
0.0
  0
LINE
  5
D088
  8
0
 10
407.9330132564935
 20
50.750000006500038
 30
0.0
 11
407.06698786119352
 21
50.750000006500038
 31
0.0
  0
LINE
  5
D089
  8
0
 10
407.06698786119352
 20
50.750000006500038
 30
0.0
 11
406.6339751635935
 21
50.0
 31
0.0
  0
LINE
  5
D08A
  8
0
 10
406.6339751635935
 20
50.0
 30
0.0
 11
407.06698786119352
 21
49.249999993500012
 31
0.0
  0
LINE
  5
D08B
  8
0
 10
407.06698786119352
 20
49.249999993500012
 30
0.0
 11
407.9330132564935
 21
49.249999993500012
 31
0.0
  0
LINE
  5
D08C
  8
0
 10
407.9330132564935
 20
49.249999993500012
 30
0.0
 11
408.36602595409352
 21
50.0
 31
0.0
  0
LINE
  5
D08D
  8
0
 10
406.25000058679359
 20
46.199999935899989
 30
0.0
 11
408.75000053089349
 21
46.199999935899989
 31
0.0
  0
LINE
  5
D090
  8
0
 10
408.55000052139349
 20
45.99999981000002
 30
0.0
 11
406.45000059629348
 21
45.999999809999963
 31
0.0
  0
LINE
  5
D092
  8
0
 10
408.75000053089349
 20
53.800000064099997
 30
0.0
 11
406.25000058679348
 21
53.800000064099997
 31
0.0
  0
LINE
  5
D093
  8
0
 10
406.45000059629348
 20
54.00000019000003
 30
0.0
 11
408.55000052139349
 21
54.00000019000003
 31
0.0
  0
CIRCLE
  5
D095
  8
0
 10
407.50000055879349
 20
50.0
 30
0.0
 40
1.9226497308103481
  0
CIRCLE
  5
D096
  8
0
 10
407.50000055879349
 20
50.0
 30
0.0
 40
2.5
  0
CIRCLE
  5
D097
  8
0
 10
407.50000055879349
 20
50.0
 30
0.0
 40
1.5499999999999541
  0
CIRCLE
  5
D098
  8
0
 10
407.50000055879349
 20
50.0
 30
0.0
 40
6.0
  0
CIRCLE
  5
D099
  8
0
 10
407.50000055879349
 20
50.0
 30
0.0
 40
7.0
  0
ARC
  5
D09A
  8
0
 10
407.50000055879349
 20
50.0
 30
0.0
 40
4.7500000000000044
 50
197.92021313939989
 51
252.0797868605994
  0
ARC
  5
D09B
  8
0
 10
406.50000055879349
 20
46.907670780799997
 30
0.0
 40
1.500000000000008
 50
252.0797868605994
 51
289.08054033859912
  0
ARC
  5
D09C
  8
0
 10
407.50000055879349
 20
46.25
 30
0.0
 40
0.915000000000008
 50
236.1514505694017
 51
344.14379331729862
  0
LINE
  5
D09D
  8
0
 10
410.4836945235935
 20
49.499999976200002
 30
0.0
 11
409.94949022309351
 21
49.499999976200002
 31
0.0
  0
ARC
  5
D09E
  8
0
 10
411.25000055879349
 20
50.0
 30
0.0
 40
0.9150000000000078
 50
213.1236765092988
 51
33.848549430598688
  0
ARC
  5
D09F
  8
0
 10
410.59232977809347
 20
51.0
 30
0.0
 40
1.500000000000004
 50
340.91945966140042
 51
17.920213139399909
  0
ARC
  5
D0A0
  8
0
 10
407.50000055879349
 20
50.0
 30
0.0
 40
4.7500000000000071
 50
17.920213139399909
 51
72.079786860599455
  0
ARC
  5
D0A1
  8
0
 10
408.50000055879349
 20
53.092329219199989
 30
0.0
 40
1.50000000000001
 50
72.079786860599455
 51
109.08054033859911
  0
ARC
  5
D0A2
  8
0
 10
407.50000055879349
 20
53.75
 30
0.0
 40
0.9150000000000456
 50
56.151450569401689
 51
164.14379331729859
  0
LINE
  5
D0A3
  8
0
 10
404.51630659409352
 20
50.500000023700011
 30
0.0
 11
405.05051089459357
 21
50.500000023700011
 31
0.0
  0
ARC
  5
D0A4
  8
0
 10
403.75000055879349
 20
50.0
 30
0.0
 40
0.9150000000000078
 50
33.123676509298761
 51
213.84854943059869
  0
ARC
  5
D0A5
  8
0
 10
404.40767133959349
 20
49.0
 30
0.0
 40
1.499999999999974
 50
160.9194596614004
 51
197.92021313939989
  0
CIRCLE
  5
D0AA
  8
0
 10
407.50000055879349
 20
50.0
 30
0.0
 40
12.5
  0
LINE
  5
D0AB
  8
0
 10
170.09999983006441
 20
112.4984216900764
 30
0.0
 11
170.09999983006441
 21
110.4984217114764
 31
0.0
  0
LINE
  5
D0AC
  8
0
 10
173.89999989416441
 20
110.4984217114764
 30
0.0
 11
173.89999989416441
 21
112.4984216900764
 31
0.0
  0
LINE
  5
D0AD
  8
0
 10
173.00000049166439
 20
112.4984216900764
 30
0.0
 11
173.00000049166439
 21
114.9984216341764
 31
0.0
  0
LINE
  5
D0AE
  8
0
 10
171.0000001638644
 20
114.9984216341764
 30
0.0
 11
171.0000001638644
 21
112.4984216900764
 31
0.0
  0
LINE
  5
D0AF
  8
0
 10
181.15000015116439
 20
99.998421969376423
 30
0.0
 11
181.20000018266441
 21
99.948422054376422
 31
0.0
  0
LINE
  5
D0B0
  8
0
 10
183.8000001897644
 20
99.948422054376422
 30
0.0
 11
183.85000022126439
 21
99.998421969376423
 31
0.0
  0
LINE
  5
D0B1
  8
0
 10
178.7000001221644
 20
105.4484215588764
 30
0.0
 11
178.49999999626439
 21
105.2484214329764
 31
0.0
  0
LINE
  5
D0B2
  8
0
 10
178.49999999626439
 20
103.1484217406764
 30
0.0
 11
178.7000001221644
 21
102.94842161477639
 31
0.0
  0
LINE
  5
D0B3
  8
0
 10
186.30000025026439
 20
105.4484215588764
 30
0.0
 11
185.00000013036441
 21
105.4484215588764
 31
0.0
  0
LINE
  5
D0B4
  8
0
 10
180.0000002420644
 20
105.4484215588764
 30
0.0
 11
178.7000001221644
 21
105.4484215588764
 31
0.0
  0
LINE
  5
D0B5
  8
0
 10
178.7000001221644
 20
102.94842161477639
 30
0.0
 11
180.0000002420644
 21
102.94842161477639
 31
0.0
  0
LINE
  5
D0B6
  8
0
 10
185.00000013036441
 20
102.94842161477639
 30
0.0
 11
186.30000025026439
 21
102.94842161477639
 31
0.0
  0
LINE
  5
D0B7
  8
0
 10
186.30000025026439
 20
102.94842161477639
 30
0.0
 11
186.50000037616439
 21
103.1484217406764
 31
0.0
  0
LINE
  5
D0B8
  8
0
 10
186.50000037616439
 20
105.2484214329764
 30
0.0
 11
186.30000025026439
 21
105.4484215588764
 31
0.0
  0
LINE
  5
D0B9
  8
0
 10
186.79871976366439
 20
131.97982590887639
 30
0.0
 11
186.79869228966439
 21
131.9803493121764
 31
0.0
  0
ARC
  5
D0BC
  8
0
 10
180.20874201774339
 20
131.86484968240941
 30
0.0
 40
2.0107400443398329
 50
93.154265116485902
 51
176.7976270358061
  0
LINE
  5
D0C1
  8
0
 10
188.00000015646441
 20
121.4984217682764
 30
0.0
 11
188.00000015646441
 21
123.8984214165764
 31
0.0
  0
LINE
  5
D0C2
  8
0
 10
177.00000021606439
 20
123.8984214165764
 30
0.0
 11
177.00000021606439
 21
121.4984217682764
 31
0.0
  0
LINE
  5
D0C3
  8
0
 10
185.00000013036441
 20
105.4484215588764
 30
0.0
 11
185.00000013036441
 21
109.4984216639764
 31
0.0
  0
LINE
  5
D0C4
  8
0
 10
185.00000013036441
 20
100.9984212019764
 30
0.0
 11
185.00000013036441
 21
102.94842161477639
 31
0.0
  0
LINE
  5
D0C5
  8
0
 10
180.0000002420644
 20
102.94842161477639
 30
0.0
 11
180.0000002420644
 21
100.9984212019764
 31
0.0
  0
LINE
  5
D0C6
  8
0
 10
180.0000002420644
 20
109.4984216639764
 30
0.0
 11
180.0000002420644
 21
105.4484215588764
 31
0.0
  0
LINE
  5
D0C7
  8
0
 10
180.0000002420644
 20
100.9984212019764
 30
0.0
 11
180.5773505055644
 21
99.998421969376423
 31
0.0
  0
LINE
  5
D0C8
  8
0
 10
184.42264986686439
 20
99.998421969376423
 30
0.0
 11
185.00000013036441
 21
100.9984212019764
 31
0.0
  0
ARC
  5
D0C9
  8
0
 10
171.0000001862644
 20
118.8873703958764
 30
0.0
 40
1.0000000000000231
 50
109.9999999999991
 51
180.0
  0
ARC
  5
D0CA
  8
0
 10
194.0000001862644
 20
118.8873703958764
 30
0.0
 40
1.0000000000000231
 50
0.0
 51
70.000000000000909
  0
LINE
  5
D0CB
  8
0
 10
195.0000003724644
 20
115.1984217600764
 30
0.0
 11
195.0000003724644
 21
118.8873704546764
 31
0.0
  0
LINE
  5
D0CC
  8
0
 10
169.99999999996439
 20
118.8873704546764
 30
0.0
 11
169.99999999996439
 21
115.1984217600764
 31
0.0
  0
LINE
  5
D0CD
  8
0
 10
169.99999999996439
 20
115.1984217600764
 30
0.0
 11
170.20000059156439
 21
114.9984216341764
 31
0.0
  0
LINE
  5
D0CE
  8
0
 10
194.7999997808644
 20
114.9984216341764
 30
0.0
 11
195.0000003724644
 21
115.1984217600764
 31
0.0
  0
LINE
  5
D0CF
  8
0
 10
194.34202004216439
 20
119.8270628252764
 30
0.0
 11
189.74999997756441
 21
121.4984217682764
 31
0.0
  0
LINE
  5
D0D0
  8
0
 10
175.2500003948644
 20
121.4984217682764
 30
0.0
 11
170.65798033026439
 21
119.8270628252764
 31
0.0
  0
LINE
  5
D0D1
  8
0
 10
175.4999999701644
 20
110.4984217114764
 30
0.0
 11
176.50000013406441
 21
109.4984216639764
 31
0.0
  0
LINE
  5
D0D2
  8
0
 10
188.50000023836441
 20
109.4984216639764
 30
0.0
 11
189.50000040226439
 21
110.4984217114764
 31
0.0
  0
LINE
  5
D0D3
  8
0
 10
189.50000040226439
 20
112.4984216900764
 30
0.0
 11
189.50000040226439
 21
114.9984216341764
 31
0.0
  0
LINE
  5
D0D4
  8
0
 10
175.4999999701644
 20
114.9984216341764
 30
0.0
 11
175.4999999701644
 21
110.4984217114764
 31
0.0
  0
LINE
  5
D0D5
  8
0
 10
170.09999983006441
 20
112.4984216900764
 30
0.0
 11
173.89999989416441
 21
112.4984216900764
 31
0.0
  0
LINE
  5
D0D6
  8
0
 10
170.09999983006441
 20
110.4984217114764
 30
0.0
 11
173.89999989416441
 21
110.4984217114764
 31
0.0
  0
LINE
  5
D0D7
  8
0
 10
183.8000001897644
 20
99.948422054376422
 30
0.0
 11
181.20000018266441
 21
99.948422054376422
 31
0.0
  0
LINE
  5
D0D8
  8
0
 10
178.49999999626439
 20
103.1484217406764
 30
0.0
 11
178.49999999626439
 21
105.2484214329764
 31
0.0
  0
LINE
  5
D0D9
  8
0
 10
178.7000001221644
 20
105.4484215588764
 30
0.0
 11
178.7000001221644
 21
102.94842161477639
 31
0.0
  0
LINE
  5
D0DA
  8
0
 10
186.30000025026439
 20
102.94842161477639
 30
0.0
 11
186.30000025026439
 21
105.4484215588764
 31
0.0
  0
LINE
  5
D0DB
  8
0
 10
186.50000037616439
 20
105.2484214329764
 30
0.0
 11
186.50000037616439
 21
103.1484217406764
 31
0.0
  0
POLYLINE
  5
D0DC
  8
0
 66
     1
 10
0.0
 20
0.0
 30
0.0
 70
   128
  0
VERTEX
  5
DBF6
  8
0
 10
186.7372920549644
 20
123.8984214165764
 30
0.0
  0
VERTEX
  5
DBF7
  8
0
 10
186.7316882870644
 20
123.8543950044764
 30
0.0
  0
VERTEX
  5
DBF8
  8
0
 10
186.7134208604644
 20
123.8054372393764
 30
0.0
  0
VERTEX
  5
DBF9
  8
0
 10
186.68254798276439
 20
123.75889811907641
 30
0.0
  0
VERTEX
  5
DBFA
  8
0
 10
186.5991000830644
 20
123.6846037232764
 30
0.0
  0
VERTEX
  5
DBFB
  8
0
 10
186.32317807516449
 20
123.5705819004764
 30
0.0
  0
VERTEX
  5
DBFC
  8
0
 10
186.00589556616441
 20
123.5126517736764
 30
0.0
  0
VERTEX
  5
DBFD
  8
0
 10
185.6750557943644
 20
123.44025261937639
 30
0.0
  0
VERTEX
  5
DBFE
  8
0
 10
185.32000279976441
 20
123.3984213346764
 30
0.0
  0
SEQEND
  5
DBFF
  8
0
  0
LINE
  5
D0DD
  8
0
 10
185.32000279976441
 20
123.3984213346764
 30
0.0
 11
179.6895878668644
 21
123.3984213346764
 31
0.0
  0
POLYLINE
  5
D0DE
  8
0
 66
     1
 10
0.0
 20
0.0
 30
0.0
 70
   128
  0
VERTEX
  5
DC00
  8
0
 10
179.6895878668644
 20
123.3984213346764
 30
0.0
  0
VERTEX
  5
DC01
  8
0
 10
179.36840218486441
 20
123.43694549297641
 30
0.0
  0
VERTEX
  5
DC02
  8
0
 10
179.0653765946644
 20
123.5141856619764
 30
0.0
  0
VERTEX
  5
DC03
  8
0
 10
178.78739543256441
 20
123.5734941461764
 30
0.0
  0
VERTEX
  5
DC04
  8
0
 10
178.5285562089644
 20
123.64964373647641
 30
0.0
  0
VERTEX
  5
DC05
  8
0
 10
178.4253358654644
 20
123.70683625577639
 30
0.0
  0
VERTEX
  5
DC06
  8
0
 10
178.3352685905644
 20
123.7971512624764
 30
0.0
  0
VERTEX
  5
DC07
  8
0
 10
178.31281952556441
 20
123.8442836353764
 30
0.0
  0
VERTEX
  5
DC08
  8
0
 10
178.30228067926441
 20
123.8984214165764
 30
0.0
  0
SEQEND
  5
DC09
  8
0
  0
ARC
  5
D0E4
  8
0
 10
184.8014772320177
 20
131.87507351588761
 30
0.0
 40
1.9999877449062331
 50
3.0173423817321088
 51
87.002840906355914
  0
LINE
  5
D0E8
  8
0
 10
188.00000015646441
 20
122.4984219321764
 30
0.0
 11
177.00000021606439
 21
122.4984219321764
 31
0.0
  0
LINE
  5
D0E9
  8
0
 10
178.30228067926441
 20
123.8984214165764
 30
0.0
 11
177.00000021606439
 21
123.8984214165764
 31
0.0
  0
LINE
  5
D0EA
  8
0
 10
188.00000015646441
 20
123.8984214165764
 30
0.0
 11
186.7372920549644
 21
123.8984214165764
 31
0.0
  0
ARC
  5
D0EC
  8
0
 10
177.697230018939
 20
104.1984215868264
 30
0.0
 40
2.6201623290624529
 50
331.50580835110122
 51
28.49419164890184
  0
ARC
  5
D0EE
  8
0
 10
187.30537381928579
 20
104.1984215868264
 30
0.0
 40
2.622450719402706
 50
151.53294454877229
 51
208.46705545123089
  0
LINE
  5
D0F1
  8
0
 10
180.0000002420644
 20
100.9984212019764
 30
0.0
 11
185.00000013036441
 21
100.9984212019764
 31
0.0
  0
LINE
  5
D0F3
  8
0
 10
184.42264986686439
 20
99.998421969376423
 30
0.0
 11
180.5773505055644
 21
99.998421969376423
 31
0.0
  0
LINE
  5
D0F5
  8
0
 10
194.7999997808644
 20
114.9984216341764
 30
0.0
 11
170.20000059156439
 21
114.9984216341764
 31
0.0
  0
LINE
  5
D0F6
  8
0
 10
189.74999997756441
 20
121.4984217682764
 30
0.0
 11
175.2500003948644
 21
121.4984217682764
 31
0.0
  0
LINE
  5
D0F7
  8
0
 10
190.57073637836439
 20
121.1243029707764
 30
0.0
 11
192.63476420186441
 21
120.42665388677641
 31
0.0
  0
LINE
  5
D0F8
  8
0
 10
190.50102408966441
 20
121.10898085177639
 30
0.0
 11
190.57073637836439
 21
121.1243029707764
 31
0.0
  0
LINE
  5
D0F9
  8
0
 10
192.97689206896439
 20
120.20181957867641
 30
0.0
 11
190.50102408966441
 21
121.10898085177639
 31
0.0
  0
LINE
  5
D0FA
  8
0
 10
193.04714079946439
 20
120.2137274691764
 30
0.0
 11
192.97689206896439
 21
120.20181957867641
 31
0.0
  0
LINE
  5
D0FB
  8
0
 10
191.1466690524644
 20
120.91285828737639
 30
0.0
 11
193.04714079946439
 21
120.2137274691764
 31
0.0
  0
LINE
  5
D0FC
  8
0
 10
193.2085529714644
 20
120.21510768917641
 30
0.0
 11
191.1466690524644
 21
120.91285828737639
 31
0.0
  0
LINE
  5
D0FD
  8
0
 10
193.28041009596441
 20
120.2040119120764
 30
0.0
 11
193.2085529714644
 21
120.21510768917641
 31
0.0
  0
LINE
  5
D0FE
  8
0
 10
190.80454118546439
 20
121.1117999651764
 30
0.0
 11
193.28041009596441
 21
120.2040119120764
 31
0.0
  0
LINE
  5
D0FF
  8
0
 10
190.73429245496439
 20
121.12594582377641
 30
0.0
 11
190.80454118546439
 21
121.1117999651764
 31
0.0
  0
LINE
  5
D100
  8
0
 10
192.63476420186441
 20
120.42665388677641
 30
0.0
 11
190.73429245496439
 21
121.12594582377641
 31
0.0
  0
LINE
  5
D101
  8
0
 10
188.50000023836441
 20
109.4984216639764
 30
0.0
 11
176.50000013406441
 21
109.4984216639764
 31
0.0
  0
LINE
  5
D102
  8
0
 10
175.4999999701644
 20
110.4984217114764
 30
0.0
 11
189.65000014746451
 21
110.4984217114764
 31
0.0
  0
LINE
  5
D120
  8
0
 10
170.6579800429387
 20
119.82706301666229
 30
0.0
 11
194.34202004216439
 21
119.8270628252764
 31
0.0
  0
ARC
  5
D123
  8
0
 10
213.16329589204199
 20
197.4350297491423
 30
0.0
 40
28.380058587822639
 50
192.75594861944651
 51
198.6535827138496
  0
LINE
  5
D133
  8
0
 10
186.7364124208645
 20
180.68404109221009
 30
0.0
 11
186.73729205496451
 21
180.68510373121001
 31
0.0
  0
ARC
  5
D13F
  8
0
 10
182.49999993631121
 20
184.19157760291881
 30
0.0
 40
5.5000002504670986
 50
319.74904846418269
 51
40.250953514231099
  0
ARC
  5
D140
  8
0
 10
191.81484967576449
 20
185.73146425221009
 30
0.0
 40
1.3177199489800271
 50
234.67777237049921
 51
280.65316653079958
  0
ARC
  5
D141
  8
0
 10
191.91061283816441
 20
185.77131578101009
 30
0.0
 40
1.3430209356210709
 50
276.31972293000098
 51
321.3777125687011
  0
ARC
  5
D142
  8
0
 10
192.10633003776451
 20
185.56659981361011
 30
0.0
 40
1.06300256279797
 50
323.41429641399969
 51
9.5684816314989458
  0
ARC
  5
D143
  8
0
 10
192.13572413296441
 20
185.6115035109101
 30
0.0
 40
1.02730878542282
 50
7.3708942188985347
 51
53.894171485500983
  0
ARC
  5
D144
  8
0
 10
191.99320898506451
 20
185.36547827901009
 30
0.0
 40
1.310400742900935
 50
55.198791560598629
 51
101.2646560476002
  0
ARC
  5
D145
  8
0
 10
191.86735592136441
 20
185.32659787831011
 30
0.0
 40
1.330415361106313
 50
95.612826010202156
 51
140.9480899549996
  0
ARC
  5
D146
  8
0
 10
191.6521892390644
 20
185.5415036072101
 30
0.0
 40
1.028403725329879
 50
142.6938746975006
 51
189.14181431430001
  0
ARC
  5
D147
  8
0
 10
191.68426100886441
 20
185.50111827781009
 30
0.0
 40
1.0546108930262239
 50
186.69802101779871
 51
233.2307840236019
  0
LINE
  5
D148
  8
0
 10
182.49203283896441
 20
194.63119246061009
 30
0.0
 11
182.47697435635931
 21
194.1360987804054
 31
0.0
  0
LINE
  5
D149
  8
0
 10
183.79941159386451
 20
194.5915097371101
 30
0.0
 11
182.49203283896441
 21
194.63119246061009
 31
0.0
  0
LINE
  5
D14A
  8
0
 10
183.8096003792644
 20
194.93417404591011
 30
0.0
 11
183.79941159386451
 21
194.5915097371101
 31
0.0
  0
LINE
  5
D14B
  8
0
 10
182.05659739206439
 20
194.98726315791009
 30
0.0
 11
183.8096003792644
 21
194.93417404591011
 31
0.0
  0
LINE
  5
D14C
  8
0
 10
182.0294753237483
 20
194.0910801574168
 30
0.0
 11
182.05659739206439
 21
194.98726315791009
 31
0.0
  0
LINE
  5
D14D
  8
0
 10
185.7828452064644
 20
192.99191758031009
 30
0.0
 11
184.7982891648644
 21
193.27237606051011
 31
0.0
  0
LINE
  5
D14E
  8
0
 10
185.8804429228644
 20
193.33458095790999
 30
0.0
 11
185.7828452064644
 21
192.99191758031009
 31
0.0
  0
LINE
  5
D14F
  8
0
 10
184.8958868812644
 20
193.61504036931001
 30
0.0
 11
185.8804429228644
 21
193.33458095790999
 31
0.0
  0
LINE
  5
D150
  8
0
 10
185.0905458721644
 20
194.2976867780101
 30
0.0
 11
184.8958868812644
 21
193.61504036931001
 31
0.0
  0
LINE
  5
D151
  8
0
 10
186.34858967736449
 20
193.93947217611009
 30
0.0
 11
185.0905458721644
 21
194.2976867780101
 31
0.0
  0
LINE
  5
D152
  8
0
 10
186.4461871608645
 20
194.28213555361009
 30
0.0
 11
186.34858967736449
 21
193.93947217611009
 31
0.0
  0
LINE
  5
D153
  8
0
 10
184.74251924076441
 20
194.76744309071
 30
0.0
 11
186.4461871608645
 21
194.28213555361009
 31
0.0
  0
LINE
  5
D154
  8
0
 10
184.34560600352609
 20
193.3735872844027
 30
0.0
 11
184.74251924076441
 21
194.76744309071
 31
0.0
  0
LINE
  5
D155
  8
0
 10
184.7982891648644
 20
193.27237606051011
 30
0.0
 11
184.7026731077749
 21
192.93624471304889
 31
0.0
  0
ARC
  5
D156
  8
0
 10
182.5000001862644
 20
184.19157769531009
 30
0.0
 40
7.2500000000000062
 50
295.1461300065647
 51
64.853869993435254
  0
ARC
  5
D158
  8
0
 10
179.98137588886439
 20
193.4426198332101
 30
0.0
 40
1.2504009799404281
 50
15.722840215150031
 51
58.938707553699828
  0
ARC
  5
D159
  8
0
 10
180.08678849886439
 20
193.59576035551009
 30
0.0
 40
1.064890038451616
 50
59.545876598999968
 51
105.7940412226008
  0
ARC
  5
D15A
  8
0
 10
180.04057857516449
 20
193.61578795141011
 30
0.0
 40
1.0337775832485421
 50
103.6312154897016
 51
150.04825587260029
  0
ARC
  5
D15B
  8
0
 10
180.30944635986449
 20
193.50194968641009
 30
0.0
 40
1.3240518948744719
 50
151.5890925367988
 51
197.27522183399901
  0
ARC
  5
D15C
  8
0
 10
180.33956916686441
 20
193.37374447521009
 30
0.0
 40
1.321290469244524
 50
191.56925693949859
 51
237.4170469355995
  0
LINE
  5
D15D
  8
0
 10
179.84332136758971
 20
192.17048442766369
 30
0.0
 11
179.6280276774645
 21
192.26040840151009
 31
0.0
  0
LINE
  5
D15E
  8
0
 10
190.57073637836439
 20
182.35131234391011
 30
0.0
 11
192.63476420186441
 21
183.08812051541011
 31
0.0
  0
LINE
  5
D15F
  8
0
 10
190.50102408966441
 20
181.90997801721011
 30
0.0
 11
190.57073637836439
 21
182.35131234391011
 31
0.0
  0
LINE
  5
D160
  8
0
 10
192.97689206896439
 20
181.51905140841009
 30
0.0
 11
190.50102408966441
 21
181.90997801721011
 31
0.0
  0
LINE
  5
D161
  8
0
 10
193.0471407994645
 20
181.96467575621
 30
0.0
 11
192.97689206896439
 21
181.51905140841009
 31
0.0
  0
LINE
  5
D162
  8
0
 10
191.1466690524644
 20
182.2644397383101
 30
0.0
 11
193.0471407994645
 21
181.96467575621
 31
0.0
  0
LINE
  5
D163
  8
0
 10
193.20855297146451
 20
182.9889141721101
 30
0.0
 11
191.1466690524644
 21
182.2644397383101
 31
0.0
  0
LINE
  5
D164
  8
0
 10
193.2804100959645
 20
183.44311838731011
 30
0.0
 11
193.20855297146451
 21
182.9889141721101
 31
0.0
  0
LINE
  5
D165
  8
0
 10
190.8045411854645
 20
183.8340450253101
 30
0.0
 11
193.2804100959645
 21
183.44311838731011
 31
0.0
  0
LINE
  5
D166
  8
0
 10
190.73429245496439
 20
183.38842082301011
 30
0.0
 11
190.8045411854645
 21
183.8340450253101
 31
0.0
  0
LINE
  5
D167
  8
0
 10
192.63476420186441
 20
183.08812051541011
 30
0.0
 11
190.73429245496439
 21
183.38842082301011
 31
0.0
  0
POLYLINE
  5
D168
  8
0
 66
     1
 10
0.0
 20
0.0
 30
0.0
 70
   128
  0
VERTEX
  5
DC0A
  8
0
 10
190.48738766456449
 20
187.09874884221011
 30
0.0
  0
VERTEX
  5
DC0B
  8
0
 10
190.87475173166439
 20
188.54441083971011
 30
0.0
  0
VERTEX
  5
DC0C
  8
0
 10
191.2596924974645
 20
189.98103225601011
 30
0.0
  0
SEQEND
  5
DC0D
  8
0
  0
LINE
  5
D169
  8
0
 10
191.2596924974645
 20
189.98103225601011
 30
0.0
 11
190.42543608686441
 21
189.42965576421011
 31
0.0
  0
ARC
  5
D16A
  8
0
 10
182.5000001862644
 20
184.19157769531009
 30
0.0
 40
9.5000000000000124
 50
33.461505911597833
 51
56.538494088399752
  0
LINE
  5
D16B
  8
0
 10
187.73807825516451
 20
192.11701359601011
 30
0.0
 11
188.28945474696451
 21
192.95127000661
 31
0.0
  0
POLYLINE
  5
D16C
  8
0
 66
     1
 10
0.0
 20
0.0
 30
0.0
 70
   128
  0
VERTEX
  5
DC0E
  8
0
 10
188.28945474696451
 20
192.95127000661
 30
0.0
  0
VERTEX
  5
DC0F
  8
0
 10
186.85412554066451
 20
192.56667476151009
 30
0.0
  0
VERTEX
  5
DC10
  8
0
 10
185.4071713331644
 20
192.1789651736101
 30
0.0
  0
SEQEND
  5
DC11
  8
0
  0
ARC
  5
D16D
  8
0
 10
182.5000001862644
 20
184.19157769531009
 30
0.0
 40
8.5000000000000231
 50
20.000000000000028
 51
70.000000000000938
  0
ARC
  5
D16E
  8
0
 10
191.93511841046441
 20
185.87650255191011
 30
0.0
 40
1.0010192372892921
 50
273.40856066040112
 51
318.35702086549861
  0
ARC
  5
D16F
  8
0
 10
191.7746809161645
 20
185.8918908351101
 30
0.0
 40
1.038203819764139
 50
238.97599517300239
 51
282.23136140890051
  0
ARC
  5
D170
  8
0
 10
191.59585544976451
 20
185.5226502689101
 30
0.0
 40
0.6307062497794047
 50
188.78036404499949
 51
235.60730969819909
  0
ARC
  5
D171
  8
0
 10
191.5695467705645
 20
185.4971737124101
 30
0.0
 40
0.6011895351824832
 50
139.64240330969889
 51
186.76311930660199
  0
ARC
  5
D172
  8
0
 10
191.84724438786441
 20
185.21427149800999
 30
0.0
 40
0.9966365688314313
 50
92.656744946599346
 51
137.586626729599
  0
ARC
  5
D173
  8
0
 10
192.03343896466441
 20
185.19827771501011
 30
0.0
 40
1.037910127649375
 50
59.832727759100862
 51
102.9383685312996
  0
ARC
  5
D174
  8
0
 10
192.2193057003644
 20
185.58827492191011
 30
0.0
 40
0.6083549233351002
 50
10.05598156489876
 51
56.507149168500177
  0
ARC
  5
D175
  8
0
 10
192.19471625196451
 20
185.60843482371001
 30
0.0
 40
0.6295096593771353
 50
320.89061694479972
 51
7.8579605903980552
  0
ARC
  5
D176
  8
0
 10
179.80120658836441
 20
193.39194061511009
 30
0.0
 40
0.9978960255021011
 50
9.5557331802006846
 51
54.71001650369903
  0
LINE
  5
D177
  8
0
 10
180.79504332246401
 20
193.50639167026191
 30
0.0
 11
180.7852563959645
 21
193.55759825561009
 31
0.0
  0
LINE
  5
D178
  8
0
 10
179.87684796556451
 20
192.56821610031011
 30
0.0
 11
180.02317484531679
 21
192.50867393745619
 31
0.0
  0
ARC
  5
D179
  8
0
 10
180.45691541156449
 20
193.36868426011009
 30
0.0
 40
0.9885481863780563
 50
188.60166615949959
 51
234.07065021440059
  0
ARC
  5
D17A
  8
0
 10
180.4620640844644
 20
193.5613268341101
 30
0.0
 40
1.03990145098964
 50
156.05496933100139
 51
199.11280022389781
  0
ARC
  5
D17B
  8
0
 10
180.0690755765645
 20
193.68613381851009
 30
0.0
 40
0.6317171062436107
 50
107.20581278060151
 51
151.93072167399859
  0
ARC
  5
D17C
  8
0
 10
180.0345921906644
 20
193.67951521331011
 30
0.0
 40
0.6288083044920083
 50
56.930407756799951
 51
104.0243395506985
  0
CIRCLE
  5
D17D
  8
0
 10
182.5000001862644
 20
184.19157769531009
 30
0.0
 40
12.5
  0
ARC
  5
D181
  8
0
 10
194.3479784304418
 20
184.19157769527331
 30
0.0
 40
16.151834936809291
 50
158.05104179571191
 51
201.94895820394439
  0
ARC
  5
D183
  8
0
 10
192.29030614106449
 20
185.5142300498101
 30
0.0
 40
13.7500482721687
 50
151.4336919564978
 51
157.43712102419809
  0
ARC
  5
D184
  8
0
 10
182.6900877375644
 20
190.6937854724101
 30
0.0
 40
2.8420866505060469
 50
137.82382426439989
 51
150.5956116075005
  0
ARC
  5
D185
  8
0
 10
182.49812518626439
 20
190.86250636661001
 30
0.0
 40
2.5865478537565312
 50
89.958466033399546
 51
137.73854720230091
  0
LINE
  5
D197
  8
0
 10
186.79871464146439
 20
184.2105260442101
 30
0.0
 11
186.79872488596439
 21
184.19455643121
 31
0.0
  0
LINE
  5
D199
  8
0
 10
118.0999999678999
 20
112.4984216900764
 30
0.0
 11
118.0999999678999
 21
110.4984217114764
 31
0.0
  0
LINE
  5
D19A
  8
0
 10
121.90000003199989
 20
110.4984217114764
 30
0.0
 11
121.90000003199989
 21
112.4984216900764
 31
0.0
  0
LINE
  5
D19B
  8
0
 10
121.0000000474998
 20
112.4984216900764
 30
0.0
 11
121.0000000474998
 21
114.9984216341764
 31
0.0
  0
LINE
  5
D19C
  8
0
 10
118.99999995249991
 20
114.9984216341764
 30
0.0
 11
118.99999995249991
 21
112.4984216900764
 31
0.0
  0
LINE
  5
D19D
  8
0
 10
118.64999996499979
 20
99.998421969376423
 30
0.0
 11
118.6999999963998
 21
99.948422054376422
 31
0.0
  0
LINE
  5
D19E
  8
0
 10
121.3000000034999
 20
99.948422054376422
 30
0.0
 11
121.35000003499979
 21
99.998421969376423
 31
0.0
  0
ARC
  5
D1A3
  8
0
 10
110.55543954378371
 20
123.89845411623109
 30
0.0
 40
0.5000900983853202
 50
173.9121774157058
 51
270.86747852919399
  0
ARC
  5
D1A4
  8
0
 10
129.4446498137894
 20
123.8984248427214
 30
0.0
 40
0.5000038922091667
 50
269.92897530105893
 51
6.0483547032292844
  0
LINE
  5
D1A5
  8
0
 10
125.4999999701998
 20
121.4984217682764
 30
0.0
 11
125.4999999701998
 21
123.3984213346763
 31
0.0
  0
LINE
  5
D1A6
  8
0
 10
114.50000002979981
 20
123.3984213346764
 30
0.0
 11
114.50000002979981
 21
121.4984217682764
 31
0.0
  0
LINE
  5
D1A7
  8
0
 10
117.5000000558998
 20
100.9984212019764
 30
0.0
 11
118.0773503192999
 21
99.998421969376423
 31
0.0
  0
LINE
  5
D1A8
  8
0
 10
121.9226496805998
 20
99.998421969376423
 30
0.0
 11
122.4999999440999
 21
100.9984212019764
 31
0.0
  0
LINE
  5
D1A9
  8
0
 10
122.4999999440999
 20
100.9984212019764
 30
0.0
 11
122.4999999440999
 21
109.4984216639764
 31
0.0
  0
LINE
  5
D1AA
  8
0
 10
117.5000000558998
 20
109.4984216639764
 30
0.0
 11
117.5000000558998
 21
100.9984212019764
 31
0.0
  0
ARC
  5
D1AB
  8
0
 10
108.4999999999999
 20
118.8873703958764
 30
0.0
 40
1.000000000000022
 50
109.9999999999991
 51
180.0
  0
ARC
  5
D1AC
  8
0
 10
131.4999999999998
 20
118.8873703958764
 30
0.0
 40
1.0000000000000211
 50
0.0
 51
70.000000000000909
  0
LINE
  5
D1AD
  8
0
 10
132.5000001861998
 20
115.1984217600764
 30
0.0
 11
132.5000001861998
 21
118.8873704546764
 31
0.0
  0
LINE
  5
D1AE
  8
0
 10
107.4999998136998
 20
118.8873704546764
 30
0.0
 11
107.4999998136998
 21
115.1984217600764
 31
0.0
  0
LINE
  5
D1AF
  8
0
 10
107.4999998136998
 20
115.1984217600764
 30
0.0
 11
107.7000004052999
 21
114.9984216341764
 31
0.0
  0
LINE
  5
D1B0
  8
0
 10
132.29999959469981
 20
114.9984216341764
 30
0.0
 11
132.5000001861998
 21
115.1984217600764
 31
0.0
  0
LINE
  5
D1B1
  8
0
 10
131.84201985599989
 20
119.8270628252764
 30
0.0
 11
127.2499997913999
 21
121.4984217682764
 31
0.0
  0
LINE
  5
D1B4
  8
0
 10
112.7500002085999
 20
121.4984217682764
 30
0.0
 11
108.1579798566742
 21
119.82706301666229
 31
0.0
  0
LINE
  5
D1B5
  8
0
 10
112.9999997838998
 20
110.4984217114764
 30
0.0
 11
113.99999994779979
 21
109.4984216639764
 31
0.0
  0
LINE
  5
D1B6
  8
0
 10
126.00000005209979
 20
109.4984216639764
 30
0.0
 11
127.0000002159999
 21
110.4984217114764
 31
0.0
  0
LINE
  5
D1B7
  8
0
 10
127.0000002159999
 20
110.4984217114764
 30
0.0
 11
127.0000002159999
 21
114.9984216341764
 31
0.0
  0
LINE
  5
D1B8
  8
0
 10
112.9999997838998
 20
114.9984216341764
 30
0.0
 11
112.9999997838998
 21
110.4984217114764
 31
0.0
  0
LINE
  5
D1BC
  8
0
 10
118.0999999678999
 20
112.4984216900764
 30
0.0
 11
121.90000003199989
 21
112.4984216900764
 31
0.0
  0
LINE
  5
D1BD
  8
0
 10
121.3000000034999
 20
99.948422054376422
 30
0.0
 11
118.6999999963998
 21
99.948422054376422
 31
0.0
  0
CIRCLE
  5
D1BE
  8
0
 10
119.9999999999998
 20
104.1984216639764
 30
0.0
 40
1.049999999999996
  0
CIRCLE
  5
D1BF
  8
0
 10
119.9999999999998
 20
104.1984216639764
 30
0.0
 40
1.25
  0
LINE
  5
D1C0
  8
0
 10
125.4999999701998
 20
122.4984219321764
 30
0.0
 11
114.50000002979981
 21
122.4984219321764
 31
0.0
  0
POLYLINE
  5
D1C1
  8
0
 66
     1
 10
0.0
 20
0.0
 30
0.0
 70
   128
  0
VERTEX
  5
DC12
  8
0
 10
116.49288854943831
 20
123.8984214165764
 30
0.0
  0
VERTEX
  5
DC13
  8
0
 10
116.4929730630998
 20
123.89586307347641
 30
0.0
  0
VERTEX
  5
DC14
  8
0
 10
116.4867657981998
 20
123.8543950044764
 30
0.0
  0
VERTEX
  5
DC15
  8
0
 10
116.4648780877998
 20
123.8054372393764
 30
0.0
  0
VERTEX
  5
DC16
  8
0
 10
116.42840470189979
 20
123.75889811907641
 30
0.0
  0
VERTEX
  5
DC17
  8
0
 10
116.3329329620998
 20
123.6846037232764
 30
0.0
  0
VERTEX
  5
DC18
  8
0
 10
116.04248674579991
 20
123.5706675821764
 30
0.0
  0
VERTEX
  5
DC19
  8
0
 10
115.7622294313998
 20
123.5126517736764
 30
0.0
  0
VERTEX
  5
DC1A
  8
0
 10
115.5076146870998
 20
123.44005983557641
 30
0.0
  0
VERTEX
  5
DC1B
  8
0
 10
115.2779682352998
 20
123.3984213346764
 30
0.0
  0
SEQEND
  5
DC1C
  8
0
  0
LINE
  5
D1C3
  8
0
 10
123.5572406887823
 20
123.8984214165764
 30
0.0
 11
116.49288854943831
 21
123.8984214165764
 31
0.0
  0
POLYLINE
  5
D1C5
  8
0
 66
     1
 10
0.0
 20
0.0
 30
0.0
 70
   128
  0
VERTEX
  5
DC1D
  8
0
 10
124.7277458942999
 20
123.3984213346764
 30
0.0
  0
VERTEX
  5
DC1E
  8
0
 10
124.5214039272998
 20
123.43694549297641
 30
0.0
  0
VERTEX
  5
DC1F
  8
0
 10
124.2957374825999
 20
123.5141856619764
 30
0.0
  0
VERTEX
  5
DC20
  8
0
 10
124.0576308964999
 20
123.5734941461764
 30
0.0
  0
VERTEX
  5
DC21
  8
0
 10
123.8049484136998
 20
123.64964373647641
 30
0.0
  0
VERTEX
  5
DC22
  8
0
 10
123.6941997240999
 20
123.70683625577639
 30
0.0
  0
VERTEX
  5
DC23
  8
0
 10
123.5923544782999
 20
123.7971512624764
 30
0.0
  0
VERTEX
  5
DC24
  8
0
 10
123.5661631263999
 20
123.8442836353764
 30
0.0
  0
VERTEX
  5
DC25
  8
0
 10
123.5567465237999
 20
123.88279009847641
 30
0.0
  0
VERTEX
  5
DC26
  8
0
 10
123.5572406887823
 20
123.8984214165764
 30
0.0
  0
SEQEND
  5
DC27
  8
0
  0
ARC
  5
D1C6
  8
0
 10
112.7393965407547
 20
130.2472229599602
 30
0.0
 40
2.0079990220705941
 50
116.7414449939991
 51
173.96629630798239
  0
ARC
  5
D1C7
  8
0
 10
127.2606105852998
 20
130.24723141067639
 30
0.0
 40
2.0079882686614758
 50
6.0334936499988121
 51
63.258628095000361
  0
LINE
  5
D1C8
  8
0
 10
115.2779682352998
 20
123.3984213346764
 30
0.0
 11
110.5630107968998
 21
123.3984213346764
 31
0.0
  0
LINE
  5
D1C9
  8
0
 10
129.4440300016999
 20
123.3984213346764
 30
0.0
 11
124.7277458942999
 21
123.3984213346764
 31
0.0
  0
ARC
  5
D1CA
  8
0
 10
119.9999999999385
 20
115.9984165320915
 30
0.0
 40
18.000005131885821
 50
63.027498903423002
 51
116.9725010965757
  0
LINE
  5
D1CC
  8
0
 10
121.9226496805998
 20
99.998421969376423
 30
0.0
 11
118.0773503192999
 21
99.998421969376423
 31
0.0
  0
LINE
  5
D1CD
  8
0
 10
117.5000000558998
 20
100.9984212019764
 30
0.0
 11
122.4999999440999
 21
100.9984212019764
 31
0.0
  0
LINE
  5
D1CF
  8
0
 10
132.29999959469981
 20
114.9984216341764
 30
0.0
 11
107.7000004052999
 21
114.9984216341764
 31
0.0
  0
LINE
  5
D1D7
  8
0
 10
127.2499997913999
 20
121.4984217682764
 30
0.0
 11
112.7500002085999
 21
121.4984217682764
 31
0.0
  0
ARC
  5
D1D8
  8
0
 10
120.0818623771999
 20
95.299953605476389
 30
0.0
 40
27.098492727867331
 50
108.3529688198993
 51
110.65779255039909
  0
ARC
  5
D1D9
  8
0
 10
115.5964320242998
 20
106.7312116743764
 30
0.0
 40
14.8207316729267
 50
110.0227937883011
 51
113.53724762499949
  0
POLYLINE
  5
D1DA
  8
0
 66
     1
 10
0.0
 20
0.0
 30
0.0
 70
   128
  0
VERTEX
  5
DC28
  8
0
 10
109.5711308344998
 20
120.21598126977641
 30
0.0
  0
VERTEX
  5
DC29
  8
0
 10
109.5348157732998
 20
120.22181786837641
 30
0.0
  0
VERTEX
  5
DC2A
  8
0
 10
109.56194333729979
 20
120.2581264102764
 30
0.0
  0
VERTEX
  5
DC2B
  8
0
 10
109.6778445690999
 20
120.31886819987641
 30
0.0
  0
SEQEND
  5
DC2C
  8
0
  0
ARC
  5
D1DB
  8
0
 10
109.2805733983998
 20
122.8112821971764
 30
0.0
 40
2.611514987047983
 50
276.38796028779802
 51
287.35706217869961
  0
ARC
  5
D1DC
  8
0
 10
106.6634001360998
 20
132.3223701624764
 30
0.0
 40
12.474895276596969
 50
285.79803084189979
 51
290.74841512050108
  0
ARC
  5
D1DD
  8
0
 10
108.7314726039999
 20
127.3181030834764
 30
0.0
 40
7.0643712238940131
 50
289.4416137371984
 51
296.93210798109931
  0
POLYLINE
  5
D1DE
  8
0
 66
     1
 10
0.0
 20
0.0
 30
0.0
 70
   128
  0
VERTEX
  5
DC2D
  8
0
 10
112.04217363149991
 20
121.14482373237639
 30
0.0
  0
VERTEX
  5
DC2E
  8
0
 10
112.0767471193998
 20
121.1371012055764
 30
0.0
  0
VERTEX
  5
DC2F
  8
0
 10
112.0483063905999
 20
121.09319959077639
 30
0.0
  0
VERTEX
  5
DC30
  8
0
 10
111.9311692937999
 20
121.0199063667764
 30
0.0
  0
SEQEND
  5
DC31
  8
0
  0
ARC
  5
D1DF
  8
0
 10
112.3743979028998
 20
118.7965721419764
 30
0.0
 40
2.3716362491951299
 50
98.052608884598456
 51
110.357556364801
  0
LINE
  5
D1E0
  8
0
 10
126.00000005209979
 20
109.4984216639764
 30
0.0
 11
113.99999994779979
 21
109.4984216639764
 31
0.0
  0
LINE
  5
D1E1
  8
0
 10
112.9999997838998
 20
110.4984217114764
 30
0.0
 11
127.0000002159999
 21
110.4984217114764
 31
0.0
  0
ARC
  5
D1ED
  8
0
 10
113.81540622999979
 20
111.80728151957641
 30
0.0
 40
9.4179335217610607
 50
109.7432104673005
 51
113.99781398539911
  0
ARC
  5
D1EE
  8
0
 10
116.7837606469998
 20
104.49513355517639
 30
0.0
 40
17.305999184679919
 50
108.1240825996009
 51
110.8152309381006
  0
ARC
  5
D1EF
  8
0
 10
111.9006982729999
 20
119.6047025326764
 30
0.0
 40
1.4283244400324691
 50
97.619703130700614
 51
110.5088885451004
  0
POLYLINE
  5
D1F0
  8
0
 66
     1
 10
0.0
 20
0.0
 30
0.0
 70
   128
  0
VERTEX
  5
DC32
  8
0
 10
111.62336159499981
 20
120.9423644491764
 30
0.0
  0
VERTEX
  5
DC33
  8
0
 10
111.71491991729989
 20
120.9978992143764
 30
0.0
  0
VERTEX
  5
DC34
  8
0
 10
111.7281651868998
 20
121.0143454396764
 30
0.0
  0
VERTEX
  5
DC35
  8
0
 10
111.7113063856999
 20
121.0204148688764
 30
0.0
  0
SEQEND
  5
DC36
  8
0
  0
ARC
  5
D1F1
  8
0
 10
108.8907199297999
 20
126.61164994657641
 30
0.0
 40
6.2934989092024018
 50
289.29935228280033
 51
295.73444441629931
  0
ARC
  5
D1F2
  8
0
 10
107.04171373439991
 20
130.9141443268764
 30
0.0
 40
10.97007615063575
 50
286.7769883923001
 51
290.98717415620098
  0
ARC
  5
D1F3
  8
0
 10
109.6158871281999
 20
122.2788660358764
 30
0.0
 40
1.9595252328547901
 50
278.39576278220119
 51
287.59410717409747
  0
POLYLINE
  5
D1F4
  8
0
 66
     1
 10
0.0
 20
0.0
 30
0.0
 70
   128
  0
VERTEX
  5
DC37
  8
0
 10
109.9851158260998
 20
120.41113805267641
 30
0.0
  0
VERTEX
  5
DC38
  8
0
 10
109.8928320034999
 20
120.35944778707641
 30
0.0
  0
VERTEX
  5
DC39
  8
0
 10
109.8829152806999
 20
120.3453345247764
 30
0.0
  0
VERTEX
  5
DC3A
  8
0
 10
109.9019971489998
 20
120.34034077317639
 30
0.0
  0
SEQEND
  5
DC3B
  8
0
  0
LINE
  5
D213
  8
0
 10
108.15798014399989
 20
119.8270628252764
 30
0.0
 11
131.84201985599989
 21
119.8270628252764
 31
0.0
  0
LINE
  5
D214
  8
0
 10
243.65000033752889
 20
99.998421969376423
 30
0.0
 11
243.70000036892881
 21
99.948422054376422
 31
0.0
  0
LINE
  5
D215
  8
0
 10
246.30000037602889
 20
99.948422054376422
 30
0.0
 11
246.35000040752891
 21
99.998421969376423
 31
0.0
  0
ARC
  5
D21A
  8
0
 10
235.5553705289442
 20
123.89843167597679
 30
0.0
 40
0.5000230314203226
 50
173.9526650508509
 51
270.4082032006728
  0
ARC
  5
D21B
  8
0
 10
254.44456501661611
 20
123.89845196372769
 30
0.0
 40
0.5000861624169957
 50
269.14612120620592
 51
6.0881186950926871
  0
LINE
  5
D21C
  8
0
 10
250.5000003427289
 20
121.4984217682764
 30
0.0
 11
250.5000003427289
 21
123.3984213346763
 31
0.0
  0
LINE
  5
D21D
  8
0
 10
239.50000040232879
 20
123.3984213346763
 30
0.0
 11
239.50000040232879
 21
121.4984217682764
 31
0.0
  0
LINE
  5
D21E
  8
0
 10
247.5000003166289
 20
100.9984212019764
 30
0.0
 11
247.5000003166289
 21
109.4984216639764
 31
0.0
  0
LINE
  5
D21F
  8
0
 10
242.5000004284289
 20
109.4984216639764
 30
0.0
 11
242.5000004284289
 21
100.9984212019764
 31
0.0
  0
LINE
  5
D220
  8
0
 10
242.5000004284289
 20
100.9984212019764
 30
0.0
 11
243.0773506918288
 21
99.998421969376423
 31
0.0
  0
LINE
  5
D221
  8
0
 10
246.92265005312879
 20
99.998421969376423
 30
0.0
 11
247.5000003166289
 21
100.9984212019764
 31
0.0
  0
ARC
  5
D222
  8
0
 10
233.5000003725288
 20
118.8873703958764
 30
0.0
 40
1.0000000000000271
 50
109.99999999999901
 51
180.0
  0
ARC
  5
D223
  8
0
 10
256.5000003725288
 20
118.8873703958764
 30
0.0
 40
1.0000000000000231
 50
0.0
 51
70.000000000000938
  0
LINE
  5
D224
  8
0
 10
257.50000055872891
 20
115.1984217600764
 30
0.0
 11
257.50000055872891
 21
118.8873704546764
 31
0.0
  0
LINE
  5
D225
  8
0
 10
232.5000001862289
 20
118.8873704546764
 30
0.0
 11
232.5000001862289
 21
115.1984217600764
 31
0.0
  0
LINE
  5
D226
  8
0
 10
232.5000001862289
 20
115.1984217600764
 30
0.0
 11
232.7000007778289
 21
114.9984216341764
 31
0.0
  0
LINE
  5
D227
  8
0
 10
257.29999996722881
 20
114.9984216341764
 30
0.0
 11
257.50000055872891
 21
115.1984217600764
 31
0.0
  0
LINE
  5
D228
  8
0
 10
256.8420202285289
 20
119.8270628252764
 30
0.0
 11
252.2500001639288
 21
121.4984217682764
 31
0.0
  0
LINE
  5
D22B
  8
0
 10
237.75000058112889
 20
121.4984217682764
 30
0.0
 11
233.15798051652891
 21
119.8270628252764
 31
0.0
  0
LINE
  5
D22E
  8
0
 10
238.00000015642891
 20
110.4984217114764
 30
0.0
 11
239.00000032032889
 21
109.4984216639764
 31
0.0
  0
LINE
  5
D22F
  8
0
 10
251.00000042462889
 20
109.4984216639764
 30
0.0
 11
252.00000058852891
 21
110.4984217114764
 31
0.0
  0
LINE
  5
D230
  8
0
 10
252.00000058852891
 20
110.4984217114764
 30
0.0
 11
252.00000058852891
 21
114.9984216341764
 31
0.0
  0
LINE
  5
D231
  8
0
 10
238.00000015642891
 20
114.9984216341764
 30
0.0
 11
238.00000015642891
 21
110.4984217114764
 31
0.0
  0
LINE
  5
D235
  8
0
 10
246.30000037602889
 20
99.948422054376422
 30
0.0
 11
243.70000036892881
 21
99.948422054376422
 31
0.0
  0
CIRCLE
  5
D236
  8
0
 10
245.00000037252889
 20
104.1984216639764
 30
0.0
 40
1.25
  0
CIRCLE
  5
D237
  8
0
 10
245.00000037252889
 20
104.1984216639764
 30
0.0
 40
1.049999999999996
  0
LINE
  5
D238
  8
0
 10
250.5000003427289
 20
122.4984219321764
 30
0.0
 11
239.50000040232879
 21
122.4984219321764
 31
0.0
  0
POLYLINE
  5
D239
  8
0
 66
     1
 10
0.0
 20
0.0
 30
0.0
 70
   128
  0
VERTEX
  5
DC3C
  8
0
 10
241.49352640842881
 20
123.8984214165764
 30
0.0
  0
VERTEX
  5
DC3D
  8
0
 10
241.48676617072891
 20
123.8543950044764
 30
0.0
  0
VERTEX
  5
DC3E
  8
0
 10
241.46487846032889
 20
123.8054372393764
 30
0.0
  0
VERTEX
  5
DC3F
  8
0
 10
241.42840507442889
 20
123.75889811907641
 30
0.0
  0
VERTEX
  5
DC40
  8
0
 10
241.33293333462879
 20
123.6846037232764
 30
0.0
  0
VERTEX
  5
DC41
  8
0
 10
241.04248711832881
 20
123.5706675821764
 30
0.0
  0
VERTEX
  5
DC42
  8
0
 10
240.7622298039289
 20
123.5126517736764
 30
0.0
  0
VERTEX
  5
DC43
  8
0
 10
240.50761505962879
 20
123.44005983557641
 30
0.0
  0
VERTEX
  5
DC44
  8
0
 10
240.27796860782891
 20
123.3984213346764
 30
0.0
  0
SEQEND
  5
DC45
  8
0
  0
LINE
  5
D23B
  8
0
 10
248.55375222862889
 20
123.8984214165764
 30
0.0
 11
241.49352640842881
 21
123.8984214165764
 31
0.0
  0
POLYLINE
  5
D23D
  8
0
 66
     1
 10
0.0
 20
0.0
 30
0.0
 70
   128
  0
VERTEX
  5
DC46
  8
0
 10
249.7277462668288
 20
123.3984213346764
 30
0.0
  0
VERTEX
  5
DC47
  8
0
 10
249.52140429982879
 20
123.43694549297641
 30
0.0
  0
VERTEX
  5
DC48
  8
0
 10
249.29573785512889
 20
123.5141856619764
 30
0.0
  0
VERTEX
  5
DC49
  8
0
 10
249.05763126902889
 20
123.5734941461764
 30
0.0
  0
VERTEX
  5
DC4A
  8
0
 10
248.80494878622881
 20
123.64964373647641
 30
0.0
  0
VERTEX
  5
DC4B
  8
0
 10
248.69420009662889
 20
123.70683625577639
 30
0.0
  0
VERTEX
  5
DC4C
  8
0
 10
248.59235485082891
 20
123.7971512624764
 30
0.0
  0
VERTEX
  5
DC4D
  8
0
 10
248.56616349892889
 20
123.8442836353764
 30
0.0
  0
VERTEX
  5
DC4E
  8
0
 10
248.55375222862889
 20
123.8984214165764
 30
0.0
  0
SEQEND
  5
DC4F
  8
0
  0
ARC
  5
D23E
  8
0
 10
237.74047174001831
 20
130.24648020876339
 30
0.0
 40
2.0091460650851531
 50
116.7592871734352
 51
173.9484541257595
  0
ARC
  5
D23F
  8
0
 10
252.25952958830621
 20
130.24648061183871
 30
0.0
 40
2.0091454425751301
 50
6.0515361971354107
 51
63.240722502517777
  0
LINE
  5
D241
  8
0
 10
240.27796860782891
 20
123.3984213346764
 30
0.0
 11
235.55893290782879
 21
123.3984213346764
 31
0.0
  0
LINE
  5
D242
  8
0
 10
249.7277462668288
 20
123.3984213346764
 30
0.0
 11
254.43711251022879
 21
123.3984213346764
 31
0.0
  0
ARC
  5
D243
  8
0
 10
245.00000037254009
 20
115.9984165319042
 30
0.0
 40
18.000005132073181
 50
63.027498903722972
 51
116.97250109627311
  0
LINE
  5
D245
  8
0
 10
242.5000004284289
 20
100.9984212019764
 30
0.0
 11
247.5000003166289
 21
100.9984212019764
 31
0.0
  0
LINE
  5
D246
  8
0
 10
246.92265005312879
 20
99.998421969376423
 30
0.0
 11
243.0773506918288
 21
99.998421969376423
 31
0.0
  0
LINE
  5
D248
  8
0
 10
257.29999996722881
 20
114.9984216341764
 30
0.0
 11
232.7000007778289
 21
114.9984216341764
 31
0.0
  0
POLYLINE
  5
D249
  8
0
 66
     1
 10
0.0
 20
0.0
 30
0.0
 70
   128
  0
VERTEX
  5
DC50
  8
0
 10
245.24487889602889
 20
120.65707426757641
 30
0.0
  0
VERTEX
  5
DC51
  8
0
 10
245.22569691062881
 20
120.74771709977639
 30
0.0
  0
VERTEX
  5
DC52
  8
0
 10
245.2472270221289
 20
120.83965353907639
 30
0.0
  0
VERTEX
  5
DC53
  8
0
 10
245.3228904039288
 20
120.9322018572764
 30
0.0
  0
VERTEX
  5
DC54
  8
0
 10
245.46474162952879
 20
121.01958412917639
 30
0.0
  0
SEQEND
  5
DC55
  8
0
  0
ARC
  5
D24A
  8
0
 10
245.81817999592889
 20
120.96843120477639
 30
0.0
 40
0.6523935112030904
 50
208.50616194739851
 51
263.24535873510018
  0
ARC
  5
D24B
  8
0
 10
246.5076599418289
 20
123.1319632692764
 30
0.0
 40
2.9139384099915859
 50
254.75496655309931
 51
270.86640046669919
  0
ARC
  5
D24C
  8
0
 10
246.63262054432889
 20
122.0965123384764
 30
0.0
 40
1.8798958363253391
 50
267.53358377659748
 51
289.16979919559799
  0
POLYLINE
  5
D24D
  8
0
 66
     1
 10
0.0
 20
0.0
 30
0.0
 70
   128
  0
VERTEX
  5
DC56
  8
0
 10
247.45905728072881
 20
120.6580344611763
 30
0.0
  0
VERTEX
  5
DC57
  8
0
 10
247.47854287732881
 20
120.5484587722764
 30
0.0
  0
VERTEX
  5
DC58
  8
0
 10
247.45356014922879
 20
120.4677857482765
 30
0.0
  0
VERTEX
  5
DC59
  8
0
 10
247.3811549413289
 20
120.3908883058764
 30
0.0
  0
VERTEX
  5
DC5A
  8
0
 10
247.2499197162289
 20
120.3208575048764
 30
0.0
  0
SEQEND
  5
DC5B
  8
0
  0
ARC
  5
D24E
  8
0
 10
246.81389176742891
 20
120.2990099447764
 30
0.0
 40
0.7383340321289074
 50
29.09525346139991
 51
77.538311917801934
  0
ARC
  5
D24F
  8
0
 10
246.20955122662889
 20
118.7396083609764
 30
0.0
 40
2.404815152985043
 50
71.484819721401124
 51
90.548382436400615
  0
ARC
  5
D250
  8
0
 10
246.10886430132891
 20
119.4429533562764
 30
0.0
 40
1.7031320003284749
 50
87.386144100500715
 51
112.2221637455016
  0
LINE
  5
D251
  8
0
 10
254.34298280622889
 20
120.7178672799764
 30
0.0
 11
254.37413705882099
 21
120.72529901500209
 31
0.0
  0
LINE
  5
D252
  8
0
 10
254.68564711512889
 20
120.59343233947639
 30
0.0
 11
254.34298280622889
 21
120.7178672799764
 31
0.0
  0
LINE
  5
D253
  8
0
 10
254.71677739470741
 20
120.60058810747999
 30
0.0
 11
254.68564711512889
 21
120.59343233947639
 31
0.0
  0
LINE
  5
D254
  8
0
 10
255.39993241422891
 20
120.3225087398764
 30
0.0
 11
255.43961655503091
 21
120.3374961179064
 31
0.0
  0
LINE
  5
D255
  8
0
 10
255.74259672312891
 20
120.1982740336764
 30
0.0
 11
255.39993241422891
 21
120.3225087398764
 31
0.0
  0
LINE
  5
D256
  8
0
 10
255.80254547341889
 20
120.2054007688253
 30
0.0
 11
255.74259672312891
 21
120.1982740336764
 31
0.0
  0
LINE
  5
D259
  8
0
 10
253.8003402575288
 20
120.71853783217639
 30
0.0
 11
254.0807987377288
 21
120.72785105797639
 31
0.0
  0
LINE
  5
D25A
  8
0
 10
254.14300363512891
 20
120.58925349507641
 30
0.0
 11
253.8003402575288
 21
120.71853783217639
 31
0.0
  0
LINE
  5
D25B
  8
0
 10
254.42346304652881
 20
120.59822585677639
 30
0.0
 11
254.14300363512891
 21
120.58925349507641
 31
0.0
  0
LINE
  5
D25C
  8
0
 10
255.10610945522879
 20
120.33995893087641
 30
0.0
 11
254.42346304652881
 21
120.59822585677639
 31
0.0
  0
LINE
  5
D25D
  8
0
 10
254.74789485332889
 20
120.32275088367641
 30
0.0
 11
255.10610945522879
 21
120.33995893087641
 31
0.0
  0
LINE
  5
D25E
  8
0
 10
255.0905582308288
 20
120.1936798193764
 30
0.0
 11
254.74789485332889
 21
120.32275088367641
 31
0.0
  0
LINE
  5
D25F
  8
0
 10
255.5758657678289
 20
120.20232249287641
 30
0.0
 11
255.0905582308288
 21
120.1936798193764
 31
0.0
  0
LINE
  5
D260
  8
0
 10
253.1691727042288
 20
121.1103340634764
 30
0.0
 11
255.5758657678289
 21
120.20232249287641
 31
0.0
  0
LINE
  5
D261
  8
0
 10
253.04208163172879
 20
121.1207220354764
 30
0.0
 11
253.1691727042288
 21
121.1103340634764
 31
0.0
  0
LINE
  5
D262
  8
0
 10
254.0807987377288
 20
120.72785105797639
 30
0.0
 11
253.04208163172879
 21
121.1207220354764
 31
0.0
  0
LINE
  5
D263
  8
0
 10
252.2500001639288
 20
121.4984217682764
 30
0.0
 11
237.75000058112889
 21
121.4984217682764
 31
0.0
  0
LINE
  5
D264
  8
0
 10
243.1597350211288
 20
121.1243029707764
 30
0.0
 11
243.89654319262891
 21
120.42665388677641
 31
0.0
  0
LINE
  5
D265
  8
0
 10
242.71840069442891
 20
121.10898085177639
 30
0.0
 11
243.1597350211288
 21
121.1243029707764
 31
0.0
  0
LINE
  5
D266
  8
0
 10
242.32747408562881
 20
120.20181957867641
 30
0.0
 11
242.71840069442891
 21
121.10898085177639
 31
0.0
  0
LINE
  5
D267
  8
0
 10
242.7730984333289
 20
120.2137274691764
 30
0.0
 11
242.32747408562881
 21
120.20181957867641
 31
0.0
  0
LINE
  5
D268
  8
0
 10
243.0728624155289
 20
120.91285828737639
 30
0.0
 11
242.7730984333289
 21
120.2137274691764
 31
0.0
  0
LINE
  5
D269
  8
0
 10
243.79733684932879
 20
120.21510768917641
 30
0.0
 11
243.0728624155289
 21
120.91285828737639
 31
0.0
  0
LINE
  5
D26A
  8
0
 10
244.25154106452891
 20
120.2040119120764
 30
0.0
 11
243.79733684932879
 21
120.21510768917641
 31
0.0
  0
LINE
  5
D26B
  8
0
 10
244.6424677025289
 20
121.1117999651764
 30
0.0
 11
244.25154106452891
 21
120.2040119120764
 31
0.0
  0
LINE
  5
D26C
  8
0
 10
244.19684350022879
 20
121.12594582377641
 30
0.0
 11
244.6424677025289
 21
121.1117999651764
 31
0.0
  0
LINE
  5
D26D
  8
0
 10
243.89654319262891
 20
120.42665388677641
 30
0.0
 11
244.19684350022879
 21
121.12594582377641
 31
0.0
  0
POLYLINE
  5
D26E
  8
0
 66
     1
 10
0.0
 20
0.0
 30
0.0
 70
   128
  0
VERTEX
  5
DC5C
  8
0
 10
247.9071715194288
 20
121.04345858337641
 30
0.0
  0
VERTEX
  5
DC5D
  8
0
 10
249.35283351682889
 20
120.70190534237641
 30
0.0
  0
VERTEX
  5
DC5E
  8
0
 10
250.7894549332288
 20
120.31551823257639
 30
0.0
  0
SEQEND
  5
DC5F
  8
0
  0
LINE
  5
D26F
  8
0
 10
250.7894549332288
 20
120.31551823257639
 30
0.0
 11
250.23807844142891
 21
120.67948840797639
 31
0.0
  0
LINE
  5
D270
  8
0
 10
250.23807844142891
 20
120.67948840797639
 30
0.0
 11
252.9254362732288
 21
120.67948840797639
 31
0.0
  0
LINE
  5
D271
  8
0
 10
252.9254362732288
 20
120.67948840797639
 30
0.0
 11
253.7596926838288
 21
120.31551823257639
 31
0.0
  0
POLYLINE
  5
D272
  8
0
 66
     1
 10
0.0
 20
0.0
 30
0.0
 70
   128
  0
VERTEX
  5
DC60
  8
0
 10
253.7596926838288
 20
120.31551823257639
 30
0.0
  0
VERTEX
  5
DC61
  8
0
 10
253.3750974386289
 20
120.7015765854764
 30
0.0
  0
VERTEX
  5
DC62
  8
0
 10
252.9873878508289
 20
121.04345858337641
 30
0.0
  0
SEQEND
  5
DC63
  8
0
  0
LINE
  5
D273
  8
0
 10
252.9873878508289
 20
121.04345858337641
 30
0.0
 11
247.9071715194288
 21
121.04345858337641
 31
0.0
  0
ARC
  5
D284
  8
0
 10
246.1203682400288
 20
120.88608507487641
 30
0.0
 40
0.4843552087456541
 50
206.17329185450109
 51
258.01159263580013
  0
POLYLINE
  5
D285
  8
0
 66
     1
 10
0.0
 20
0.0
 30
0.0
 70
   128
  0
VERTEX
  5
DC64
  8
0
 10
245.8106232504289
 20
120.9426000737764
 30
0.0
  0
VERTEX
  5
DC65
  8
0
 10
245.6874180631288
 20
120.8420312055764
 30
0.0
  0
VERTEX
  5
DC66
  8
0
 10
245.6668386864288
 20
120.7693312340764
 30
0.0
  0
VERTEX
  5
DC67
  8
0
 10
245.6856768392289
 20
120.6724420213764
 30
0.0
  0
SEQEND
  5
DC68
  8
0
  0
ARC
  5
D286
  8
0
 10
246.20743610422889
 20
119.9807022992764
 30
0.0
 40
1.0405324452496401
 50
88.493204612800099
 51
112.4176756843985
  0
ARC
  5
D287
  8
0
 10
246.22891983332889
 20
119.5919957725764
 30
0.0
 40
1.4288912581460691
 50
70.966959060498439
 51
89.764318868600114
  0
ARC
  5
D288
  8
0
 10
246.56960808032889
 20
120.46381613147641
 30
0.0
 40
0.4950711536464973
 50
25.00969507479898
 51
75.340193809300487
  0
POLYLINE
  5
D289
  8
0
 66
     1
 10
0.0
 20
0.0
 30
0.0
 70
   128
  0
VERTEX
  5
DC69
  8
0
 10
246.90403803712891
 20
120.41244190427641
 30
0.0
  0
VERTEX
  5
DC6A
  8
0
 10
247.01767301182889
 20
120.49916945637641
 30
0.0
  0
VERTEX
  5
DC6B
  8
0
 10
247.03860378822881
 20
120.5684701004764
 30
0.0
  0
VERTEX
  5
DC6C
  8
0
 10
247.01825951222881
 20
120.6731181615764
 30
0.0
  0
SEQEND
  5
DC6D
  8
0
  0
ARC
  5
D28A
  8
0
 10
246.5223634599289
 20
121.4088095960764
 30
0.0
 40
1.066969568531835
 50
268.9559792190999
 51
290.96013710309887
  0
ARC
  5
D28B
  8
0
 10
246.49717239702889
 20
121.99852276607641
 30
0.0
 40
1.656515592661765
 50
253.2496461763007
 51
270.19889066169941
  0
LINE
  5
D29C
  8
0
 10
251.00000042462889
 20
109.4984216639764
 30
0.0
 11
239.00000032032889
 21
109.4984216639764
 31
0.0
  0
LINE
  5
D29D
  8
0
 10
238.00000015642891
 20
110.4984217114764
 30
0.0
 11
252.00000058852891
 21
110.4984217114764
 31
0.0
  0
LINE
  5
D2C0
  8
0
 10
233.15798051652891
 20
119.8270628252764
 30
0.0
 11
256.8420202285289
 21
119.8270628252764
 31
0.0
  0
LINE
  5
D2C1
  8
0
 10
186.30000025026439
 20
51.249999972099999
 30
0.0
 11
184.66506370336441
 21
51.249999972099999
 31
0.0
  0
LINE
  5
D2C2
  8
0
 10
180.3349366690644
 20
51.249999972099999
 30
0.0
 11
178.7000001221644
 21
51.249999972099999
 31
0.0
  0
LINE
  5
D2C3
  8
0
 10
178.7000001221644
 20
48.750000028000038
 30
0.0
 11
180.3349366690644
 21
48.750000028000038
 31
0.0
  0
LINE
  5
D2C4
  8
0
 10
184.66506370336441
 20
48.750000028000038
 30
0.0
 11
186.30000025026439
 21
48.750000028000038
 31
0.0
  0
LINE
  5
D2C5
  8
0
 10
178.7000001221644
 20
51.249999972099999
 30
0.0
 11
178.49999999626451
 21
51.049999962599998
 31
0.0
  0
LINE
  5
D2C6
  8
0
 10
178.49999999626451
 20
48.950000037400002
 30
0.0
 11
178.7000001221644
 21
48.750000028000038
 31
0.0
  0
LINE
  5
D2C7
  8
0
 10
186.30000025026439
 20
48.750000028000038
 30
0.0
 11
186.50000037616439
 21
48.950000037400002
 31
0.0
  0
LINE
  5
D2C8
  8
0
 10
186.50000037616439
 20
51.049999962599998
 30
0.0
 11
186.30000025026439
 21
51.249999972099999
 31
0.0
  0
CIRCLE
  5
D2C9
  8
0
 10
172.0000001862644
 20
50.0
 30
0.0
 40
1.900000000000005
  0
LINE
  5
D2CA
  8
0
 10
171.55399739736441
 20
49.22749999680002
 30
0.0
 11
172.44600325816441
 21
49.22749999680002
 31
0.0
  0
LINE
  5
D2CB
  8
0
 10
172.44600325816441
 20
49.22749999680002
 30
0.0
 11
172.89200618856449
 21
50.0
 31
0.0
  0
LINE
  5
D2CC
  8
0
 10
172.89200618856449
 20
50.0
 30
0.0
 11
172.44600325816441
 21
50.77250000319998
 31
0.0
  0
LINE
  5
D2CD
  8
0
 10
172.44600325816441
 20
50.77250000319998
 30
0.0
 11
171.55399739736441
 21
50.77250000319998
 31
0.0
  0
LINE
  5
D2CE
  8
0
 10
171.55399739736441
 20
50.77250000319998
 30
0.0
 11
171.10799446696441
 21
50.0
 31
0.0
  0
LINE
  5
D2CF
  8
0
 10
171.10799446696441
 20
50.0
 30
0.0
 11
171.55399739736441
 21
49.22749999680002
 31
0.0
  0
CIRCLE
  5
D2D0
  8
0
 10
182.5000001862644
 20
50.0
 30
0.0
 40
1.30000000000001
  0
LINE
  5
D2D1
  8
0
 10
182.5000001862644
 20
50.86602539520004
 30
0.0
 11
181.75000017966451
 21
50.43301269760002
 31
0.0
  0
LINE
  5
D2D2
  8
0
 10
181.75000017966451
 20
50.43301269760002
 30
0.0
 11
181.75000017966451
 21
49.56698730239998
 31
0.0
  0
LINE
  5
D2D3
  8
0
 10
181.75000017966451
 20
49.56698730239998
 30
0.0
 11
182.5000001862644
 21
49.133974604800017
 31
0.0
  0
LINE
  5
D2D4
  8
0
 10
182.5000001862644
 20
49.133974604800017
 30
0.0
 11
183.25000019276439
 21
49.56698730239998
 31
0.0
  0
LINE
  5
D2D5
  8
0
 10
183.25000019276439
 20
49.56698730239998
 30
0.0
 11
183.25000019276439
 21
50.43301269760002
 31
0.0
  0
LINE
  5
D2D6
  8
0
 10
183.25000019276439
 20
50.43301269760002
 30
0.0
 11
182.5000001862644
 21
50.86602539520004
 31
0.0
  0
LINE
  5
D2D7
  8
0
 10
178.7000001221644
 20
51.249999972100049
 30
0.0
 11
178.7000001221644
 21
48.750000028000038
 31
0.0
  0
LINE
  5
D2DA
  8
0
 10
186.30000025026439
 20
48.750000028000038
 30
0.0
 11
186.30000025026439
 21
51.249999972099999
 31
0.0
  0
LINE
  5
D2DC
  8
0
 10
178.49999999626451
 20
48.950000037400002
 30
0.0
 11
178.49999999626451
 21
51.049999962599998
 31
0.0
  0
LINE
  5
D2DD
  8
0
 10
186.50000037616451
 20
51.049999962599998
 30
0.0
 11
186.50000037616439
 21
48.950000037400002
 31
0.0
  0
CIRCLE
  5
D2DF
  8
0
 10
182.5000001862644
 20
50.0
 30
0.0
 40
1.9226497308103621
  0
CIRCLE
  5
D2E0
  8
0
 10
182.5000001862644
 20
50.0
 30
0.0
 40
2.5
  0
CIRCLE
  5
D2E1
  8
0
 10
182.5000001862644
 20
50.0
 30
0.0
 40
1.5499999999999821
  0
CIRCLE
  5
D2E2
  8
0
 10
182.5000001862644
 20
50.0
 30
0.0
 40
6.0000000000000133
  0
CIRCLE
  5
D2E3
  8
0
 10
182.5000001862644
 20
50.0
 30
0.0
 40
7.0
  0
ARC
  5
D2E4
  8
0
 10
182.5000001862644
 20
50.0
 30
0.0
 40
4.7500000000000089
 50
197.92021313939989
 51
252.07978686059951
  0
ARC
  5
D2E5
  8
0
 10
181.5000001862644
 20
46.907670780799997
 30
0.0
 40
1.500000000000008
 50
252.07978686059951
 51
289.08054033859912
  0
ARC
  5
D2E6
  8
0
 10
182.5000001862644
 20
46.25
 30
0.0
 40
0.9150000000000073
 50
236.1514505694017
 51
56.876323490699541
  0
LINE
  5
D2E7
  8
0
 10
183.00000020996441
 20
47.550510335699983
 30
0.0
 11
183.00000020996441
 21
47.016306035199989
 31
0.0
  0
ARC
  5
D2E8
  8
0
 10
186.2500001862644
 20
50.0
 30
0.0
 40
0.9149999999999907
 50
285.8562066826986
 51
33.848549430598737
  0
ARC
  5
D2E9
  8
0
 10
185.5923294054644
 20
51.0
 30
0.0
 40
1.5000000000000011
 50
340.91945966140048
 51
17.920213139399941
  0
ARC
  5
D2EA
  8
0
 10
182.5000001862644
 20
50.0
 30
0.0
 40
4.7500000000000044
 50
17.920213139399941
 51
72.079786860599484
  0
ARC
  5
D2EB
  8
0
 10
183.5000001862644
 20
53.092329219199989
 30
0.0
 40
1.500000000000006
 50
72.079786860599484
 51
109.08054033859911
  0
ARC
  5
D2EC
  8
0
 10
182.5000001862644
 20
53.75
 30
0.0
 40
0.9149999999999995
 50
56.151450569401682
 51
236.87632349070131
  0
LINE
  5
D2ED
  8
0
 10
182.0000001624644
 20
52.44948966430001
 30
0.0
 11
182.0000001624644
 21
52.983693964800011
 31
0.0
  0
ARC
  5
D2EE
  8
0
 10
178.7500001862644
 20
50.0
 30
0.0
 40
0.9149999999999907
 50
105.8562066826986
 51
213.84854943059869
  0
ARC
  5
D2EF
  8
0
 10
179.4076709669645
 20
49.0
 30
0.0
 40
1.4999999999999949
 50
160.9194596614004
 51
197.92021313939989
  0
CIRCLE
  5
D2F4
  8
0
 10
182.5000001862644
 20
50.0
 30
0.0
 40
12.5
  0
CIRCLE
  5
D2FD
  8
0
 10
187.7500001862644
 20
59.093266739700027
 30
0.0
 40
1.8999999999999999
  0
LINE
  5
D2FE
  8
0
 10
187.30399718516441
 20
59.86576639110001
 30
0.0
 11
186.85799378906441
 21
59.093266911800022
 31
0.0
  0
LINE
  5
D2FF
  8
0
 10
186.85799378906441
 20
59.093266911800022
 30
0.0
 11
187.30399718516441
 21
58.320766501100017
 31
0.0
  0
LINE
  5
D300
  8
0
 10
187.30399718516441
 20
58.320766501100017
 30
0.0
 11
188.1960030459644
 21
58.320766501100017
 31
0.0
  0
LINE
  5
D301
  8
0
 10
188.1960030459644
 20
58.320766501100017
 30
0.0
 11
188.6420064419645
 21
59.093266911800022
 31
0.0
  0
LINE
  5
D302
  8
0
 10
188.6420064419645
 20
59.093266911800022
 30
0.0
 11
188.1960030459644
 21
59.86576639110001
 31
0.0
  0
LINE
  5
D303
  8
0
 10
188.1960030459644
 20
59.86576639110001
 30
0.0
 11
187.30399718516441
 21
59.86576639110001
 31
0.0
  0
LINE
  5
D304
  8
0
 10
188.6420064419645
 20
40.906733088199978
 30
0.0
 11
188.1960030459644
 21
41.679233498800052
 31
0.0
  0
LINE
  5
D305
  8
0
 10
188.1960030459644
 20
41.679233498800052
 30
0.0
 11
187.30399718516441
 21
41.679233498800052
 31
0.0
  0
LINE
  5
D306
  8
0
 10
187.30399718516441
 20
41.679233498800052
 30
0.0
 11
186.85799378906441
 21
40.906733088199978
 31
0.0
  0
LINE
  5
D307
  8
0
 10
186.85799378906441
 20
40.906733088199978
 30
0.0
 11
187.30399718516441
 21
40.134233608800002
 31
0.0
  0
LINE
  5
D308
  8
0
 10
187.30399718516441
 20
40.134233608800002
 30
0.0
 11
188.1960030459644
 21
40.134233608800002
 31
0.0
  0
LINE
  5
D309
  8
0
 10
188.1960030459644
 20
40.134233608800002
 30
0.0
 11
188.6420064419645
 21
40.906733088199978
 31
0.0
  0
CIRCLE
  5
D30A
  8
0
 10
187.7500001862644
 20
40.906733260199978
 30
0.0
 40
1.8999999999999999
  0
LINE
  5
D30B
  8
0
 10
127.19326687979991
 20
112.4984216900764
 30
0.0
 11
127.19326687979991
 21
110.4984217114764
 31
0.0
  0
LINE
  5
D30C
  8
0
 10
130.99326647819981
 20
110.4984217114764
 30
0.0
 11
130.99326647819981
 21
112.4984216900764
 31
0.0
  0
LINE
  5
D30D
  8
0
 10
130.0932670756998
 20
112.4984216900764
 30
0.0
 11
130.0932670756998
 21
114.9984216341764
 31
0.0
  0
LINE
  5
D30E
  8
0
 10
128.09326674789989
 20
114.9984216341764
 30
0.0
 11
128.09326674789989
 21
112.4984216900764
 31
0.0
  0
LINE
  5
D30F
  8
0
 10
109.0067335217999
 20
112.4984216900764
 30
0.0
 11
109.0067335217999
 21
110.4984217114764
 31
0.0
  0
LINE
  5
D310
  8
0
 10
112.80673312019989
 20
110.4984217114764
 30
0.0
 11
112.80673312019989
 21
112.4984216900764
 31
0.0
  0
LINE
  5
D311
  8
0
 10
111.9067332520998
 20
112.4984216900764
 30
0.0
 11
111.9067332520998
 21
114.9984216341764
 31
0.0
  0
LINE
  5
D312
  8
0
 10
109.9067329242998
 20
114.9984216341764
 30
0.0
 11
109.9067329242998
 21
112.4984216900764
 31
0.0
  0
LINE
  5
D314
  8
0
 10
127.19326687979991
 20
112.4984216900764
 30
0.0
 11
130.99326647819981
 21
112.4984216900764
 31
0.0
  0
LINE
  5
D316
  8
0
 10
127.19326687979991
 20
110.4984217114764
 30
0.0
 11
130.99326647819981
 21
110.4984217114764
 31
0.0
  0
LINE
  5
D317
  8
0
 10
109.0067335217999
 20
110.4984217114764
 30
0.0
 11
112.80673312019989
 21
110.4984217114764
 31
0.0
  0
LINE
  5
D318
  8
0
 10
109.0067335217999
 20
112.4984216900764
 30
0.0
 11
112.80673312019989
 21
112.4984216900764
 31
0.0
  0
LINE
  5
D319
  8
0
 10
185.85000008336451
 20
112.4984216900764
 30
0.0
 11
185.85000008336451
 21
110.4984217114764
 31
0.0
  0
LINE
  5
D31A
  8
0
 10
189.65000014746451
 20
110.4984217114764
 30
0.0
 11
189.65000014746451
 21
112.4984216900764
 31
0.0
  0
LINE
  5
D31B
  8
0
 10
188.75000027936451
 20
112.4984216900764
 30
0.0
 11
188.75000027936451
 21
114.9984216341764
 31
0.0
  0
LINE
  5
D31C
  8
0
 10
186.7500004171645
 20
114.9984216341764
 30
0.0
 11
186.7500004171645
 21
112.4984216900764
 31
0.0
  0
LINE
  5
D31D
  8
0
 10
185.85000008336451
 20
112.4984216900764
 30
0.0
 11
189.65000014746451
 21
112.4984216900764
 31
0.0
  0
LINE
  5
D31E
  8
0
 10
234.0067338943289
 20
112.4984216900764
 30
0.0
 11
234.0067338943289
 21
110.4984217114764
 31
0.0
  0
LINE
  5
D31F
  8
0
 10
237.80673349272891
 20
110.4984217114764
 30
0.0
 11
237.80673349272891
 21
112.4984216900764
 31
0.0
  0
LINE
  5
D320
  8
0
 10
236.90673362462891
 20
112.4984216900764
 30
0.0
 11
236.90673362462891
 21
114.9984216341764
 31
0.0
  0
LINE
  5
D321
  8
0
 10
234.9067332967289
 20
114.9984216341764
 30
0.0
 11
234.9067332967289
 21
112.4984216900764
 31
0.0
  0
LINE
  5
D322
  8
0
 10
252.19326725222891
 20
112.4984216900764
 30
0.0
 11
252.19326725222891
 21
110.4984217114764
 31
0.0
  0
LINE
  5
D323
  8
0
 10
255.99326685062891
 20
110.4984217114764
 30
0.0
 11
255.99326685062891
 21
112.4984216900764
 31
0.0
  0
LINE
  5
D324
  8
0
 10
255.09326744822889
 20
112.4984216900764
 30
0.0
 11
255.09326744822889
 21
114.9984216341764
 31
0.0
  0
LINE
  5
D325
  8
0
 10
253.09326712042881
 20
114.9984216341764
 30
0.0
 11
253.09326712042881
 21
112.4984216900764
 31
0.0
  0
LINE
  5
D326
  8
0
 10
234.0067338943289
 20
112.4984216900764
 30
0.0
 11
237.80673349272891
 21
112.4984216900764
 31
0.0
  0
LINE
  5
D327
  8
0
 10
234.0067338943289
 20
110.4984217114764
 30
0.0
 11
237.80673349272891
 21
110.4984217114764
 31
0.0
  0
LINE
  5
D328
  8
0
 10
252.19326725222891
 20
112.4984216900764
 30
0.0
 11
255.99326685062891
 21
112.4984216900764
 31
0.0
  0
LINE
  5
D329
  8
0
 10
252.19326725222891
 20
110.4984217114764
 30
0.0
 11
255.99326685062891
 21
110.4984217114764
 31
0.0
  0
LINE
  5
D372
  8
0
 10
178.20114184166439
 20
131.9771753647764
 30
0.0
 11
177.7767558395644
 21
123.89895785837641
 31
0.0
  0
LINE
  5
D373
  8
0
 10
187.22324360156441
 20
123.89895785837641
 30
0.0
 11
186.79871976366439
 21
131.97982590887639
 31
0.0
  0
LINE
  5
D374
  8
0
 10
129.94187034659981
 20
123.95110912857641
 30
0.0
 11
129.25747863949991
 21
130.4582906910764
 31
0.0
  0
LINE
  5
D375
  8
0
 10
110.74252136049979
 20
130.4582906910764
 30
0.0
 11
110.0581697001999
 21
123.9514900395764
 31
0.0
  0
LINE
  5
D376
  8
0
 10
235.74252173302881
 20
130.4582906910764
 30
0.0
 11
235.0581300258288
 21
123.95110912857641
 31
0.0
  0
LINE
  5
D377
  8
0
 10
254.9418306723289
 20
123.9514900395764
 30
0.0
 11
254.2574790120288
 21
130.4582906910764
 31
0.0
  0
LINE
  5
D3C0
  8
1
 10
165.0000001862644
 20
184.19157769531009
 30
0.0
 11
200.00000018626449
 21
184.19157769531009
 31
0.0
  0
LINE
  5
D3C1
  8
1
 10
182.5000001862644
 20
201.69157769531009
 30
0.0
 11
182.5000001862644
 21
166.69157769531009
 31
0.0
  0
LINE
  5
D3C2
  8
1
 10
165.0000001862644
 20
50.0
 30
0.0
 11
200.00000018626449
 21
50.0
 31
0.0
  0
LINE
  5
D3C3
  8
1
 10
182.5000001862644
 20
67.5
 30
0.0
 11
182.5000001862644
 21
32.5
 31
0.0
  0
LINE
  5
D3C4
  8
1
 10
185.80000018626441
 20
55.71576766497725
 30
0.0
 11
189.7000001862643
 21
62.470765814495962
 31
0.0
  0
LINE
  5
D3C5
  8
1
 10
185.80000018626441
 20
44.284232335022637
 30
0.0
 11
189.7000001862645
 21
37.529234185504087
 31
0.0
  0
CIRCLE
  5
D3C6
  8
1
 10
182.5000001862644
 20
49.999999999999893
 30
0.0
 40
10.5
  0
LINE
  5
D3C7
  8
1
 10
390.00000055879349
 20
50.0
 30
0.0
 11
425.00000055879349
 21
50.0
 31
0.0
  0
LINE
  5
D3C8
  8
1
 10
407.50000055879349
 20
67.5
 30
0.0
 11
407.50000055879349
 21
32.5
 31
0.0
  0
LINE
  5
D3C9
  8
1
 10
410.8000005587935
 20
55.71576766497725
 30
0.0
 11
414.70000055879342
 21
62.470765814495962
 31
0.0
  0
LINE
  5
D3CA
  8
1
 10
410.8000005587935
 20
44.284232335022637
 30
0.0
 11
414.70000055879359
 21
37.529234185504087
 31
0.0
  0
CIRCLE
  5
D3CB
  8
1
 10
407.50000055879349
 20
49.999999999999893
 30
0.0
 40
10.5
  0
LINE
  5
D3CC
  8
1
 10
182.50000018625431
 20
94.948422054376394
 30
0.0
 11
182.5000001862542
 21
138.9984216639773
 31
0.0
  0
LINE
  5
D3CD
  8
1
 10
176.49999999626451
 20
104.1984216639399
 30
0.0
 11
188.500000376244
 21
104.19842166394
 31
0.0
  0
LINE
  5
D3CE
  8
1
 10
171.999999862154
 20
116.9999996647238
 30
0.0
 11
171.999999862154
 21
108.4999997420236
 31
0.0
  0
LINE
  5
D3CF
  8
1
 10
187.75000011547371
 20
116.999999664724
 30
0.0
 11
187.75000011547371
 21
108.4999997420237
 31
0.0
  0
ARC
  5
D3D0
  8
0
 10
340.19462563396149
 20
104.1984218967399
 30
0.0
 40
2.6224516911996858
 50
331.53295606099761
 51
28.467043939003101
  0
ARC
  5
D3D1
  8
0
 10
349.80276344324591
 20
104.19842189674
 30
0.0
 40
2.6201560921795131
 50
151.5057343185664
 51
208.49426568143369
  0
LINE
  5
D3D2
  8
1
 10
390.00000055879349
 20
184.19157769531009
 30
0.0
 11
425.00000055879349
 21
184.19157769531009
 31
0.0
  0
LINE
  5
D3D3
  8
1
 10
407.50000055879349
 20
201.69157769531009
 30
0.0
 11
407.50000055879349
 21
166.69157769531009
 31
0.0
  0
LINE
  5
D41C
  8
1
 10
119.9999999999999
 20
94.948422054376394
 30
0.0
 11
119.9999999999997
 21
138.9984216639773
 31
0.0
  0
LINE
  5
D41D
  8
1
 10
116.7499999999998
 20
104.1984216639764
 30
0.0
 11
123.2499999999998
 21
104.1984216639764
 31
0.0
  0
LINE
  5
D41E
  8
1
 10
129.09326667897381
 20
116.9999996647604
 30
0.0
 11
129.09326667897381
 21
108.4999997420602
 31
0.0
  0
LINE
  5
D41F
  8
1
 10
110.9067333210257
 20
116.9999996647604
 30
0.0
 11
110.9067333210257
 21
108.4999997420602
 31
0.0
  0
LINE
  5
D420
  8
1
 10
245.00000037252889
 20
94.948422054376394
 30
0.0
 11
245.00000037252869
 21
138.9984216639773
 31
0.0
  0
LINE
  5
D421
  8
1
 10
241.7500003725288
 20
104.1984216639764
 30
0.0
 11
248.2500003725288
 21
104.1984216639764
 31
0.0
  0
LINE
  5
D422
  8
1
 10
254.09326705150281
 20
116.9999996647604
 30
0.0
 11
254.09326705150281
 21
108.4999997420602
 31
0.0
  0
LINE
  5
D423
  8
1
 10
235.90673369355471
 20
116.9999996647604
 30
0.0
 11
235.90673369355471
 21
108.4999997420602
 31
0.0
  0
LINE
  5
D424
  8
1
 10
345.0000003725288
 20
94.94842143298996
 30
0.0
 11
345.00000037252869
 21
138.9984217006899
 31
0.0
  0
LINE
  5
D425
  8
1
 10
339.00000018253888
 20
104.1984216639399
 30
0.0
 11
351.00000056251872
 21
104.1984216639399
 31
0.0
  0
LINE
  5
D426
  8
1
 10
354.09326705150272
 20
117.33000152736901
 30
0.0
 11
354.09326705150272
 21
108.83000160466879
 31
0.0
  0
LINE
  5
D427
  8
1
 10
335.90673369355471
 20
117.33000152736901
 30
0.0
 11
335.90673369355471
 21
108.83000160466879
 31
0.0
  0
LINE
  5
D428
  8
1
 10
407.50000055879349
 20
94.94842143298996
 30
0.0
 11
407.50000055879337
 21
138.9984217006899
 31
0.0
  0
LINE
  5
D429
  8
1
 10
404.25000055879349
 20
104.19842170069001
 30
0.0
 11
410.75000055879349
 21
104.19842170069001
 31
0.0
  0
LINE
  5
D42A
  8
1
 10
397.00000023469329
 20
117.3300015641191
 30
0.0
 11
397.00000023469329
 21
108.8300016414189
 31
0.0
  0
LINE
  5
D42B
  8
1
 10
412.75000048801292
 20
117.3300015641192
 30
0.0
 11
412.75000048801292
 21
108.830001641419
 31
0.0
  0
LINE
  5
D42C
  8
1
 10
470.000000745058
 20
95.139214298314414
 30
0.0
 11
470.00000074505789
 21
139.18921456601441
 31
0.0
  0
LINE
  5
D42D
  8
1
 10
464.00000055506808
 20
104.38921452926439
 30
0.0
 11
476.00000093504798
 21
104.38921452926439
 31
0.0
  0
LINE
  5
D42E
  8
1
 10
479.09326742403198
 20
117.5207943926935
 30
0.0
 11
479.09326742403198
 21
109.02079446999331
 31
0.0
  0
LINE
  5
D42F
  8
1
 10
460.90673406608391
 20
117.5207943926935
 30
0.0
 11
460.90673406608391
 21
109.02079446999331
 31
0.0
  0
LINE
  5
D478
  8
0
 10
109.9067336227744
 20
113.6984216900557
 30
0.0
 11
111.9067339506
 21
113.6984216900557
 31
0.0
  0
LINE
  5
D479
  8
3
 10
110.1067333210259
 20
113.6984216900557
 30
0.0
 11
110.1067333210259
 21
114.9984216341763
 31
0.0
  0
LINE
  5
D47A
  8
3
 10
111.70673332102579
 20
113.6984216900557
 30
0.0
 11
111.70673332102579
 21
114.9984216341763
 31
0.0
  0
LINE
  5
D47B
  8
3
 10
111.9067339506
 20
113.3520104380875
 30
0.0
 11
111.70673332102579
 21
113.6984216900557
 31
0.0
  0
LINE
  5
D47C
  8
3
 10
109.90673269145179
 20
113.3520104380875
 30
0.0
 11
110.106733321026
 21
113.6984216900557
 31
0.0
  0
LINE
  5
D47D
  8
0
 10
128.09326698072249
 20
113.6984216900557
 30
0.0
 11
130.09326730854801
 21
113.6984216900557
 31
0.0
  0
LINE
  5
D47E
  8
3
 10
128.29326667897399
 20
113.6984216900557
 30
0.0
 11
128.29326667897399
 21
114.9984216341763
 31
0.0
  0
LINE
  5
D47F
  8
3
 10
129.89326667897379
 20
113.6984216900557
 30
0.0
 11
129.89326667897379
 21
114.9984216341763
 31
0.0
  0
LINE
  5
D480
  8
3
 10
130.09326730854801
 20
113.3520104380875
 30
0.0
 11
129.89326667897379
 21
113.6984216900557
 31
0.0
  0
LINE
  5
D481
  8
3
 10
128.09326604939989
 20
113.3520104380875
 30
0.0
 11
128.29326667897399
 21
113.6984216900557
 31
0.0
  0
LINE
  5
D482
  8
0
 10
171.0000001639026
 20
113.6984216900557
 30
0.0
 11
173.0000004917282
 21
113.6984216900557
 31
0.0
  0
LINE
  5
D483
  8
3
 10
171.1999998621541
 20
113.6984216900557
 30
0.0
 11
171.1999998621541
 21
114.9984216341763
 31
0.0
  0
LINE
  5
D484
  8
3
 10
172.79999986215401
 20
113.6984216900557
 30
0.0
 11
172.79999986215401
 21
114.9984216341763
 31
0.0
  0
LINE
  5
D485
  8
3
 10
173.0000004917282
 20
113.3520104380875
 30
0.0
 11
172.79999986215401
 21
113.6984216900557
 31
0.0
  0
LINE
  5
D486
  8
3
 10
170.99999923258011
 20
113.3520104380875
 30
0.0
 11
171.19999986215419
 21
113.6984216900557
 31
0.0
  0
LINE
  5
D487
  8
0
 10
186.7500004172224
 20
113.6984216900557
 30
0.0
 11
188.75000074504791
 21
113.6984216900557
 31
0.0
  0
LINE
  5
D488
  8
3
 10
186.9500001154739
 20
113.6984216900557
 30
0.0
 11
186.9500001154739
 21
114.9984216341763
 31
0.0
  0
LINE
  5
D489
  8
3
 10
188.55000011547381
 20
113.6984216900557
 30
0.0
 11
188.55000011547381
 21
114.9984216341763
 31
0.0
  0
LINE
  5
D48A
  8
3
 10
188.75000074504791
 20
113.3520104380875
 30
0.0
 11
188.55000011547381
 21
113.6984216900557
 31
0.0
  0
LINE
  5
D48B
  8
3
 10
186.74999948589979
 20
113.3520104380875
 30
0.0
 11
186.9500001154739
 21
113.6984216900557
 31
0.0
  0
LINE
  5
D48C
  8
0
 10
234.9067339953034
 20
113.6984216900557
 30
0.0
 11
236.90673432312889
 21
113.6984216900557
 31
0.0
  0
LINE
  5
D48D
  8
3
 10
235.1067336935549
 20
113.6984216900557
 30
0.0
 11
235.1067336935549
 21
114.9984216341763
 31
0.0
  0
LINE
  5
D48E
  8
3
 10
236.7067336935547
 20
113.6984216900557
 30
0.0
 11
236.7067336935547
 21
114.9984216341763
 31
0.0
  0
LINE
  5
D48F
  8
3
 10
236.90673432312889
 20
113.3520104380875
 30
0.0
 11
236.7067336935547
 21
113.6984216900557
 31
0.0
  0
LINE
  5
D490
  8
3
 10
234.90673306398079
 20
113.3520104380875
 30
0.0
 11
235.10673369355499
 21
113.6984216900557
 31
0.0
  0
LINE
  5
D491
  8
0
 10
253.09326735325149
 20
113.6984216900557
 30
0.0
 11
255.09326768107701
 21
113.6984216900557
 31
0.0
  0
LINE
  5
D492
  8
3
 10
253.29326705150291
 20
113.6984216900557
 30
0.0
 11
253.29326705150291
 21
114.9984216341763
 31
0.0
  0
LINE
  5
D493
  8
3
 10
254.89326705150279
 20
113.6984216900557
 30
0.0
 11
254.89326705150279
 21
114.9984216341763
 31
0.0
  0
LINE
  5
D494
  8
3
 10
255.09326768107701
 20
113.3520104380875
 30
0.0
 11
254.89326705150279
 21
113.6984216900557
 31
0.0
  0
LINE
  5
D495
  8
3
 10
253.09326642192889
 20
113.3520104380875
 30
0.0
 11
253.29326705150299
 21
113.6984216900557
 31
0.0
  0
LINE
  5
D496
  8
0
 10
334.90673399530328
 20
114.03329672676919
 30
0.0
 11
336.90673432312889
 21
114.03329672676919
 31
0.0
  0
LINE
  5
D497
  8
3
 10
335.10673369355482
 20
114.03329672676919
 30
0.0
 11
335.10673369355482
 21
115.33329667088979
 31
0.0
  0
LINE
  5
D498
  8
3
 10
336.70673369355472
 20
114.03329672676919
 30
0.0
 11
336.70673369355472
 21
115.33329667088979
 31
0.0
  0
LINE
  5
D499
  8
3
 10
336.90673432312889
 20
113.686885474801
 30
0.0
 11
336.70673369355472
 21
114.03329672676919
 31
0.0
  0
LINE
  5
D49A
  8
3
 10
334.90673306398082
 20
113.686885474801
 30
0.0
 11
335.10673369355487
 21
114.03329672676919
 31
0.0
  0
LINE
  5
D49B
  8
0
 10
353.09326735325141
 20
114.03329672676919
 30
0.0
 11
355.09326768107701
 21
114.03329672676919
 31
0.0
  0
LINE
  5
D49C
  8
3
 10
353.29326705150288
 20
114.03329672676919
 30
0.0
 11
353.29326705150288
 21
115.33329667088979
 31
0.0
  0
LINE
  5
D49D
  8
3
 10
354.89326705150268
 20
114.03329672676919
 30
0.0
 11
354.89326705150268
 21
115.33329667088979
 31
0.0
  0
LINE
  5
D49E
  8
3
 10
355.09326768107701
 20
113.686885474801
 30
0.0
 11
354.89326705150268
 21
114.03329672676919
 31
0.0
  0
LINE
  5
D49F
  8
3
 10
353.09326642192877
 20
113.686885474801
 30
0.0
 11
353.29326705150288
 21
114.03329672676919
 31
0.0
  0
LINE
  5
D4A0
  8
0
 10
396.00000053644192
 20
114.03329672676919
 30
0.0
 11
398.00000086426741
 21
114.03329672676919
 31
0.0
  0
LINE
  5
D4A1
  8
3
 10
396.20000023469339
 20
114.03329672676919
 30
0.0
 11
396.20000023469339
 21
115.33329667088979
 31
0.0
  0
LINE
  5
D4A2
  8
3
 10
397.8000002346933
 20
114.03329672676919
 30
0.0
 11
397.8000002346933
 21
115.33329667088979
 31
0.0
  0
LINE
  5
D4A3
  8
3
 10
398.00000086426741
 20
113.686885474801
 30
0.0
 11
397.8000002346933
 21
114.03329672676919
 31
0.0
  0
LINE
  5
D4A4
  8
3
 10
395.99999960511929
 20
113.686885474801
 30
0.0
 11
396.2000002346935
 21
114.03329672676919
 31
0.0
  0
LINE
  5
D4A5
  8
0
 10
411.7500007897616
 20
114.03329672676919
 30
0.0
 11
413.75000111758709
 21
114.03329672676919
 31
0.0
  0
LINE
  5
D4A6
  8
3
 10
411.95000048801307
 20
114.03329672676919
 30
0.0
 11
411.95000048801307
 21
115.33329667088979
 31
0.0
  0
LINE
  5
D4A7
  8
3
 10
413.55000048801298
 20
114.03329672676919
 30
0.0
 11
413.55000048801298
 21
115.33329667088979
 31
0.0
  0
LINE
  5
D4A8
  8
3
 10
413.75000111758709
 20
113.686885474801
 30
0.0
 11
413.55000048801298
 21
114.03329672676919
 31
0.0
  0
LINE
  5
D4A9
  8
3
 10
411.74999985843903
 20
113.686885474801
 30
0.0
 11
411.95000048801319
 21
114.03329672676919
 31
0.0
  0
LINE
  5
D4AA
  8
0
 10
459.90673436783248
 20
114.22408959209361
 30
0.0
 11
461.90673469565809
 21
114.22408959209361
 31
0.0
  0
LINE
  5
D4AB
  8
3
 10
460.10673406608402
 20
114.22408959209361
 30
0.0
 11
460.10673406608402
 21
115.5240895362143
 31
0.0
  0
LINE
  5
D4AC
  8
3
 10
461.70673406608392
 20
114.22408959209361
 30
0.0
 11
461.70673406608392
 21
115.5240895362143
 31
0.0
  0
LINE
  5
D4AD
  8
3
 10
461.90673469565809
 20
113.8776783401254
 30
0.0
 11
461.70673406608392
 21
114.22408959209361
 31
0.0
  0
LINE
  5
D4AE
  8
3
 10
459.90673343650991
 20
113.8776783401254
 30
0.0
 11
460.10673406608407
 21
114.22408959209361
 31
0.0
  0
LINE
  5
D4AF
  8
0
 10
478.09326772578061
 20
114.22408959209361
 30
0.0
 11
480.0932680536061
 21
114.22408959209361
 31
0.0
  0
LINE
  5
D4B0
  8
3
 10
478.29326742403208
 20
114.22408959209361
 30
0.0
 11
478.29326742403208
 21
115.5240895362143
 31
0.0
  0
LINE
  5
D4B1
  8
3
 10
479.89326742403199
 20
114.22408959209361
 30
0.0
 11
479.89326742403199
 21
115.5240895362143
 31
0.0
  0
LINE
  5
D4B2
  8
3
 10
480.0932680536061
 20
113.8776783401254
 30
0.0
 11
479.89326742403199
 21
114.22408959209361
 31
0.0
  0
LINE
  5
D4B3
  8
3
 10
478.09326679445797
 20
113.8776783401254
 30
0.0
 11
478.29326742403208
 21
114.22408959209361
 31
0.0
  0
LINE
  5
D4B5
  8
0
 10
119.0000003017485
 20
113.6984216900557
 30
0.0
 11
121.0000006295741
 21
113.6984216900557
 31
0.0
  0
LINE
  5
D4B6
  8
3
 10
119.2
 20
113.6984216900557
 30
0.0
 11
119.2
 21
114.9984216341763
 31
0.0
  0
LINE
  5
D4B7
  8
3
 10
120.7999999999999
 20
113.6984216900557
 30
0.0
 11
120.7999999999999
 21
114.9984216341763
 31
0.0
  0
LINE
  5
D4B8
  8
3
 10
121.0000006295741
 20
113.3520104380875
 30
0.0
 11
120.7999999999999
 21
113.6984216900557
 31
0.0
  0
LINE
  5
D4B9
  8
3
 10
118.9999993704259
 20
113.3520104380875
 30
0.0
 11
119.2000000000001
 21
113.6984216900557
 31
0.0
  0
LINE
  5
D4BA
  8
0
 10
344.00000067428772
 20
114.03329672676919
 30
0.0
 11
346.00000100211321
 21
114.03329672676919
 31
0.0
  0
LINE
  5
D4BB
  8
3
 10
344.20000037253908
 20
114.03329672676919
 30
0.0
 11
344.20000037253908
 21
115.33329667088979
 31
0.0
  0
LINE
  5
D4BC
  8
3
 10
345.80000037253899
 20
114.03329672676919
 30
0.0
 11
345.80000037253899
 21
115.33329667088979
 31
0.0
  0
LINE
  5
D4BD
  8
3
 10
346.00000100211321
 20
113.686885474801
 30
0.0
 11
345.80000037253899
 21
114.03329672676919
 31
0.0
  0
LINE
  5
D4BE
  8
3
 10
343.99999974296509
 20
113.686885474801
 30
0.0
 11
344.20000037253919
 21
114.03329672676919
 31
0.0
  0
ARC
  5
D5F0
  8
0
 10
182.50103706580859
 20
110.9569255955327
 30
0.0
 40
23.041259493479519
 50
84.008638764086896
 51
95.986167154652804
  0
ARC
  5
D5F1
  8
0
 10
345.00000037252869
 20
110.9767648979044
 30
0.0
 40
23.021420298230339
 50
84.011250018358766
 51
95.988749981641206
  0
ARC
  5
D5F2
  8
0
 10
347.30146601004571
 20
131.87506740269669
 30
0.0
 40
1.999999362872718
 50
3.001184844303237
 51
87.121608962598955
  0
LINE
  5
D5F3
  8
0
 10
340.70127846673898
 20
131.97978058398991
 30
0.0
 11
340.27675602583901
 21
123.89895723699
 31
0.0
  0
LINE
  5
D5F4
  8
0
 10
349.29872227831839
 20
131.97978058398991
 30
0.0
 11
349.72324471921843
 21
123.89895723699
 31
0.0
  0
LINE
  5
D5F5
  8
0
 10
465.70127883926818
 20
132.17057344931439
 30
0.0
 11
465.27675639836821
 21
124.0897501023144
 31
0.0
  0
LINE
  5
D5F6
  8
0
 10
465.70130910726817
 20
132.17114528131441
 30
0.0
 11
465.70127883926818
 21
132.17057344931439
 31
0.0
  0
LINE
  5
D5F7
  8
0
 10
465.70128628986828
 20
132.17060883951439
 30
0.0
 11
465.70127604536827
 21
132.1706181528144
 31
0.0
  0
LINE
  5
D5F8
  8
0
 10
467.59385809306821
 20
134.06311405311439
 30
0.0
 11
467.5938674062682
 21
134.06310473991439
 31
0.0
  0
ARC
  5
D5F9
  8
0
 10
467.69853493443799
 20
132.06586065856919
 30
0.0
 40
1.9999989641249201
 50
92.878386646459774
 51
176.98242134950769
  0
ARC
  5
D5FA
  8
0
 10
470.00000074505789
 20
111.1675577632288
 30
0.0
 40
23.021420298230339
 50
84.011250018358979
 51
95.988749981641007
  0
ARC
  5
D5FB
  8
0
 10
472.30146638257492
 20
132.0658602680212
 30
0.0
 40
1.999999362872718
 50
3.001184844303237
 51
87.121608962599154
  0
LINE
  5
D5FC
  8
0
 10
474.29872265084759
 20
132.17057344931439
 30
0.0
 11
474.72324509174757
 21
124.0897501023144
 31
0.0
  0
LINE
  5
D5FD
  8
0
 10
417.44187090549349
 20
123.95110943848999
 30
0.0
 11
416.75747919829348
 21
130.45829006968989
 31
0.0
  0
LINE
  5
D5FE
  8
0
 10
398.24252191939348
 20
130.45829006968989
 30
0.0
 11
397.55817025899353
 21
123.95149034949
 31
0.0
  0
LINE
  5
D640
  8
0
 10
179.36687365166449
 20
190.2288180776101
 30
0.0
 11
179.5927002839644
 21
190.79008381811011
 31
0.0
  0
LINE
  5
D641
  8
0
 10
185.6331267208644
 20
190.2288180776101
 30
0.0
 11
185.4073000885644
 21
190.79008381811011
 31
0.0
  0
ARC
  5
D642
  8
0
 10
172.7096942314644
 20
185.5142300498101
 30
0.0
 40
13.7500482721687
 50
22.56287897580183
 51
28.566308043502168
  0
ARC
  5
D643
  8
0
 10
182.30991263496441
 20
190.6937854724101
 30
0.0
 40
2.8420866505060469
 50
29.40438839249969
 51
42.176175735600197
  0
ARC
  5
D644
  8
0
 10
182.50187518626441
 20
190.86250636661001
 30
0.0
 40
2.5865478537565312
 50
42.261452797699341
 51
90.041533966600468
  0
ARC
  5
D645
  8
0
 10
170.652021942087
 20
184.19157769527331
 30
0.0
 40
16.151834936809401
 50
338.05104179605559
 51
21.94895820428501
  0
LINE
  5
D646
  8
0
 10
179.36687365166449
 20
178.1543373130101
 30
0.0
 11
179.5927002839644
 21
177.5930715725101
 31
0.0
  0
ARC
  5
D647
  8
0
 10
192.29030614106449
 20
182.86892534081011
 30
0.0
 40
13.7500482721687
 50
202.56287897579841
 51
208.5663080435022
  0
ARC
  5
D648
  8
0
 10
182.49812518626439
 20
177.52064902401011
 30
0.0
 40
2.5865478537565312
 50
222.26145279769881
 51
270.04153396660053
  0
LINE
  5
D649
  8
0
 10
185.6331267208644
 20
178.1543373130101
 30
0.0
 11
185.4073000885644
 21
177.5930715725101
 31
0.0
  0
ARC
  5
D64A
  8
0
 10
172.7096942314644
 20
182.86892534081011
 30
0.0
 40
13.7500482721687
 50
331.4336919564978
 51
337.43712102420159
  0
ARC
  5
D64B
  8
0
 10
182.30991263496441
 20
177.6893699182101
 30
0.0
 40
2.8420866505060469
 50
317.82382426439989
 51
330.59561160749718
  0
ARC
  5
D64C
  8
0
 10
182.50187518626441
 20
177.52064902401011
 30
0.0
 40
2.5865478537565312
 50
269.95846603339947
 51
317.73854720230111
  0
ARC
  5
D64D
  8
0
 10
182.6900877375644
 20
177.6893699182101
 30
0.0
 40
2.8420866505060469
 50
209.4043883925028
 51
222.17617573560011
  0
LINE
  5
D690
  8
0
 10
185.48367412759771
 20
191.16874979804291
 30
0.0
 11
185.4278832487644
 21
191.4522513747101
 31
0.0
  0
ARC
  5
D691
  8
0
 10
182.34185370358321
 20
190.697288794136
 30
0.0
 40
3.1770342855874638
 50
13.746775987661151
 51
29.416055775383221
  0
LINE
  5
D692
  8
0
 10
185.10929269716439
 20
192.25768242031009
 30
0.0
 11
185.10929269716439
 21
192.25768242031009
 31
0.0
  0
ARC
  5
D694
  8
0
 10
180.9019940450153
 20
190.19762555099609
 30
0.0
 40
4.6845700179270908
 50
26.08816553091453
 51
43.353850181265749
  0
ARC
  5
D695
  8
0
 10
182.50313731740249
 20
191.5077484229931
 30
0.0
 40
2.6250267107845109
 50
46.554470288178507
 51
65.89528115125114
  0
ARC
  5
D696
  8
0
 10
182.49863651423129
 20
191.4966530102933
 30
0.0
 40
2.6369927968749609
 50
65.904473999267765
 51
85.149946727299579
  0
ARC
  5
D698
  8
0
 10
151.8367044804869
 20
197.4350297491423
 30
0.0
 40
28.380058587822639
 50
341.34641728615043
 51
347.24405138055351
  0
LINE
  5
D699
  8
0
 10
179.51632624493109
 20
191.16874979804291
 30
0.0
 11
179.5721171237644
 21
191.4522513747101
 31
0.0
  0
ARC
  5
D69A
  8
0
 10
182.65814666894559
 20
190.697288794136
 30
0.0
 40
3.1770342855874638
 50
150.58394422461669
 51
166.25322401233879
  0
ARC
  5
D69B
  8
0
 10
184.0980063275135
 20
190.19762555099609
 30
0.0
 40
4.6845700179270908
 50
136.6461498187339
 51
153.91183446908531
  0
ARC
  5
D69C
  8
0
 10
182.49686305512631
 20
191.5077484229931
 30
0.0
 40
2.6250267107845109
 50
114.10471884874779
 51
133.44552971182179
  0
ARC
  5
D69D
  8
0
 10
182.50136385829751
 20
191.4966530102933
 30
0.0
 40
2.6369927968749609
 50
94.850053272700407
 51
114.0955260007315
  0
ARC
  5
D6A2
  8
0
 10
184.0516960305217
 20
186.3677263063048
 30
0.0
 40
2.9831580454594349
 50
27.502904882666581
 51
41.843741756966317
  0
ARC
  5
D6A6
  8
0
 10
213.16329589204199
 20
170.94812564147779
 30
0.0
 40
28.380058587822639
 50
161.3464172861504
 51
167.2440513805567
  0
ARC
  5
D6A7
  8
0
 10
184.0516960305213
 20
182.0154290843158
 30
0.0
 40
2.9831580454600259
 50
318.15625824303009
 51
332.49709511732959
  0
ARC
  5
D6A8
  8
0
 10
182.34185370358321
 20
177.6858665964842
 30
0.0
 40
3.1770342855874638
 50
330.58394422461339
 51
346.25322401233899
  0
ARC
  5
D6A9
  8
0
 10
180.9019940450153
 20
178.18552983962411
 30
0.0
 40
4.6845700179270908
 50
316.64614981873439
 51
333.91183446908542
  0
ARC
  5
D6AA
  8
0
 10
182.50313731740249
 20
176.8754069676271
 30
0.0
 40
2.6250267107845109
 50
294.10471884874897
 51
313.44552971181861
  0
ARC
  5
D6AB
  8
0
 10
182.49863651423129
 20
176.8865023803269
 30
0.0
 40
2.6369927968749609
 50
274.85005327270051
 51
294.09552600073312
  0
ARC
  5
D6AC
  8
0
 10
182.65814666894559
 20
177.6858665964842
 30
0.0
 40
3.1770342855874638
 50
193.74677598766101
 51
209.4160557753865
  0
ARC
  5
D6AD
  8
0
 10
184.0980063275135
 20
178.18552983962411
 30
0.0
 40
4.6845700179270908
 50
206.08816553091461
 51
223.3538501812657
  0
ARC
  5
D6AE
  8
0
 10
182.49686305512631
 20
176.8754069676271
 30
0.0
 40
2.6250267107845109
 50
226.55447028818119
 51
245.89528115125179
  0
ARC
  5
D6AF
  8
0
 10
182.50136385829751
 20
176.8865023803269
 30
0.0
 40
2.6369927968749609
 50
245.9044739992674
 51
265.14994672729961
  0
LINE
  5
D6B1
  8
0
 10
185.48367412759771
 20
177.21440559257729
 30
0.0
 11
185.4278832487644
 21
176.9309040159101
 31
0.0
  0
LINE
  5
D6B2
  8
0
 10
187.22175003096169
 20
184.19157769531009
 30
0.0
 11
187.1234770677645
 21
182.38120581951009
 31
0.0
  0
LINE
  5
D6B3
  8
0
 10
187.1234770677645
 20
182.38120581951009
 30
0.0
 11
187.0604060403644
 21
181.8639681209101
 31
0.0
  0
ARC
  5
D6B4
  8
0
 10
183.10790153909051
 20
182.3417593808901
 30
0.0
 40
3.981278226989883
 50
338.15764617775579
 51
353.10734841508503
  0
LINE
  5
D6B5
  8
0
 10
186.80336799466451
 20
180.86050855931009
 30
0.0
 11
186.6977196931644
 21
180.63782583921011
 31
0.0
  0
LINE
  5
D6B6
  8
0
 10
187.22175003096169
 20
184.19157769531009
 30
0.0
 11
187.1234770677645
 21
186.00194957111009
 31
0.0
  0
LINE
  5
D6B7
  8
0
 10
187.1234770677645
 20
186.00194957111009
 30
0.0
 11
187.0604060403644
 21
186.5191872697101
 31
0.0
  0
ARC
  5
D6B8
  8
0
 10
183.10790153909051
 20
186.04139600973011
 30
0.0
 40
3.981278226989883
 50
6.8926515849150061
 51
21.842353822244199
  0
LINE
  5
D6B9
  8
0
 10
186.80336799466451
 20
187.52264683131011
 30
0.0
 11
186.6977196931644
 21
187.74532955141009
 31
0.0
  0
ARC
  5
D6BA
  8
0
 10
180.94829799127339
 20
186.3677313191323
 30
0.0
 40
2.98314997030861
 50
138.15624859768391
 51
152.49712377826569
  0
LINE
  5
D6BB
  8
0
 10
177.77825034156709
 20
184.19157769531009
 30
0.0
 11
177.87652330476439
 21
186.00194957111009
 31
0.0
  0
LINE
  5
D6BC
  8
0
 10
177.87652330476439
 20
186.00194957111009
 30
0.0
 11
177.9395943321644
 21
186.5191872697101
 31
0.0
  0
ARC
  5
D6BD
  8
0
 10
181.8920988334383
 20
186.04139600973011
 30
0.0
 40
3.981278226989883
 50
158.1576461777527
 51
173.107348415085
  0
LINE
  5
D6BE
  8
0
 10
178.26358795166439
 20
180.68404109221009
 30
0.0
 11
178.2627083175644
 21
180.68510373121001
 31
0.0
  0
ARC
  5
D6BF
  8
0
 10
182.5000004362177
 20
184.19157760291881
 30
0.0
 40
5.5000002504670986
 50
139.7490464857689
 51
220.25095153581751
  0
ARC
  5
D6C0
  8
0
 10
182.5000001862644
 20
184.19157769531009
 30
0.0
 40
7.2500000000000062
 50
115.06159174880089
 51
244.85386999343481
  0
LINE
  5
D6C1
  8
0
 10
177.77825034156709
 20
184.19157769531009
 30
0.0
 11
177.87652330476439
 21
182.38120581951009
 31
0.0
  0
LINE
  5
D6C2
  8
0
 10
177.87652330476439
 20
182.38120581951009
 30
0.0
 11
177.9395943321644
 21
181.8639681209101
 31
0.0
  0
ARC
  5
D6C3
  8
0
 10
181.8920988334383
 20
182.3417593808901
 30
0.0
 40
3.981278226989883
 50
186.892651584915
 51
201.8423538222473
  0
LINE
  5
D6C4
  8
0
 10
178.1966323778644
 20
180.86050855931009
 30
0.0
 11
178.3022806793644
 21
180.63782583921011
 31
0.0
  0
ARC
  5
D6C5
  8
0
 10
151.8367044804869
 20
170.94812564147779
 30
0.0
 40
28.380058587822639
 50
12.7559486194433
 51
18.65358271384963
  0
ARC
  5
D6C6
  8
0
 10
180.94830434200529
 20
182.01542908431401
 30
0.0
 40
2.983158045457166
 50
207.50290488265941
 51
221.8437417569742
  0
LINE
  5
D6C7
  8
0
 10
179.51632624493109
 20
177.21440559257729
 30
0.0
 11
179.5721171237644
 21
176.9309040159101
 31
0.0
  0
LINE
  5
D6C8
  8
0
 10
178.1966323778644
 20
187.52264683131011
 30
0.0
 11
178.3022806793644
 21
187.74532955141009
 31
0.0
  0
ARC
  5
D797
  8
0
 10
394.2565485049613
 20
214.8548734010875
 30
0.0
 40
28.380058587822639
 50
282.75594861944302
 51
288.65358271384929
  0
LINE
  5
D798
  8
0
 10
400.52282845606061
 20
187.1752516366434
 30
0.0
 11
400.2393268793935
 21
187.11946075781009
 31
0.0
  0
ARC
  5
D799
  8
0
 10
400.99428945996749
 20
184.0334312126289
 30
0.0
 40
3.1770342855874638
 50
103.74677598766129
 51
119.4160557753863
  0
LINE
  5
D79A
  8
0
 10
399.43389583379349
 20
186.80087020621011
 30
0.0
 11
399.43389583379349
 21
186.80087020621011
 31
0.0
  0
ARC
  5
D79B
  8
0
 10
405.32385194779869
 20
185.74327353956741
 30
0.0
 40
2.9831580454594349
 50
117.5029048826669
 51
131.84374175696939
  0
LINE
  5
D79C
  8
0
 10
407.50000055879337
 20
188.9133275400074
 30
0.0
 11
405.68962868299337
 21
188.8150545768101
 31
0.0
  0
LINE
  5
D79D
  8
0
 10
405.68962868299337
 20
188.8150545768101
 30
0.0
 11
405.17239098439342
 21
188.75198354941011
 31
0.0
  0
ARC
  5
D79E
  8
0
 10
405.65018224437353
 20
184.79947904813619
 30
0.0
 40
3.981278226989883
 50
96.892651584911746
 51
111.8423538222476
  0
LINE
  5
D79F
  8
0
 10
404.16893142279349
 20
188.49494550371011
 30
0.0
 11
403.94624870269348
 21
188.38929720221009
 31
0.0
  0
LINE
  5
D7A0
  8
0
 10
411.00753716189342
 20
188.4279899299101
 30
0.0
 11
411.00647452289348
 21
188.42886956401011
 31
0.0
  0
ARC
  5
D7A1
  8
0
 10
401.49395270310742
 20
182.59357155406099
 30
0.0
 40
4.6845700179270908
 50
116.08816553091479
 51
133.3538501812663
  0
ARC
  5
D7A2
  8
0
 10
400.18382983111042
 20
184.19471482644821
 30
0.0
 40
2.6250267107845109
 50
136.5544702881821
 51
155.89528115124929
  0
ARC
  5
D7A3
  8
0
 10
400.1949252438103
 20
184.19021402327701
 30
0.0
 40
2.6369927968749609
 50
155.90447399926819
 51
175.14994672729961
  0
ARC
  5
D7A4
  8
0
 10
407.50000065118479
 20
184.1915774453569
 30
0.0
 40
5.5000002504670986
 50
49.749048464182231
 51
130.25095351423229
  0
ARC
  5
D7A5
  8
0
 10
407.50000055879337
 20
184.19157769531009
 30
0.0
 40
7.2500000000000062
 50
25.146130006565858
 51
154.8538699934341
  0
ARC
  5
D7A6
  8
0
 10
407.50000055883032
 20
196.0395559394874
 30
0.0
 40
16.151834936809291
 50
248.05104179571131
 51
291.94895820394402
  0
LINE
  5
D7A7
  8
0
 10
401.46276017649342
 20
181.05845116071009
 30
0.0
 11
400.90149443599353
 21
181.28427779301009
 31
0.0
  0
ARC
  5
D7A8
  8
0
 10
406.17734820429342
 20
193.98188365011009
 30
0.0
 40
13.7500482721687
 50
241.43369195649811
 51
247.4371210242013
  0
ARC
  5
D7A9
  8
0
 10
400.99779278169342
 20
184.38166524661011
 30
0.0
 40
2.8420866505060469
 50
227.82382426439969
 51
240.59561160749709
  0
ARC
  5
D7AA
  8
0
 10
400.82907188749351
 20
184.1897026953101
 30
0.0
 40
2.5865478537565312
 50
179.9584660333995
 51
227.73854720230261
  0
LINE
  5
D7AB
  8
0
 10
407.48105220989351
 20
188.4902921505101
 30
0.0
 11
407.49702182289349
 21
188.4903023950101
 31
0.0
  0
LINE
  5
D7AC
  8
0
 10
401.46276017649342
 20
187.32470422991011
 30
0.0
 11
400.90149443599353
 21
187.09887759761011
 31
0.0
  0
ARC
  5
D7AD
  8
0
 10
406.17734820429342
 20
174.40127174051011
 30
0.0
 40
13.7500482721687
 50
112.5628789757985
 51
118.56630804350191
  0
ARC
  5
D7AE
  8
0
 10
400.99779278169342
 20
184.00149014401009
 30
0.0
 40
2.8420866505060469
 50
119.4043883925027
 51
132.17617573560031
  0
ARC
  5
D7AF
  8
0
 10
400.82907188749351
 20
184.1934526953101
 30
0.0
 40
2.5865478537565312
 50
132.26145279770071
 51
180.04153396660041
  0
ARC
  5
D7B0
  8
0
 10
407.50000055883021
 20
172.3435994511326
 30
0.0
 40
16.151834936809401
 50
68.051041796056012
 51
111.9489582042887
  0
LINE
  5
D7B1
  8
0
 10
413.53724094109339
 20
181.05845116071009
 30
0.0
 11
414.09850668159339
 21
181.28427779301009
 31
0.0
  0
ARC
  5
D7B2
  8
0
 10
408.8226529132935
 20
193.98188365011009
 30
0.0
 40
13.7500482721687
 50
292.5628789757987
 51
298.56630804350198
  0
ARC
  5
D7B3
  8
0
 10
414.17092923009352
 20
184.1897026953101
 30
0.0
 40
2.5865478537565312
 50
312.26145279769742
 51
0.0415339666004701
  0
LINE
  5
D7B4
  8
0
 10
413.53724094109339
 20
187.32470422991011
 30
0.0
 11
414.09850668159339
 21
187.09887759761011
 31
0.0
  0
ARC
  5
D7B5
  8
0
 10
408.8226529132935
 20
174.40127174051011
 30
0.0
 40
13.7500482721687
 50
61.433691956498052
 51
67.437121024201502
  0
ARC
  5
D7B6
  8
0
 10
414.00220833589339
 20
184.00149014401009
 30
0.0
 40
2.8420866505060469
 50
47.82382426439991
 51
60.595611607497013
  0
ARC
  5
D7B7
  8
0
 10
414.17092923009352
 20
184.1934526953101
 30
0.0
 40
2.5865478537565312
 50
359.95846603339959
 51
47.738547202302549
  0
ARC
  5
D7B8
  8
0
 10
414.00220833589339
 20
184.38166524661011
 30
0.0
 40
2.8420866505060469
 50
299.40438839250299
 51
312.17617573560028
  0
ARC
  5
D7B9
  8
0
 10
394.2565485049613
 20
153.5282819895325
 30
0.0
 40
28.380058587822639
 50
71.346417286150611
 51
77.244051380556925
  0
LINE
  5
D7BA
  8
0
 10
400.52282845606061
 20
181.20790375397681
 30
0.0
 11
400.2393268793935
 21
181.26369463281009
 31
0.0
  0
ARC
  5
D7BB
  8
0
 10
400.99428945996749
 20
184.34972417799119
 30
0.0
 40
3.1770342855874638
 50
240.5839442246137
 51
256.25322401233882
  0
ARC
  5
D7BC
  8
0
 10
401.49395270310742
 20
185.78958383655919
 30
0.0
 40
4.6845700179270908
 50
226.64614981873331
 51
243.91183446908511
  0
ARC
  5
D7BD
  8
0
 10
400.18382983111042
 20
184.188440564172
 30
0.0
 40
2.6250267107845109
 50
204.1047188487475
 51
223.44552971182091
  0
ARC
  5
D7BE
  8
0
 10
400.1949252438103
 20
184.19294136734311
 30
0.0
 40
2.6369927968749609
 50
184.85005327270039
 51
204.09552600073181
  0
ARC
  5
D7BF
  8
0
 10
399.60310903600612
 20
184.19157769531009
 30
0.0
 40
2.0477590222680599
 50
173.78781218256569
 51
186.21218781743431
  0
LINE
  5
D7C0
  8
0
 10
407.50000055879337
 20
188.9133275400074
 30
0.0
 11
409.31037243459349
 21
188.8150545768101
 31
0.0
  0
LINE
  5
D7C1
  8
0
 10
409.31037243459349
 20
188.8150545768101
 30
0.0
 11
409.8276101331935
 21
188.75198354941011
 31
0.0
  0
ARC
  5
D7C2
  8
0
 10
409.34981887321339
 20
184.79947904813619
 30
0.0
 40
3.981278226989883
 50
68.157646177752312
 51
83.107348415088268
  0
LINE
  5
D7C3
  8
0
 10
410.83106969479348
 20
188.49494550371011
 30
0.0
 11
411.05375241489338
 21
188.38929720221009
 31
0.0
  0
ARC
  5
D7C4
  8
0
 10
420.74345261262567
 20
214.8548734010875
 30
0.0
 40
28.380058587822639
 50
251.3464172861506
 51
257.24405138055693
  0
ARC
  5
D7C5
  8
0
 10
409.67614916978772
 20
185.74327353956701
 30
0.0
 40
2.9831580454600259
 50
48.15625824302969
 51
62.497095117332833
  0
ARC
  5
D7C6
  8
0
 10
414.00571165761937
 20
184.0334312126289
 30
0.0
 40
3.1770342855874638
 50
60.583944224613703
 51
76.25322401233872
  0
ARC
  5
D7C7
  8
0
 10
413.50604841447938
 20
182.59357155406099
 30
0.0
 40
4.6845700179270908
 50
46.64614981873364
 51
63.911834469085122
  0
ARC
  5
D7C8
  8
0
 10
414.8161712864765
 20
184.19471482644821
 30
0.0
 40
2.6250267107845109
 50
24.10471884875064
 51
43.445529711817827
  0
ARC
  5
D7C9
  8
0
 10
414.80507587377662
 20
184.19021402327701
 30
0.0
 40
2.6369927968749609
 50
4.8500532727004169
 51
24.095526000734949
  0
ARC
  5
D7CA
  8
0
 10
414.00571165761937
 20
184.34972417799119
 30
0.0
 40
3.1770342855874638
 50
283.74677598766129
 51
299.41605577538598
  0
ARC
  5
D7CB
  8
0
 10
413.50604841447938
 20
185.78958383655919
 30
0.0
 40
4.6845700179270908
 50
296.08816553091492
 51
313.35385018126618
  0
ARC
  5
D7CC
  8
0
 10
414.8161712864765
 20
184.188440564172
 30
0.0
 40
2.6250267107845109
 50
316.5544702881823
 51
335.8952811512525
  0
ARC
  5
D7CD
  8
0
 10
414.80507587377662
 20
184.19294136734311
 30
0.0
 40
2.6369927968749609
 50
335.90447399926478
 51
355.14994672729961
  0
LINE
  5
D7CF
  8
0
 10
414.4771726615262
 20
187.1752516366434
 30
0.0
 11
414.76067423819347
 21
187.11946075781009
 31
0.0
  0
ARC
  5
D7D0
  8
0
 10
405.32384693497119
 20
182.63987550031899
 30
0.0
 40
2.98314997030861
 50
228.15624859768289
 51
242.49712377826859
  0
LINE
  5
D7D1
  8
0
 10
407.50000055879337
 20
179.4698278506128
 30
0.0
 11
405.68962868299337
 21
179.56810081380999
 31
0.0
  0
LINE
  5
D7D2
  8
0
 10
405.68962868299337
 20
179.56810081380999
 30
0.0
 11
405.17239098439342
 21
179.63117184121009
 31
0.0
  0
ARC
  5
D7D3
  8
0
 10
405.65018224437353
 20
183.58367634248401
 30
0.0
 40
3.981278226989883
 50
248.1576461777523
 51
263.10734841508832
  0
LINE
  5
D7D4
  8
0
 10
411.00753716189342
 20
179.95516546071011
 30
0.0
 11
411.00647452289348
 21
179.95428582661009
 31
0.0
  0
ARC
  5
D7D5
  8
0
 10
407.50000065118479
 20
184.1915779452633
 30
0.0
 40
5.5000002504670986
 50
229.74904648576771
 51
310.25095153581782
  0
ARC
  5
D7D6
  8
0
 10
407.50000055879337
 20
184.19157769531009
 30
0.0
 40
7.2500000000000062
 50
205.0615917488002
 51
334.85386999343422
  0
LINE
  5
D7D7
  8
0
 10
407.50000055879337
 20
179.4698278506128
 30
0.0
 11
409.31037243459349
 21
179.56810081380999
 31
0.0
  0
LINE
  5
D7D8
  8
0
 10
409.31037243459349
 20
179.56810081380999
 30
0.0
 11
409.8276101331935
 21
179.63117184121009
 31
0.0
  0
ARC
  5
D7D9
  8
0
 10
409.34981887321339
 20
183.58367634248401
 30
0.0
 40
3.981278226989883
 50
276.89265158491168
 51
291.84235382224767
  0
LINE
  5
D7DA
  8
0
 10
410.83106969479348
 20
179.88820988691009
 30
0.0
 11
411.05375241489338
 21
179.99385818841009
 31
0.0
  0
ARC
  5
D7DB
  8
0
 10
420.74345261262567
 20
153.5282819895325
 30
0.0
 40
28.380058587822639
 50
102.755948619443
 51
108.6535827138494
  0
ARC
  5
D7DC
  8
0
 10
409.67614916978948
 20
182.63988185105089
 30
0.0
 40
2.983158045457166
 50
297.50290488265961
 51
311.84374175697093
  0
LINE
  5
D7DD
  8
0
 10
414.4771726615262
 20
181.20790375397681
 30
0.0
 11
414.76067423819347
 21
181.26369463281009
 31
0.0
  0
LINE
  5
D7DE
  8
0
 10
404.16893142279349
 20
179.88820988691009
 30
0.0
 11
403.94624870269348
 21
179.99385818841009
 31
0.0
  0
ARC
  5
D882
  8
0
 10
415.39689208158097
 20
184.19157769531009
 30
0.0
 40
2.0477590222680599
 50
353.78781218256569
 51
6.2121878174342813
  0
ARC
  5
D884
  8
0
 10
182.5000001862644
 20
176.29468617252269
 30
0.0
 40
2.0477590222680599
 50
263.7878121825658
 51
276.2121878174342
  0
ARC
  5
D885
  8
0
 10
182.5000001862644
 20
192.08846921809749
 30
0.0
 40
2.0477590222680599
 50
83.787812182565816
 51
96.212187817434199
  0
LINE
  5
D9C2
  8
0
 10
146.14999996494981
 20
-110.373270110443
 30
0.0
 11
146.1999999964498
 21
-110.423270025443
 31
0.0
  0
LINE
  5
D9C3
  8
0
 10
148.8000000035498
 20
-110.423270025443
 30
0.0
 11
148.85000003504979
 21
-110.373270110443
 31
0.0
  0
LINE
  5
D9C4
  8
0
 10
143.69999993594979
 20
-104.92327052094301
 30
0.0
 11
143.49999981004979
 21
-105.123270646843
 31
0.0
  0
LINE
  5
D9C5
  8
0
 10
143.49999981004979
 20
-107.223270339143
 30
0.0
 11
143.69999993594979
 21
-107.423270465043
 31
0.0
  0
LINE
  5
D9C6
  8
0
 10
151.30000006404981
 20
-104.92327052094301
 30
0.0
 11
149.99999994414981
 21
-104.92327052094301
 31
0.0
  0
LINE
  5
D9C7
  8
0
 10
145.0000000558498
 20
-104.92327052094301
 30
0.0
 11
143.69999993594979
 21
-104.92327052094301
 31
0.0
  0
LINE
  5
D9C8
  8
0
 10
143.69999993594979
 20
-107.423270465043
 30
0.0
 11
145.0000000558498
 21
-107.423270465043
 31
0.0
  0
LINE
  5
D9C9
  8
0
 10
149.99999994414981
 20
-107.423270465043
 30
0.0
 11
151.30000006404981
 21
-107.423270465043
 31
0.0
  0
LINE
  5
D9CA
  8
0
 10
151.30000006404981
 20
-107.423270465043
 30
0.0
 11
151.50000018994979
 21
-107.223270339143
 31
0.0
  0
LINE
  5
D9CB
  8
0
 10
151.50000018994979
 20
-105.123270646843
 30
0.0
 11
151.30000006404981
 21
-104.92327052094301
 31
0.0
  0
LINE
  5
D9CC
  8
0
 10
151.79871957744979
 20
-78.391866170943018
 30
0.0
 11
151.79869210344981
 21
-78.39134276764301
 31
0.0
  0
LINE
  5
D9CD
  8
0
 10
152.2232434153498
 20
-86.472734221443005
 30
0.0
 11
151.79871957744979
 21
-78.391866170943018
 31
0.0
  0
LINE
  5
D9CE
  8
0
 10
143.20114165544979
 20
-78.394516715043011
 30
0.0
 11
142.7767556533498
 21
-86.472734221443005
 31
0.0
  0
ARC
  5
D9CF
  8
0
 10
145.20874183152881
 20
-78.506842397410054
 30
0.0
 40
2.0107400443398329
 50
93.154265116486656
 51
176.7976270358061
  0
LINE
  5
D9D0
  8
0
 10
152.9999999702498
 20
-88.873270311542996
 30
0.0
 11
152.9999999702498
 21
-86.473270663243028
 31
0.0
  0
LINE
  5
D9D1
  8
0
 10
142.00000002984979
 20
-86.473270663243028
 30
0.0
 11
142.00000002984979
 21
-88.873270311542996
 31
0.0
  0
LINE
  5
D9D2
  8
0
 10
149.99999994414981
 20
-104.92327052094301
 30
0.0
 11
149.99999994414981
 21
-100.873270415843
 31
0.0
  0
LINE
  5
D9D3
  8
0
 10
149.99999994414981
 20
-109.373270877843
 30
0.0
 11
149.99999994414981
 21
-107.423270465043
 31
0.0
  0
LINE
  5
D9D4
  8
0
 10
145.0000000558498
 20
-107.423270465043
 30
0.0
 11
145.0000000558498
 21
-109.373270877843
 31
0.0
  0
LINE
  5
D9D5
  8
0
 10
145.0000000558498
 20
-100.873270415843
 30
0.0
 11
145.0000000558498
 21
-104.92327052094301
 31
0.0
  0
LINE
  5
D9D6
  8
0
 10
145.0000000558498
 20
-109.373270877843
 30
0.0
 11
145.57735031934979
 21
-110.373270110443
 31
0.0
  0
LINE
  5
D9D7
  8
0
 10
149.42264968064981
 20
-110.373270110443
 30
0.0
 11
149.99999994414981
 21
-109.373270877843
 31
0.0
  0
ARC
  5
D9D8
  8
0
 10
136.00000000004979
 20
-91.484321683943023
 30
0.0
 40
1.0000000000000231
 50
109.9999999999982
 51
180.0
  0
ARC
  5
D9D9
  8
0
 10
159.00000000004979
 20
-91.484321683943023
 30
0.0
 40
1.0000000000000231
 50
0.0
 51
70.000000000001734
  0
LINE
  5
D9DA
  8
0
 10
160.00000018624979
 20
-95.173270319743025
 30
0.0
 11
160.00000018624979
 21
-91.484321625142996
 31
0.0
  0
LINE
  5
D9DB
  8
0
 10
134.99999981374981
 20
-91.484321625142996
 30
0.0
 11
134.99999981374981
 21
-95.173270319743025
 31
0.0
  0
LINE
  5
D9DC
  8
0
 10
134.99999981374981
 20
-95.173270319743025
 30
0.0
 11
135.20000040534981
 21
-95.373270445642973
 31
0.0
  0
LINE
  5
D9DD
  8
0
 10
159.79999959464979
 20
-95.373270445642973
 30
0.0
 11
160.00000018624979
 21
-95.173270319743025
 31
0.0
  0
LINE
  5
D9DE
  8
0
 10
159.3420198559497
 20
-90.544629254543025
 30
0.0
 11
154.74999979134981
 21
-88.873270311542996
 31
0.0
  0
LINE
  5
D9DF
  8
0
 10
140.25000020864979
 20
-88.873270311542996
 30
0.0
 11
135.65798014404979
 21
-90.544629254543025
 31
0.0
  0
LINE
  5
D9E0
  8
0
 10
148.8000000035498
 20
-110.423270025443
 30
0.0
 11
146.1999999964498
 21
-110.423270025443
 31
0.0
  0
LINE
  5
D9E1
  8
0
 10
143.49999981004979
 20
-107.223270339143
 30
0.0
 11
143.49999981004979
 21
-105.123270646843
 31
0.0
  0
LINE
  5
D9E2
  8
0
 10
143.69999993594979
 20
-104.92327052094301
 30
0.0
 11
143.69999993594979
 21
-107.423270465043
 31
0.0
  0
LINE
  5
D9E3
  8
0
 10
151.30000006404981
 20
-107.423270465043
 30
0.0
 11
151.30000006404981
 21
-104.92327052094301
 31
0.0
  0
LINE
  5
D9E4
  8
0
 10
151.50000018994979
 20
-105.123270646843
 30
0.0
 11
151.50000018994979
 21
-107.223270339143
 31
0.0
  0
POLYLINE
  5
D9E5
  8
0
 66
     1
 10
0.0
 20
0.0
 30
0.0
 70
   128
  0
VERTEX
  5
DC6E
  8
0
 10
151.73729186874979
 20
-86.473270663243028
 30
0.0
  0
VERTEX
  5
DC6F
  8
0
 10
151.73168810084979
 20
-86.517297075342995
 30
0.0
  0
VERTEX
  5
DC70
  8
0
 10
151.71342067424979
 20
-86.566254840443065
 30
0.0
  0
VERTEX
  5
DC71
  8
0
 10
151.68254779654981
 20
-86.612793960743005
 30
0.0
  0
VERTEX
  5
DC72
  8
0
 10
151.59909989684979
 20
-86.687088356543001
 30
0.0
  0
VERTEX
  5
DC73
  8
0
 10
151.3231778889498
 20
-86.801110179342984
 30
0.0
  0
VERTEX
  5
DC74
  8
0
 10
151.00589537994969
 20
-86.859040306142987
 30
0.0
  0
VERTEX
  5
DC75
  8
0
 10
150.67505560814979
 20
-86.931439460442988
 30
0.0
  0
VERTEX
  5
DC76
  8
0
 10
150.3200026135498
 20
-86.973270745143026
 30
0.0
  0
SEQEND
  5
DC77
  8
0
  0
LINE
  5
D9E6
  8
0
 10
150.3200026135498
 20
-86.973270745143026
 30
0.0
 11
144.68958768064979
 21
-86.973270745143026
 31
0.0
  0
POLYLINE
  5
D9E7
  8
0
 66
     1
 10
0.0
 20
0.0
 30
0.0
 70
   128
  0
VERTEX
  5
DC78
  8
0
 10
144.68958768064979
 20
-86.973270745143026
 30
0.0
  0
VERTEX
  5
DC79
  8
0
 10
144.3684019986498
 20
-86.934746586843033
 30
0.0
  0
VERTEX
  5
DC7A
  8
0
 10
144.06537640844979
 20
-86.857506417843041
 30
0.0
  0
VERTEX
  5
DC7B
  8
0
 10
143.7873952463498
 20
-86.798197933643024
 30
0.0
  0
VERTEX
  5
DC7C
  8
0
 10
143.5285560227498
 20
-86.722048343343005
 30
0.0
  0
VERTEX
  5
DC7D
  8
0
 10
143.4253356792498
 20
-86.664855824042974
 30
0.0
  0
VERTEX
  5
DC7E
  8
0
 10
143.33526840434979
 20
-86.574540817343035
 30
0.0
  0
VERTEX
  5
DC7F
  8
0
 10
143.3128193393498
 20
-86.527408444442997
 30
0.0
  0
VERTEX
  5
DC80
  8
0
 10
143.30228049304981
 20
-86.473270663243028
 30
0.0
  0
SEQEND
  5
DC81
  8
0
  0
ARC
  5
D9E8
  8
0
 10
149.8014770458031
 20
-78.496618563931833
 30
0.0
 40
1.9999877449062331
 50
3.0173423817321061
 51
87.002840906356255
  0
LINE
  5
D9E9
  8
0
 10
152.9999999702498
 20
-87.873270147643012
 30
0.0
 11
142.00000002984979
 21
-87.873270147643012
 31
0.0
  0
LINE
  5
D9EA
  8
0
 10
143.30228049304981
 20
-86.473270663243028
 30
0.0
 11
142.00000002984979
 21
-86.473270663243028
 31
0.0
  0
LINE
  5
D9EB
  8
0
 10
152.9999999702498
 20
-86.473270663243028
 30
0.0
 11
151.73729186874979
 21
-86.473270663243028
 31
0.0
  0
ARC
  5
D9EC
  8
0
 10
142.69722983272439
 20
-106.173270492993
 30
0.0
 40
2.6201623290624529
 50
331.50580835110128
 51
28.494191648902309
  0
ARC
  5
D9ED
  8
0
 10
152.3053736330711
 20
-106.173270492993
 30
0.0
 40
2.622450719402706
 50
151.53294454877269
 51
208.46705545123089
  0
LINE
  5
D9EE
  8
0
 10
145.0000000558498
 20
-109.373270877843
 30
0.0
 11
149.99999994414981
 21
-109.373270877843
 31
0.0
  0
LINE
  5
D9EF
  8
0
 10
149.42264968064981
 20
-110.373270110443
 30
0.0
 11
145.57735031934979
 21
-110.373270110443
 31
0.0
  0
LINE
  5
D9F1
  8
0
 10
154.74999979134981
 20
-88.873270311542996
 30
0.0
 11
140.25000020864979
 21
-88.873270311542996
 31
0.0
  0
LINE
  5
D9FC
  8
0
 10
135.6579798567241
 20
-90.544629063157089
 30
0.0
 11
159.3420198559497
 21
-90.544629254543025
 31
0.0
  0
LINE
  5
D9FD
  8
1
 10
141.4999998100499
 20
-106.1732704158795
 30
0.0
 11
153.5000001900294
 21
-106.1732704158794
 31
0.0
  0
ARC
  5
D9FE
  8
0
 10
147.50103687959401
 20
-99.414766484286673
 30
0.0
 40
23.041259493479519
 50
84.008638764087124
 51
95.986167154653089
  0
LINE
  5
D9FF
  8
1
 10
147.4999999999998
 20
-115.423270025443
 30
0.0
 11
147.49999999999969
 21
-71.373270415842086
 31
0.0
  0
LINE
  5
DA00
  8
0
 10
289.80000000000001
 20
-101.873270445643
 30
0.0
 11
294.2000000000001
 21
-101.873270445643
 31
0.0
  0
LINE
  5
DA01
  8
0
 10
290.09999964381001
 20
-101.873270445643
 30
0.0
 11
290.09999964381001
 21
-103.873270424243
 31
0.0
  0
LINE
  5
DA02
  8
0
 10
293.89999970791001
 20
-103.873270424243
 30
0.0
 11
293.89999970791001
 21
-101.873270445643
 31
0.0
  0
LINE
  5
DA03
  8
0
 10
293.00000030541008
 20
-101.873270445643
 30
0.0
 11
293.00000030541008
 21
-99.373270501543004
 31
0.0
  0
LINE
  5
DA04
  8
0
 10
290.99999997761012
 20
-99.373270501543004
 30
0.0
 11
290.99999997761012
 21
-101.873270445643
 31
0.0
  0
LINE
  5
DA05
  8
0
 10
301.14999996491008
 20
-114.373270166343
 30
0.0
 11
301.1999999964101
 21
-114.42327008134301
 31
0.0
  0
LINE
  5
DA06
  8
0
 10
303.80000000351009
 20
-114.42327008134301
 30
0.0
 11
303.85000003501011
 21
-114.373270166343
 31
0.0
  0
LINE
  5
DA07
  8
0
 10
298.69999993591011
 20
-108.923270576843
 30
0.0
 11
298.49999981001008
 21
-109.123270702743
 31
0.0
  0
LINE
  5
DA08
  8
0
 10
298.49999981001008
 20
-111.223270395043
 30
0.0
 11
298.69999993591011
 21
-111.42327052094301
 31
0.0
  0
LINE
  5
DA09
  8
0
 10
306.30000006401008
 20
-108.923270576843
 30
0.0
 11
304.99999994411007
 21
-108.923270576843
 31
0.0
  0
LINE
  5
DA0A
  8
0
 10
300.00000005581012
 20
-108.923270576843
 30
0.0
 11
298.69999993591011
 21
-108.923270576843
 31
0.0
  0
LINE
  5
DA0B
  8
0
 10
298.69999993591011
 20
-111.42327052094301
 30
0.0
 11
300.00000005581012
 21
-111.42327052094301
 31
0.0
  0
LINE
  5
DA0C
  8
0
 10
304.99999994411007
 20
-111.42327052094301
 30
0.0
 11
306.30000006401008
 21
-111.42327052094301
 31
0.0
  0
LINE
  5
DA0D
  8
0
 10
306.30000006401008
 20
-111.42327052094301
 30
0.0
 11
306.50000018991011
 21
-111.223270395043
 31
0.0
  0
LINE
  5
DA0E
  8
0
 10
306.50000018991011
 20
-109.123270702743
 30
0.0
 11
306.30000006401008
 21
-108.923270576843
 31
0.0
  0
LINE
  5
DA0F
  8
0
 10
306.79871957741
 20
-82.391866226843035
 30
0.0
 11
306.79869210341008
 21
-82.391342823543027
 31
0.0
  0
LINE
  5
DA10
  8
0
 10
307.22324341531009
 20
-90.472734277343008
 30
0.0
 11
306.79871957741
 21
-82.391866226843035
 31
0.0
  0
LINE
  5
DA11
  8
0
 10
298.20114165541008
 20
-82.394516770943028
 30
0.0
 11
297.77675565330998
 21
-90.472734277343008
 31
0.0
  0
ARC
  5
DA12
  8
0
 10
300.20874183148908
 20
-82.506842453310057
 30
0.0
 40
2.0107400443398329
 50
93.154265116486656
 51
176.7976270358061
  0
LINE
  5
DA13
  8
0
 10
307.99999997021013
 20
-92.873270367443013
 30
0.0
 11
307.99999997021013
 21
-90.473270719143045
 31
0.0
  0
LINE
  5
DA14
  8
0
 10
297.00000002981
 20
-90.473270719143045
 30
0.0
 11
297.00000002981
 21
-92.873270367443013
 31
0.0
  0
LINE
  5
DA15
  8
0
 10
304.99999994411007
 20
-108.923270576843
 30
0.0
 11
304.99999994411007
 21
-104.873270471743
 31
0.0
  0
LINE
  5
DA16
  8
0
 10
304.99999994411007
 20
-113.373270933743
 30
0.0
 11
304.99999994411007
 21
-111.42327052094301
 31
0.0
  0
LINE
  5
DA17
  8
0
 10
300.00000005581012
 20
-111.42327052094301
 30
0.0
 11
300.00000005581012
 21
-113.373270933743
 31
0.0
  0
LINE
  5
DA18
  8
0
 10
300.00000005581012
 20
-104.873270471743
 30
0.0
 11
300.00000005581012
 21
-108.923270576843
 31
0.0
  0
LINE
  5
DA19
  8
0
 10
300.00000005581012
 20
-113.373270933743
 30
0.0
 11
300.57735031931009
 21
-114.373270166343
 31
0.0
  0
LINE
  5
DA1A
  8
0
 10
304.42264968061011
 20
-114.373270166343
 30
0.0
 11
304.99999994411007
 21
-113.373270933743
 31
0.0
  0
ARC
  5
DA1B
  8
0
 10
291.00000000001012
 20
-95.48432173984304
 30
0.0
 40
1.0000000000000231
 50
109.9999999999982
 51
180.0
  0
ARC
  5
DA1C
  8
0
 10
314.00000000001
 20
-95.48432173984304
 30
0.0
 40
1.0000000000000231
 50
0.0
 51
70.000000000001734
  0
LINE
  5
DA1D
  8
0
 10
315.00000018621012
 20
-99.173270375643028
 30
0.0
 11
315.00000018621012
 21
-95.484321681043014
 31
0.0
  0
LINE
  5
DA1E
  8
0
 10
289.99999981371008
 20
-95.484321681043014
 30
0.0
 11
289.99999981371008
 21
-99.173270375643028
 31
0.0
  0
LINE
  5
DA1F
  8
0
 10
289.99999981371008
 20
-99.173270375643028
 30
0.0
 11
290.20000040531011
 21
-99.373270501543004
 31
0.0
  0
LINE
  5
DA20
  8
0
 10
314.79999959461009
 20
-99.373270501543004
 30
0.0
 11
315.00000018621012
 21
-99.173270375643028
 31
0.0
  0
LINE
  5
DA21
  8
0
 10
314.34201985591011
 20
-94.544629310443042
 30
0.0
 11
309.74999979131007
 21
-92.873270367443013
 31
0.0
  0
LINE
  5
DA22
  8
0
 10
295.25000020861012
 20
-92.873270367443013
 30
0.0
 11
290.65798014401008
 21
-94.544629310443042
 31
0.0
  0
LINE
  5
DA23
  8
0
 10
295.49999978391008
 20
-103.873270424243
 30
0.0
 11
296.49999994781012
 21
-104.873270471743
 31
0.0
  0
LINE
  5
DA24
  8
0
 10
308.50000005211012
 20
-104.873270471743
 30
0.0
 11
309.50000021601011
 21
-103.873270424243
 31
0.0
  0
LINE
  5
DA25
  8
0
 10
309.5
 20
-104.873270445643
 30
0.0
 11
309.50000021601011
 21
-99.373270501543004
 31
0.0
  0
LINE
  5
DA26
  8
0
 10
295.49999978391008
 20
-99.373270501543004
 30
0.0
 11
295.5
 21
-104.873270445643
 31
0.0
  0
LINE
  5
DA28
  8
0
 10
290.09999964381001
 20
-103.873270424243
 30
0.0
 11
293.89999970791001
 21
-103.873270424243
 31
0.0
  0
LINE
  5
DA29
  8
0
 10
303.80000000351009
 20
-114.42327008134301
 30
0.0
 11
301.1999999964101
 21
-114.42327008134301
 31
0.0
  0
LINE
  5
DA2A
  8
0
 10
298.49999981001008
 20
-111.223270395043
 30
0.0
 11
298.49999981001008
 21
-109.123270702743
 31
0.0
  0
LINE
  5
DA2B
  8
0
 10
298.69999993591011
 20
-108.923270576843
 30
0.0
 11
298.69999993591011
 21
-111.42327052094301
 31
0.0
  0
LINE
  5
DA2C
  8
0
 10
306.30000006401008
 20
-111.42327052094301
 30
0.0
 11
306.30000006401008
 21
-108.923270576843
 31
0.0
  0
LINE
  5
DA2D
  8
0
 10
306.50000018991011
 20
-109.123270702743
 30
0.0
 11
306.50000018991011
 21
-111.223270395043
 31
0.0
  0
POLYLINE
  5
DA2E
  8
0
 66
     1
 10
0.0
 20
0.0
 30
0.0
 70
   128
  0
VERTEX
  5
DC82
  8
0
 10
306.73729186871009
 20
-90.473270719143045
 30
0.0
  0
VERTEX
  5
DC83
  8
0
 10
306.73168810081012
 20
-90.517297131243026
 30
0.0
  0
VERTEX
  5
DC84
  8
0
 10
306.71342067421011
 20
-90.566254896343082
 30
0.0
  0
VERTEX
  5
DC85
  8
0
 10
306.68254779651011
 20
-90.612794016643022
 30
0.0
  0
VERTEX
  5
DC86
  8
0
 10
306.59909989681
 20
-90.687088412443003
 30
0.0
  0
VERTEX
  5
DC87
  8
0
 10
306.3231778889101
 20
-90.801110235243016
 30
0.0
  0
VERTEX
  5
DC88
  8
0
 10
306.00589537990999
 20
-90.859040362043004
 30
0.0
  0
VERTEX
  5
DC89
  8
0
 10
305.67505560811009
 20
-90.931439516343005
 30
0.0
  0
VERTEX
  5
DC8A
  8
0
 10
305.3200026135101
 20
-90.973270801043057
 30
0.0
  0
SEQEND
  5
DC8B
  8
0
  0
LINE
  5
DA2F
  8
0
 10
305.3200026135101
 20
-90.973270801043057
 30
0.0
 11
299.68958768061009
 21
-90.973270801043057
 31
0.0
  0
POLYLINE
  5
DA30
  8
0
 66
     1
 10
0.0
 20
0.0
 30
0.0
 70
   128
  0
VERTEX
  5
DC8C
  8
0
 10
299.68958768061009
 20
-90.973270801043057
 30
0.0
  0
VERTEX
  5
DC8D
  8
0
 10
299.36840199861012
 20
-90.93474664274305
 30
0.0
  0
VERTEX
  5
DC8E
  8
0
 10
299.06537640841009
 20
-90.857506473743058
 30
0.0
  0
VERTEX
  5
DC8F
  8
0
 10
298.7873952463101
 20
-90.798197989543041
 30
0.0
  0
VERTEX
  5
DC90
  8
0
 10
298.52855602271012
 20
-90.722048399243008
 30
0.0
  0
VERTEX
  5
DC91
  8
0
 10
298.42533567921009
 20
-90.664855879942976
 30
0.0
  0
VERTEX
  5
DC92
  8
0
 10
298.33526840431011
 20
-90.574540873243052
 30
0.0
  0
VERTEX
  5
DC93
  8
0
 10
298.31281933931012
 20
-90.527408500343014
 30
0.0
  0
VERTEX
  5
DC94
  8
0
 10
298.30228049301007
 20
-90.473270719143045
 30
0.0
  0
SEQEND
  5
DC95
  8
0
  0
ARC
  5
DA31
  8
0
 10
304.80147704576342
 20
-82.496618619831835
 30
0.0
 40
1.9999877449062331
 50
3.0173423817321061
 51
87.002840906356255
  0
LINE
  5
DA32
  8
0
 10
307.99999997021013
 20
-91.873270203543015
 30
0.0
 11
297.00000002981
 21
-91.873270203543015
 31
0.0
  0
LINE
  5
DA33
  8
0
 10
298.30228049301007
 20
-90.473270719143045
 30
0.0
 11
297.00000002981
 21
-90.473270719143045
 31
0.0
  0
LINE
  5
DA34
  8
0
 10
307.99999997021013
 20
-90.473270719143045
 30
0.0
 11
306.73729186871009
 21
-90.473270719143045
 31
0.0
  0
ARC
  5
DA35
  8
0
 10
297.69722983268468
 20
-110.173270548893
 30
0.0
 40
2.6201623290624529
 50
331.50580835110128
 51
28.494191648902309
  0
ARC
  5
DA36
  8
0
 10
307.30537363303142
 20
-110.173270548893
 30
0.0
 40
2.622450719402706
 50
151.53294454877269
 51
208.46705545123089
  0
LINE
  5
DA37
  8
0
 10
300.00000005581012
 20
-113.373270933743
 30
0.0
 11
304.99999994411007
 21
-113.373270933743
 31
0.0
  0
LINE
  5
DA38
  8
0
 10
304.42264968061011
 20
-114.373270166343
 30
0.0
 11
300.57735031931009
 21
-114.373270166343
 31
0.0
  0
LINE
  5
DA39
  8
0
 10
315.5
 20
-99.373270501543004
 30
0.0
 11
289.5
 21
-99.373270445643016
 31
0.0
  0
LINE
  5
DA3A
  8
0
 10
309.74999979131007
 20
-92.873270367443013
 30
0.0
 11
295.25000020861012
 21
-92.873270367443013
 31
0.0
  0
LINE
  5
DA45
  8
0
 10
309.5
 20
-104.873270445643
 30
0.0
 11
295.5
 21
-104.873270982501
 31
0.0
  0
LINE
  5
DA46
  8
0
 10
295.49999978391008
 20
-103.873270424243
 30
0.0
 11
309.50000021601011
 21
-103.873270424243
 31
0.0
  0
LINE
  5
DA47
  8
0
 10
290.65797985668439
 20
-94.544629119057106
 30
0.0
 11
314.34201985591011
 21
-94.544629310443042
 31
0.0
  0
LINE
  5
DA48
  8
1
 10
302.5
 20
-119.42327008134301
 30
0.0
 11
302.49999999999989
 21
-75.373270471742103
 31
0.0
  0
LINE
  5
DA49
  8
1
 10
296.49999981001008
 20
-110.1732704717796
 30
0.0
 11
308.50000018998969
 21
-110.1732704717794
 31
0.0
  0
LINE
  5
DA4A
  8
1
 10
291.99999967589957
 20
-97.371692470995583
 30
0.0
 11
291.99999967589957
 21
-105.8716923936958
 31
0.0
  0
LINE
  5
DA4B
  8
0
 10
290.9999999776482
 20
-100.6732704456638
 30
0.0
 11
293.0000003054738
 21
-100.6732704456638
 31
0.0
  0
LINE
  5
DA4C
  8
3
 10
291.19999967589979
 20
-100.6732704456638
 30
0.0
 11
291.19999967589979
 21
-99.373270501543118
 31
0.0
  0
LINE
  5
DA4D
  8
3
 10
292.7999996758997
 20
-100.6732704456638
 30
0.0
 11
292.7999996758997
 21
-99.373270501543118
 31
0.0
  0
LINE
  5
DA4E
  8
3
 10
293.0000003054738
 20
-101.0196816976319
 30
0.0
 11
292.7999996758997
 21
-100.6732704456638
 31
0.0
  0
LINE
  5
DA4F
  8
3
 10
290.99999904632568
 20
-101.0196816976319
 30
0.0
 11
291.1999996758999
 21
-100.6732704456638
 31
0.0
  0
ARC
  5
DA50
  8
0
 10
302.50103687955419
 20
-103.4147665401867
 30
0.0
 40
23.041259493479519
 50
84.008638764087124
 51
95.986167154653089
  0
LINE
  5
DA91
  8
0
 10
151.79871957740991
 20
-234.2667142858086
 30
0.0
 11
151.79869210340991
 21
-234.2661908825086
 31
0.0
  0
LINE
  5
DA92
  8
0
 10
152.22324341530989
 20
-242.34758233630859
 30
0.0
 11
151.79871957740991
 21
-234.2667142858086
 31
0.0
  0
LINE
  5
DA93
  8
0
 10
143.20114165540991
 20
-234.2693648299086
 30
0.0
 11
142.77675565330989
 21
-242.34758233630859
 31
0.0
  0
ARC
  5
DA94
  8
0
 10
145.20874183148891
 20
-234.3816905122757
 30
0.0
 40
2.0107400443398329
 50
93.154265116486627
 51
176.7976270358061
  0
LINE
  5
DA95
  8
0
 10
152.9999999702099
 20
-244.74811842640861
 30
0.0
 11
152.9999999702099
 21
-242.34811877810861
 31
0.0
  0
LINE
  5
DA96
  8
0
 10
142.00000002980991
 20
-242.34811877810861
 30
0.0
 11
142.00000002980991
 21
-244.74811842640861
 31
0.0
  0
POLYLINE
  5
DA97
  8
0
 66
     1
 10
0.0
 20
0.0
 30
0.0
 70
   128
  0
VERTEX
  5
DC96
  8
0
 10
151.73729186870989
 20
-242.34811877810861
 30
0.0
  0
VERTEX
  5
DC97
  8
0
 10
151.73168810080989
 20
-242.39214519020859
 30
0.0
  0
VERTEX
  5
DC98
  8
0
 10
151.71342067420991
 20
-242.44110295530871
 30
0.0
  0
VERTEX
  5
DC99
  8
0
 10
151.68254779650991
 20
-242.48764207560859
 30
0.0
  0
VERTEX
  5
DC9A
  8
0
 10
151.59909989680989
 20
-242.56193647140859
 30
0.0
  0
VERTEX
  5
DC9B
  8
0
 10
151.32317788891001
 20
-242.67595829420861
 30
0.0
  0
VERTEX
  5
DC9C
  8
0
 10
151.0058953799099
 20
-242.7338884210086
 30
0.0
  0
VERTEX
  5
DC9D
  8
0
 10
150.67505560810989
 20
-242.8062875753086
 30
0.0
  0
VERTEX
  5
DC9E
  8
0
 10
150.3200026135099
 20
-242.84811886000861
 30
0.0
  0
SEQEND
  5
DC9F
  8
0
  0
LINE
  5
DA98
  8
0
 10
150.3200026135099
 20
-242.84811886000861
 30
0.0
 11
144.68958768061
 21
-242.84811886000861
 31
0.0
  0
POLYLINE
  5
DA99
  8
0
 66
     1
 10
0.0
 20
0.0
 30
0.0
 70
   128
  0
VERTEX
  5
DCA0
  8
0
 10
144.68958768061
 20
-242.84811886000861
 30
0.0
  0
VERTEX
  5
DCA1
  8
0
 10
144.3684019986099
 20
-242.80959470170859
 30
0.0
  0
VERTEX
  5
DCA2
  8
0
 10
144.06537640840989
 20
-242.7323545327086
 30
0.0
  0
VERTEX
  5
DCA3
  8
0
 10
143.7873952463099
 20
-242.67304604850861
 30
0.0
  0
VERTEX
  5
DCA4
  8
0
 10
143.52855602270989
 20
-242.59689645820859
 30
0.0
  0
VERTEX
  5
DCA5
  8
0
 10
143.42533567920989
 20
-242.53970393890859
 30
0.0
  0
VERTEX
  5
DCA6
  8
0
 10
143.33526840430989
 20
-242.44938893220859
 30
0.0
  0
VERTEX
  5
DCA7
  8
0
 10
143.3128193393099
 20
-242.4022565593086
 30
0.0
  0
VERTEX
  5
DCA8
  8
0
 10
143.3022804930099
 20
-242.34811877810861
 30
0.0
  0
SEQEND
  5
DCA9
  8
0
  0
ARC
  5
DA9A
  8
0
 10
149.80147704576319
 20
-234.37146667879739
 30
0.0
 40
1.9999877449062331
 50
3.0173423817321061
 51
87.002840906356226
  0
LINE
  5
DA9B
  8
0
 10
152.9999999702099
 20
-243.7481182625086
 30
0.0
 11
142.00000002980991
 21
-243.7481182625086
 31
0.0
  0
LINE
  5
DA9C
  8
0
 10
143.3022804930099
 20
-242.34811877810861
 30
0.0
 11
142.00000002980991
 21
-242.34811877810861
 31
0.0
  0
LINE
  5
DA9D
  8
0
 10
152.9999999702099
 20
-242.34811877810861
 30
0.0
 11
151.73729186870989
 21
-242.34811877810861
 31
0.0
  0
ARC
  5
DA9E
  8
0
 10
147.50103687955399
 20
-255.2896145991522
 30
0.0
 40
23.041259493479519
 50
84.008638764087166
 51
95.986167154653089
  0
LINE
  5
DA9F
  8
0
 10
306.79871957745002
 20
-236.2667142858086
 30
0.0
 11
306.79869210344998
 21
-236.2661908825086
 31
0.0
  0
LINE
  5
DAA0
  8
0
 10
307.22324341535
 20
-244.34758233630859
 30
0.0
 11
306.79871957745002
 21
-236.2667142858086
 31
0.0
  0
LINE
  5
DAA1
  8
0
 10
298.20114165544999
 20
-236.2693648299086
 30
0.0
 11
297.77675565334999
 21
-244.34758233630859
 31
0.0
  0
ARC
  5
DAA2
  8
0
 10
300.20874183152898
 20
-236.3816905122757
 30
0.0
 40
2.0107400443398329
 50
93.154265116486627
 51
176.7976270358061
  0
LINE
  5
DAA3
  8
0
 10
307.99999997024997
 20
-246.74811842640861
 30
0.0
 11
307.99999997024997
 21
-244.34811877810861
 31
0.0
  0
LINE
  5
DAA4
  8
0
 10
297.0000000298499
 20
-244.34811877810861
 30
0.0
 11
297.00000002985001
 21
-246.74811842640861
 31
0.0
  0
POLYLINE
  5
DAA5
  8
0
 66
     1
 10
0.0
 20
0.0
 30
0.0
 70
   128
  0
VERTEX
  5
DCAA
  8
0
 10
306.73729186874999
 20
-244.34811877810861
 30
0.0
  0
VERTEX
  5
DCAB
  8
0
 10
306.73168810085002
 20
-244.39214519020859
 30
0.0
  0
VERTEX
  5
DCAC
  8
0
 10
306.71342067425002
 20
-244.44110295530871
 30
0.0
  0
VERTEX
  5
DCAD
  8
0
 10
306.68254779655001
 20
-244.48764207560859
 30
0.0
  0
VERTEX
  5
DCAE
  8
0
 10
306.59909989685002
 20
-244.56193647140859
 30
0.0
  0
VERTEX
  5
DCAF
  8
0
 10
306.32317788895
 20
-244.67595829420861
 30
0.0
  0
VERTEX
  5
DCB0
  8
0
 10
306.00589537994989
 20
-244.7338884210086
 30
0.0
  0
VERTEX
  5
DCB1
  8
0
 10
305.67505560814999
 20
-244.8062875753086
 30
0.0
  0
VERTEX
  5
DCB2
  8
0
 10
305.32000261355
 20
-244.84811886000861
 30
0.0
  0
SEQEND
  5
DCB3
  8
0
  0
LINE
  5
DAA6
  8
0
 10
305.32000261355
 20
-244.84811886000861
 30
0.0
 11
299.68958768064999
 21
-244.84811886000861
 31
0.0
  0
POLYLINE
  5
DAA7
  8
0
 66
     1
 10
0.0
 20
0.0
 30
0.0
 70
   128
  0
VERTEX
  5
DCB4
  8
0
 10
299.68958768064999
 20
-244.84811886000861
 30
0.0
  0
VERTEX
  5
DCB5
  8
0
 10
299.36840199864997
 20
-244.80959470170859
 30
0.0
  0
VERTEX
  5
DCB6
  8
0
 10
299.06537640844999
 20
-244.7323545327086
 30
0.0
  0
VERTEX
  5
DCB7
  8
0
 10
298.78739524635
 20
-244.6730460485087
 30
0.0
  0
VERTEX
  5
DCB8
  8
0
 10
298.52855602275002
 20
-244.59689645820859
 30
0.0
  0
VERTEX
  5
DCB9
  8
0
 10
298.42533567925
 20
-244.53970393890859
 30
0.0
  0
VERTEX
  5
DCBA
  8
0
 10
298.33526840435002
 20
-244.44938893220871
 30
0.0
  0
VERTEX
  5
DCBB
  8
0
 10
298.31281933935003
 20
-244.4022565593086
 30
0.0
  0
VERTEX
  5
DCBC
  8
0
 10
298.30228049304998
 20
-244.34811877810861
 30
0.0
  0
SEQEND
  5
DCBD
  8
0
  0
ARC
  5
DAA8
  8
0
 10
304.80147704580332
 20
-236.37146667879739
 30
0.0
 40
1.9999877449062331
 50
3.0173423817321061
 51
87.002840906356226
  0
LINE
  5
DAA9
  8
0
 10
307.99999997024997
 20
-245.7481182625086
 30
0.0
 11
297.00000002985001
 21
-245.7481182625086
 31
0.0
  0
LINE
  5
DAAA
  8
0
 10
298.30228049304998
 20
-244.34811877810861
 30
0.0
 11
297.00000002985001
 21
-244.34811877810861
 31
0.0
  0
LINE
  5
DAAB
  8
0
 10
307.99999997024997
 20
-244.34811877810861
 30
0.0
 11
306.73729186874999
 21
-244.34811877810861
 31
0.0
  0
ARC
  5
DAAC
  8
0
 10
302.50103687959421
 20
-257.28961459915229
 30
0.0
 40
23.041259493479519
 50
84.008638764087166
 51
95.986167154653089
  0
LINE
  5
DAAF
  8
0
 10
146.1499999649497
 20
-266.24969625582912
 30
0.0
 11
146.19999999644969
 21
-266.29969617082912
 31
0.0
  0
LINE
  5
DAB0
  8
0
 10
148.8000000035498
 20
-266.29969617082912
 30
0.0
 11
148.8500000350497
 21
-266.24969625582912
 31
0.0
  0
LINE
  5
DAB1
  8
0
 10
148.8000000035498
 20
-266.29969617082912
 30
0.0
 11
146.19999999644969
 21
-266.29969617082912
 31
0.0
  0
LINE
  5
DAB2
  8
0
 10
301.1499999649501
 20
-268.24969625582918
 30
0.0
 11
301.19999999645017
 21
-268.29969617082918
 31
0.0
  0
LINE
  5
DAB3
  8
0
 10
303.80000000355011
 20
-268.29969617082918
 30
0.0
 11
303.85000003505007
 21
-268.24969625582918
 31
0.0
  0
LINE
  5
DAB4
  8
0
 10
303.80000000355011
 20
-268.29969617082918
 30
0.0
 11
301.19999999645017
 21
-268.29969617082918
 31
0.0
  0
ENDSEC
  0
EOF
