  0
SECTION
  2
HEADER
  9
$ACADVER
  1
AC1009
  9
$INSBASE
 10
0.0
 20
0.0
 30
0.0
  9
$EXTMIN
 10
0.0
 20
-308.14510668029999
 30
0.0
  9
$EXTMAX
 10
539.00000646710384
 20
222.7128479047137
 30
0.0
  9
$LIMMIN
 10
0.0
 20
0.0
  9
$LIMMAX
 10
187.5
 20
135.0
  9
$ORTHOMODE
 70
     1
  9
$REGENMODE
 70
     1
  9
$FILLMODE
 70
     1
  9
$QTEXTMODE
 70
     0
  9
$MIRRTEXT
 70
     0
  9
$DRAGMODE
 70
     2
  9
$LTSCALE
 40
5.0
  9
$OSMODE
 70
    37
  9
$ATTMODE
 70
     1
  9
$TEXTSIZE
 40
0.2
  9
$TRACEWID
 40
0.05
  9
$TEXTSTYLE
  7
STANDARD
  9
$CLAYER
  8
0
  9
$CELTYPE
  6
BYLAYER
  9
$CECOLOR
 62
   256
  9
$DIMSCALE
 40
1.0
  9
$DIMASZ
 40
3.0
  9
$DIMEXO
 40
2.0
  9
$DIMDLI
 40
0.3799999999999999
  9
$DIMRND
 40
0.0
  9
$DIMDLE
 40
0.0
  9
$DIMEXE
 40
2.0
  9
$DIMTP
 40
0.0
  9
$DIMTM
 40
0.0
  9
$DIMTXT
 40
3.2000000000000002
  9
$DIMCEN
 40
0.0
  9
$DIMTSZ
 40
0.0
  9
$DIMTOL
 70
     0
  9
$DIMLIM
 70
     0
  9
$DIMTIH
 70
     0
  9
$DIMTOH
 70
     0
  9
$DIMSE1
 70
     0
  9
$DIMSE2
 70
     0
  9
$DIMTAD
 70
     1
  9
$DIMZIN
 70
     8
  9
$DIMBLK
  1

  9
$DIMASO
 70
     0
  9
$DIMSHO
 70
     0
  9
$DIMPOST
  1

  9
$DIMAPOST
  1

  9
$DIMALT
 70
     0
  9
$DIMALTD
 70
     2
  9
$DIMALTF
 40
25.399999999999999
  9
$DIMLFAC
 40
1.0
  9
$DIMTOFL
 70
     0
  9
$DIMTVP
 40
1.6000000000000001
  9
$DIMTIX
 70
     1
  9
$DIMSOXD
 70
     0
  9
$DIMSAH
 70
     0
  9
$DIMBLK1
  1

  9
$DIMBLK2
  1

  9
$DIMSTYLE
  2
STANDARD
  9
$DIMCLRD
 70
     0
  9
$DIMCLRE
 70
     0
  9
$DIMCLRT
 70
     0
  9
$DIMTFAC
 40
1.0
  9
$DIMGAP
 40
1.0
  9
$LUNITS
 70
     2
  9
$LUPREC
 70
     1
  9
$SKETCHINC
 40
0.1
  9
$FILLETRAD
 40
0.4
  9
$AUNITS
 70
     0
  9
$AUPREC
 70
     0
  9
$MENU
  1
E:\r13\win\SUPPORT\ACAD
  9
$ELEVATION
 40
0.0
  9
$PELEVATION
 40
0.0
  9
$THICKNESS
 40
0.0
  9
$LIMCHECK
 70
     0
  9
$BLIPMODE
 70
     0
  9
$CHAMFERA
 40
0.0
  9
$CHAMFERB
 40
0.0
  9
$SKPOLY
 70
     0
  9
$TDCREATE
 40
2451824.7531229062
  9
$TDUPDATE
 40
2459191.6559606488
  9
$TDINDWG
 40
1.3567436458
  9
$TDUSRTIMER
 40
1.3567434606
  9
$USRTIMER
 70
     1
  9
$ANGBASE
 50
0.0
  9
$ANGDIR
 70
     0
  9
$PDMODE
 70
     0
  9
$PDSIZE
 40
0.0
  9
$PLINEWID
 40
0.0
  9
$COORDS
 70
     1
  9
$SPLFRAME
 70
     0
  9
$SPLINETYPE
 70
     6
  9
$SPLINESEGS
 70
     8
  9
$ATTDIA
 70
     0
  9
$ATTREQ
 70
     1
  9
$HANDLING
 70
     1
  9
$HANDSEED
  5
11857
  9
$SURFTAB1
 70
     6
  9
$SURFTAB2
 70
     6
  9
$SURFTYPE
 70
     6
  9
$SURFU
 70
     6
  9
$SURFV
 70
     6
  9
$UCSNAME
  2

  9
$UCSORG
 10
0.0
 20
0.0
 30
0.0
  9
$UCSXDIR
 10
1.0
 20
0.0
 30
0.0
  9
$UCSYDIR
 10
0.0
 20
1.0
 30
0.0
  9
$PUCSNAME
  2

  9
$PUCSORG
 10
0.0
 20
0.0
 30
0.0
  9
$PUCSXDIR
 10
1.0
 20
0.0
 30
0.0
  9
$PUCSYDIR
 10
0.0
 20
1.0
 30
0.0
  9
$USERI1
 70
     0
  9
$USERI2
 70
     1
  9
$USERI3
 70
     0
  9
$USERI4
 70
     0
  9
$USERI5
 70
     0
  9
$USERR1
 40
0.0
  9
$USERR2
 40
0.0
  9
$USERR3
 40
0.0
  9
$USERR4
 40
0.0
  9
$USERR5
 40
0.0
  9
$WORLDVIEW
 70
     1
  9
$SHADEDGE
 70
     3
  9
$SHADEDIF
 70
    70
  9
$TILEMODE
 70
     1
  9
$MAXACTVP
 70
    16
  9
$PLIMCHECK
 70
     0
  9
$PEXTMIN
 10
1.0000000000000000E+020
 20
1.0000000000000000E+020
 30
1.0000000000000000E+020
  9
$PEXTMAX
 10
-1.0000000000000000E+020
 20
-1.0000000000000000E+020
 30
-1.0000000000000000E+020
  9
$PLIMMIN
 10
0.0
 20
0.0
  9
$PLIMMAX
 10
12.0
 20
9.0
  9
$UNITMODE
 70
     0
  9
$VISRETAIN
 70
     0
  9
$PLINEGEN
 70
     0
  9
$PSLTSCALE
 70
     0
  0
ENDSEC
  0
SECTION
  2
TABLES
  0
TABLE
  2
VPORT
 70
     1
  0
VPORT
  2
*ACTIVE
 70
     0
 10
0.0
 20
0.0
 11
1.0
 21
1.0
 12
362.34662576687123
 22
150.0
 13
0.0
 23
0.0
 14
5.0
 24
5.0
 15
5.0
 25
5.0
 16
0.0
 26
0.0
 36
1.0
 17
0.0
 27
0.0
 37
0.0
 40
300.0
 41
2.415644171779141
 42
50.0
 43
0.0
 44
0.0
 50
0.0
 51
0.0
 71
     0
 72
   500
 73
     1
 74
     0
 75
     0
 76
     0
 77
     0
 78
     0
  0
ENDTAB
  0
TABLE
  2
LTYPE
 70
     5
  0
LTYPE
  2
CONTINUOUS
 70
     0
  3
Solid Line
 72
    65
 73
     0
 40
0.0
  0
LTYPE
  2
CENTER
 70
     0
  3
____ _ ____ _ ____ _ ____ _ ____ _ ____ _ ____
 72
    65
 73
     4
 40
2.0
 49
1.25
 49
-0.25
 49
0.25
 49
-0.25
  0
LTYPE
  2
PHANTOM2
 70
     0
  3
___ _ _ ___ _ _ ___ _ _ ___ _ _
 72
    65
 73
     6
 40
1.25
 49
0.625
 49
-0.125
 49
0.125
 49
-0.125
 49
0.125
 49
-0.125
  0
LTYPE
  2
HIDDEN
 70
     0
  3
__ __ __ __ __ __ __ __ __ __ __ __ __ __ __ __
 72
    65
 73
     2
 40
0.375
 49
0.25
 49
-0.125
  0
LTYPE
  2
PHANTOM
 70
     0
  3
_____ _ _ _____ _ _ _____ _ _ _____ _ _ ____
 72
    65
 73
     6
 40
2.5
 49
1.25
 49
-0.25
 49
0.25
 49
-0.25
 49
0.25
 49
-0.25
  0
ENDTAB
  0
TABLE
  2
LAYER
 70
     6
  0
LAYER
  2
0
 70
     0
 62
     7
  6
CONTINUOUS
  0
LAYER
  2
1
 70
     0
 62
     1
  6
CENTER
  0
LAYER
  2
2
 70
     0
 62
     2
  6
HIDDEN
  0
LAYER
  2
5
 70
     0
 62
     3
  6
PHANTOM
  0
LAYER
  2
3
 70
     0
 62
     3
  6
CONTINUOUS
  0
LAYER
  2
DEFPOINTS
 70
     0
 62
     7
  6
CONTINUOUS
  0
ENDTAB
  0
TABLE
  2
STYLE
 70
     2
  0
STYLE
  2
STANDARD
 70
     0
 40
0.0
 41
1.0
 50
0.0
 71
     0
 42
0.2
  3
TXT
  4
BIGFONT
  0
STYLE
  2
STANDARD1
 70
     0
 40
0.0
 41
1.0
 50
0.0
 71
     0
 42
3.0
  3
txt
  4

  0
ENDTAB
  0
TABLE
  2
VIEW
 70
     0
  0
ENDTAB
  0
TABLE
  2
UCS
 70
     0
  0
ENDTAB
  0
TABLE
  2
APPID
 70
    11
  0
APPID
  2
ACAD
 70
     0
  0
APPID
  2
ACAD_MLEADERVER
 70
     0
  0
APPID
  2
ACAD_EXEMPT_FROM_CAD_STANDARDS
 70
     0
  0
APPID
  2
ACAD_DSTYLE_DIMJAG
 70
     0
  0
APPID
  2
ACAD_DSTYLE_DIMTALN
 70
     0
  0
APPID
  2
ACAD_NAV_VCDISPLAY
 70
     0
  0
APPID
  2
ACAD_PSEXT
 70
     0
  0
APPID
  2
ACAECLAYERSTANDARD
 70
     0
  0
APPID
  2
ACCMTRANSPARENCY
 70
     0
  0
APPID
  2
ACAD_DSTYLE_DIMRADIAL_EXTENSION
 70
     0
  0
APPID
  2
ACADANNOTATIVE
 70
     0
  0
ENDTAB
  0
TABLE
  2
DIMSTYLE
 70
     1
  0
DIMSTYLE
  2
STANDARD
 70
     0
  3

  4

  5

  6

  7

 40
1.0
 41
0.18
 42
0.0625
 43
0.38
 44
0.18
 45
0.0
 46
0.0
 47
0.0
 48
0.0
140
0.18
141
0.09
142
0.0
143
25.399999999999999
144
1.0
145
0.0
146
1.0
147
0.09
 71
     0
 72
     0
 73
     1
 74
     1
 75
     0
 76
     0
 77
     0
 78
     0
170
     0
171
     2
172
     0
173
     0
174
     0
175
     0
176
     0
177
     0
178
     0
  0
ENDTAB
  0
ENDSEC
  0
SECTION
  2
BLOCKS
  0
BLOCK
  8
0
  2
$MODEL_SPACE
 70
     0
 10
0.0
 20
0.0
 30
0.0
  3
$MODEL_SPACE
  1

  0
ENDBLK
  5
9
  8
0
  0
BLOCK
 67
     1
  8
0
  2
$PAPER_SPACE
 70
     0
 10
0.0
 20
0.0
 30
0.0
  3
$PAPER_SPACE
  1

  0
ENDBLK
  5
E
 67
     1
  8
0
  0
ENDSEC
  0
SECTION
  2
ENTITIES
  0
TEXT
  5
7FEA
  8
0
 62
     3
 10
135.0
 20
0.0
 30
0.0
 40
3.2000000000000002
  1
■サムターンクランパー ストロングの取付け方法〈オフを上にする場合〉(下図)
  0
TEXT
  5
7FEB
  8
0
 62
     3
 10
185.0866666666665
 20
-19.168098188633891
 30
0.0
 40
3.2000000000000002
  1
6mmのプレートに固定する場合
 72
     1
 11
212.49999999999989
 21
-19.594764855300561
 31
0.0
 73
     1
  0
TEXT
  5
80DD
  8
0
 62
     3
 10
324.35333333333318
 20
-19.168098188633891
 30
0.0
 40
3.2000000000000002
  1
6mmを超え20mm以下のプレートに固定する場合
 72
     1
 11
367.49999999999989
 21
-19.594764855300561
 31
0.0
 73
     1
  0
TEXT
  5
8474
  8
0
 62
     3
 10
168.4333333333332
 20
-139.97327044564301
 30
0.0
 40
3.2000000000000002
  1
組付け状態
 72
     1
 11
177.49999999999989
 21
-139.97327044564301
 31
0.0
  0
TEXT
  5
8489
  8
0
 62
     3
 10
240.2466666666667
 20
-139.97327044564301
 30
0.0
 40
3.2000000000000002
  1
取付け穴
 72
     1
 11
247.5
 21
-139.97327044564301
 31
0.0
  0
TEXT
  5
848A
  8
0
 62
     3
 10
323.43333333333322
 20
-139.97327044564301
 30
0.0
 40
3.2000000000000002
  1
組付け状態
 72
     1
 11
332.49999999999989
 21
-139.97327044564301
 31
0.0
  0
TEXT
  5
848B
  8
0
 62
     3
 10
395.24666666666673
 20
-139.97327044564301
 30
0.0
 40
3.2000000000000002
  1
取付け穴
 72
     1
 11
402.5
 21
-139.97327044564301
 31
0.0
  0
TEXT
  5
87B9
  8
0
 62
     3
 10
0.0
 20
0.0
 30
0.0
 40
10.0
  1
QCTHS0834-20
  7
STANDARD1
  0
TEXT
  5
884B
  8
0
 62
     3
 10
135.0
 20
-7.0
 30
0.0
 40
3.2000000000000002
  1
■Installation Instructions for Heavy Duty Quarter-Turn Clamps〈For Y-axis Positioning of "OFF" Mark〉 (see diagram below)
  0
TEXT
  5
884C
  8
0
 62
     3
 10
153.77999999999989
 20
-26.168098188633891
 30
0.0
 40
3.2000000000000002
  1
For installation on plate of 6 mm thickness.
 72
     1
 11
212.49999999999989
 21
-26.594764855300561
 31
0.0
 73
     1
  0
TEXT
  5
884D
  8
0
 62
     3
 10
293.36666666666667
 20
-26.168098188633891
 30
0.0
 40
3.2000000000000002
  1
For installation on plate of over 6 to 20 mm thickness.
 72
     1
 11
367.49999999999989
 21
-26.594764855300561
 31
0.0
 73
     1
  0
TEXT
  5
884E
  8
0
 62
     3
 10
152.53999999999979
 20
-146.97327044564301
 30
0.0
 40
3.2000000000000002
  1
Installed condition
 72
     1
 11
177.49999999999989
 21
-146.97327044564301
 31
0.0
  0
TEXT
  5
884F
  8
0
 62
     3
 10
225.4733333333333
 20
-146.97327044564301
 30
0.0
 40
3.2000000000000002
  1
Installation hole
 72
     1
 11
247.5
 21
-146.97327044564301
 31
0.0
  0
TEXT
  5
8850
  8
0
 62
     3
 10
307.53999999999991
 20
-146.97327044564301
 30
0.0
 40
3.2000000000000002
  1
Installed condition
 72
     1
 11
332.49999999999989
 21
-146.97327044564301
 31
0.0
  0
TEXT
  5
8851
  8
0
 62
     3
 10
380.4733333333333
 20
-146.97327044564301
 30
0.0
 40
3.2000000000000002
  1
Installation hole
 72
     1
 11
402.5
 21
-146.97327044564301
 31
0.0
  0
LINE
  5
B8A9
  8
0
 10
176.75000112503761
 20
110.8000002219341
 30
0.0
 11
176.75000112503761
 21
113.80000030621881
 31
0.0
  0
LINE
  5
B8AA
  8
0
 10
171.25000115483999
 20
113.80000030621881
 30
0.0
 11
171.25000115483999
 21
110.8000002219341
 31
0.0
  0
LINE
  5
B8AB
  8
0
 10
175.50000138580799
 20
113.80000030621881
 30
0.0
 11
175.50000138580799
 21
116.30000025033949
 31
0.0
  0
LINE
  5
B8AC
  8
0
 10
172.50000089406959
 20
116.30000025033949
 30
0.0
 11
172.50000089406959
 21
113.80000030621881
 31
0.0
  0
LINE
  5
B8AD
  8
0
 10
155.7500004768371
 20
110.8000002219341
 30
0.0
 11
155.7500004768371
 21
113.80000030621881
 31
0.0
  0
LINE
  5
B8AE
  8
0
 10
150.2500005066394
 20
113.80000030621881
 30
0.0
 11
150.2500005066394
 21
110.8000002219341
 31
0.0
  0
LINE
  5
B8AF
  8
0
 10
154.50000073760739
 20
113.80000030621881
 30
0.0
 11
154.50000073760739
 21
116.30000025033949
 31
0.0
  0
LINE
  5
B8B0
  8
0
 10
151.50000117719171
 20
116.30000025033949
 30
0.0
 11
151.50000117719171
 21
113.80000030621881
 31
0.0
  0
LINE
  5
B8B1
  8
0
 10
174.5000007562339
 20
132.3000000789761
 30
0.0
 11
174.5000007562339
 21
133.90000108629459
 31
0.0
  0
LINE
  5
B8B2
  8
0
 10
159.50000109151
 20
133.90000108629459
 30
0.0
 11
159.50000109151
 21
132.3000000789761
 31
0.0
  0
POLYLINE
  5
B8B3
  8
0
 66
     1
 10
0.0
 20
0.0
 30
0.0
 70
   128
  0
VERTEX
  5
11245
  8
0
 10
164.3203805200755
 20
103.2133758068084
 30
0.0
  0
VERTEX
  5
11246
  8
0
 10
163.98902619257569
 20
102.8585782274604
 30
0.0
  0
VERTEX
  5
11247
  8
0
 10
163.6675133835524
 20
102.52750003710391
 30
0.0
  0
SEQEND
  5
11248
  8
0
  0
LINE
  5
B8B4
  8
0
 10
171.00000111386171
 20
105.4713203571735
 30
0.0
 11
171.0000011138618
 21
110.8000002219341
 31
0.0
  0
LINE
  5
B8B5
  8
0
 10
163.00000073388219
 20
110.8000002219341
 30
0.0
 11
163.00000073388219
 21
105.4713203571734
 31
0.0
  0
LINE
  5
B8B6
  8
0
 10
184.00000184774399
 20
116.80000033229589
 30
0.0
 11
184.00000184774399
 21
128.87001540511841
 31
0.0
  0
LINE
  5
B8B7
  8
0
 10
150.0
 20
128.87001540511841
 30
0.0
 11
150.0
 21
116.80000033229589
 31
0.0
  0
LINE
  5
B8B8
  8
0
 10
150.0
 20
116.80000033229589
 30
0.0
 11
150.5000010132789
 21
116.30000025033949
 31
0.0
  0
LINE
  5
B8B9
  8
0
 10
183.500000834465
 20
116.30000025033949
 30
0.0
 11
184.00000184774399
 21
116.80000033229589
 31
0.0
  0
ARC
  5
B8BA
  8
0
 10
151.00000092387199
 20
128.87001590297919
 30
0.0
 40
1.00000000000001
 50
109.9999999999965
 51
180.0
  0
ARC
  5
B8BB
  8
0
 10
183.00000092387199
 20
128.87001590297919
 30
0.0
 40
1.00000000000001
 50
0.0
 51
70.000000000003425
  0
LINE
  5
B8BD
  8
0
 10
183.342020586133
 20
129.80970870703459
 30
0.0
 11
176.66569408648911
 21
132.23969281897141
 31
0.0
  0
LINE
  5
B8BE
  8
0
 10
157.33430776745081
 20
132.2396932169795
 30
0.0
 11
150.65798126161101
 21
129.80970870703459
 31
0.0
  0
ARC
  5
B8BF
  8
0
 10
157.67632790458029
 20
131.30000019818539
 30
0.0
 40
1.0
 50
90.0
 51
109.9999999999965
  0
ARC
  5
B8C0
  8
0
 10
176.3236739431635
 20
131.30000019818539
 30
0.0
 40
1.0
 50
70.000000000003425
 51
90.0
  0
ARC
  5
B8C1
  8
0
 10
176.400000923872
 20
115.9000001981854
 30
0.0
 40
0.3999999999999915
 50
90.0
 51
180.0
  0
ARC
  5
B8C2
  8
0
 10
157.60000092387199
 20
115.9000001981854
 30
0.0
 40
0.3999999999999915
 50
0.0
 51
90.0
  0
LINE
  5
B8C3
  8
0
 10
176.0000005364418
 20
113.80000030621881
 30
0.0
 11
176.0000005364418
 21
115.8999999985099
 31
0.0
  0
LINE
  5
B8C4
  8
0
 10
158.00000131130221
 20
115.8999999985099
 30
0.0
 11
158.00000131130221
 21
111.8000002112239
 31
0.0
  0
LINE
  5
B8C5
  8
0
 10
158.00000131130221
 20
111.8000002112239
 30
0.0
 11
159.00000054389241
 21
110.8000002219341
 31
0.0
  0
LINE
  5
B8C9
  8
0
 10
176.75000112503761
 20
110.8000002219341
 30
0.0
 11
171.25000115483999
 21
110.8000002219341
 31
0.0
  0
LINE
  5
B8CA
  8
0
 10
176.75000112503761
 20
113.80000030621881
 30
0.0
 11
171.25000115483999
 21
113.80000030621881
 31
0.0
  0
LINE
  5
B8CB
  8
0
 10
155.7500004768371
 20
110.8000002219341
 30
0.0
 11
150.2500005066394
 21
110.8000002219341
 31
0.0
  0
LINE
  5
B8CC
  8
0
 10
155.7500004768371
 20
113.80000030621881
 30
0.0
 11
150.2500005066394
 21
113.80000030621881
 31
0.0
  0
LINE
  5
B8E1
  8
1
 10
167.00000092387191
 20
95.0
 30
0.0
 11
167.00000092387199
 21
152.77002055197889
 31
0.0
  0
LINE
  5
B8E5
  8
0
 10
174.42665072157979
 20
144.82095781713721
 30
0.0
 11
174.9724127128494
 21
134.42548993195081
 31
0.0
  0
LINE
  5
B8F1
  8
0
 10
159.57335128455929
 20
144.8209594493741
 30
0.0
 11
159.02758911252019
 21
134.42549053579569
 31
0.0
  0
ARC
  5
B900
  8
0
 10
162.56923049148091
 20
144.6636720989716
 30
0.0
 40
3.0000052555057062
 50
93.000093750172496
 51
176.99466022465489
  0
ARC
  5
B903
  8
0
 10
171.4307791422687
 20
144.66367871094499
 30
0.0
 40
2.9999972061600588
 50
3.0051901766222282
 51
87.000049434053281
  0
ARC
  5
B906
  8
0
 10
169.46324680035639
 20
194.45073826823671
 30
0.0
 40
46.745662758729857
 50
266.9794205300509
 51
271.27084544937719
  0
LINE
  5
B907
  8
0
 10
170.50000103190541
 20
147.71657381206751
 30
0.0
 11
171.5877842799681
 21
147.65956466066081
 31
0.0
  0
LINE
  5
B908
  8
0
 10
162.4122174456715
 20
147.65956569463009
 30
0.0
 11
163.50000081583849
 21
147.71657381206751
 31
0.0
  0
ARC
  5
B909
  8
0
 10
164.53840369618661
 20
194.34277525712449
 30
0.0
 40
46.637763043878408
 50
268.72418796518411
 51
273.02554605539183
  0
LINE
  5
B917
  8
0
 10
174.50001740215831
 20
133.90000108629459
 30
0.0
 11
159.4999844452139
 21
133.90000108629459
 31
0.0
  0
ARC
  5
B91D
  8
0
 10
174.47310035419181
 20
134.39927603312131
 30
0.0
 40
0.4999999999999941
 50
273.0840672780181
 51
3.0052693596901552
  0
ARC
  5
B91E
  8
0
 10
159.5269008538296
 20
134.39927550939839
 30
0.0
 40
0.4999994426181066
 50
176.99459789922531
 51
266.9160026938743
  0
LINE
  5
B91F
  8
0
 10
163.6681329458952
 20
102.52690771594639
 30
0.0
 11
163.28599825501439
 21
102.10933480411769
 31
0.0
  0
ARC
  5
B921
  8
0
 10
172.10617934500519
 20
83.029668725985076
 30
0.0
 40
21.01973482499902
 50
101.7170705944185
 51
114.81023835955629
  0
ARC
  5
B923
  8
0
 10
176.85675051627149
 20
103.6169403676779
 30
0.0
 40
6.1433084496929924
 50
162.43102916268211
 51
179.22531567055381
  0
LINE
  5
B924
  8
0
 10
170.71400359272951
 20
103.7000002339482
 30
0.0
 11
170.71400359272951
 21
102.0000003278255
 31
0.0
  0
LINE
  5
B925
  8
0
 10
163.28599825501439
 20
102.0000003278255
 30
0.0
 11
170.71400359272951
 21
102.0000003278255
 31
0.0
  0
LINE
  5
B927
  8
0
 10
167.87615567445749
 20
103.6114016547799
 30
0.0
 11
167.8375118994154
 21
103.6114016547799
 31
0.0
  0
LINE
  5
B928
  8
0
 10
168.24292272794989
 20
103.6114016547799
 30
0.0
 11
167.87615567445749
 21
103.6114016547799
 31
0.0
  0
POLYLINE
  5
B929
  8
0
 66
     1
 10
0.0
 20
0.0
 30
0.0
 70
   128
  0
VERTEX
  5
11249
  8
0
 10
168.57262849807739
 20
103.5166866146028
 30
0.0
  0
VERTEX
  5
1124A
  8
0
 10
168.38915119878939
 20
103.5698846913874
 30
0.0
  0
VERTEX
  5
1124B
  8
0
 10
168.24292272794989
 20
103.6114016547799
 30
0.0
  0
SEQEND
  5
1124C
  8
0
  0
POLYLINE
  5
B92A
  8
0
 66
     1
 10
0.0
 20
0.0
 30
0.0
 70
   128
  0
VERTEX
  5
1124D
  8
0
 10
169.3787280004471
 20
106.8839550949633
 30
0.0
  0
VERTEX
  5
1124E
  8
0
 10
169.6336787194013
 20
106.7056473344564
 30
0.0
  0
VERTEX
  5
1124F
  8
0
 10
169.87451431341469
 20
106.3856211490929
 30
0.0
  0
VERTEX
  5
11250
  8
0
 10
170.05824004299939
 20
105.90911088511341
 30
0.0
  0
VERTEX
  5
11251
  8
0
 10
170.14263649471101
 20
105.29627595096819
 30
0.0
  0
VERTEX
  5
11252
  8
0
 10
170.09518817067141
 20
104.65040095150469
 30
0.0
  0
VERTEX
  5
11253
  8
0
 10
169.9063029140234
 20
104.0661571547389
 30
0.0
  0
VERTEX
  5
11254
  8
0
 10
169.56719788722691
 20
103.6265817470848
 30
0.0
  0
VERTEX
  5
11255
  8
0
 10
169.40311095677311
 20
103.51896649226541
 30
0.0
  0
VERTEX
  5
11256
  8
0
 10
169.07435432076451
 20
103.42470919713379
 30
0.0
  0
VERTEX
  5
11257
  8
0
 10
168.71627429500219
 20
103.463857807219
 30
0.0
  0
VERTEX
  5
11258
  8
0
 10
168.57262849807739
 20
103.5166866146028
 30
0.0
  0
SEQEND
  5
11259
  8
0
  0
LINE
  5
B92B
  8
0
 10
169.16548330336809
 20
106.953748408705
 30
0.0
 11
169.3787280004471
 21
106.8839550949633
 31
0.0
  0
POLYLINE
  5
B92C
  8
0
 66
     1
 10
0.0
 20
0.0
 30
0.0
 70
   128
  0
VERTEX
  5
1125A
  8
0
 10
168.78409599885339
 20
107.0706107653677
 30
0.0
  0
VERTEX
  5
1125B
  8
0
 10
169.0001868177205
 20
107.0055676624179
 30
0.0
  0
VERTEX
  5
1125C
  8
0
 10
169.16548330336809
 20
106.953748408705
 30
0.0
  0
SEQEND
  5
1125D
  8
0
  0
POLYLINE
  5
B92D
  8
0
 66
     1
 10
0.0
 20
0.0
 30
0.0
 70
   128
  0
VERTEX
  5
1125E
  8
0
 10
168.36808153893799
 20
107.15574738569551
 30
0.0
  0
VERTEX
  5
1125F
  8
0
 10
168.4770707273855
 20
107.15020368807021
 30
0.0
  0
VERTEX
  5
11260
  8
0
 10
168.78409599885339
 20
107.0706107653677
 30
0.0
  0
SEQEND
  5
11261
  8
0
  0
LINE
  5
B92E
  8
0
 10
168.36808153893799
 20
107.15574738569551
 30
0.0
 11
167.6945936400443
 21
107.15574738569551
 31
0.0
  0
LINE
  5
B92F
  8
0
 10
167.6945936400443
 20
107.15574738569551
 30
0.0
 11
167.6945936400443
 21
107.151311263442
 31
0.0
  0
POLYLINE
  5
B930
  8
0
 66
     1
 10
0.0
 20
0.0
 30
0.0
 70
   128
  0
VERTEX
  5
11262
  8
0
 10
167.24570812075399
 20
107.0683038793504
 30
0.0
  0
VERTEX
  5
11263
  8
0
 10
167.27660087635741
 20
107.07958312705161
 30
0.0
  0
VERTEX
  5
11264
  8
0
 10
167.6945936400443
 20
107.151311263442
 30
0.0
  0
SEQEND
  5
11265
  8
0
  0
POLYLINE
  5
B931
  8
0
 66
     1
 10
0.0
 20
0.0
 30
0.0
 70
   128
  0
VERTEX
  5
11266
  8
0
 10
163.04174074903131
 20
105.4730512201786
 30
0.0
  0
VERTEX
  5
11267
  8
0
 10
163.07235797867179
 20
105.5223158560693
 30
0.0
  0
VERTEX
  5
11268
  8
0
 10
163.09774979017669
 20
105.55574987083671
 30
0.0
  0
VERTEX
  5
11269
  8
0
 10
163.159797526896
 20
105.62280556187029
 30
0.0
  0
VERTEX
  5
1126A
  8
0
 10
163.196368701756
 20
105.6563364341855
 30
0.0
  0
VERTEX
  5
1126B
  8
0
 10
163.2366039324551
 20
105.68983983248469
 30
0.0
  0
VERTEX
  5
1126C
  8
0
 10
163.32796737551689
 20
105.7566720061004
 30
0.0
  0
VERTEX
  5
1126D
  8
0
 10
163.37897637858981
 20
105.7899104431271
 30
0.0
  0
VERTEX
  5
1126E
  8
0
 10
163.43349344097069
 20
105.8230012655258
 30
0.0
  0
VERTEX
  5
1126F
  8
0
 10
163.5529094841331
 20
105.8887540362775
 30
0.0
  0
VERTEX
  5
11270
  8
0
 10
163.61759542487559
 20
105.9217414818704
 30
0.0
  0
VERTEX
  5
11271
  8
0
 10
163.68552003987131
 20
105.95489516854281
 30
0.0
  0
VERTEX
  5
11272
  8
0
 10
163.83089413866401
 20
106.0216109268367
 30
0.0
  0
VERTEX
  5
11273
  8
0
 10
163.98843480274081
 20
106.0886312276125
 30
0.0
  0
VERTEX
  5
11274
  8
0
 10
164.0715513844043
 20
106.1221648938954
 30
0.0
  0
VERTEX
  5
11275
  8
0
 10
164.24625399522481
 20
106.189189851284
 30
0.0
  0
VERTEX
  5
11276
  8
0
 10
164.4316295627504
 20
106.2559163197875
 30
0.0
  0
VERTEX
  5
11277
  8
0
 10
164.52807290479541
 20
106.28907745704051
 30
0.0
  0
VERTEX
  5
11278
  8
0
 10
164.7282185498625
 20
106.3549196347594
 30
0.0
  0
VERTEX
  5
11279
  8
0
 10
164.8315858095884
 20
106.3878218643367
 30
0.0
  0
VERTEX
  5
1127A
  8
0
 10
164.9370052386075
 20
106.42090430483221
 30
0.0
  0
VERTEX
  5
1127B
  8
0
 10
165.15370921697459
 20
106.48751785047349
 30
0.0
  0
VERTEX
  5
1127C
  8
0
 10
165.37744572851801
 20
106.5544904209673
 30
0.0
  0
VERTEX
  5
1127D
  8
0
 10
165.49164729658511
 20
106.58802059479061
 30
0.0
  0
VERTEX
  5
1127E
  8
0
 10
165.72440878953779
 20
106.6550793126225
 30
0.0
  0
VERTEX
  5
1127F
  8
0
 10
165.9621490165591
 20
106.7218944896012
 30
0.0
  0
VERTEX
  5
11280
  8
0
 10
166.08256663894281
 20
106.75512035377319
 30
0.0
  0
VERTEX
  5
11281
  8
0
 10
166.326175595168
 20
106.82111876085401
 30
0.0
  0
VERTEX
  5
11282
  8
0
 10
166.4490026072599
 20
106.8539392668754
 30
0.0
  0
VERTEX
  5
11283
  8
0
 10
166.51059772120789
 20
106.8704173900187
 30
0.0
  0
VERTEX
  5
11284
  8
0
 10
166.5722991223447
 20
106.8869399838149
 30
0.0
  0
VERTEX
  5
11285
  8
0
 10
166.69597878935741
 20
106.9201081059873
 30
0.0
  0
VERTEX
  5
11286
  8
0
 10
166.81991586519871
 20
106.95340917445721
 30
0.0
  0
VERTEX
  5
11287
  8
0
 10
166.8819390819408
 20
106.9700984749943
 30
0.0
  0
VERTEX
  5
11288
  8
0
 10
167.00605298583471
 20
107.00354343280191
 30
0.0
  0
VERTEX
  5
11289
  8
0
 10
167.12589059025049
 20
107.0358964148909
 30
0.0
  0
VERTEX
  5
1128A
  8
0
 10
167.24570812075399
 20
107.0683038793504
 30
0.0
  0
SEQEND
  5
1128B
  8
0
  0
LINE
  5
B932
  8
0
 10
163.04174074903131
 20
105.4730512201786
 30
0.0
 11
163.00000073388219
 21
105.47382002696391
 31
0.0
  0
ARC
  5
B934
  8
0
 10
157.18492168218759
 20
103.6236684665986
 30
0.0
 40
6.1015540550094052
 50
0.7168013525240309
 51
17.626853814240349
  0
LINE
  5
B935
  8
0
 10
163.28599825501439
 20
103.7000002339482
 30
0.0
 11
163.28599825501439
 21
102.0000003278255
 31
0.0
  0
LINE
  5
B93A
  8
0
 10
170.45227447524661
 20
100.7411809638142
 30
0.0
 11
170.71400359272951
 21
102.0000003278255
 31
0.0
  0
LINE
  5
B93C
  8
0
 10
163.54772737249729
 20
100.7411809638142
 30
0.0
 11
163.28599825501439
 21
102.0000003278255
 31
0.0
  0
POLYLINE
  5
B93D
  8
0
 66
     1
 10
0.0
 20
0.0
 30
0.0
 70
   128
  0
VERTEX
  5
1128C
  8
0
 10
163.04174074903131
 20
105.4730512201786
 30
0.0
  0
VERTEX
  5
1128D
  8
0
 10
163.63065582700071
 20
104.8759742639959
 30
0.0
  0
VERTEX
  5
1128E
  8
0
 10
164.23534192144871
 20
104.2691910639405
 30
0.0
  0
SEQEND
  5
1128F
  8
0
  0
ARC
  5
B94F
  8
0
 10
164.44180433825201
 20
100.88644287457269
 30
0.0
 40
0.9058005538805724
 50
189.22828813800629
 51
254.88667014246221
  0
ARC
  5
B950
  8
0
 10
169.58893808745259
 20
100.8587080424051
 30
0.0
 40
0.8712992211009824
 50
283.63713674668372
 51
352.24790497285318
  0
LINE
  5
B951
  8
0
 10
169.79436608962709
 20
100.0119721516967
 30
0.0
 11
169.66700446791941
 21
100.0
 31
0.0
  0
LINE
  5
B952
  8
0
 10
169.66700446791941
 20
100.0
 30
0.0
 11
164.33299737982449
 21
100.0
 31
0.0
  0
LINE
  5
B953
  8
0
 10
164.33299737982449
 20
100.0
 30
0.0
 11
164.20563575811681
 21
100.0119721516967
 31
0.0
  0
ARC
  5
B95A
  8
0
 10
163.65125388637691
 20
103.67644563162141
 30
0.0
 40
0.832158414827416
 50
1.6305302075743211
 51
45.100582892334259
  0
LINE
  5
B95B
  8
0
 10
164.23534192144871
 20
104.2691910639405
 30
0.0
 11
164.2386448569595
 21
104.2659025639295
 31
0.0
  0
LINE
  5
B96F
  8
0
 10
183.500000834465
 20
116.30000025033949
 30
0.0
 11
150.5000010132789
 21
116.30000025033949
 31
0.0
  0
ARC
  5
B971
  8
0
 10
180.95427858606399
 20
137.42794685514011
 30
0.0
 40
6.8680270447692067
 50
239.38897087633271
 51
250.7881159914208
  0
ARC
  5
B972
  8
0
 10
184.3007531228921
 20
145.3408287534601
 30
0.0
 40
15.451441595868429
 50
248.72495385315341
 51
255.05804423732141
  0
ARC
  5
B973
  8
0
 10
181.45063393071251
 20
134.14895274968589
 30
0.0
 40
3.9053451115403282
 50
253.12156023656709
 51
266.0247915448935
  0
POLYLINE
  5
B974
  8
0
 66
     1
 10
0.0
 20
0.0
 30
0.0
 70
   128
  0
VERTEX
  5
11290
  8
0
 10
181.13442193716759
 20
130.41247744113201
 30
0.0
  0
VERTEX
  5
11291
  8
0
 10
181.24253731220961
 20
130.3438482806086
 30
0.0
  0
VERTEX
  5
11292
  8
0
 10
181.28425590693951
 20
130.2726598456502
 30
0.0
  0
VERTEX
  5
11293
  8
0
 10
181.17989655584091
 20
130.2530033513903
 30
0.0
  0
SEQEND
  5
11294
  8
0
  0
ARC
  5
B975
  8
0
 10
176.03753403830569
 20
120.2401163586084
 30
0.0
 40
11.377837942544611
 50
63.386721823623581
 51
70.174906634427501
  0
ARC
  5
B976
  8
0
 10
169.5917509290469
 20
104.4209827556229
 30
0.0
 40
28.45407499545982
 50
68.767850782967614
 51
72.232401893889943
  0
ARC
  5
B977
  8
0
 10
177.08204197233539
 20
128.295321489793
 30
0.0
 40
3.4361595051728591
 50
69.690445045096411
 51
84.511461445542494
  0
POLYLINE
  5
B978
  8
0
 66
     1
 10
0.0
 20
0.0
 30
0.0
 70
   128
  0
VERTEX
  5
11295
  8
0
 10
177.45703049004069
 20
131.51702042669061
 30
0.0
  0
VERTEX
  5
11296
  8
0
 10
177.30174735188481
 20
131.66478034108869
 30
0.0
  0
VERTEX
  5
11297
  8
0
 10
177.3229600861668
 20
131.70267958194009
 30
0.0
  0
VERTEX
  5
11298
  8
0
 10
177.41069905459881
 20
131.71572741121051
 30
0.0
  0
SEQEND
  5
11299
  8
0
  0
LINE
  5
B97B
  8
0
 10
174.8766643926501
 20
131.6816000267863
 30
0.0
 11
178.456243686378
 21
130.54624702781439
 31
0.0
  0
LINE
  5
B97C
  8
0
 10
174.50000215321779
 20
131.65898378938431
 30
0.0
 11
174.8766643926501
 21
131.6816000267863
 31
0.0
  0
LINE
  5
B97D
  8
0
 10
177.50729490071529
 20
130.22689465433359
 30
0.0
 11
174.50000215321779
 21
131.65898378938431
 31
0.0
  0
LINE
  5
B97E
  8
0
 10
177.88309939205641
 20
130.24362865835431
 30
0.0
 11
177.50729490071529
 21
130.22689465433359
 31
0.0
  0
LINE
  5
B97F
  8
0
 10
175.50901100039479
 20
131.3789127394557
 30
0.0
 11
177.88309939205641
 21
130.24362865835431
 31
0.0
  0
LINE
  5
B980
  8
0
 10
179.05941847711799
 20
130.24440165609121
 30
0.0
 11
175.50901100039479
 21
131.3789127394557
 31
0.0
  0
LINE
  5
B981
  8
0
 10
179.46525346487761
 20
130.22647555917499
 30
0.0
 11
179.05941847711799
 21
130.24440165609121
 31
0.0
  0
LINE
  5
B982
  8
0
 10
176.45795978605739
 20
131.65838774293661
 30
0.0
 11
179.46525346487761
 21
130.22647555917499
 31
0.0
  0
LINE
  5
B983
  8
0
 10
176.0821552947163
 20
131.6812796518206
 30
0.0
 11
176.45795978605739
 21
131.65838774293661
 31
0.0
  0
LINE
  5
B984
  8
0
 10
178.456243686378
 20
130.54624702781439
 30
0.0
 11
176.0821552947163
 21
131.6812796518206
 31
0.0
  0
LINE
  5
B98B
  8
0
 10
157.67632760107509
 20
132.3000000789761
 30
0.0
 11
176.3236739431635
 21
132.30000019818539
 31
0.0
  0
LINE
  5
B98D
  8
0
 10
158.00000131130221
 20
111.8000002112239
 30
0.0
 11
171.25000115484011
 21
111.8000002112239
 31
0.0
  0
LINE
  5
B98F
  8
0
 10
171.25000115483999
 20
110.8000002219341
 30
0.0
 11
159.0000005438925
 21
110.8000002219342
 31
0.0
  0
ARC
  5
B99D
  8
0
 10
183.71178832132969
 20
143.1250921832526
 30
0.0
 40
13.08258235203555
 50
248.35614601286409
 51
254.30049930201929
  0
ARC
  5
B9A0
  8
0
 10
181.24239457342381
 20
137.55037925436719
 30
0.0
 40
6.9942052452394083
 50
241.218379246019
 51
250.3154753135361
  0
POLYLINE
  5
B9A1
  8
0
 66
     1
 10
0.0
 20
0.0
 30
0.0
 70
   128
  0
VERTEX
  5
1129A
  8
0
 10
177.8216814622283
 20
131.5562570467591
 30
0.0
  0
VERTEX
  5
1129B
  8
0
 10
177.7666412293911
 20
131.54707420617339
 30
0.0
  0
VERTEX
  5
1129C
  8
0
 10
177.7747372165322
 20
131.4984479919076
 30
0.0
  0
VERTEX
  5
1129D
  8
0
 10
177.87487674504521
 20
131.42022993415591
 30
0.0
  0
SEQEND
  5
1129E
  8
0
  0
ARC
  5
B9A2
  8
0
 10
177.60502153629801
 20
129.21037588646161
 30
0.0
 40
2.3558650092361102
 50
69.768629510604001
 51
84.723269390736576
  0
ARC
  5
B9A3
  8
0
 10
172.81912036226419
 20
113.5811432510134
 30
0.0
 40
18.698215240299401
 50
68.394257416710801
 51
72.570909398121543
  0
ARC
  5
B9A4
  8
0
 10
176.00051633932591
 20
120.9388409696158
 30
0.0
 40
10.688918120570619
 50
63.818879966591943
 51
69.727134918617324
  0
POLYLINE
  5
B9A5
  8
0
 66
     1
 10
0.0
 20
0.0
 30
0.0
 70
   128
  0
VERTEX
  5
1129F
  8
0
 10
180.7680564001202
 20
130.412876047194
 30
0.0
  0
VERTEX
  5
112A0
  8
0
 10
180.82314692437649
 20
130.42065259069199
 30
0.0
  0
VERTEX
  5
112A1
  8
0
 10
180.81715386360881
 20
130.4612489417195
 30
0.0
  0
VERTEX
  5
112A2
  8
0
 10
180.71657568216321
 20
130.53111676126721
 30
0.0
  0
SEQEND
  5
112A3
  8
0
  0
ARC
  5
B9A6
  8
0
 10
180.96357326910771
 20
132.97303131805219
 30
0.0
 40
2.5676101450496112
 50
252.03770971709571
 51
265.63284724836888
  0
ARC
  5
B9AF
  8
0
 10
163.67574154594209
 20
103.69940974017069
 30
0.0
 40
0.8073341262150092
 50
322.98505822655551
 51
0.050697472986109
  0
LINE
  5
B9B2
  8
0
 10
150.65798126161101
 20
129.80970870703459
 30
0.0
 11
183.342020586133
 21
129.80970870703459
 31
0.0
  0
LINE
  5
B9C8
  8
0
 10
90.625644102692604
 20
110.8000002219341
 30
0.0
 11
90.625644102692604
 21
113.80000030621881
 31
0.0
  0
LINE
  5
B9C9
  8
0
 10
85.125644132494926
 20
113.80000030621881
 30
0.0
 11
85.125644132494926
 21
110.8000002219341
 31
0.0
  0
LINE
  5
B9CA
  8
0
 10
89.375644363462925
 20
113.80000030621881
 30
0.0
 11
89.375644363462925
 21
116.30000025033949
 31
0.0
  0
LINE
  5
B9CB
  8
0
 10
86.37564480304718
 20
116.30000025033949
 30
0.0
 11
86.37564480304718
 21
113.80000030621881
 31
0.0
  0
LINE
  5
B9CC
  8
0
 10
114.874355867505
 20
110.8000002219341
 30
0.0
 11
114.874355867505
 21
113.80000030621881
 31
0.0
  0
LINE
  5
B9CD
  8
0
 10
109.3743558973074
 20
113.80000030621881
 30
0.0
 11
109.3743558973074
 21
110.8000002219341
 31
0.0
  0
LINE
  5
B9CE
  8
0
 10
113.62435519695281
 20
113.80000030621881
 30
0.0
 11
113.62435519695281
 21
116.30000025033949
 31
0.0
  0
LINE
  5
B9CF
  8
0
 10
110.624355636537
 20
116.30000025033949
 30
0.0
 11
110.624355636537
 21
113.80000030621881
 31
0.0
  0
LINE
  5
B9D0
  8
0
 10
102.7499999850988
 20
110.8000002219341
 30
0.0
 11
102.7499999850988
 21
113.80000030621881
 31
0.0
  0
LINE
  5
B9D1
  8
0
 10
97.250000014901161
 20
113.80000030621881
 30
0.0
 11
97.250000014901161
 21
110.8000002219341
 31
0.0
  0
LINE
  5
B9D2
  8
0
 10
101.5000000130385
 20
113.80000030621881
 30
0.0
 11
101.5000000130385
 21
116.30000025033949
 31
0.0
  0
LINE
  5
B9D3
  8
0
 10
98.499999986961484
 20
116.30000025033949
 30
0.0
 11
98.499999986961484
 21
113.80000030621881
 31
0.0
  0
LINE
  5
B9D4
  8
0
 10
107.49999983236189
 20
132.3000000789761
 30
0.0
 11
107.49999983236189
 21
133.90000108629459
 31
0.0
  0
LINE
  5
B9D5
  8
0
 10
92.500000167638063
 20
133.90000108629459
 30
0.0
 11
92.500000167638063
 21
132.3000000789761
 31
0.0
  0
LINE
  5
B9D6
  8
0
 10
104.00000018998981
 20
107.0019129198044
 30
0.0
 11
104.00000018998981
 21
110.8000002219341
 31
0.0
  0
LINE
  5
B9D7
  8
0
 10
104.00000018998981
 20
102.0000003278255
 30
0.0
 11
104.0000001899899
 21
103.33311827853321
 31
0.0
  0
LINE
  5
B9D8
  8
0
 10
95.999999810010195
 20
103.3862767741084
 30
0.0
 11
95.999999810010195
 21
102.0000003278255
 31
0.0
  0
LINE
  5
B9D9
  8
0
 10
95.999999810010195
 20
110.8000002219341
 30
0.0
 11
95.999999810010195
 21
107.0019129198044
 31
0.0
  0
ARC
  5
B9DA
  8
0
 10
137.62099730486901
 20
73.52543904508552
 30
0.0
 40
47.345578706913813
 50
135.48683136765459
 51
137.63476818567261
  0
LINE
  5
B9DC
  8
0
 10
95.999999810010195
 20
102.0000003278255
 30
0.0
 11
96.337299467995763
 21
100.7411809638142
 31
0.0
  0
LINE
  5
B9DD
  8
0
 10
103.66270053200419
 20
100.7411809638142
 30
0.0
 11
104.00000018998981
 21
102.0000003278255
 31
0.0
  0
ARC
  5
B9DE
  8
0
 10
102.6967746271588
 20
101.0000001981854
 30
0.0
 40
1.0
 50
270.0
 51
345.00000000000171
  0
ARC
  5
B9DF
  8
0
 10
97.303225372841226
 20
101.0000001981854
 30
0.0
 40
1.0000000000000091
 50
194.9999999999994
 51
270.0
  0
POLYLINE
  5
B9E0
  8
0
 66
     1
 10
0.0
 20
0.0
 30
0.0
 70
   128
  0
VERTEX
  5
112A4
  8
0
 10
102.5960067287087
 20
105.04206074401731
 30
0.0
  0
VERTEX
  5
112A5
  8
0
 10
102.5655722711235
 20
105.2648126147687
 30
0.0
  0
VERTEX
  5
112A6
  8
0
 10
102.6390354417442
 20
105.42945395386241
 30
0.0
  0
SEQEND
  5
112A7
  8
0
  0
POLYLINE
  5
B9E2
  8
0
 66
     1
 10
0.0
 20
0.0
 30
0.0
 70
   128
  0
VERTEX
  5
112A8
  8
0
 10
97.360723543446284
 20
105.4297234585805
 30
0.0
  0
VERTEX
  5
112A9
  8
0
 10
97.434404445812106
 20
105.2649574354291
 30
0.0
  0
VERTEX
  5
112AA
  8
0
 10
97.409083804860416
 20
105.0150484158806
 30
0.0
  0
SEQEND
  5
112AB
  8
0
  0
ARC
  5
B9E3
  8
0
 10
62.612047478893601
 20
73.745993578454616
 30
0.0
 40
47.024772485956802
 50
42.35845722418027
 51
44.520608726084397
  0
LINE
  5
B9E4
  8
0
 10
117.00000092387199
 20
116.80000033229589
 30
0.0
 11
117.00000092387199
 21
128.87001540511841
 31
0.0
  0
LINE
  5
B9E5
  8
0
 10
82.999999076128006
 20
128.87001540511841
 30
0.0
 11
82.999999076128006
 21
116.80000033229589
 31
0.0
  0
LINE
  5
B9E6
  8
0
 10
82.999999076128006
 20
116.80000033229589
 30
0.0
 11
83.500000089406953
 21
116.30000025033949
 31
0.0
  0
LINE
  5
B9E7
  8
0
 10
116.499999910593
 20
116.30000025033949
 30
0.0
 11
117.00000092387199
 21
116.80000033229589
 31
0.0
  0
ARC
  5
B9E8
  8
0
 10
84.000001794390073
 20
128.87001535027119
 30
0.0
 40
1.0000017943903801
 50
110.00015917783379
 51
179.99996833221931
  0
ARC
  5
B9E9
  8
0
 10
116.0
 20
128.87001590297919
 30
0.0
 40
1.00000000000001
 50
0.0000000000002036
 51
70.000000000003425
  0
LINE
  5
B9EA
  8
0
 10
116.342019662261
 20
129.80970870703459
 30
0.0
 11
109.6656931564212
 21
132.2396932169795
 31
0.0
  0
LINE
  5
B9ED
  8
0
 10
90.334306837382769
 20
132.23969281897129
 30
0.0
 11
83.657978426710656
 21
129.8097087070345
 31
0.0
  0
ARC
  5
B9EE
  8
0
 10
90.676326980708495
 20
131.30000019818539
 30
0.0
 40
1.0
 50
90.0
 51
110.0000000000035
  0
ARC
  5
B9EF
  8
0
 10
109.32389228799001
 20
131.3012417574254
 30
0.0
 40
0.9987583455533998
 50
69.987459967959836
 51
90.012561378422518
  0
ARC
  5
B9F0
  8
0
 10
109.40000000000001
 20
115.9000001981854
 30
0.0
 40
0.3999999999999915
 50
90.0
 51
179.99999999999969
  0
ARC
  5
B9F1
  8
0
 10
90.600000000000023
 20
115.9000001981854
 30
0.0
 40
0.4000000000000199
 50
0.0000000000002036
 51
90.0
  0
LINE
  5
B9F2
  8
0
 10
108.99999961256979
 20
111.8000002112239
 30
0.0
 11
108.99999961256979
 21
115.8999999985099
 31
0.0
  0
LINE
  5
B9F3
  8
0
 10
91.000000387430191
 20
115.8999999985099
 30
0.0
 11
91.000000387430191
 21
111.8000002112239
 31
0.0
  0
LINE
  5
B9F4
  8
0
 10
91.000000387430191
 20
111.8000002112239
 30
0.0
 11
91.999999620020375
 21
110.8000002219341
 31
0.0
  0
LINE
  5
B9F5
  8
0
 10
108.0000003799796
 20
110.8000002219341
 30
0.0
 11
108.99999961256979
 21
111.8000002112239
 31
0.0
  0
LINE
  5
B9F8
  8
0
 10
90.625644102692604
 20
110.8000002219341
 30
0.0
 11
85.125644132494926
 21
110.8000002219341
 31
0.0
  0
LINE
  5
B9FA
  8
0
 10
90.625644102692604
 20
113.80000030621881
 30
0.0
 11
85.125644132494926
 21
113.80000030621881
 31
0.0
  0
LINE
  5
B9FD
  8
0
 10
114.874355867505
 20
110.8000002219341
 30
0.0
 11
109.3743558973075
 21
110.8000002219341
 31
0.0
  0
LINE
  5
B9FF
  8
0
 10
114.874355867505
 20
113.80000030621881
 30
0.0
 11
109.3743558973075
 21
113.80000030621881
 31
0.0
  0
LINE
  5
BA00
  8
0
 10
102.7499999850988
 20
110.8000002219341
 30
0.0
 11
97.250000014901161
 21
110.8000002219341
 31
0.0
  0
LINE
  5
BA01
  8
0
 10
102.7499999850988
 20
113.80000030621881
 30
0.0
 11
97.250000014901161
 21
113.80000030621881
 31
0.0
  0
POLYLINE
  5
BA1D
  8
0
 66
     1
 10
0.0
 20
0.0
 30
0.0
 70
   128
  0
VERTEX
  5
112AC
  8
0
 10
80.059104040265083
 20
134.45637691766021
 30
0.0
  0
VERTEX
  5
112AD
  8
0
 10
80.554345995187745
 20
138.8127779588103
 30
0.0
  0
VERTEX
  5
112AE
  8
0
 10
80.944337323307991
 20
142.23730508238069
 30
0.0
  0
SEQEND
  5
112AF
  8
0
  0
LINE
  5
BA20
  8
1
 10
100.0
 20
152.77002055197971
 30
0.0
 11
100.0
 21
95.0
 31
0.0
  0
POLYLINE
  5
BA2C
  8
0
 66
     1
 10
0.0
 20
0.0
 30
0.0
 70
   128
  0
VERTEX
  5
112B0
  8
0
 10
119.9408959597349
 20
134.45637691766021
 30
0.0
  0
VERTEX
  5
112B1
  8
0
 10
119.44573968648911
 20
138.81201986223451
 30
0.0
  0
VERTEX
  5
112B2
  8
0
 10
119.0558172762394
 20
142.2359490767121
 30
0.0
  0
SEQEND
  5
112B3
  8
0
  0
POLYLINE
  5
BA37
  8
0
 66
     1
 10
0.0
 20
0.0
 30
0.0
 70
   128
  0
VERTEX
  5
112B4
  8
0
 10
111.9649237021804
 20
146.368365176022
 30
0.0
  0
VERTEX
  5
112B5
  8
0
 10
114.90164827555419
 20
145.5012703314423
 30
0.0
  0
VERTEX
  5
112B6
  8
0
 10
117.1618871390819
 20
144.69001013785601
 30
0.0
  0
SEQEND
  5
112B7
  8
0
  0
ARC
  5
BA3A
  8
0
 10
101.1119116888829
 20
189.5289954412377
 30
0.0
 40
41.827203469744141
 50
268.47670062594528
 51
273.27303339462389
  0
ARC
  5
BA3B
  8
0
 10
99.977778085970627
 20
100.2368493709257
 30
0.0
 40
47.663491379672031
 50
75.433984083809278
 51
85.762111035496076
  0
ARC
  5
BA3D
  8
0
 10
100.0
 20
100.4000001981854
 30
0.0
 40
47.500000000000071
 50
94.225623919458513
 51
111.17966975412931
  0
ARC
  5
BA3E
  8
0
 10
98.671909891714336
 20
174.93687730830339
 30
0.0
 40
27.25268327638441
 50
265.4289498324593
 51
272.79327023055151
  0
ARC
  5
BA4D
  8
0
 10
119.43083748008119
 20
134.41195649906459
 30
0.0
 40
0.511989088023256
 50
270.65715087968709
 51
4.9772669503127451
  0
LINE
  5
BA4E
  8
0
 10
119.43670958280561
 20
133.90000108629459
 30
0.0
 11
80.563284829256872
 21
133.90000108629459
 31
0.0
  0
ARC
  5
BA4F
  8
0
 10
80.569153059970276
 20
134.41194786757379
 30
0.0
 40
0.5119804127052327
 50
175.02167889091791
 51
269.34327133050249
  0
POLYLINE
  5
BA51
  8
0
 66
     1
 10
0.0
 20
0.0
 30
0.0
 70
   128
  0
VERTEX
  5
112B8
  8
0
 10
96.241229586303234
 20
107.15574738569551
 30
0.0
  0
VERTEX
  5
112B9
  8
0
 10
96.283212909474955
 20
107.1500726044178
 30
0.0
  0
VERTEX
  5
112BA
  8
0
 10
96.419915463775396
 20
107.0706107653677
 30
0.0
  0
SEQEND
  5
112BB
  8
0
  0
LINE
  5
BA52
  8
0
 10
96.241229586303234
 20
107.15574738569551
 30
0.0
 11
96.060769073665142
 21
107.15574738569551
 31
0.0
  0
LINE
  5
BA53
  8
0
 10
96.060769073665142
 20
107.15574738569551
 30
0.0
 11
96.060769073665142
 21
107.151311263442
 31
0.0
  0
POLYLINE
  5
BA54
  8
0
 66
     1
 10
0.0
 20
0.0
 30
0.0
 70
   128
  0
VERTEX
  5
112BC
  8
0
 10
96.007553767412901
 20
107.0683038793504
 30
0.0
  0
VERTEX
  5
112BD
  8
0
 10
96.018354315310717
 20
107.1118844207376
 30
0.0
  0
VERTEX
  5
112BE
  8
0
 10
96.060769073665142
 20
107.151311263442
 30
0.0
  0
SEQEND
  5
112BF
  8
0
  0
ARC
  5
BA55
  8
0
 10
96.377743885569203
 20
107.0088866651184
 30
0.0
 40
0.3749281650231839
 50
170.8815359020233
 51
230.85411138669289
  0
LINE
  5
BA56
  8
0
 10
101.4853229513392
 20
102.0000003278255
 30
0.0
 11
104.00000018998981
 21
102.0000003278255
 31
0.0
  0
LINE
  5
BA57
  8
0
 10
101.4853229513392
 20
102.0000003278255
 30
0.0
 11
101.4853229513392
 21
102.10933480411769
 31
0.0
  0
POLYLINE
  5
BA58
  8
0
 66
     1
 10
0.0
 20
0.0
 30
0.0
 70
   128
  0
VERTEX
  5
112C0
  8
0
 10
103.911339212209
 20
103.6114016547799
 30
0.0
  0
VERTEX
  5
112C1
  8
0
 10
104.0000001899899
 20
103.33311827853321
 30
0.0
  0
VERTEX
  5
112C2
  8
0
 10
103.8065870758146
 20
103.050526138395
 30
0.0
  0
VERTEX
  5
112C3
  8
0
 10
103.3604453783482
 20
102.77178362011909
 30
0.0
  0
VERTEX
  5
112C4
  8
0
 10
102.5441558100283
 20
102.4418104439974
 30
0.0
  0
VERTEX
  5
112C5
  8
0
 10
101.4853229513392
 20
102.10933480411769
 30
0.0
  0
SEQEND
  5
112C6
  8
0
  0
POLYLINE
  5
BA59
  8
0
 66
     1
 10
0.0
 20
0.0
 30
0.0
 70
   128
  0
VERTEX
  5
112C7
  8
0
 10
100.576346530579
 20
105.4730512201786
 30
0.0
  0
VERTEX
  5
112C8
  8
0
 10
100.7573787588626
 20
105.5223158560693
 30
0.0
  0
VERTEX
  5
112C9
  8
0
 10
100.8788829436525
 20
105.55574987083671
 30
0.0
  0
VERTEX
  5
112CA
  8
0
 10
101.11930246930569
 20
105.62280556187029
 30
0.0
  0
VERTEX
  5
112CB
  8
0
 10
101.2378944084048
 20
105.6563364341855
 30
0.0
  0
VERTEX
  5
112CC
  8
0
 10
101.3553018216043
 20
105.68983983248469
 30
0.0
  0
VERTEX
  5
112CD
  8
0
 10
101.58624374307691
 20
105.7566720061004
 30
0.0
  0
VERTEX
  5
112CE
  8
0
 10
101.6994650941342
 20
105.7899104431271
 30
0.0
  0
VERTEX
  5
112CF
  8
0
 10
101.8110838718712
 20
105.8230012655258
 30
0.0
  0
VERTEX
  5
112D0
  8
0
 10
102.0291772671044
 20
105.8887540362775
 30
0.0
  0
VERTEX
  5
112D1
  8
0
 10
102.13525933213531
 20
105.9217414818704
 30
0.0
  0
VERTEX
  5
112D2
  8
0
 10
102.23924452438951
 20
105.95489516854281
 30
0.0
  0
VERTEX
  5
112D3
  8
0
 10
102.44064815342421
 20
106.0216109268367
 30
0.0
  0
VERTEX
  5
112D4
  8
0
 10
102.63257836923
 20
106.0886312276125
 30
0.0
  0
VERTEX
  5
112D5
  8
0
 10
102.7247355319559
 20
106.1221648938954
 30
0.0
  0
VERTEX
  5
112D6
  8
0
 10
102.9011855367571
 20
106.189189851284
 30
0.0
  0
VERTEX
  5
112D7
  8
0
 10
103.0665076337754
 20
106.2559163197875
 30
0.0
  0
VERTEX
  5
112D8
  8
0
 10
103.14476899802681
 20
106.28907745704051
 30
0.0
  0
VERTEX
  5
112D9
  8
0
 10
103.29226441681379
 20
106.3549196347594
 30
0.0
  0
VERTEX
  5
112DA
  8
0
 10
103.3612463157624
 20
106.3878218643367
 30
0.0
  0
VERTEX
  5
112DB
  8
0
 10
103.42695903964341
 20
106.42090430483221
 30
0.0
  0
VERTEX
  5
112DC
  8
0
 10
103.5484090913087
 20
106.48751785047349
 30
0.0
  0
VERTEX
  5
112DD
  8
0
 10
103.6561337765306
 20
106.5544904209673
 30
0.0
  0
VERTEX
  5
112DE
  8
0
 10
103.7047090008855
 20
106.58802059479061
 30
0.0
  0
VERTEX
  5
112DF
  8
0
 10
103.7911562249064
 20
106.6550793126225
 30
0.0
  0
VERTEX
  5
112E0
  8
0
 10
103.8630121853202
 20
106.7218944896012
 30
0.0
  0
VERTEX
  5
112E1
  8
0
 10
103.8933679461479
 20
106.75512035377319
 30
0.0
  0
VERTEX
  5
112E2
  8
0
 10
103.9428365416825
 20
106.82111876085401
 30
0.0
  0
VERTEX
  5
112E3
  8
0
 10
103.96186858415599
 20
106.8539392668754
 30
0.0
  0
VERTEX
  5
112E4
  8
0
 10
103.9699478074908
 20
106.8704173900187
 30
0.0
  0
VERTEX
  5
112E5
  8
0
 10
103.97706823423501
 20
106.8869399838149
 30
0.0
  0
VERTEX
  5
112E6
  8
0
 10
103.9884294383228
 20
106.9201081059873
 30
0.0
  0
VERTEX
  5
112E7
  8
0
 10
103.9959442801773
 20
106.95340917445721
 30
0.0
  0
VERTEX
  5
112E8
  8
0
 10
103.9982572197914
 20
106.9700984749943
 30
0.0
  0
VERTEX
  5
112E9
  8
0
 10
104.00000018998981
 20
107.0019129198044
 30
0.0
  0
SEQEND
  5
112EA
  8
0
  0
LINE
  5
BA5A
  8
0
 10
100.576346530579
 20
105.4730512201786
 30
0.0
 11
100.0
 21
105.47382002696391
 31
0.0
  0
LINE
  5
BA5B
  8
0
 10
100.0
 20
105.47382002696391
 30
0.0
 11
100.0
 21
105.4713203571737
 31
0.0
  0
ARC
  5
BA5C
  8
0
 10
100.1727520818816
 20
103.818049320464
 30
0.0
 40
1.6622720603491761
 50
95.965250627177866
 51
184.07238553662179
  0
LINE
  5
BA5D
  8
0
 10
98.514677048660815
 20
103.7000002339482
 30
0.0
 11
98.514677048660815
 21
102.0000003278255
 31
0.0
  0
LINE
  5
BA5E
  8
0
 10
95.999999810010195
 20
102.0000003278255
 30
0.0
 11
98.514677048660815
 21
102.0000003278255
 31
0.0
  0
LINE
  5
BA5F
  8
0
 10
96.088660787791014
 20
103.6114016547799
 30
0.0
 11
95.999999810010195
 21
103.3862767741084
 31
0.0
  0
LINE
  5
BA60
  8
0
 10
96.097135357558713
 20
103.6114016547799
 30
0.0
 11
96.088660787791014
 21
103.6114016547799
 31
0.0
  0
LINE
  5
BA61
  8
0
 10
96.198007604107261
 20
103.6114016547799
 30
0.0
 11
96.097135357558713
 21
103.6114016547799
 31
0.0
  0
POLYLINE
  5
BA62
  8
0
 66
     1
 10
0.0
 20
0.0
 30
0.0
 70
   128
  0
VERTEX
  5
112EB
  8
0
 10
96.322114486247301
 20
103.5166866146028
 30
0.0
  0
VERTEX
  5
112EC
  8
0
 10
96.24896515160799
 20
103.5698846913874
 30
0.0
  0
VERTEX
  5
112ED
  8
0
 10
96.198007604107261
 20
103.6114016547799
 30
0.0
  0
SEQEND
  5
112EE
  8
0
  0
POLYLINE
  5
BA63
  8
0
 66
     1
 10
0.0
 20
0.0
 30
0.0
 70
   128
  0
VERTEX
  5
112EF
  8
0
 10
96.784155257046223
 20
106.8839550949633
 30
0.0
  0
VERTEX
  5
112F0
  8
0
 10
96.870029484853134
 20
106.8205501884222
 30
0.0
  0
VERTEX
  5
112F1
  8
0
 10
97.097418410703526
 20
106.5730777569115
 30
0.0
  0
VERTEX
  5
112F2
  8
0
 10
97.321011498570442
 20
106.1815390363335
 30
0.0
  0
VERTEX
  5
112F3
  8
0
 10
97.488306369632483
 20
105.6327520869672
 30
0.0
  0
VERTEX
  5
112F4
  8
0
 10
97.518721967935562
 20
104.9891006201505
 30
0.0
  0
VERTEX
  5
112F5
  8
0
 10
97.382567729800925
 20
104.3637724593281
 30
0.0
  0
VERTEX
  5
112F6
  8
0
 10
97.108880663290606
 20
103.8338131271302
 30
0.0
  0
VERTEX
  5
112F7
  8
0
 10
96.848012087866664
 20
103.5525313578546
 30
0.0
  0
VERTEX
  5
112F8
  8
0
 10
96.578747173771262
 20
103.4245536662638
 30
0.0
  0
VERTEX
  5
112F9
  8
0
 10
96.382008306682096
 20
103.46696190536019
 30
0.0
  0
VERTEX
  5
112FA
  8
0
 10
96.322114486247301
 20
103.5166866146028
 30
0.0
  0
SEQEND
  5
112FB
  8
0
  0
LINE
  5
BA64
  8
0
 10
96.636863797903061
 20
106.953748408705
 30
0.0
 11
96.784155257046223
 21
106.8839550949633
 31
0.0
  0
POLYLINE
  5
BA65
  8
0
 66
     1
 10
0.0
 20
0.0
 30
0.0
 70
   128
  0
VERTEX
  5
112FC
  8
0
 10
96.419915463775396
 20
107.0706107653677
 30
0.0
  0
VERTEX
  5
112FD
  8
0
 10
96.53600575402379
 20
107.0055676624179
 30
0.0
  0
VERTEX
  5
112FE
  8
0
 10
96.636863797903061
 20
106.953748408705
 30
0.0
  0
SEQEND
  5
112FF
  8
0
  0
POLYLINE
  5
BA74
  8
0
 66
     1
 10
0.0
 20
0.0
 30
0.0
 70
   128
  0
VERTEX
  5
11300
  8
0
 10
103.911339212209
 20
103.6114016547799
 30
0.0
  0
VERTEX
  5
11301
  8
0
 10
103.32005950622261
 20
104.21118596568699
 30
0.0
  0
VERTEX
  5
11302
  8
0
 10
102.736528404057
 20
104.8126941546797
 30
0.0
  0
SEQEND
  5
11303
  8
0
  0
LINE
  5
BA76
  8
0
 10
101.2235938338563
 20
100.7411809638142
 30
0.0
 11
101.4853229513392
 21
102.0000003278255
 31
0.0
  0
ARC
  5
BA77
  8
0
 10
100.3295170809192
 20
100.8864426825639
 30
0.0
 40
0.9058003130252632
 50
285.11332002817392
 51
350.77172169136139
  0
ARC
  5
BA7A
  8
0
 10
99.639742301172419
 20
100.8587078143547
 30
0.0
 40
0.8712989398847764
 50
187.75208240986811
 51
256.36287587060161
  0
LINE
  5
BA7B
  8
0
 10
98.514677048660815
 20
102.0000003278255
 30
0.0
 11
98.776406166143715
 21
100.7411809638142
 31
0.0
  0
LINE
  5
BA7C
  8
0
 10
102.69677466712891
 20
100.0
 30
0.0
 11
97.303225372841226
 21
100.0
 31
0.0
  0
LINE
  5
BA7D
  8
0
 10
100.399607088184
 20
100.0
 30
0.0
 11
100.56568544823671
 21
100.0119721516967
 31
0.0
  0
LINE
  5
BA7E
  8
0
 10
99.434314551763237
 20
100.0119721516967
 30
0.0
 11
99.600392911816016
 21
100.0
 31
0.0
  0
POLYLINE
  5
BA8F
  8
0
 66
     1
 10
0.0
 20
0.0
 30
0.0
 70
   128
  0
VERTEX
  5
11304
  8
0
 10
102.5960067287087
 20
105.04206074401731
 30
0.0
  0
VERTEX
  5
11305
  8
0
 10
102.647636923939
 20
104.9233585596084
 30
0.0
  0
VERTEX
  5
11306
  8
0
 10
102.7315556071698
 20
104.81788907200099
 30
0.0
  0
SEQEND
  5
11307
  8
0
  0
LINE
  5
BA90
  8
0
 10
102.736528404057
 20
104.8126941546797
 30
0.0
 11
102.7315556071698
 21
104.81788907200099
 31
0.0
  0
POLYLINE
  5
BA9A
  8
0
 66
     1
 10
0.0
 20
0.0
 30
0.0
 70
   128
  0
VERTEX
  5
11308
  8
0
 10
96.088660787791014
 20
103.6114016547799
 30
0.0
  0
VERTEX
  5
11309
  8
0
 10
96.679940493777394
 20
104.21118596568699
 30
0.0
  0
VERTEX
  5
1130A
  8
0
 10
97.263471595942974
 20
104.8126941546797
 30
0.0
  0
SEQEND
  5
1130B
  8
0
  0
LINE
  5
BA9B
  8
0
 10
97.263471595942974
 20
104.8126941546797
 30
0.0
 11
97.268444392830133
 21
104.81788907200099
 31
0.0
  0
ARC
  5
BA9D
  8
0
 10
96.765345740383736
 20
105.3255044974307
 30
0.0
 40
0.7146899147375955
 50
314.74395300128327
 51
334.2533432830445
  0
LINE
  5
BAA9
  8
0
 10
116.499999910593
 20
116.30000025033949
 30
0.0
 11
83.500000089406953
 21
116.30000025033949
 31
0.0
  0
ARC
  5
BAAA
  8
0
 10
100.38348619924329
 20
95.582029199248325
 30
0.0
 40
37.834237439071053
 50
108.2366066510924
 51
110.85796209111651
  0
ARC
  5
BAAB
  8
0
 10
93.596931457027154
 20
112.61050377261211
 30
0.0
 40
19.507329985238549
 50
110.03913613026489
 51
114.20487592133171
  0
POLYLINE
  5
BAAC
  8
0
 66
     1
 10
0.0
 20
0.0
 30
0.0
 70
   128
  0
VERTEX
  5
1130C
  8
0
 10
85.467638820409775
 20
130.24309780448669
 30
0.0
  0
VERTEX
  5
1130D
  8
0
 10
85.40220595896244
 20
130.25233279913661
 30
0.0
  0
VERTEX
  5
1130E
  8
0
 10
85.430456697940826
 20
130.30803892761469
 30
0.0
  0
VERTEX
  5
1130F
  8
0
 10
85.598913393914685
 20
130.40285129100079
 30
0.0
  0
SEQEND
  5
11310
  8
0
  0
ARC
  5
BAAD
  8
0
 10
85.047948943025744
 20
134.4424515541958
 30
0.0
 40
4.2202738665131596
 50
275.70727672503341
 51
286.87885874940758
  0
ARC
  5
BAAE
  8
0
 10
81.577630340271639
 20
147.4793418829905
 30
0.0
 40
17.709240088241099
 50
285.37608886528318
 51
290.92879769133162
  0
ARC
  5
BAAF
  8
0
 10
84.487226560153204
 20
140.4774026271802
 30
0.0
 40
10.132236891645739
 50
289.704493578192
 51
297.83321303511531
  0
POLYLINE
  5
BAB0
  8
0
 66
     1
 10
0.0
 20
0.0
 30
0.0
 70
   128
  0
VERTEX
  5
11311
  8
0
 10
89.349234849214554
 20
131.7165544256568
 30
0.0
  0
VERTEX
  5
11312
  8
0
 10
89.414602518081665
 20
131.70424234122041
 30
0.0
  0
VERTEX
  5
11313
  8
0
 10
89.388562738895416
 20
131.6350376233458
 30
0.0
  0
VERTEX
  5
11314
  8
0
 10
89.217961207032204
 20
131.51735942810771
 30
0.0
  0
SEQEND
  5
11315
  8
0
  0
ARC
  5
BAB1
  8
0
 10
89.676938406999625
 20
128.68243393389699
 30
0.0
 40
3.0517661739231809
 50
96.164398599298792
 51
111.800782625623
  0
LINE
  5
BAB9
  8
0
 10
90.676326677203164
 20
132.3000000789761
 30
0.0
 11
109.32367332279679
 21
132.3000000789761
 31
0.0
  0
LINE
  5
BABA
  8
0
 10
91.000000387430191
 20
111.8000002112239
 30
0.0
 11
97.250000014901161
 21
111.8000002112239
 31
0.0
  0
LINE
  5
BABB
  8
0
 10
102.7499999850988
 20
111.8000002112239
 30
0.0
 11
108.99999961256979
 21
111.8000002112239
 31
0.0
  0
LINE
  5
BABC
  8
0
 10
108.0000003799796
 20
110.8000002219341
 30
0.0
 11
102.7499999850988
 21
110.8000002219341
 31
0.0
  0
LINE
  5
BABD
  8
0
 10
97.250000014901161
 20
110.8000002219341
 30
0.0
 11
91.999999620020375
 21
110.8000002219341
 31
0.0
  0
ARC
  5
BAC8
  8
0
 10
91.687818801098729
 20
118.13042253902221
 30
0.0
 40
13.634631826391949
 50
109.7911072784355
 51
114.64931380982431
  0
ARC
  5
BAC9
  8
0
 10
96.690756453045665
 20
105.8749434705219
 30
0.0
 40
26.86596642981398
 50
108.0510228855513
 51
110.9808399293817
  0
ARC
  5
BACA
  8
0
 10
89.233467135641703
 20
129.08706212797881
 30
0.0
 40
2.4876882975845849
 50
97.113988552897737
 51
110.4089113075263
  0
POLYLINE
  5
BACB
  8
0
 66
     1
 10
0.0
 20
0.0
 30
0.0
 70
   128
  0
VERTEX
  5
11316
  8
0
 10
88.815558142960072
 20
131.41952399164441
 30
0.0
  0
VERTEX
  5
11317
  8
0
 10
88.958404399454594
 20
131.51870798319581
 30
0.0
  0
VERTEX
  5
11318
  8
0
 10
88.966642878949642
 20
131.54592122882599
 30
0.0
  0
VERTEX
  5
11319
  8
0
 10
88.925382494926453
 20
131.55559953302139
 30
0.0
  0
SEQEND
  5
1131A
  8
0
  0
ARC
  5
BACC
  8
0
 10
84.816833061918246
 20
139.2724588018161
 30
0.0
 40
8.8123996395170305
 50
289.41145524681002
 51
296.98525628203163
  0
ARC
  5
BACD
  8
0
 10
81.969931859714734
 20
145.91573638263159
 30
0.0
 40
16.031318408971639
 50
286.23119334361058
 51
291.11714845369971
  0
ARC
  5
BACE
  8
0
 10
85.610383222629139
 20
133.09047134053239
 30
0.0
 40
2.701173393369138
 50
275.97354034196923
 51
288.12976379532671
  0
POLYLINE
  5
BACF
  8
0
 66
     1
 10
0.0
 20
0.0
 30
0.0
 70
   128
  0
VERTEX
  5
1131B
  8
0
 10
86.001315526664257
 20
130.52263241261241
 30
0.0
  0
VERTEX
  5
1131C
  8
0
 10
85.858094878494725
 20
130.43525386601681
 30
0.0
  0
VERTEX
  5
1131D
  8
0
 10
85.850345343351364
 20
130.41206393390891
 30
0.0
  0
VERTEX
  5
1131E
  8
0
 10
85.891492106020451
 20
130.40396515280011
 30
0.0
  0
SEQEND
  5
1131F
  8
0
  0
LINE
  5
BAE0
  8
0
 10
83.657980337738991
 20
129.80970870703459
 30
0.0
 11
116.342019662261
 21
129.80970870703459
 31
0.0
  0
LINE
  5
BAF5
  8
0
 10
248.87435771524909
 20
110.8000002219341
 30
0.0
 11
248.87435771524909
 21
113.80000030621881
 31
0.0
  0
LINE
  5
BAF6
  8
0
 10
243.37435774505141
 20
113.80000030621881
 30
0.0
 11
243.37435774505141
 21
110.8000002219341
 31
0.0
  0
LINE
  5
BAF7
  8
0
 10
247.62435704469681
 20
113.80000030621881
 30
0.0
 11
247.62435704469681
 21
116.30000025033949
 31
0.0
  0
LINE
  5
BAF8
  8
0
 10
244.62435748428109
 20
116.30000025033949
 30
0.0
 11
244.62435748428109
 21
113.80000030621881
 31
0.0
  0
LINE
  5
BAF9
  8
0
 10
224.62564595043659
 20
110.8000002219341
 30
0.0
 11
224.62564595043659
 21
113.80000030621881
 31
0.0
  0
LINE
  5
BAFA
  8
0
 10
219.12564598023889
 20
113.80000030621881
 30
0.0
 11
219.12564598023889
 21
110.8000002219341
 31
0.0
  0
LINE
  5
BAFB
  8
0
 10
223.37564621120691
 20
113.80000030621881
 30
0.0
 11
223.37564621120691
 21
116.30000025033949
 31
0.0
  0
LINE
  5
BAFC
  8
0
 10
220.3756466507912
 20
116.30000025033949
 30
0.0
 11
220.3756466507912
 21
113.80000030621881
 31
0.0
  0
LINE
  5
BAFD
  8
0
 10
241.5000016801059
 20
132.3000000789761
 30
0.0
 11
241.5000016801059
 21
133.90000108629459
 31
0.0
  0
LINE
  5
BAFE
  8
0
 10
226.50000201538199
 20
133.90000108629459
 30
0.0
 11
226.50000201538199
 21
132.3000000789761
 31
0.0
  0
LINE
  5
BAFF
  8
0
 10
238.00000203773379
 20
107.0019129198044
 30
0.0
 11
238.00000203773379
 21
110.8000002219341
 31
0.0
  0
LINE
  5
BB00
  8
0
 10
238.00000203773379
 20
102.0000003278255
 30
0.0
 11
238.00000203773379
 21
103.3330381676966
 31
0.0
  0
LINE
  5
BB01
  8
0
 10
230.00000165775421
 20
103.3862767741084
 30
0.0
 11
230.00000165775421
 21
102.0000003278255
 31
0.0
  0
LINE
  5
BB02
  8
0
 10
230.00000165775421
 20
110.8000002219341
 30
0.0
 11
230.00000165775421
 21
107.0019129198044
 31
0.0
  0
ARC
  5
BB03
  8
0
 10
271.62099915261302
 20
73.52543904508552
 30
0.0
 40
47.345578706913813
 50
135.48683136765459
 51
137.63434361021589
  0
LINE
  5
BB05
  8
0
 10
237.6627023797482
 20
100.7411809638142
 30
0.0
 11
238.00000203773379
 21
102.0000003278255
 31
0.0
  0
LINE
  5
BB06
  8
0
 10
230.00000165775421
 20
102.0000003278255
 30
0.0
 11
230.33730131573969
 21
100.7411809638142
 31
0.0
  0
ARC
  5
BB07
  8
0
 10
236.6967764749028
 20
101.0000001981854
 30
0.0
 40
1.0
 50
270.0
 51
345.00000000000171
  0
ARC
  5
BB08
  8
0
 10
231.3032272205852
 20
101.0000001981854
 30
0.0
 40
1.0
 50
194.9999999999996
 51
270.0
  0
POLYLINE
  5
BB09
  8
0
 66
     1
 10
0.0
 20
0.0
 30
0.0
 70
   128
  0
VERTEX
  5
11320
  8
0
 10
236.5960034541786
 20
105.0420723855495
 30
0.0
  0
VERTEX
  5
11321
  8
0
 10
236.56559740193191
 20
105.2649574354291
 30
0.0
  0
VERTEX
  5
11322
  8
0
 10
236.63927370684479
 20
105.4297131777071
 30
0.0
  0
SEQEND
  5
11323
  8
0
  0
POLYLINE
  5
BB0B
  8
0
 66
     1
 10
0.0
 20
0.0
 30
0.0
 70
   128
  0
VERTEX
  5
11324
  8
0
 10
231.3609675527872
 20
105.42945138374969
 30
0.0
  0
VERTEX
  5
11325
  8
0
 10
231.43442957662049
 20
105.2648126147687
 30
0.0
  0
VERTEX
  5
11326
  8
0
 10
231.4090832001487
 20
105.01504283909711
 30
0.0
  0
SEQEND
  5
11327
  8
0
  0
ARC
  5
BB0C
  8
0
 10
196.03249436777199
 20
73.20749970778985
 30
0.0
 40
47.81584661377677
 50
42.366926224665079
 51
44.493355826365637
  0
LINE
  5
BB0D
  8
0
 10
251.00000277161601
 20
116.80000033229589
 30
0.0
 11
251.00000277161601
 21
128.87001540511841
 31
0.0
  0
LINE
  5
BB0E
  8
0
 10
217.00000092387199
 20
128.87001540511841
 30
0.0
 11
217.00000092387199
 21
116.80000033229589
 31
0.0
  0
LINE
  5
BB0F
  8
0
 10
217.00000092387199
 20
116.80000033229589
 30
0.0
 11
217.5000019371509
 21
116.30000025033949
 31
0.0
  0
LINE
  5
BB10
  8
0
 10
250.50000175833699
 20
116.30000025033949
 30
0.0
 11
251.00000277161601
 21
116.80000033229589
 31
0.0
  0
ARC
  5
BB11
  8
0
 10
217.9998550802259
 20
128.8701176876275
 30
0.0
 40
0.9998541615855529
 50
109.9940917169281
 51
180.00586121088389
  0
ARC
  5
BB12
  8
0
 10
250.00000184774399
 20
128.87001590297919
 30
0.0
 40
1.0
 50
0.0000000000002036
 51
70.000000000003425
  0
LINE
  5
BB13
  8
0
 10
250.3420223323495
 20
129.8097087070345
 30
0.0
 11
243.6656950041652
 21
132.2396932169795
 31
0.0
  0
LINE
  5
BB16
  8
0
 10
224.3343086851269
 20
132.23969281897141
 30
0.0
 11
217.65798218548301
 21
129.80970870703459
 31
0.0
  0
ARC
  5
BB19
  8
0
 10
224.67632882845251
 20
131.30000019818539
 30
0.0
 40
1.00000000000001
 50
90.0
 51
109.9999999999965
  0
ARC
  5
BB1A
  8
0
 10
243.32367486703561
 20
131.30000019818539
 30
0.0
 40
1.0
 50
69.999999999996504
 51
90.0
  0
ARC
  5
BB1B
  8
0
 10
243.40000184774411
 20
115.9000001981854
 30
0.0
 40
0.4000000000000057
 50
90.0
 51
179.99999999999969
  0
ARC
  5
BB1C
  8
0
 10
224.60000184774401
 20
115.9000001981854
 30
0.0
 40
0.4000000000000057
 50
0.0000000000002036
 51
89.999999999993491
  0
LINE
  5
BB1D
  8
0
 10
243.0000014603138
 20
111.8000002112239
 30
0.0
 11
243.0000014603138
 21
115.8999999985099
 31
0.0
  0
LINE
  5
BB1E
  8
0
 10
225.00000223517421
 20
115.8999999985099
 30
0.0
 11
225.00000223517421
 21
111.8000002112239
 31
0.0
  0
LINE
  5
BB1F
  8
0
 10
225.00000223517421
 20
111.8000002112239
 30
0.0
 11
226.00000146776441
 21
110.8000002219341
 31
0.0
  0
LINE
  5
BB20
  8
0
 10
242.0000022277236
 20
110.8000002219341
 30
0.0
 11
243.0000014603138
 21
111.8000002112239
 31
0.0
  0
LINE
  5
BB23
  8
0
 10
248.87435771524909
 20
110.8000002219341
 30
0.0
 11
243.37435774505141
 21
110.8000002219341
 31
0.0
  0
LINE
  5
BB24
  8
0
 10
248.87435771524909
 20
113.80000030621881
 30
0.0
 11
243.37435774505141
 21
113.80000030621881
 31
0.0
  0
LINE
  5
BB25
  8
0
 10
224.62564595043659
 20
110.8000002219341
 30
0.0
 11
219.12564598023889
 21
110.8000002219341
 31
0.0
  0
LINE
  5
BB26
  8
0
 10
224.62564595043659
 20
113.80000030621881
 30
0.0
 11
219.12564598023889
 21
113.80000030621881
 31
0.0
  0
POLYLINE
  5
BB42
  8
0
 66
     1
 10
0.0
 20
0.0
 30
0.0
 70
   128
  0
VERTEX
  5
11328
  8
0
 10
214.0591058880091
 20
134.45637691766021
 30
0.0
  0
VERTEX
  5
11329
  8
0
 10
214.55426216125491
 20
138.81201986223451
 30
0.0
  0
VERTEX
  5
1132A
  8
0
 10
214.94418457150459
 20
142.2359490767121
 30
0.0
  0
SEQEND
  5
1132B
  8
0
  0
LINE
  5
BB45
  8
1
 10
234.00000184774399
 20
152.77087736874819
 30
0.0
 11
234.0000018477439
 21
95.0
 31
0.0
  0
POLYLINE
  5
BB51
  8
0
 66
     1
 10
0.0
 20
0.0
 30
0.0
 70
   128
  0
VERTEX
  5
1132C
  8
0
 10
253.9408978074789
 20
134.45637691766021
 30
0.0
  0
VERTEX
  5
1132D
  8
0
 10
253.4456558525562
 20
138.8127779588103
 30
0.0
  0
VERTEX
  5
1132E
  8
0
 10
253.055664524436
 20
142.23730508238069
 30
0.0
  0
SEQEND
  5
1132F
  8
0
  0
ARC
  5
BB5E
  8
0
 10
235.23612200925771
 20
180.8645705076801
 30
0.0
 40
33.171036733663392
 50
267.86437574515878
 51
273.91340419183513
  0
ARC
  5
BB5F
  8
0
 10
234.00000184774399
 20
100.4000001981854
 30
0.0
 40
47.500000000000071
 50
68.820330245870693
 51
85.774376080541472
  0
POLYLINE
  5
BB61
  8
0
 66
     1
 10
0.0
 20
0.0
 30
0.0
 70
   128
  0
VERTEX
  5
11330
  8
0
 10
222.0350781455636
 20
146.368365176022
 30
0.0
  0
VERTEX
  5
11331
  8
0
 10
219.09835357218981
 20
145.5012703314423
 30
0.0
  0
VERTEX
  5
11332
  8
0
 10
216.838114708662
 20
144.69001013785601
 30
0.0
  0
SEQEND
  5
11333
  8
0
  0
ARC
  5
BB62
  8
0
 10
234.0222237617734
 20
100.2368493709257
 30
0.0
 40
47.663491379672031
 50
94.23788896450391
 51
104.56601591619069
  0
ARC
  5
BB63
  8
0
 10
232.6671080477978
 20
175.05781508734151
 30
0.0
 40
27.373711483002879
 50
265.45928896556268
 51
272.79097701386928
  0
ARC
  5
BB73
  8
0
 10
253.43083932782511
 20
134.4119564990647
 30
0.0
 40
0.511989088023371
 50
270.65715087969357
 51
4.9772669502990521
  0
ARC
  5
BB75
  8
0
 10
214.56915490771439
 20
134.41194786757379
 30
0.0
 40
0.5119804127053448
 50
175.02167889092061
 51
269.34327133050249
  0
LINE
  5
BB76
  8
0
 10
253.4367114305519
 20
133.90000108629459
 30
0.0
 11
214.56328667700291
 21
133.90000108629459
 31
0.0
  0
POLYLINE
  5
BB77
  8
0
 66
     1
 10
0.0
 20
0.0
 30
0.0
 70
   128
  0
VERTEX
  5
11334
  8
0
 10
234.57634837832299
 20
105.4730512201786
 30
0.0
  0
VERTEX
  5
11335
  8
0
 10
234.7573806066066
 20
105.5223158560693
 30
0.0
  0
VERTEX
  5
11336
  8
0
 10
234.87888479139659
 20
105.55574987083671
 30
0.0
  0
VERTEX
  5
11337
  8
0
 10
235.11930431704971
 20
105.62280556187029
 30
0.0
  0
VERTEX
  5
11338
  8
0
 10
235.23789625614879
 20
105.6563364341855
 30
0.0
  0
VERTEX
  5
11339
  8
0
 10
235.35530366934839
 20
105.68983983248469
 30
0.0
  0
VERTEX
  5
1133A
  8
0
 10
235.58624559082091
 20
105.7566720061004
 30
0.0
  0
VERTEX
  5
1133B
  8
0
 10
235.6994669418782
 20
105.7899104431271
 30
0.0
  0
VERTEX
  5
1133C
  8
0
 10
235.81108571961519
 20
105.8230012655258
 30
0.0
  0
VERTEX
  5
1133D
  8
0
 10
236.0291791148484
 20
105.8887540362775
 30
0.0
  0
VERTEX
  5
1133E
  8
0
 10
236.13526117987931
 20
105.9217414818704
 30
0.0
  0
VERTEX
  5
1133F
  8
0
 10
236.23924637213349
 20
105.95489516854281
 30
0.0
  0
VERTEX
  5
11340
  8
0
 10
236.44065000116819
 20
106.0216109268367
 30
0.0
  0
VERTEX
  5
11341
  8
0
 10
236.63258021697399
 20
106.0886312276125
 30
0.0
  0
VERTEX
  5
11342
  8
0
 10
236.72473737969989
 20
106.1221648938954
 30
0.0
  0
VERTEX
  5
11343
  8
0
 10
236.9011873845011
 20
106.189189851284
 30
0.0
  0
VERTEX
  5
11344
  8
0
 10
237.06650948151949
 20
106.2559163197875
 30
0.0
  0
VERTEX
  5
11345
  8
0
 10
237.14477084577081
 20
106.28907745704051
 30
0.0
  0
VERTEX
  5
11346
  8
0
 10
237.29226626455781
 20
106.3549196347594
 30
0.0
  0
VERTEX
  5
11347
  8
0
 10
237.36124816350639
 20
106.3878218643367
 30
0.0
  0
VERTEX
  5
11348
  8
0
 10
237.42696088738739
 20
106.42090430483221
 30
0.0
  0
VERTEX
  5
11349
  8
0
 10
237.5484109390527
 20
106.48751785047349
 30
0.0
  0
VERTEX
  5
1134A
  8
0
 10
237.65613562427461
 20
106.5544904209673
 30
0.0
  0
VERTEX
  5
1134B
  8
0
 10
237.7047108486295
 20
106.58802059479061
 30
0.0
  0
VERTEX
  5
1134C
  8
0
 10
237.7911580726504
 20
106.6550793126225
 30
0.0
  0
VERTEX
  5
1134D
  8
0
 10
237.86301403306419
 20
106.7218944896012
 30
0.0
  0
VERTEX
  5
1134E
  8
0
 10
237.89336979389191
 20
106.75512035377319
 30
0.0
  0
VERTEX
  5
1134F
  8
0
 10
237.9428383894265
 20
106.82111876085401
 30
0.0
  0
VERTEX
  5
11350
  8
0
 10
237.9618704319
 20
106.8539392668754
 30
0.0
  0
VERTEX
  5
11351
  8
0
 10
237.96994965523481
 20
106.8704173900187
 30
0.0
  0
VERTEX
  5
11352
  8
0
 10
237.97707008197901
 20
106.8869399838149
 30
0.0
  0
VERTEX
  5
11353
  8
0
 10
237.9884312860668
 20
106.9201081059873
 30
0.0
  0
VERTEX
  5
11354
  8
0
 10
237.99594612792129
 20
106.95340917445721
 30
0.0
  0
VERTEX
  5
11355
  8
0
 10
237.9982590675354
 20
106.9700984749943
 30
0.0
  0
VERTEX
  5
11356
  8
0
 10
237.9999126307666
 20
107.0019129198044
 30
0.0
  0
SEQEND
  5
11357
  8
0
  0
LINE
  5
BB78
  8
0
 10
234.57634837832299
 20
105.4730512201786
 30
0.0
 11
234.00000184774399
 21
105.47382002696391
 31
0.0
  0
LINE
  5
BB79
  8
0
 10
234.00000184774399
 20
105.47382002696391
 30
0.0
 11
234.00000184774399
 21
105.4713203571737
 31
0.0
  0
ARC
  5
BB7A
  8
0
 10
234.15726225993939
 20
103.83103970669499
 30
0.0
 40
1.6478020055754681
 50
95.476442038399952
 51
184.5611941253996
  0
LINE
  5
BB7B
  8
0
 10
232.5146788964048
 20
103.7000002339482
 30
0.0
 11
232.5146788964048
 21
102.0000003278255
 31
0.0
  0
LINE
  5
BB7C
  8
0
 10
230.00000165775421
 20
102.0000003278255
 30
0.0
 11
232.5146788964048
 21
102.0000003278255
 31
0.0
  0
LINE
  5
BB7D
  8
0
 10
230.088662635535
 20
103.6114016547799
 30
0.0
 11
230.00000165775421
 21
103.3862767741084
 31
0.0
  0
LINE
  5
BB7E
  8
0
 10
230.09713720530269
 20
103.6114016547799
 30
0.0
 11
230.088662635535
 21
103.6114016547799
 31
0.0
  0
LINE
  5
BB7F
  8
0
 10
230.19800945185119
 20
103.6114016547799
 30
0.0
 11
230.09713720530269
 21
103.6114016547799
 31
0.0
  0
POLYLINE
  5
BB80
  8
0
 66
     1
 10
0.0
 20
0.0
 30
0.0
 70
   128
  0
VERTEX
  5
11358
  8
0
 10
230.32211633399129
 20
103.5166866146028
 30
0.0
  0
VERTEX
  5
11359
  8
0
 10
230.24896699935201
 20
103.5698846913874
 30
0.0
  0
VERTEX
  5
1135A
  8
0
 10
230.19800945185119
 20
103.6114016547799
 30
0.0
  0
SEQEND
  5
1135B
  8
0
  0
POLYLINE
  5
BB81
  8
0
 66
     1
 10
0.0
 20
0.0
 30
0.0
 70
   128
  0
VERTEX
  5
1135C
  8
0
 10
230.78415710479021
 20
106.8839550949633
 30
0.0
  0
VERTEX
  5
1135D
  8
0
 10
230.98939685150981
 20
106.7056473344564
 30
0.0
  0
VERTEX
  5
1135E
  8
0
 10
231.21842443943021
 20
106.3856211490929
 30
0.0
  0
VERTEX
  5
1135F
  8
0
 10
231.4217905979603
 20
105.90911088511341
 30
0.0
  0
VERTEX
  5
11360
  8
0
 10
231.52536205016079
 20
105.29627595096819
 30
0.0
  0
VERTEX
  5
11361
  8
0
 10
231.4662663731724
 20
104.65040095150469
 30
0.0
  0
VERTEX
  5
11362
  8
0
 10
231.25165519304571
 20
104.0661571547389
 30
0.0
  0
VERTEX
  5
11363
  8
0
 10
230.93251120299101
 20
103.6265817470848
 30
0.0
  0
VERTEX
  5
11364
  8
0
 10
230.80233605578539
 20
103.51896649226541
 30
0.0
  0
VERTEX
  5
11365
  8
0
 10
230.57990572415289
 20
103.42470919713379
 30
0.0
  0
VERTEX
  5
11366
  8
0
 10
230.38691380061209
 20
103.463857807219
 30
0.0
  0
VERTEX
  5
11367
  8
0
 10
230.32211633399129
 20
103.5166866146028
 30
0.0
  0
SEQEND
  5
11368
  8
0
  0
LINE
  5
BB82
  8
0
 10
230.63686564564699
 20
106.953748408705
 30
0.0
 11
230.78415710479021
 21
106.8839550949633
 31
0.0
  0
POLYLINE
  5
BB83
  8
0
 66
     1
 10
0.0
 20
0.0
 30
0.0
 70
   128
  0
VERTEX
  5
11369
  8
0
 10
230.41991731151941
 20
107.0706107653677
 30
0.0
  0
VERTEX
  5
1136A
  8
0
 10
230.53600760176781
 20
107.0055676624179
 30
0.0
  0
VERTEX
  5
1136B
  8
0
 10
230.63686564564699
 20
106.953748408705
 30
0.0
  0
SEQEND
  5
1136C
  8
0
  0
POLYLINE
  5
BB84
  8
0
 66
     1
 10
0.0
 20
0.0
 30
0.0
 70
   128
  0
VERTEX
  5
1136D
  8
0
 10
230.24123143404719
 20
107.15574738569551
 30
0.0
  0
VERTEX
  5
1136E
  8
0
 10
230.28270928189161
 20
107.15020368807021
 30
0.0
  0
VERTEX
  5
1136F
  8
0
 10
230.41991731151941
 20
107.0706107653677
 30
0.0
  0
SEQEND
  5
11370
  8
0
  0
LINE
  5
BB85
  8
0
 10
230.24123143404719
 20
107.15574738569551
 30
0.0
 11
230.0607709214091
 21
107.15574738569551
 31
0.0
  0
LINE
  5
BB86
  8
0
 10
230.0607709214091
 20
107.15574738569551
 30
0.0
 11
230.0607709214091
 21
107.151311263442
 31
0.0
  0
POLYLINE
  5
BB87
  8
0
 66
     1
 10
0.0
 20
0.0
 30
0.0
 70
   128
  0
VERTEX
  5
11371
  8
0
 10
230.00755561515689
 20
107.0683038793504
 30
0.0
  0
VERTEX
  5
11372
  8
0
 10
230.0095765851438
 20
107.07958312705161
 30
0.0
  0
VERTEX
  5
11373
  8
0
 10
230.0607709214091
 20
107.151311263442
 30
0.0
  0
SEQEND
  5
11374
  8
0
  0
ARC
  5
BB88
  8
0
 10
230.37774573331319
 20
107.0088866651184
 30
0.0
 40
0.3749281650231839
 50
170.8815359020233
 51
230.85411138669289
  0
LINE
  5
BB89
  8
0
 10
235.4853247990832
 20
102.0000003278255
 30
0.0
 11
238.00000203773379
 21
102.0000003278255
 31
0.0
  0
LINE
  5
BB8A
  8
0
 10
235.4853247990832
 20
102.0000003278255
 30
0.0
 11
235.4853247990832
 21
102.10933480411769
 31
0.0
  0
POLYLINE
  5
BB8B
  8
0
 66
     1
 10
0.0
 20
0.0
 30
0.0
 70
   128
  0
VERTEX
  5
11375
  8
0
 10
237.911341059953
 20
103.6114016547799
 30
0.0
  0
VERTEX
  5
11376
  8
0
 10
238.00000203773379
 20
103.3330381676966
 30
0.0
  0
VERTEX
  5
11377
  8
0
 10
237.80658892355859
 20
103.050526138395
 30
0.0
  0
VERTEX
  5
11378
  8
0
 10
237.36044722609219
 20
102.77178362011909
 30
0.0
  0
VERTEX
  5
11379
  8
0
 10
236.5441576577723
 20
102.4418104439974
 30
0.0
  0
VERTEX
  5
1137A
  8
0
 10
235.4853247990832
 20
102.10933480411769
 30
0.0
  0
SEQEND
  5
1137B
  8
0
  0
POLYLINE
  5
BB9A
  8
0
 66
     1
 10
0.0
 20
0.0
 30
0.0
 70
   128
  0
VERTEX
  5
1137C
  8
0
 10
237.911341059953
 20
103.6114016547799
 30
0.0
  0
VERTEX
  5
1137D
  8
0
 10
237.32006135396659
 20
104.21118596568699
 30
0.0
  0
VERTEX
  5
1137E
  8
0
 10
236.73653025180101
 20
104.8126941546797
 30
0.0
  0
SEQEND
  5
1137F
  8
0
  0
LINE
  5
BB9C
  8
0
 10
235.4853247990832
 20
102.0000003278255
 30
0.0
 11
235.2235956816003
 21
100.7411809638142
 31
0.0
  0
ARC
  5
BB9D
  8
0
 10
234.32951892866319
 20
100.8864426825639
 30
0.0
 40
0.9058003130252359
 50
285.1133200281671
 51
350.77172169136082
  0
ARC
  5
BBA0
  8
0
 10
233.63974414891649
 20
100.8587078143547
 30
0.0
 40
0.8712989398847904
 50
187.752082409868
 51
256.36287587060161
  0
LINE
  5
BBA1
  8
0
 10
232.7764080138877
 20
100.7411809638142
 30
0.0
 11
232.5146788964048
 21
102.0000003278255
 31
0.0
  0
LINE
  5
BBA2
  8
0
 10
236.69677651487291
 20
100.0
 30
0.0
 11
231.3032272205852
 21
100.0
 31
0.0
  0
LINE
  5
BBA3
  8
0
 10
234.399608935928
 20
100.0
 30
0.0
 11
234.56568729598069
 21
100.0119721516967
 31
0.0
  0
LINE
  5
BBA4
  8
0
 10
233.4343163995072
 20
100.0119721516967
 30
0.0
 11
233.60039475956
 21
100.0
 31
0.0
  0
POLYLINE
  5
BBB5
  8
0
 66
     1
 10
0.0
 20
0.0
 30
0.0
 70
   128
  0
VERTEX
  5
11380
  8
0
 10
236.5960034541786
 20
105.0420723855495
 30
0.0
  0
VERTEX
  5
11381
  8
0
 10
236.6476399358362
 20
104.9233566969633
 30
0.0
  0
VERTEX
  5
11382
  8
0
 10
236.7315574549138
 20
104.81788907200099
 30
0.0
  0
SEQEND
  5
11383
  8
0
  0
LINE
  5
BBB6
  8
0
 10
236.73653025180101
 20
104.8126941546797
 30
0.0
 11
236.7315574549138
 21
104.81788907200099
 31
0.0
  0
POLYLINE
  5
BBC0
  8
0
 66
     1
 10
0.0
 20
0.0
 30
0.0
 70
   128
  0
VERTEX
  5
11384
  8
0
 10
230.088662635535
 20
103.6114016547799
 30
0.0
  0
VERTEX
  5
11385
  8
0
 10
230.67994234152141
 20
104.21118596568699
 30
0.0
  0
VERTEX
  5
11386
  8
0
 10
231.26347344368699
 20
104.8126941546797
 30
0.0
  0
SEQEND
  5
11387
  8
0
  0
LINE
  5
BBC1
  8
0
 10
231.26347344368699
 20
104.8126941546797
 30
0.0
 11
231.26844624057409
 21
104.81788907200099
 31
0.0
  0
ARC
  5
BBC3
  8
0
 10
230.76534998389579
 20
105.3255035625883
 30
0.0
 40
0.7146875642810832
 50
314.74386934135993
 51
334.2528392494807
  0
LINE
  5
BBCF
  8
0
 10
250.50000175833699
 20
116.30000025033949
 30
0.0
 11
217.5000019371509
 21
116.30000025033949
 31
0.0
  0
ARC
  5
BBD0
  8
0
 10
229.48697770505891
 20
129.1323398228817
 30
0.0
 40
2.465276234636248
 50
104.69098502887699
 51
132.7580327478492
  0
POLYLINE
  5
BBD1
  8
0
 66
     1
 10
0.0
 20
0.0
 30
0.0
 70
   128
  0
VERTEX
  5
11388
  8
0
 10
227.8038545511663
 20
130.41183855384591
 30
0.0
  0
VERTEX
  5
11389
  8
0
 10
227.64470223337409
 20
130.600287951529
 30
0.0
  0
VERTEX
  5
1138A
  8
0
 10
227.71498775109649
 20
130.8242524042725
 30
0.0
  0
VERTEX
  5
1138B
  8
0
 10
227.81329257413739
 20
130.94241302460429
 30
0.0
  0
SEQEND
  5
1138C
  8
0
  0
ARC
  5
BBD2
  8
0
 10
228.61438895384231
 20
132.3508797152713
 30
0.0
 40
2.1016295210201501
 50
247.31469018594271
 51
273.42470033884638
  0
ARC
  5
BBD3
  8
0
 10
228.75767886267749
 20
135.27409389260421
 30
0.0
 40
5.021121899024374
 50
269.79750684864109
 51
284.4804295452322
  0
ARC
  5
BBD4
  8
0
 10
229.57748297442231
 20
132.57542668873711
 30
0.0
 40
2.2064008634148
 50
281.38973718320199
 51
312.30433254182532
  0
POLYLINE
  5
BBD5
  8
0
 66
     1
 10
0.0
 20
0.0
 30
0.0
 70
   128
  0
VERTEX
  5
1138D
  8
0
 10
231.07112180441621
 20
131.5178586170077
 30
0.0
  0
VERTEX
  5
1138E
  8
0
 10
231.23231278732419
 20
131.2584778293967
 30
0.0
  0
VERTEX
  5
1138F
  8
0
 10
231.18556621484461
 20
131.1036324128508
 30
0.0
  0
VERTEX
  5
11390
  8
0
 10
231.06254176236689
 20
130.9436162933707
 30
0.0
  0
SEQEND
  5
11391
  8
0
  0
ARC
  5
BBD6
  8
0
 10
230.2453545186813
 20
129.92493213337929
 30
0.0
 40
1.794242567891742
 50
62.597941083543937
 51
93.552266373693215
  0
ARC
  5
BBD7
  8
0
 10
230.1447703487232
 20
127.4746493693451
 30
0.0
 40
4.2410912519219321
 50
90.143005016595396
 51
107.6088240435501
  0
POLYLINE
  5
BBD8
  8
0
 66
     1
 10
0.0
 20
0.0
 30
0.0
 70
   128
  0
VERTEX
  5
11392
  8
0
 10
233.01949973683799
 20
131.66305180639031
 30
0.0
  0
VERTEX
  5
11393
  8
0
 10
235.43436201289299
 20
131.14156145602459
 30
0.0
  0
VERTEX
  5
11394
  8
0
 10
237.83058491535479
 20
130.48014920204881
 30
0.0
  0
SEQEND
  5
11395
  8
0
  0
LINE
  5
BBD9
  8
0
 10
237.83058491535479
 20
130.48014920204881
 30
0.0
 11
237.50036214478311
 21
130.93511145561931
 31
0.0
  0
LINE
  5
BBDA
  8
0
 10
237.50036214478311
 20
130.93511145561931
 30
0.0
 11
243.31700224429369
 21
130.93511145561931
 31
0.0
  0
LINE
  5
BBDB
  8
0
 10
243.31700224429369
 20
130.93511145561931
 30
0.0
 11
244.19596400111911
 21
130.48014920204881
 31
0.0
  0
LINE
  5
BBDC
  8
0
 10
244.19596400111911
 20
130.48014920204881
 30
0.0
 11
244.19596400111911
 21
131.66305180639031
 31
0.0
  0
LINE
  5
BBDD
  8
0
 10
244.19596400111911
 20
131.66305180639031
 30
0.0
 11
233.01949973683799
 21
131.66305180639031
 31
0.0
  0
LINE
  5
BBDE
  8
0
 10
245.92365585267541
 20
131.02557826787231
 30
0.0
 11
246.46247997879979
 21
131.03550244122741
 31
0.0
  0
LINE
  5
BBDF
  8
0
 10
246.36209364980459
 20
130.85742238909
 30
0.0
 11
245.92365585267541
 21
131.02557826787231
 31
0.0
  0
LINE
  5
BBE0
  8
0
 10
246.90091870725149
 20
130.86701314896339
 30
0.0
 11
246.36209364980459
 21
130.85742238909
 31
0.0
  0
LINE
  5
BBE1
  8
0
 10
248.10297768563029
 20
130.40508087724439
 30
0.0
 11
246.90091870725149
 21
130.86701314896339
 31
0.0
  0
LINE
  5
BBE2
  8
0
 10
247.41400294005871
 20
130.38191702216861
 30
0.0
 11
248.10297768563029
 21
130.40508087724439
 31
0.0
  0
LINE
  5
BBE3
  8
0
 10
247.85244166851041
 20
130.21408710628751
 30
0.0
 11
247.41400294005871
 21
130.38191702216861
 31
0.0
  0
LINE
  5
BBE4
  8
0
 10
248.72931819409129
 20
130.22379335016009
 30
0.0
 11
247.85244166851041
 21
130.21408710628751
 31
0.0
  0
LINE
  5
BBE5
  8
0
 10
244.98843476176259
 20
131.65687341243029
 30
0.0
 11
248.72931819409129
 21
130.22379335016009
 31
0.0
  0
LINE
  5
BBE6
  8
0
 10
244.8005320504308
 20
131.67408797889951
 30
0.0
 11
244.98843476176259
 21
131.65687341243029
 31
0.0
  0
LINE
  5
BBE7
  8
0
 10
246.46247997879979
 20
131.03550244122741
 30
0.0
 11
244.8005320504308
 21
131.67408797889951
 31
0.0
  0
LINE
  5
BBF0
  8
0
 10
226.0390536859631
 20
131.6816000267863
 30
0.0
 11
225.41099768131971
 21
130.54624702781439
 31
0.0
  0
LINE
  5
BBF1
  8
0
 10
225.5997572094202
 20
131.65898378938431
 30
0.0
 11
226.0390536859631
 21
131.6816000267863
 31
0.0
  0
LINE
  5
BBF2
  8
0
 10
223.02232291549441
 20
130.22689465433359
 30
0.0
 11
225.5997572094202
 21
131.65898378938431
 31
0.0
  0
LINE
  5
BBF3
  8
0
 10
223.4607616439462
 20
130.24362865835431
 30
0.0
 11
223.02232291549441
 21
130.22689465433359
 31
0.0
  0
LINE
  5
BBF4
  8
0
 10
225.4950812086463
 20
131.3789127394557
 30
0.0
 11
223.4607616439462
 21
130.24362865835431
 31
0.0
  0
LINE
  5
BBF5
  8
0
 10
224.83356278389689
 20
130.24440165609121
 30
0.0
 11
225.4950812086463
 21
131.3789127394557
 31
0.0
  0
LINE
  5
BBF6
  8
0
 10
225.307179428637
 20
130.22647555917499
 30
0.0
 11
224.83356278389689
 21
130.24440165609121
 31
0.0
  0
LINE
  5
BBF7
  8
0
 10
227.88461372256279
 20
131.65838774293661
 30
0.0
 11
225.307179428637
 21
130.22647555917499
 31
0.0
  0
LINE
  5
BBF8
  8
0
 10
227.44617545977229
 20
131.6812796518206
 30
0.0
 11
227.88461372256279
 21
131.65838774293661
 31
0.0
  0
LINE
  5
BBF9
  8
0
 10
225.41099768131971
 20
130.54624702781439
 30
0.0
 11
227.44617545977229
 21
131.6812796518206
 31
0.0
  0
ARC
  5
BC07
  8
0
 10
228.87408951988621
 20
133.7133708454148
 30
0.0
 40
3.300547029072876
 50
270.32233598753328
 51
285.38614444040519
  0
POLYLINE
  5
BC0A
  8
0
 66
     1
 10
0.0
 20
0.0
 30
0.0
 70
   128
  0
VERTEX
  5
11396
  8
0
 10
228.33324111998081
 20
130.96490446478131
 30
0.0
  0
VERTEX
  5
11397
  8
0
 10
228.2054468989372
 20
130.7962344959378
 30
0.0
  0
VERTEX
  5
11398
  8
0
 10
228.18129863589999
 20
130.63548635691399
 30
0.0
  0
VERTEX
  5
11399
  8
0
 10
228.27661298215389
 20
130.53056728094811
 30
0.0
  0
SEQEND
  5
1139A
  8
0
  0
ARC
  5
BC0B
  8
0
 10
229.5754266551771
 20
129.71991594032261
 30
0.0
 40
1.7586987604148021
 50
104.80473100177051
 51
134.93542897162709
  0
ARC
  5
BC0C
  8
0
 10
230.0106971693385
 20
128.61446576382289
 30
0.0
 40
2.9419281591351281
 50
90.552697182429696
 51
107.5001672851252
  0
ARC
  5
BC0D
  8
0
 10
230.04216982948179
 20
130.35561424213691
 30
0.0
 40
1.2021336488297309
 50
62.394203677728441
 51
92.853791748144232
  0
POLYLINE
  5
BC0E
  8
0
 66
     1
 10
0.0
 20
0.0
 30
0.0
 70
   128
  0
VERTEX
  5
1139B
  8
0
 10
230.5425934493542
 20
130.96561413258311
 30
0.0
  0
VERTEX
  5
1139C
  8
0
 10
230.66847217269239
 20
131.1326971277594
 30
0.0
  0
VERTEX
  5
1139D
  8
0
 10
230.678307171911
 20
131.3426880165934
 30
0.0
  0
VERTEX
  5
1139E
  8
0
 10
230.59922135435039
 20
131.42089303582901
 30
0.0
  0
SEQEND
  5
1139F
  8
0
  0
ARC
  5
BC0F
  8
0
 10
229.39960773129309
 20
132.11060776279999
 30
0.0
 40
1.6178463353881181
 50
282.50096794014422
 51
314.94971770059828
  0
ARC
  5
BC10
  8
0
 10
228.82940279672329
 20
131.75293600863091
 30
0.0
 40
1.3415520435332979
 50
245.66616774325419
 51
272.70252977572278
  0
LINE
  5
BC20
  8
0
 10
224.67632852494719
 20
132.3000000789761
 30
0.0
 11
243.32367517054081
 21
132.3000000789761
 31
0.0
  0
LINE
  5
BC21
  8
0
 10
225.00000223517421
 20
111.8000002112239
 30
0.0
 11
243.0000014603138
 21
111.8000002112239
 31
0.0
  0
LINE
  5
BC22
  8
0
 10
242.0000022277236
 20
110.8000002219341
 30
0.0
 11
226.00000146776441
 21
110.8000002219341
 31
0.0
  0
LINE
  5
BC32
  8
0
 10
217.65798218548301
 20
129.80970870703459
 30
0.0
 11
250.342021510005
 21
129.80970870703459
 31
0.0
  0
LINE
  5
BCA1
  8
1
 10
167.0000009238596
 20
222.7128479047137
 30
0.0
 11
167.0000009238596
 21
172.82719319924399
 31
0.0
  0
LINE
  5
BCB8
  8
1
 10
191.94282827659441
 20
197.77002055197889
 30
0.0
 11
142.05717357112471
 21
197.7700205519788
 31
0.0
  0
CIRCLE
  5
BCD4
  8
0
 10
167.0000009238596
 20
197.77002055197889
 30
0.0
 40
3.000000000000028
  0
LINE
  5
BCD5
  8
0
 10
168.000000971357
 20
198.34737081546271
 30
0.0
 11
167.0000009238596
 21
198.92472107894659
 31
0.0
  0
LINE
  5
BCD6
  8
0
 10
167.0000009238596
 20
198.92472107894659
 30
0.0
 11
166.00000087636209
 21
198.34737081546271
 31
0.0
  0
LINE
  5
BCD7
  8
0
 10
166.00000087636209
 20
198.34737081546271
 30
0.0
 11
166.00000087636209
 21
197.19267028849509
 31
0.0
  0
LINE
  5
BCD8
  8
0
 10
166.00000087636209
 20
197.19267028849509
 30
0.0
 11
167.0000009238596
 21
196.6153200250113
 31
0.0
  0
LINE
  5
BCD9
  8
0
 10
167.0000009238596
 20
196.6153200250113
 30
0.0
 11
168.000000971357
 21
197.19267028849509
 31
0.0
  0
LINE
  5
BCDA
  8
0
 10
168.000000971357
 20
197.19267028849509
 30
0.0
 11
168.000000971357
 21
198.34737081546271
 31
0.0
  0
ARC
  5
BD32
  8
0
 10
179.3066501217057
 20
193.5601717671926
 30
0.0
 40
2.0695383224757711
 50
206.65354667494569
 51
252.78832987353661
  0
ARC
  5
BD33
  8
0
 10
179.5169942524945
 20
193.55317687451219
 30
0.0
 40
2.1347712836289339
 50
247.33185886254481
 51
292.0015653018026
  0
ARC
  5
BD34
  8
0
 10
179.6577131922312
 20
193.04755215663599
 30
0.0
 40
1.6143283492905081
 50
294.09436604199789
 51
340.54795411272858
  0
ARC
  5
BD35
  8
0
 10
179.6790741888135
 20
193.0937994311297
 30
0.0
 40
1.610386751663371
 50
338.7430550790836
 51
25.347812722635421
  0
ARC
  5
BD36
  8
0
 10
179.27581673233229
 20
192.8453570884399
 30
0.0
 40
2.0818286730208189
 50
26.775912201657022
 51
72.658860168074114
  0
ARC
  5
BD37
  8
0
 10
179.07508810281149
 20
192.865897872586
 30
0.0
 40
2.1312427286672522
 50
67.335554919143661
 51
112.0581438430744
  0
ARC
  5
BD38
  8
0
 10
178.9351585962666
 20
193.36525156719841
 30
0.0
 40
1.6169249467795861
 50
114.10827854104301
 51
160.52963857295811
  0
ARC
  5
BD39
  8
0
 10
178.90955657316999
 20
193.32172910441341
 30
0.0
 40
1.6080579909890771
 50
158.76325745418569
 51
205.4074295987005
  0
LINE
  5
BD3A
  8
0
 10
178.20719126610709
 20
196.789518441073
 30
0.0
 11
180.98487295209119
 21
201.6006036195898
 31
0.0
  0
LINE
  5
BD3B
  8
0
 10
180.98487295209119
 20
201.6006036195898
 30
0.0
 11
179.7792805358643
 21
201.2703808490181
 31
0.0
  0
ARC
  5
BD3C
  8
0
 10
167.0000009238596
 20
197.77002055197889
 30
0.0
 40
13.250000000000011
 50
15.31812321793077
 51
44.681876782069523
  0
LINE
  5
BD3D
  8
0
 10
176.42104122786469
 20
207.0870209485287
 30
0.0
 11
177.30981912462661
 21
207.96598270535409
 31
0.0
  0
LINE
  5
BD3E
  8
0
 10
177.30981912462661
 20
207.96598270535409
 30
0.0
 11
172.9955730028326
 21
207.96598270535409
 31
0.0
  0
ARC
  5
BD3F
  8
0
 10
167.0000009238596
 20
197.77002055197889
 30
0.0
 40
11.25000000000002
 50
354.99999999999989
 51
56.190520907508208
  0
LINE
  5
BD40
  8
0
 10
172.33320940284679
 20
210.13211235403961
 30
0.0
 11
172.2778906951163
 21
209.97058094515501
 31
0.0
  0
LINE
  5
BD41
  8
0
 10
172.2019539214547
 20
210.17700862139409
 30
0.0
 11
172.33320940284679
 21
210.13211235403961
 31
0.0
  0
LINE
  5
BD42
  8
0
 10
173.1817723251755
 20
211.18402164429369
 30
0.0
 11
171.90405355866579
 21
211.62136508780301
 31
0.0
  0
LINE
  5
BD43
  8
0
 10
173.3319224789615
 20
211.62246037274539
 30
0.0
 11
173.1817723251755
 21
211.18402164429369
 31
0.0
  0
LINE
  5
BD44
  8
0
 10
171.7658467184298
 20
212.15865145320299
 30
0.0
 11
173.3319224789615
 21
211.62246037274539
 31
0.0
  0
POLYLINE
  5
BD45
  8
0
 66
     1
 10
0.0
 20
0.0
 30
0.0
 70
   128
  0
VERTEX
  5
113A0
  8
0
 10
161.71415904535601
 20
211.49671878665629
 30
0.0
  0
VERTEX
  5
113A1
  8
0
 10
161.8936486542101
 20
211.7665620520705
 30
0.0
  0
VERTEX
  5
113A2
  8
0
 10
162.19644844848909
 20
212.0339840096764
 30
0.0
  0
SEQEND
  5
113A3
  8
0
  0
ARC
  5
BD46
  8
0
 10
163.5898563286564
 20
210.56510296454999
 30
0.0
 40
2.0943133334291879
 50
153.58746328743939
 51
202.1598973640954
  0
LINE
  5
BD47
  8
0
 10
174.87666439263771
 20
189.80907239019811
 30
0.0
 11
178.45624368636561
 21
189.18101638555461
 31
0.0
  0
LINE
  5
BD48
  8
0
 10
174.5000021532054
 20
189.3697759136551
 30
0.0
 11
174.87666439263771
 21
189.80907239019811
 31
0.0
  0
LINE
  5
BD49
  8
0
 10
177.5072949007029
 20
186.7923416197294
 30
0.0
 11
174.5000021532054
 21
189.3697759136551
 31
0.0
  0
LINE
  5
BD4A
  8
0
 10
177.8830993920441
 20
187.2307803481811
 30
0.0
 11
177.5072949007029
 21
186.7923416197294
 31
0.0
  0
LINE
  5
BD4B
  8
0
 10
175.5090110003824
 20
189.2650999128812
 30
0.0
 11
177.8830993920441
 21
187.2307803481811
 31
0.0
  0
LINE
  5
BD4C
  8
0
 10
179.0594184771056
 20
188.60358148813191
 30
0.0
 11
175.5090110003824
 21
189.2650999128812
 31
0.0
  0
LINE
  5
BD4D
  8
0
 10
179.46525346486521
 20
189.07719813287201
 30
0.0
 11
179.0594184771056
 21
188.60358148813191
 31
0.0
  0
LINE
  5
BD4E
  8
0
 10
176.45795978604511
 20
191.65463242679769
 30
0.0
 11
179.46525346486521
 21
189.07719813287201
 31
0.0
  0
LINE
  5
BD4F
  8
0
 10
176.08215529470391
 20
191.21619416400731
 30
0.0
 11
176.45795978604511
 21
191.65463242679769
 31
0.0
  0
LINE
  5
BD50
  8
0
 10
178.45624368636561
 20
189.18101638555461
 30
0.0
 11
176.08215529470391
 21
191.21619416400731
 31
0.0
  0
ARC
  5
BD51
  8
0
 10
179.59811070883069
 20
193.6412186777097
 30
0.0
 40
1.6946281293847381
 50
245.16887250106981
 51
289.78562461798521
  0
ARC
  5
BD52
  8
0
 10
179.36948789008181
 20
193.7613641792401
 30
0.0
 40
1.7270281465742849
 50
210.06887474519439
 51
253.7584475352289
  0
ARC
  5
BD53
  8
0
 10
178.83684856478251
 20
193.38560835111321
 30
0.0
 40
1.0793768561617829
 50
160.13775251153351
 51
206.9719249315288
  0
ARC
  5
BD54
  8
0
 10
178.82742814677849
 20
193.3756801967306
 30
0.0
 40
1.0739632197072979
 50
112.3114341340968
 51
159.46882455223221
  0
ARC
  5
BD55
  8
0
 10
178.99421761624771
 20
192.80527726149711
 30
0.0
 40
1.666145564683013
 50
64.780729148883808
 51
110.17041998866419
  0
ARC
  5
BD56
  8
0
 10
179.18037953234131
 20
192.600879294083
 30
0.0
 40
1.790069573867662
 50
30.887515486107979
 51
72.986956732697038
  0
ARC
  5
BD57
  8
0
 10
179.74853446928421
 20
193.03156042720229
 30
0.0
 40
1.0842049508307121
 50
340.10883412076902
 51
26.765374053742491
  0
ARC
  5
BD58
  8
0
 10
179.76349240650771
 20
193.03843415502789
 30
0.0
 40
1.0725402975295539
 50
292.37340711892688
 51
339.4916615073335
  0
ARC
  5
BD59
  8
0
 10
167.0000009238596
 20
197.77002055197889
 30
0.0
 40
17.000000000000011
 50
282.57093007429478
 51
77.537864723549177
  0
ARC
  5
BD5A
  8
0
 10
167.0000009238596
 20
197.77002055197889
 30
0.0
 40
17.000000000000011
 50
102.57093007429479
 51
257.53786472354921
  0
ARC
  5
BD5D
  8
0
 10
167.0000009238596
 20
197.77002055197889
 30
0.0
 40
9.323673019291526
 50
138.78828269016569
 51
221.211735984781
  0
ARC
  5
BD5E
  8
0
 10
167.0000009238596
 20
197.77002055197889
 30
0.0
 40
9.3236730192915598
 50
318.78828269016572
 51
41.211735984781193
  0
LINE
  5
BDE4
  8
1
 10
191.9428282766068
 20
49.999544494381411
 30
0.0
 11
142.0571735711371
 21
49.999544494381411
 31
0.0
  0
LINE
  5
BDE5
  8
1
 10
167.00000092387199
 20
74.942371847116235
 30
0.0
 11
167.00000092387199
 21
25.05671714164659
 31
0.0
  0
LINE
  5
BDF8
  8
0
 10
161.90192485228181
 20
48.499544481342959
 30
0.0
 11
163.29190167598421
 21
48.499544481342959
 31
0.0
  0
ARC
  5
BDF9
  8
0
 10
164.50000092387191
 20
49.999544494381468
 30
0.0
 40
3.0000000000000102
 50
179.9285951194212
 51
210.0000000000008
  0
ARC
  5
BDFA
  8
0
 10
164.50000092387191
 20
49.999544494381468
 30
0.0
 40
3.0000000000000169
 50
149.99999999999929
 51
179.9285951194212
  0
LINE
  5
BDFB
  8
0
 10
166.84639981249359
 20
30.066698886981531
 30
0.0
 11
167.00000092387199
 21
30.056717926276828
 31
0.0
  0
LINE
  5
BDFC
  8
0
 10
167.00000092387199
 20
30.056717926276828
 30
0.0
 11
167.1537045534933
 21
30.066704474916978
 31
0.0
  0
LINE
  5
BDFD
  8
0
 10
167.00000092387199
 20
69.942371847116235
 30
0.0
 11
166.84629729425069
 21
69.93238451384596
 31
0.0
  0
LINE
  5
BDFE
  8
0
 10
167.1536020352506
 20
69.932390101781394
 30
0.0
 11
167.00000092387199
 21
69.942371847116235
 31
0.0
  0
LINE
  5
BDFF
  8
0
 10
174.0000011399388
 20
36.431812778642701
 30
0.0
 11
175.25000087916851
 21
37.153501160970258
 31
0.0
  0
LINE
  5
BE00
  8
0
 10
175.25000087916851
 20
38.596876994302797
 30
0.0
 11
175.25000087916851
 21
37.153501160970258
 31
0.0
  0
LINE
  5
BE01
  8
0
 10
175.25000087916851
 20
38.596876994302797
 30
0.0
 11
174.0000011399388
 21
39.318564445307778
 31
0.0
  0
LINE
  5
BE02
  8
0
 10
174.0000011399388
 20
39.318564445307778
 30
0.0
 11
172.75000093504781
 21
38.596876994302797
 31
0.0
  0
LINE
  5
BE03
  8
0
 10
172.75000093504781
 20
37.153501160970258
 30
0.0
 11
172.75000093504781
 21
38.596876994302797
 31
0.0
  0
LINE
  5
BE04
  8
0
 10
172.75000093504781
 20
37.153501160970258
 30
0.0
 11
174.0000011399388
 21
36.431812778642701
 31
0.0
  0
CIRCLE
  5
BE05
  8
0
 10
174.00000092387199
 20
37.875188841399343
 30
0.0
 40
2.7500000000000631
  0
LINE
  5
BE06
  8
0
 10
175.25000087916851
 20
62.845587827792677
 30
0.0
 11
174.0000011399388
 21
63.567276210120241
 31
0.0
  0
LINE
  5
BE07
  8
0
 10
172.75000093504781
 20
62.845587827792677
 30
0.0
 11
174.0000011399388
 21
63.567276210120241
 31
0.0
  0
LINE
  5
BE08
  8
0
 10
172.75000093504781
 20
62.845587827792677
 30
0.0
 11
172.75000093504781
 21
61.402211994460139
 31
0.0
  0
LINE
  5
BE09
  8
0
 10
172.75000093504781
 20
61.402211994460139
 30
0.0
 11
174.0000011399388
 21
60.680524543455157
 31
0.0
  0
LINE
  5
BE0A
  8
0
 10
175.25000087916851
 20
61.402211994460139
 30
0.0
 11
174.0000011399388
 21
60.680524543455157
 31
0.0
  0
LINE
  5
BE0B
  8
0
 10
175.25000087916851
 20
61.402211994460139
 30
0.0
 11
175.25000087916851
 21
62.845587827792677
 31
0.0
  0
CIRCLE
  5
BE0C
  8
0
 10
174.00000092387191
 20
62.123900147363699
 30
0.0
 40
2.750000000000079
  0
LINE
  5
BE0D
  8
0
 10
151.75000075250861
 20
50.721232352840083
 30
0.0
 11
151.75000075250861
 21
49.277856635922859
 31
0.0
  0
LINE
  5
BE0E
  8
0
 10
153.00000049173829
 20
48.556168777464258
 30
0.0
 11
151.75000075250861
 21
49.277856635922859
 31
0.0
  0
LINE
  5
BE0F
  8
0
 10
153.00000049173829
 20
48.556168777464258
 30
0.0
 11
154.25000116229049
 21
49.277856635922859
 31
0.0
  0
LINE
  5
BE10
  8
0
 10
154.25000116229049
 20
49.277856635922859
 30
0.0
 11
154.25000116229049
 21
50.721232352840083
 31
0.0
  0
LINE
  5
BE11
  8
0
 10
153.00000049173829
 20
51.442920211298691
 30
0.0
 11
154.25000116229049
 21
50.721232352840083
 31
0.0
  0
LINE
  5
BE12
  8
0
 10
153.00000049173829
 20
51.442920211298691
 30
0.0
 11
151.75000075250861
 21
50.721232352840083
 31
0.0
  0
CIRCLE
  5
BE13
  8
0
 10
153.00000092387199
 20
49.999544494381489
 30
0.0
 40
2.750000000000056
  0
LINE
  5
BE14
  8
0
 10
161.90192485228181
 20
51.499544507419991
 30
0.0
 11
161.90192485228181
 21
48.499544481342959
 31
0.0
  0
LINE
  5
BE21
  8
0
 10
166.15923660574481
 20
32.458143406143719
 30
0.0
 11
165.81030243545021
 21
33.041224486000722
 31
0.0
  0
ARC
  5
BE22
  8
0
 10
167.00000092387199
 20
32.999813338721331
 30
0.0
 40
1.00014546666698
 50
212.7920210846959
 51
327.20797891530498
  0
LINE
  5
BE23
  8
0
 10
168.1896973916607
 20
33.04122434424481
 30
0.0
 11
167.84076524199909
 21
32.458143406143719
 31
0.0
  0
LINE
  5
BE24
  8
0
 10
167.84076524199909
 20
67.54094558261923
 30
0.0
 11
168.18969677257499
 21
66.957864687949552
 31
0.0
  0
ARC
  5
BE25
  8
0
 10
167.00000092387199
 20
66.999275650041625
 30
0.0
 40
1.0001454666669729
 50
32.792021084695122
 51
147.20797891530489
  0
LINE
  5
BE26
  8
0
 10
165.81030546223391
 20
66.957864715103753
 30
0.0
 11
166.15923660574481
 21
67.54094558261923
 31
0.0
  0
ARC
  5
BE29
  8
0
 10
167.00123677790609
 20
33.064115586323801
 30
0.0
 40
3.001286356444099
 50
272.9119253592005
 51
326.17180242476093
  0
ARC
  5
BE2B
  8
0
 10
166.998777271987
 20
33.064146567802673
 30
0.0
 40
3.001318291921351
 50
214.02142624281021
 51
267.08983203221038
  0
POLYLINE
  5
BE2D
  8
0
 66
     1
 10
0.0
 20
0.0
 30
0.0
 70
   128
  0
VERTEX
  5
113A4
  8
0
 10
170.66850489181971
 20
33.400084303244192
 30
0.0
  0
VERTEX
  5
113A5
  8
0
 10
169.5241442415863
 20
31.438535176744988
 30
0.0
  0
VERTEX
  5
113A6
  8
0
 10
169.52411164529619
 20
31.438484885325959
 30
0.0
  0
VERTEX
  5
113A7
  8
0
 10
169.52411164529619
 20
31.438484885325959
 30
0.0
  0
SEQEND
  5
113A8
  8
0
  0
POLYLINE
  5
BE2E
  8
0
 66
     1
 10
0.0
 20
0.0
 30
0.0
 70
   128
  0
VERTEX
  5
113A9
  8
0
 10
169.52411164529619
 20
31.438484885325959
 30
0.0
  0
VERTEX
  5
113AA
  8
0
 10
169.52407928183669
 20
31.43843459390693
 30
0.0
  0
VERTEX
  5
113AB
  8
0
 10
169.49443714693189
 20
31.393285938134721
 30
0.0
  0
SEQEND
  5
113AC
  8
0
  0
POLYLINE
  5
BE2F
  8
0
 66
     1
 10
0.0
 20
0.0
 30
0.0
 70
   128
  0
VERTEX
  5
113AD
  8
0
 10
164.51119943521911
 20
31.384900309672879
 30
0.0
  0
VERTEX
  5
113AE
  8
0
 10
164.47592256590721
 20
31.43843459390693
 30
0.0
  0
VERTEX
  5
113AF
  8
0
 10
164.47589020244769
 20
31.438484885325959
 30
0.0
  0
SEQEND
  5
113B0
  8
0
  0
ARC
  5
BE30
  8
0
 10
182.39199514677949
 20
43.124944241512949
 30
0.0
 40
21.390655638855979
 50
207.04739818262269
 51
213.1159257829917
  0
POLYLINE
  5
BE31
  8
0
 66
     1
 10
0.0
 20
0.0
 30
0.0
 70
   128
  0
VERTEX
  5
113B1
  8
0
 10
169.48880241252479
 20
68.614188679090063
 30
0.0
  0
VERTEX
  5
113B2
  8
0
 10
169.52407928183669
 20
68.560654394856016
 30
0.0
  0
VERTEX
  5
113B3
  8
0
 10
169.52411164529619
 20
68.560604103436987
 30
0.0
  0
SEQEND
  5
113B4
  8
0
  0
ARC
  5
BE32
  8
0
 10
151.52977843508029
 20
56.824740188374811
 30
0.0
 40
21.483168516611681
 50
27.06905758652395
 51
33.112300784760038
  0
POLYLINE
  5
BE35
  8
0
 66
     1
 10
0.0
 20
0.0
 30
0.0
 70
   128
  0
VERTEX
  5
113B5
  8
0
 10
163.33149724986319
 20
66.599004750479651
 30
0.0
  0
VERTEX
  5
113B6
  8
0
 10
164.4758576061576
 20
68.560553812017943
 30
0.0
  0
VERTEX
  5
113B7
  8
0
 10
164.47589020244769
 20
68.560604103436987
 30
0.0
  0
VERTEX
  5
113B8
  8
0
 10
164.47589020244769
 20
68.560604103436987
 30
0.0
  0
SEQEND
  5
113B9
  8
0
  0
POLYLINE
  5
BE36
  8
0
 66
     1
 10
0.0
 20
0.0
 30
0.0
 70
   128
  0
VERTEX
  5
113BA
  8
0
 10
164.47589020244769
 20
68.560604103436987
 30
0.0
  0
VERTEX
  5
113BB
  8
0
 10
164.47592256590721
 20
68.560654394856016
 30
0.0
  0
VERTEX
  5
113BC
  8
0
 10
164.5055647008121
 20
68.605803050628225
 30
0.0
  0
SEQEND
  5
113BD
  8
0
  0
ARC
  5
BE37
  8
0
 10
166.9987650698377
 20
66.934973402439155
 30
0.0
 40
3.0012863564440919
 50
92.911925359193916
 51
146.17180242476039
  0
ARC
  5
BE38
  8
0
 10
167.00122457575679
 20
66.934942420960269
 30
0.0
 40
3.0013182919213581
 50
34.02142624280993
 51
87.089832032203887
  0
POLYLINE
  5
BE39
  8
0
 66
     1
 10
0.0
 20
0.0
 30
0.0
 70
   128
  0
VERTEX
  5
113BE
  8
0
 10
169.79436608962709
 20
49.433859046144711
 30
0.0
  0
VERTEX
  5
113BF
  8
0
 10
170.07697382941839
 20
49.151251248145769
 30
0.0
  0
VERTEX
  5
113C0
  8
0
 10
170.31276398338369
 20
48.915461035972761
 30
0.0
  0
VERTEX
  5
113C1
  8
0
 10
170.4423672985285
 20
48.785857837243299
 30
0.0
  0
VERTEX
  5
113C2
  8
0
 10
170.45227447524661
 20
48.77595066052519
 30
0.0
  0
SEQEND
  5
113C3
  8
0
  0
POLYLINE
  5
BE3B
  8
0
 66
     1
 10
0.0
 20
0.0
 30
0.0
 70
   128
  0
VERTEX
  5
113C4
  8
0
 10
163.54772737249729
 20
48.77595066052519
 30
0.0
  0
VERTEX
  5
113C5
  8
0
 10
163.65038217045361
 20
48.878605342066209
 30
0.0
  0
VERTEX
  5
113C6
  8
0
 10
163.814055128023
 20
49.042278357843237
 30
0.0
  0
VERTEX
  5
113C7
  8
0
 10
164.0312754083424
 20
49.259498696370351
 30
0.0
  0
VERTEX
  5
113C8
  8
0
 10
164.20563575811681
 20
49.433859046144711
 30
0.0
  0
SEQEND
  5
113C9
  8
0
  0
LINE
  5
BE3C
  8
0
 10
164.20563575811681
 20
49.433859046144711
 30
0.0
 11
164.33299737982449
 21
49.59993740619749
 31
0.0
  0
LINE
  5
BE3E
  8
0
 10
169.66700446791941
 20
49.59993740619749
 30
0.0
 11
169.79436608962709
 21
49.433859046144711
 31
0.0
  0
POLYLINE
  5
BE3F
  8
0
 66
     1
 10
0.0
 20
0.0
 30
0.0
 70
   128
  0
VERTEX
  5
113CA
  8
0
 10
164.20563575811681
 20
50.565229942618238
 30
0.0
  0
VERTEX
  5
113CB
  8
0
 10
163.92302801832551
 20
50.847837740617173
 30
0.0
  0
VERTEX
  5
113CC
  8
0
 10
163.68723786436021
 20
51.083627952790188
 30
0.0
  0
VERTEX
  5
113CD
  8
0
 10
163.55763454921541
 20
51.213231151519643
 30
0.0
  0
VERTEX
  5
113CE
  8
0
 10
163.54772737249729
 20
51.223138328237759
 30
0.0
  0
SEQEND
  5
113CF
  8
0
  0
POLYLINE
  5
BE41
  8
0
 66
     1
 10
0.0
 20
0.0
 30
0.0
 70
   128
  0
VERTEX
  5
113D0
  8
0
 10
170.45227447524661
 20
51.223138328237759
 30
0.0
  0
VERTEX
  5
113D1
  8
0
 10
170.34961967729029
 20
51.120483646696727
 30
0.0
  0
VERTEX
  5
113D2
  8
0
 10
170.1859467197209
 20
50.956810630919712
 30
0.0
  0
VERTEX
  5
113D3
  8
0
 10
169.96872643940151
 20
50.739590292392599
 30
0.0
  0
VERTEX
  5
113D4
  8
0
 10
169.79436608962709
 20
50.565229942618238
 30
0.0
  0
SEQEND
  5
113D5
  8
0
  0
LINE
  5
BE42
  8
0
 10
169.79436608962709
 20
50.565229942618238
 30
0.0
 11
169.66700446791941
 21
50.399151582565459
 31
0.0
  0
LINE
  5
BE44
  8
0
 10
164.33299737982449
 20
50.399151582565459
 30
0.0
 11
164.20563575811681
 21
50.565229942618238
 31
0.0
  0
ARC
  5
BE45
  8
0
 10
170.3600514302108
 20
49.999544494381482
 30
0.0
 40
0.800000000000001
 50
150.03248864107289
 51
209.96751135892731
  0
ARC
  5
BE46
  8
0
 10
163.6399504175331
 20
49.999544494381482
 30
0.0
 40
0.800000000000001
 50
330.03248864107923
 51
29.96751135892708
  0
LINE
  5
BE48
  8
0
 10
163.28599825501439
 20
48.514221543042289
 30
0.0
 11
163.54772737249729
 21
48.77595066052519
 31
0.0
  0
LINE
  5
BE49
  8
0
 10
170.71400359272951
 20
48.514221543042289
 30
0.0
 11
170.45227447524661
 21
48.77595066052519
 31
0.0
  0
LINE
  5
BE4B
  8
0
 10
170.45227447524661
 20
51.223138328237759
 30
0.0
 11
170.71400359272951
 21
51.48486744572066
 31
0.0
  0
LINE
  5
BE4C
  8
0
 10
163.54772737249729
 20
51.223138328237759
 30
0.0
 11
163.28599825501439
 21
51.48486744572066
 31
0.0
  0
CIRCLE
  5
BE5E
  8
0
 10
167.00000092387199
 20
49.999544494381468
 30
0.0
 40
8.0000000000000071
  0
CIRCLE
  5
BE5F
  8
0
 10
167.00000092387199
 20
49.999544494381468
 30
0.0
 40
9.0000000000000071
  0
ARC
  5
BE60
  8
0
 10
161.50000092387199
 20
49.999544494381468
 30
0.0
 40
1.5
 50
90.0
 51
180.0
  0
ARC
  5
BE61
  8
0
 10
167.00000092387199
 20
49.999544494381468
 30
0.0
 40
7.0000000000000222
 50
180.0
 51
300.0
  0
ARC
  5
BE62
  8
0
 10
169.75000092387199
 20
45.236404773567102
 30
0.0
 40
1.5000000000000071
 50
300.0
 51
30.0000000000013
  0
LINE
  5
BE63
  8
0
 10
171.0490389727056
 20
45.986404739847707
 30
0.0
 11
170.15308872796589
 21
47.538236346623229
 31
0.0
  0
LINE
  5
BE65
  8
0
 10
163.29190167598421
 20
51.499544507419991
 30
0.0
 11
161.50000095367429
 21
51.499544507419991
 31
0.0
  0
CIRCLE
  5
BE6B
  8
0
 10
167.00000092387199
 20
49.999544494381468
 30
0.0
 40
17.000000000000011
  0
LINE
  5
C0E7
  8
3
 10
154.229500491739
 20
115.30000030621881
 30
0.0
 11
154.229500491739
 21
116.30000025033949
 31
0.0
  0
LINE
  5
C0E8
  8
3
 10
154.229500491739
 20
115.30000030621881
 30
0.0
 11
154.50000049173829
 21
114.8314805627727
 31
0.0
  0
LINE
  5
C0E9
  8
3
 10
151.77050049173761
 20
115.30000030621881
 30
0.0
 11
151.50000049173829
 21
114.8314805627727
 31
0.0
  0
LINE
  5
C0EA
  8
3
 10
151.77050049173761
 20
115.30000030621881
 30
0.0
 11
151.77050049173761
 21
116.30000025033949
 31
0.0
  0
LINE
  5
C0EB
  8
0
 10
151.50000049173829
 20
115.30000030621881
 30
0.0
 11
154.50000049173829
 21
115.30000030621881
 31
0.0
  0
LINE
  5
C0F9
  8
3
 10
175.22950113993949
 20
115.30000030621881
 30
0.0
 11
175.22950113993949
 21
116.30000025033949
 31
0.0
  0
LINE
  5
C0FA
  8
3
 10
175.22950113993949
 20
115.30000030621881
 30
0.0
 11
175.5000011399388
 21
114.8314805627727
 31
0.0
  0
LINE
  5
C0FB
  8
3
 10
172.77050113993809
 20
115.30000030621881
 30
0.0
 11
172.5000011399388
 21
114.8314805627727
 31
0.0
  0
LINE
  5
C0FC
  8
3
 10
172.77050113993809
 20
115.30000030621881
 30
0.0
 11
172.77050113993801
 21
116.30000025033949
 31
0.0
  0
LINE
  5
C0FD
  8
0
 10
172.5000011399388
 20
115.30000030621881
 30
0.0
 11
175.5000011399388
 21
115.30000030621881
 31
0.0
  0
LINE
  5
C100
  8
1
 10
153.00000049173829
 20
108.8000002219341
 30
0.0
 11
153.00000049173829
 21
118.30000025033949
 31
0.0
  0
LINE
  5
C101
  8
1
 10
174.0000011399388
 20
108.8000002219341
 30
0.0
 11
174.0000011399388
 21
118.30000025033949
 31
0.0
  0
ARC
  5
C147
  8
0
 10
83.927666644401356
 20
141.89276180782491
 30
0.0
 40
3.0031589878221689
 50
111.26350736002441
 51
173.41212373346119
  0
ARC
  5
C148
  8
0
 10
116.07334488152139
 20
141.8920697670932
 30
0.0
 40
3.002231597468604
 50
6.5771648000498182
 51
68.741413340472775
  0
LINE
  5
C635
  8
0
 10
95.999999810010195
 20
107.0019129198044
 30
0.0
 11
96.006590352912227
 21
106.9558189336431
 31
0.0
  0
LINE
  5
C639
  8
0
 10
103.8593700155604
 20
106.7181542981405
 30
0.0
 11
103.8630121853202
 21
106.7218944896012
 31
0.0
  0
LINE
  5
C63E
  8
1
 10
87.875644117593765
 20
108.8000002219341
 30
0.0
 11
87.875644117593765
 21
118.30000025033949
 31
0.0
  0
LINE
  5
C63F
  8
1
 10
112.12435588240621
 20
108.8000002219341
 30
0.0
 11
112.12435588240621
 21
118.30000025033949
 31
0.0
  0
LINE
  5
C643
  8
3
 10
89.105144117594477
 20
115.30000030621881
 30
0.0
 11
89.105144117594477
 21
116.30000025033949
 31
0.0
  0
LINE
  5
C644
  8
3
 10
89.105144117594477
 20
115.30000030621881
 30
0.0
 11
89.375644117593765
 21
114.8314805627727
 31
0.0
  0
LINE
  5
C645
  8
3
 10
86.646144117593053
 20
115.30000030621881
 30
0.0
 11
86.375644117593765
 21
114.8314805627727
 31
0.0
  0
LINE
  5
C646
  8
3
 10
86.646144117593053
 20
115.30000030621881
 30
0.0
 11
86.646144117593053
 21
116.30000025033949
 31
0.0
  0
LINE
  5
C647
  8
0
 10
86.375644117593765
 20
115.30000030621881
 30
0.0
 11
89.375644117593765
 21
115.30000030621881
 31
0.0
  0
LINE
  5
C648
  8
3
 10
101.2295000000007
 20
115.30000030621881
 30
0.0
 11
101.2295000000007
 21
116.30000025033949
 31
0.0
  0
LINE
  5
C649
  8
3
 10
101.2295000000007
 20
115.30000030621881
 30
0.0
 11
101.5
 21
114.8314805627727
 31
0.0
  0
LINE
  5
C64A
  8
3
 10
98.770499999999288
 20
115.30000030621881
 30
0.0
 11
98.500000000000014
 21
114.8314805627727
 31
0.0
  0
LINE
  5
C64B
  8
3
 10
98.770499999999288
 20
115.30000030621881
 30
0.0
 11
98.770499999999288
 21
116.30000025033949
 31
0.0
  0
LINE
  5
C64C
  8
0
 10
98.500000000000014
 20
115.30000030621881
 30
0.0
 11
101.5
 21
115.30000030621881
 31
0.0
  0
LINE
  5
C64D
  8
3
 10
113.353855882407
 20
115.30000030621881
 30
0.0
 11
113.353855882407
 21
116.30000025033949
 31
0.0
  0
LINE
  5
C64E
  8
3
 10
113.353855882407
 20
115.30000030621881
 30
0.0
 11
113.62435588240631
 21
114.8314805627727
 31
0.0
  0
LINE
  5
C64F
  8
3
 10
110.89485588240559
 20
115.30000030621881
 30
0.0
 11
110.62435588240631
 21
114.8314805627727
 31
0.0
  0
LINE
  5
C650
  8
3
 10
110.89485588240559
 20
115.30000030621881
 30
0.0
 11
110.89485588240559
 21
116.30000025033949
 31
0.0
  0
LINE
  5
C651
  8
0
 10
110.62435588240631
 20
115.30000030621881
 30
0.0
 11
113.62435588240631
 21
115.30000030621881
 31
0.0
  0
ARC
  5
C69A
  8
0
 10
217.92751920805671
 20
141.8914043289665
 30
0.0
 40
3.0031644371980102
 50
111.26931441208001
 51
173.41210744739399
  0
ARC
  5
C69B
  8
0
 10
250.0723321057157
 20
141.89276123626721
 30
0.0
 40
3.0031621305686871
 50
6.5878803188555919
 51
68.736433837672053
  0
LINE
  5
C69E
  8
0
 10
237.86301403306419
 20
106.7218944896012
 30
0.0
 11
237.85937186330449
 21
106.7181542981404
 31
0.0
  0
LINE
  5
C69F
  8
0
 10
230.00000165775421
 20
107.0019129198044
 30
0.0
 11
230.0065922006562
 21
106.9558189336431
 31
0.0
  0
LINE
  5
C772
  8
1
 10
221.8756459653377
 20
108.8000002219341
 30
0.0
 11
221.8756459653377
 21
118.30000025033949
 31
0.0
  0
LINE
  5
C773
  8
1
 10
246.12435773015019
 20
108.8000002219341
 30
0.0
 11
246.12435773015019
 21
118.30000025033949
 31
0.0
  0
LINE
  5
C777
  8
3
 10
223.10514596533849
 20
115.30000030621881
 30
0.0
 11
223.10514596533849
 21
116.30000025033949
 31
0.0
  0
LINE
  5
C778
  8
3
 10
223.10514596533849
 20
115.30000030621881
 30
0.0
 11
223.37564596533781
 21
114.8314805627727
 31
0.0
  0
LINE
  5
C779
  8
3
 10
220.64614596533701
 20
115.30000030621881
 30
0.0
 11
220.3756459653377
 21
114.8314805627727
 31
0.0
  0
LINE
  5
C77A
  8
3
 10
220.64614596533701
 20
115.30000030621881
 30
0.0
 11
220.6461459653369
 21
116.30000025033949
 31
0.0
  0
LINE
  5
C77B
  8
0
 10
220.3756459653377
 20
115.30000030621881
 30
0.0
 11
223.37564596533781
 21
115.30000030621881
 31
0.0
  0
LINE
  5
C77C
  8
3
 10
247.35385773015091
 20
115.30000030621881
 30
0.0
 11
247.35385773015091
 21
116.30000025033949
 31
0.0
  0
LINE
  5
C77D
  8
3
 10
247.35385773015091
 20
115.30000030621881
 30
0.0
 11
247.62435773015019
 21
114.8314805627727
 31
0.0
  0
LINE
  5
C77E
  8
3
 10
244.89485773014951
 20
115.30000030621881
 30
0.0
 11
244.62435773015019
 21
114.8314805627727
 31
0.0
  0
LINE
  5
C77F
  8
3
 10
244.89485773014951
 20
115.30000030621881
 30
0.0
 11
244.8948577301494
 21
116.30000025033949
 31
0.0
  0
LINE
  5
C780
  8
0
 10
244.62435773015019
 20
115.30000030621881
 30
0.0
 11
247.62435773015019
 21
115.30000030621881
 31
0.0
  0
CIRCLE
  5
C88A
  8
0
 10
167.00000092387199
 20
49.999544494381411
 30
0.0
 40
4.0
  0
POLYLINE
  5
CD18
  8
0
 66
     1
 10
0.0
 20
0.0
 30
0.0
 70
   128
  0
VERTEX
  5
113D6
  8
0
 10
162.00889423488329
 20
210.90044137090391
 30
0.0
  0
VERTEX
  5
113D7
  8
0
 10
161.99481589718411
 20
210.823002830147
 30
0.0
  0
VERTEX
  5
113D8
  8
0
 10
161.97681529446189
 20
210.7356056571
 30
0.0
  0
VERTEX
  5
113D9
  8
0
 10
161.9519722647841
 20
210.64407154917649
 30
0.0
  0
VERTEX
  5
113DA
  8
0
 10
161.93024730308599
 20
210.57247798889799
 30
0.0
  0
VERTEX
  5
113DB
  8
0
 10
161.90672256051249
 20
210.49878895282669
 30
0.0
  0
VERTEX
  5
113DC
  8
0
 10
161.80882658808181
 20
210.20631454884929
 30
0.0
  0
VERTEX
  5
113DD
  8
0
 10
161.59589597954101
 20
209.62739139795229
 30
0.0
  0
VERTEX
  5
113DE
  8
0
 10
161.43698161466671
 20
209.20883733779121
 30
0.0
  0
VERTEX
  5
113DF
  8
0
 10
161.2363016232724
 20
208.66206157952479
 30
0.0
  0
VERTEX
  5
113E0
  8
0
 10
160.84251236169291
 20
207.4798397719853
 30
0.0
  0
VERTEX
  5
113E1
  8
0
 10
160.48520207403851
 20
206.21537286788151
 30
0.0
  0
VERTEX
  5
113E2
  8
0
 10
160.19030157475419
 20
204.95870113372729
 30
0.0
  0
VERTEX
  5
113E3
  8
0
 10
159.99493105335779
 20
203.96438064053581
 30
0.0
  0
VERTEX
  5
113E4
  8
0
 10
159.8721752874429
 20
203.2573154196136
 30
0.0
  0
VERTEX
  5
113E5
  8
0
 10
159.79522895066691
 20
202.8017412871115
 30
0.0
  0
VERTEX
  5
113E6
  8
0
 10
159.7635569982107
 20
202.61847982183031
 30
0.0
  0
VERTEX
  5
113E7
  8
0
 10
159.73286945371581
 20
202.4431588128202
 30
0.0
  0
VERTEX
  5
113E8
  8
0
 10
159.69977211205909
 20
202.25907824933461
 30
0.0
  0
VERTEX
  5
113E9
  8
0
 10
159.66118229551861
 20
202.0667326636605
 30
0.0
  0
VERTEX
  5
113EA
  8
0
 10
159.6100592054303
 20
201.86880752444199
 30
0.0
  0
VERTEX
  5
113EB
  8
0
 10
159.55953495575741
 20
201.68207455426381
 30
0.0
  0
SEQEND
  5
113EC
  8
0
  0
POLYLINE
  5
CD19
  8
0
 66
     1
 10
0.0
 20
0.0
 30
0.0
 70
   128
  0
VERTEX
  5
113ED
  8
0
 10
171.99110761283589
 20
184.63959973305401
 30
0.0
  0
VERTEX
  5
113EE
  8
0
 10
172.00518595053501
 20
184.7170382738106
 30
0.0
  0
VERTEX
  5
113EF
  8
0
 10
172.0231865532572
 20
184.8044354468577
 30
0.0
  0
VERTEX
  5
113F0
  8
0
 10
172.0480295829351
 20
184.8959695547812
 30
0.0
  0
VERTEX
  5
113F1
  8
0
 10
172.0697545446331
 20
184.96756311505959
 30
0.0
  0
VERTEX
  5
113F2
  8
0
 10
172.0932792872066
 20
185.04125215113089
 30
0.0
  0
VERTEX
  5
113F3
  8
0
 10
172.1911752596373
 20
185.33372655510831
 30
0.0
  0
VERTEX
  5
113F4
  8
0
 10
172.40410586817811
 20
185.91264970600531
 30
0.0
  0
VERTEX
  5
113F5
  8
0
 10
172.5630202330525
 20
186.3312037661664
 30
0.0
  0
VERTEX
  5
113F6
  8
0
 10
172.76370022444681
 20
186.8779795244329
 30
0.0
  0
VERTEX
  5
113F7
  8
0
 10
173.15748948602629
 20
188.06020133197231
 30
0.0
  0
VERTEX
  5
113F8
  8
0
 10
173.51479977368069
 20
189.32466823607609
 30
0.0
  0
VERTEX
  5
113F9
  8
0
 10
173.8097002729649
 20
190.58133997023029
 30
0.0
  0
VERTEX
  5
113FA
  8
0
 10
174.0050707943613
 20
191.5756604634218
 30
0.0
  0
VERTEX
  5
113FB
  8
0
 10
174.1278265602763
 20
192.282725684344
 30
0.0
  0
VERTEX
  5
113FC
  8
0
 10
174.20477289705229
 20
192.73829981684611
 30
0.0
  0
VERTEX
  5
113FD
  8
0
 10
174.2364448495085
 20
192.92156128212741
 30
0.0
  0
VERTEX
  5
113FE
  8
0
 10
174.2671323940034
 20
193.0968822911374
 30
0.0
  0
VERTEX
  5
113FF
  8
0
 10
174.30022973566011
 20
193.28096285462311
 30
0.0
  0
VERTEX
  5
11400
  8
0
 10
174.3388195522005
 20
193.4733084402971
 30
0.0
  0
VERTEX
  5
11401
  8
0
 10
174.3899426422889
 20
193.6712335795157
 30
0.0
  0
VERTEX
  5
11402
  8
0
 10
174.44046689196179
 20
193.85796654969391
 30
0.0
  0
SEQEND
  5
11403
  8
0
  0
POLYLINE
  5
CD1A
  8
0
 66
     1
 10
0.0
 20
0.0
 30
0.0
 70
   128
  0
VERTEX
  5
11404
  8
0
 10
174.41751863806201
 20
201.66978482156921
 30
0.0
  0
VERTEX
  5
11405
  8
0
 10
174.38992867245031
 20
201.8689025193446
 30
0.0
  0
VERTEX
  5
11406
  8
0
 10
174.33881117029739
 20
202.06683045253089
 30
0.0
  0
VERTEX
  5
11407
  8
0
 10
174.30021762846661
 20
202.25917790085009
 30
0.0
  0
VERTEX
  5
11408
  8
0
 10
174.267115630197
 20
202.4432626552873
 30
0.0
  0
VERTEX
  5
11409
  8
0
 10
174.23642529173441
 20
202.61859204620049
 30
0.0
  0
VERTEX
  5
1140A
  8
0
 10
174.20474356039119
 20
202.80191078782011
 30
0.0
  0
VERTEX
  5
1140B
  8
0
 10
174.12777859716371
 20
203.25759993866009
 30
0.0
  0
VERTEX
  5
1140C
  8
0
 10
174.0050083957488
 20
203.96472942084
 30
0.0
  0
VERTEX
  5
1140D
  8
0
 10
173.8096415996427
 20
204.95898472145129
 30
0.0
  0
VERTEX
  5
1140E
  8
0
 10
173.5147885978098
 20
206.2154306098812
 30
0.0
  0
VERTEX
  5
1140F
  8
0
 10
173.15756911410639
 20
207.47960787266419
 30
0.0
  0
VERTEX
  5
11410
  8
0
 10
172.76390232144541
 20
208.66154935210869
 30
0.0
  0
VERTEX
  5
11411
  8
0
 10
172.5632633082445
 20
209.2082552611821
 30
0.0
  0
VERTEX
  5
11412
  8
0
 10
172.4043447524185
 20
209.6268260851495
 30
0.0
  0
VERTEX
  5
11413
  8
0
 10
172.19139272345851
 20
210.2057185024016
 30
0.0
  0
VERTEX
  5
11414
  8
0
 10
172.0934296958024
 20
210.49831304699109
 30
0.0
  0
VERTEX
  5
11415
  8
0
 10
172.0698812045033
 20
210.57205237448139
 30
0.0
  0
VERTEX
  5
11416
  8
0
 10
172.04812923445061
 20
210.64370833337239
 30
0.0
  0
VERTEX
  5
11417
  8
0
 10
172.02324708922461
 20
210.7353486120694
 30
0.0
  0
VERTEX
  5
11418
  8
0
 10
172.00521109624461
 20
210.82287803292201
 30
0.0
  0
VERTEX
  5
11419
  8
0
 10
171.99078258125729
 20
210.90066302567649
 30
0.0
  0
SEQEND
  5
1141A
  8
0
  0
POLYLINE
  5
CD1B
  8
0
 66
     1
 10
0.0
 20
0.0
 30
0.0
 70
   128
  0
VERTEX
  5
1141B
  8
0
 10
159.54225379972411
 20
193.85152691975159
 30
0.0
  0
VERTEX
  5
1141C
  8
0
 10
159.61007317526889
 20
193.67113858461309
 30
0.0
  0
VERTEX
  5
1141D
  8
0
 10
159.66119067742181
 20
193.4732106514268
 30
0.0
  0
VERTEX
  5
1141E
  8
0
 10
159.69978421925259
 20
193.2808632031076
 30
0.0
  0
VERTEX
  5
1141F
  8
0
 10
159.73288621752209
 20
193.09677844867039
 30
0.0
  0
VERTEX
  5
11420
  8
0
 10
159.76357655598471
 20
192.92144905775709
 30
0.0
  0
VERTEX
  5
11421
  8
0
 10
159.79525828732801
 20
192.7381303161375
 30
0.0
  0
VERTEX
  5
11422
  8
0
 10
159.87222325055549
 20
192.28244116529751
 30
0.0
  0
VERTEX
  5
11423
  8
0
 10
159.99499345197029
 20
191.5753116831176
 30
0.0
  0
VERTEX
  5
11424
  8
0
 10
160.19036024807639
 20
190.58105638250629
 30
0.0
  0
VERTEX
  5
11425
  8
0
 10
160.48521324990941
 20
189.3246104940765
 30
0.0
  0
VERTEX
  5
11426
  8
0
 10
160.84243273361281
 20
188.06043323129339
 30
0.0
  0
VERTEX
  5
11427
  8
0
 10
161.2360995262737
 20
186.87849175184891
 30
0.0
  0
VERTEX
  5
11428
  8
0
 10
161.4367385394747
 20
186.33178584277559
 30
0.0
  0
VERTEX
  5
11429
  8
0
 10
161.59565709530071
 20
185.9132150188081
 30
0.0
  0
VERTEX
  5
1142A
  8
0
 10
161.80860912426061
 20
185.33432260155601
 30
0.0
  0
VERTEX
  5
1142B
  8
0
 10
161.90657215191669
 20
185.04172805696649
 30
0.0
  0
VERTEX
  5
1142C
  8
0
 10
161.9301206432159
 20
184.96798872947619
 30
0.0
  0
VERTEX
  5
1142D
  8
0
 10
161.95187261326859
 20
184.8963327705853
 30
0.0
  0
VERTEX
  5
1142E
  8
0
 10
161.97675475849459
 20
184.80469249188829
 30
0.0
  0
VERTEX
  5
1142F
  8
0
 10
161.9947907514746
 20
184.7171630710356
 30
0.0
  0
VERTEX
  5
11430
  8
0
 10
162.0092192664618
 20
184.639378078281
 30
0.0
  0
SEQEND
  5
11431
  8
0
  0
ARC
  5
CD1D
  8
0
 10
141.1697276577386
 20
198.08080407441781
 30
0.0
 40
33.258375156811908
 50
359.46459070085609
 51
31.421576914623589
  0
ARC
  5
CD1E
  8
0
 10
192.9995918711854
 20
198.0340292075592
 30
0.0
 40
33.427283331362283
 50
148.6613056614791
 51
180.45252672304119
  0
ARC
  5
CD20
  8
0
 10
192.8307388890772
 20
197.45921444487351
 30
0.0
 40
33.258840046667252
 50
179.4645592761573
 51
211.42136919178731
  0
ARC
  5
CD21
  8
0
 10
140.99977988955791
 20
197.50603462027419
 30
0.0
 40
33.427913219224223
 50
328.66159228639481
 51
0.45247924565842
  0
ARC
  5
CD22
  8
0
 10
163.95996009680249
 20
199.5794111753705
 30
0.0
 40
4.8769800806320216
 50
154.46004234391
 51
177.11664949247009
  0
ARC
  5
CD23
  8
0
 10
166.87486905819651
 20
210.67761222950719
 30
0.0
 40
4.8710741944024409
 50
152.915549158858
 51
177.3780677749736
  0
ARC
  5
CD24
  8
0
 10
192.39340449035461
 20
198.3195334052848
 30
0.0
 40
33.223537146889321
 50
147.1710999599959
 51
153.9776351158479
  0
POLYLINE
  5
CD25
  8
0
 66
     1
 10
0.0
 20
0.0
 30
0.0
 70
   128
  0
VERTEX
  5
11432
  8
0
 10
164.51119943520681
 20
216.3846647366874
 30
0.0
  0
VERTEX
  5
11433
  8
0
 10
164.47592256589479
 20
216.33113045245341
 30
0.0
  0
VERTEX
  5
11434
  8
0
 10
164.47589020243541
 20
216.33108016103429
 30
0.0
  0
SEQEND
  5
11435
  8
0
  0
ARC
  5
CD26
  8
0
 10
166.9987772719746
 20
214.70541847855759
 30
0.0
 40
3.0013182919213719
 50
92.910167967796099
 51
145.97857375718999
  0
POLYLINE
  5
CD27
  8
0
 66
     1
 10
0.0
 20
0.0
 30
0.0
 70
   128
  0
VERTEX
  5
11436
  8
0
 10
167.0000009238596
 20
217.71091651171369
 30
0.0
  0
VERTEX
  5
11437
  8
0
 10
166.9248012316406
 20
217.706975154578
 30
0.0
  0
VERTEX
  5
11438
  8
0
 10
166.84639981248111
 20
217.7028661593788
 30
0.0
  0
SEQEND
  5
11439
  8
0
  0
POLYLINE
  5
CD28
  8
0
 66
     1
 10
0.0
 20
0.0
 30
0.0
 70
   128
  0
VERTEX
  5
1143A
  8
0
 10
166.842993049055
 20
216.81812833994559
 30
0.0
  0
VERTEX
  5
1143B
  8
0
 10
166.8430529156343
 20
216.81813020259071
 30
0.0
  0
VERTEX
  5
1143C
  8
0
 10
167.0000009238596
 20
216.82568322867081
 30
0.0
  0
SEQEND
  5
1143D
  8
0
  0
ARC
  5
CD29
  8
0
 10
166.99172104865849
 20
213.8156206004862
 30
0.0
 40
3.006189073125519
 50
92.835805266391731
 51
147.75765307055659
  0
LINE
  5
CD2A
  8
0
 10
159.0353889390702
 20
198.50009403889919
 30
0.0
 11
159.0275891125078
 21
197.7700205519788
 31
0.0
  0
POLYLINE
  5
CD2B
  8
0
 66
     1
 10
0.0
 20
0.0
 30
0.0
 70
   128
  0
VERTEX
  5
1143E
  8
0
 10
159.08915419130281
 20
199.8247365467243
 30
0.0
  0
VERTEX
  5
1143F
  8
0
 10
159.043855592596
 20
198.82564209401531
 30
0.0
  0
VERTEX
  5
11440
  8
0
 10
159.0353889390702
 20
198.50009403889919
 30
0.0
  0
SEQEND
  5
11441
  8
0
  0
ARC
  5
CD2C
  8
0
 10
170.0400417509166
 20
195.96062992858711
 30
0.0
 40
4.8769800806319941
 50
334.46004234391
 51
357.11664949247171
  0
ARC
  5
CD2D
  8
0
 10
167.1251327895227
 20
184.8624288744505
 30
0.0
 40
4.8710741944024427
 50
332.91554915885808
 51
357.37806777497519
  0
ARC
  5
CD2E
  8
0
 10
141.60659735736439
 20
197.22050769867289
 30
0.0
 40
33.223537146889321
 50
327.17109995999698
 51
333.9776351158489
  0
POLYLINE
  5
CD2F
  8
0
 66
     1
 10
0.0
 20
0.0
 30
0.0
 70
   128
  0
VERTEX
  5
11442
  8
0
 10
169.4888024125124
 20
179.15537636727021
 30
0.0
  0
VERTEX
  5
11443
  8
0
 10
169.5240792818243
 20
179.20891065150431
 30
0.0
  0
VERTEX
  5
11444
  8
0
 10
169.5241116452838
 20
179.20896094292331
 30
0.0
  0
SEQEND
  5
11445
  8
0
  0
ARC
  5
CD30
  8
0
 10
167.0012245757446
 20
180.83462262539999
 30
0.0
 40
3.0013182919213719
 50
272.9101679677961
 51
325.97857375718991
  0
POLYLINE
  5
CD31
  8
0
 66
     1
 10
0.0
 20
0.0
 30
0.0
 70
   128
  0
VERTEX
  5
11446
  8
0
 10
167.0000009238596
 20
177.82912459224389
 30
0.0
  0
VERTEX
  5
11447
  8
0
 10
167.0752006160786
 20
177.83306594937969
 30
0.0
  0
VERTEX
  5
11448
  8
0
 10
167.15360203523809
 20
177.83717494457889
 30
0.0
  0
SEQEND
  5
11449
  8
0
  0
POLYLINE
  5
CD32
  8
0
 66
     1
 10
0.0
 20
0.0
 30
0.0
 70
   128
  0
VERTEX
  5
1144A
  8
0
 10
167.15700879866409
 20
178.72175816446469
 30
0.0
  0
VERTEX
  5
1144B
  8
0
 10
167.1569489320849
 20
178.72175630181951
 30
0.0
  0
VERTEX
  5
1144C
  8
0
 10
167.0000009238596
 20
178.71420327573941
 30
0.0
  0
SEQEND
  5
1144D
  8
0
  0
ARC
  5
CD33
  8
0
 10
167.00828078654169
 20
181.72426515697109
 30
0.0
 40
3.0061883277066488
 50
272.83580620903422
 51
327.75749304915411
  0
LINE
  5
CD34
  8
0
 10
174.964612908649
 20
197.03994706505841
 30
0.0
 11
174.97241273521141
 21
197.77002055197889
 31
0.0
  0
POLYLINE
  5
CD35
  8
0
 66
     1
 10
0.0
 20
0.0
 30
0.0
 70
   128
  0
VERTEX
  5
1144E
  8
0
 10
174.91084765641639
 20
195.71530455723331
 30
0.0
  0
VERTEX
  5
1144F
  8
0
 10
174.95614625512309
 20
196.7143990099423
 30
0.0
  0
VERTEX
  5
11450
  8
0
 10
174.964612908649
 20
197.03994706505841
 30
0.0
  0
SEQEND
  5
11451
  8
0
  0
POLYLINE
  5
CD36
  8
0
 66
     1
 10
0.0
 20
0.0
 30
0.0
 70
   128
  0
VERTEX
  5
11452
  8
0
 10
169.5241116452838
 20
216.33108016103429
 30
0.0
  0
VERTEX
  5
11453
  8
0
 10
169.5240792818243
 20
216.33113045245341
 30
0.0
  0
VERTEX
  5
11454
  8
0
 10
169.49443714691949
 20
216.37627910822559
 30
0.0
  0
SEQEND
  5
11455
  8
0
  0
POLYLINE
  5
CD37
  8
0
 66
     1
 10
0.0
 20
0.0
 30
0.0
 70
   128
  0
VERTEX
  5
11456
  8
0
 10
171.46214991806701
 20
212.8951797261827
 30
0.0
  0
VERTEX
  5
11457
  8
0
 10
171.0085976868744
 20
213.78652807325051
 30
0.0
  0
VERTEX
  5
11458
  8
0
 10
169.52414424157391
 20
216.33102986961529
 30
0.0
  0
VERTEX
  5
11459
  8
0
 10
169.5241116452838
 20
216.33108016103429
 30
0.0
  0
SEQEND
  5
1145A
  8
0
  0
ARC
  5
CD38
  8
0
 10
167.1412471118831
 20
210.68264120128859
 30
0.0
 40
4.8544338274023371
 50
2.5741279222904589
 51
27.114928826427299
  0
POLYLINE
  5
CD39
  8
0
 66
     1
 10
0.0
 20
0.0
 30
0.0
 70
   128
  0
VERTEX
  5
1145B
  8
0
 10
174.91087839006141
 20
199.82423107139689
 30
0.0
  0
VERTEX
  5
1145C
  8
0
 10
174.66702368109179
 20
201.13420821726251
 30
0.0
  0
VERTEX
  5
1145D
  8
0
 10
174.41751863806201
 20
201.66978482156921
 30
0.0
  0
SEQEND
  5
1145E
  8
0
  0
POLYLINE
  5
CD3A
  8
0
 66
     1
 10
0.0
 20
0.0
 30
0.0
 70
   128
  0
VERTEX
  5
1145F
  8
0
 10
174.964612908649
 20
198.50009403889919
 30
0.0
  0
VERTEX
  5
11460
  8
0
 10
174.95780959724141
 20
198.77008055336699
 30
0.0
  0
VERTEX
  5
11461
  8
0
 10
174.91087839006141
 20
199.82423107139689
 30
0.0
  0
SEQEND
  5
11462
  8
0
  0
POLYLINE
  5
CD3B
  8
0
 66
     1
 10
0.0
 20
0.0
 30
0.0
 70
   128
  0
VERTEX
  5
11463
  8
0
 10
174.97241273521141
 20
197.77002055197889
 30
0.0
  0
VERTEX
  5
11464
  8
0
 10
174.97241273521141
 20
197.77008055197669
 30
0.0
  0
VERTEX
  5
11465
  8
0
 10
174.964612908649
 20
198.50009403889919
 30
0.0
  0
SEQEND
  5
11466
  8
0
  0
ARC
  5
CD3C
  8
0
 10
167.00828298052301
 20
213.81562433410119
 30
0.0
 40
3.0061852361578518
 50
32.24230892378273
 51
87.164232739263014
  0
POLYLINE
  5
CD3D
  8
0
 66
     1
 10
0.0
 20
0.0
 30
0.0
 70
   128
  0
VERTEX
  5
11467
  8
0
 10
167.0000009238596
 20
216.82568322867081
 30
0.0
  0
VERTEX
  5
11468
  8
0
 10
167.1569489320849
 20
216.81813020259071
 30
0.0
  0
VERTEX
  5
11469
  8
0
 10
167.15700879866409
 20
216.81812833994559
 30
0.0
  0
SEQEND
  5
1146A
  8
0
  0
POLYLINE
  5
CD3E
  8
0
 66
     1
 10
0.0
 20
0.0
 30
0.0
 70
   128
  0
VERTEX
  5
1146B
  8
0
 10
167.15370455348091
 20
217.7028605714433
 30
0.0
  0
VERTEX
  5
1146C
  8
0
 10
167.07642372638139
 20
217.7069099619977
 30
0.0
  0
VERTEX
  5
1146D
  8
0
 10
167.0000009238596
 20
217.71091651171369
 30
0.0
  0
SEQEND
  5
1146E
  8
0
  0
ARC
  5
CD3F
  8
0
 10
167.00123677789381
 20
214.7054494600365
 30
0.0
 40
3.0012863564441061
 50
33.828197575239763
 51
87.088074640799576
  0
POLYLINE
  5
CD40
  8
0
 66
     1
 10
0.0
 20
0.0
 30
0.0
 70
   128
  0
VERTEX
  5
1146F
  8
0
 10
164.47589020243541
 20
179.20896094292331
 30
0.0
  0
VERTEX
  5
11470
  8
0
 10
164.47592256589479
 20
179.20891065150431
 30
0.0
  0
VERTEX
  5
11471
  8
0
 10
164.50556470079971
 20
179.16376199573199
 30
0.0
  0
SEQEND
  5
11472
  8
0
  0
POLYLINE
  5
CD41
  8
0
 66
     1
 10
0.0
 20
0.0
 30
0.0
 70
   128
  0
VERTEX
  5
11473
  8
0
 10
162.53785192965219
 20
182.6448613777749
 30
0.0
  0
VERTEX
  5
11474
  8
0
 10
162.99140416084481
 20
181.7535130307071
 30
0.0
  0
VERTEX
  5
11475
  8
0
 10
164.47585760614521
 20
179.20901123434231
 30
0.0
  0
VERTEX
  5
11476
  8
0
 10
164.47589020243541
 20
179.20896094292331
 30
0.0
  0
SEQEND
  5
11477
  8
0
  0
ARC
  5
CD42
  8
0
 10
166.8587547358361
 20
184.85739990266899
 30
0.0
 40
4.8544338274023371
 50
182.57412792229209
 51
207.1149288264285
  0
POLYLINE
  5
CD43
  8
0
 66
     1
 10
0.0
 20
0.0
 30
0.0
 70
   128
  0
VERTEX
  5
11478
  8
0
 10
159.08912345765779
 20
195.71581003256071
 30
0.0
  0
VERTEX
  5
11479
  8
0
 10
159.33297816662741
 20
194.40583288669509
 30
0.0
  0
VERTEX
  5
1147A
  8
0
 10
159.54225379972411
 20
193.85152691975159
 30
0.0
  0
SEQEND
  5
1147B
  8
0
  0
POLYLINE
  5
CD44
  8
0
 66
     1
 10
0.0
 20
0.0
 30
0.0
 70
   128
  0
VERTEX
  5
1147C
  8
0
 10
159.0353889390702
 20
197.03994706505841
 30
0.0
  0
VERTEX
  5
1147D
  8
0
 10
159.0421922504778
 20
196.76996055059061
 30
0.0
  0
VERTEX
  5
1147E
  8
0
 10
159.08912345765779
 20
195.71581003256071
 30
0.0
  0
SEQEND
  5
1147F
  8
0
  0
POLYLINE
  5
CD45
  8
0
 66
     1
 10
0.0
 20
0.0
 30
0.0
 70
   128
  0
VERTEX
  5
11480
  8
0
 10
159.0275891125078
 20
197.77002055197889
 30
0.0
  0
VERTEX
  5
11481
  8
0
 10
159.0275891125078
 20
197.76996055198089
 30
0.0
  0
VERTEX
  5
11482
  8
0
 10
159.0353889390702
 20
197.03994706505841
 30
0.0
  0
SEQEND
  5
11483
  8
0
  0
ARC
  5
CD46
  8
0
 10
166.99172192191131
 20
181.7242666301384
 30
0.0
 40
3.0061898416538768
 50
212.24252194660869
 51
267.16417879520333
  0
POLYLINE
  5
CD47
  8
0
 66
     1
 10
0.0
 20
0.0
 30
0.0
 70
   128
  0
VERTEX
  5
11484
  8
0
 10
167.0000009238596
 20
178.71420327573941
 30
0.0
  0
VERTEX
  5
11485
  8
0
 10
166.8430529156343
 20
178.72175630181951
 30
0.0
  0
VERTEX
  5
11486
  8
0
 10
166.842993049055
 20
178.72175816446469
 30
0.0
  0
SEQEND
  5
11487
  8
0
  0
POLYLINE
  5
CD48
  8
0
 66
     1
 10
0.0
 20
0.0
 30
0.0
 70
   128
  0
VERTEX
  5
11488
  8
0
 10
166.8462972942383
 20
177.83718053251431
 30
0.0
  0
VERTEX
  5
11489
  8
0
 10
166.9235781213377
 20
177.83313114195991
 30
0.0
  0
VERTEX
  5
1148A
  8
0
 10
167.0000009238596
 20
177.82912459224389
 30
0.0
  0
SEQEND
  5
1148B
  8
0
  0
ARC
  5
CD49
  8
0
 10
166.99876506982531
 20
180.83459164392119
 30
0.0
 40
3.0012863564441061
 50
213.82819757523981
 51
267.0880746408061
  0
CIRCLE
  5
CD4F
  8
1
 10
167.00000092387199
 20
49.999544494381411
 30
0.0
 40
14.0
  0
LINE
  5
CD93
  8
1
 10
171.6250009238718
 20
58.01027947938752
 30
0.0
 11
176.37500092387191
 21
66.237520815339877
 31
0.0
  0
LINE
  5
CD94
  8
1
 10
171.62500092387199
 20
41.988809509375471
 30
0.0
 11
176.37500092387199
 21
33.761568173423193
 31
0.0
  0
LINE
  5
D60A
  8
1
 10
438.00000369548792
 20
94.255999922752366
 30
0.0
 11
438.00000369548792
 21
152.02687729150091
 31
0.0
  0
LINE
  5
D61A
  8
0
 10
447.7500038966536
 20
110.8000002219341
 30
0.0
 11
447.7500038966536
 21
113.80000030621881
 31
0.0
  0
LINE
  5
D61B
  8
0
 10
442.25000392645592
 20
113.80000030621881
 30
0.0
 11
442.25000392645592
 21
110.8000002219341
 31
0.0
  0
LINE
  5
D61C
  8
0
 10
446.50000415742392
 20
113.80000030621881
 30
0.0
 11
446.50000415742392
 21
116.30000025033949
 31
0.0
  0
LINE
  5
D61D
  8
0
 10
443.5000036656856
 20
116.30000025033949
 30
0.0
 11
443.5000036656856
 21
113.80000030621881
 31
0.0
  0
LINE
  5
D61E
  8
0
 10
426.75000324845308
 20
110.8000002219341
 30
0.0
 11
426.75000324845308
 21
113.80000030621881
 31
0.0
  0
LINE
  5
D61F
  8
0
 10
421.25000327825541
 20
113.80000030621881
 30
0.0
 11
421.25000327825541
 21
110.8000002219341
 31
0.0
  0
LINE
  5
D620
  8
0
 10
425.5000035092234
 20
113.80000030621881
 30
0.0
 11
425.5000035092234
 21
116.30000025033949
 31
0.0
  0
LINE
  5
D621
  8
0
 10
422.50000394880772
 20
116.30000025033949
 30
0.0
 11
422.50000394880772
 21
113.80000030621881
 31
0.0
  0
LINE
  5
D622
  8
0
 10
445.50000352784991
 20
132.3000000789761
 30
0.0
 11
445.50000352784991
 21
133.156001009047
 31
0.0
  0
LINE
  5
D623
  8
0
 10
430.50000386312598
 20
133.156001009047
 30
0.0
 11
430.50000386312598
 21
132.3000000789761
 31
0.0
  0
POLYLINE
  5
D624
  8
0
 66
     1
 10
0.0
 20
0.0
 30
0.0
 70
   128
  0
VERTEX
  5
1148C
  8
0
 10
455.66777408123011
 20
133.71099289506671
 30
0.0
  0
VERTEX
  5
1148D
  8
0
 10
455.16587503254408
 20
138.805210031569
 30
0.0
  0
VERTEX
  5
1148E
  8
0
 10
454.90611426532269
 20
141.4421455934644
 30
0.0
  0
SEQEND
  5
1148F
  8
0
  0
ARC
  5
D625
  8
0
 10
455.17080950152013
 20
133.6559991180369
 30
0.0
 40
0.4999981089947005
 50
269.99974965992959
 51
6.314622095323239
  0
ARC
  5
D626
  8
0
 10
442.9262810618734
 20
126.30572202378841
 30
0.0
 40
20.354516461963271
 50
58.889574448592761
 51
80.519563243489259
  0
LINE
  5
D627
  8
0
 10
443.88409320265049
 20
146.73361126333469
 30
0.0
 11
441.73405797220761
 21
146.95990029722449
 31
0.0
  0
ARC
  5
D628
  8
0
 10
451.90924152482802
 20
141.1406022859878
 30
0.0
 40
3.012005077851577
 50
5.7457242632464682
 51
59.383168306688027
  0
ARC
  5
D629
  8
0
 10
433.28708012247739
 20
125.770501496444
 30
0.0
 40
20.922117439207799
 50
99.377879076693404
 51
120.8569821886777
  0
POLYLINE
  5
D62A
  8
0
 66
     1
 10
0.0
 20
0.0
 30
0.0
 70
   128
  0
VERTEX
  5
11490
  8
0
 10
421.09376087784761
 20
141.44079145044091
 30
0.0
  0
VERTEX
  5
11491
  8
0
 10
420.83413235843182
 20
138.805210031569
 30
0.0
  0
VERTEX
  5
11492
  8
0
 10
420.33252015709871
 20
133.71352422982449
 30
0.0
  0
SEQEND
  5
11493
  8
0
  0
LINE
  5
D62B
  8
0
 10
434.27467917092139
 20
146.95975873619309
 30
0.0
 11
432.16318067163229
 21
146.7374669387936
 31
0.0
  0
ARC
  5
D62C
  8
0
 10
424.09062619327273
 20
141.13925808361279
 30
0.0
 40
3.011996694903325
 50
120.6266025134218
 51
174.2544497425248
  0
ARC
  5
D62D
  8
0
 10
420.82919871149937
 20
133.65599967038369
 30
0.0
 40
0.4999986613385929
 50
173.39352407584289
 51
270.00015614026512
  0
LINE
  5
D62E
  8
0
 10
442.00000388547772
 20
106.2615675851702
 30
0.0
 11
442.00000388547772
 21
110.8000002219341
 31
0.0
  0
LINE
  5
D62F
  8
0
 10
442.00000388547772
 20
101.2560002505779
 30
0.0
 11
442.00000388547772
 21
102.68912641331551
 31
0.0
  0
LINE
  5
D630
  8
0
 10
434.00000350549811
 20
102.6775957441474
 30
0.0
 11
434.00000350549811
 21
101.2560002505779
 31
0.0
  0
LINE
  5
D631
  8
0
 10
434.00000350549811
 20
110.8000002219341
 30
0.0
 11
434.00000350549811
 21
106.26162486150859
 31
0.0
  0
LINE
  5
D632
  8
0
 10
441.66270422749221
 20
99.997180886566625
 30
0.0
 11
442.00000388547772
 21
101.2560002505779
 31
0.0
  0
ARC
  5
D633
  8
0
 10
440.69677832264688
 20
100.2560001981854
 30
0.0
 40
1.0
 50
270.0
 51
345.00000000000108
  0
ARC
  5
D634
  8
0
 10
435.30322906832902
 20
100.2560001981854
 30
0.0
 40
1.0
 50
195.00000000000071
 51
270.0
  0
LINE
  5
D635
  8
0
 10
434.00000350549811
 20
101.2560002505779
 30
0.0
 11
434.33730316348368
 21
99.997180886566625
 31
0.0
  0
LINE
  5
D637
  8
0
 10
455.00000461935991
 20
116.8000003322958
 30
0.0
 11
455.00000461935991
 21
128.87001540511841
 31
0.0
  0
LINE
  5
D638
  8
0
 10
421.00000277161593
 20
128.87001540511841
 30
0.0
 11
421.00000277161593
 21
116.8000003322958
 31
0.0
  0
LINE
  5
D639
  8
0
 10
421.00000277161593
 20
116.8000003322958
 30
0.0
 11
421.50000378489489
 21
116.30000025033949
 31
0.0
  0
LINE
  5
D63A
  8
0
 10
454.50000360608101
 20
116.30000025033949
 30
0.0
 11
455.00000461935991
 21
116.8000003322958
 31
0.0
  0
ARC
  5
D63B
  8
0
 10
422.00000369548792
 20
128.87001590297919
 30
0.0
 40
1.0
 50
110.0000000000035
 51
180.0
  0
ARC
  5
D63C
  8
0
 10
454.00000369548798
 20
128.87001590297919
 30
0.0
 40
1.00000000000002
 50
0.0
 51
69.999999999996504
  0
LINE
  5
D63E
  8
0
 10
454.34202335774899
 20
129.8097087070345
 30
0.0
 11
447.66569768751401
 21
132.23969281897129
 31
0.0
  0
LINE
  5
D63F
  8
0
 10
428.33431053906679
 20
132.2396932169795
 30
0.0
 11
421.65798355216219
 21
129.8097085237651
 31
0.0
  0
ARC
  5
D640
  8
0
 10
428.6763306761963
 20
131.30000019818539
 30
0.0
 40
1.0
 50
90.0
 51
110.0000000000035
  0
ARC
  5
D641
  8
0
 10
447.32331400438483
 20
131.29793845651469
 30
0.0
 40
1.002061807314816
 50
70.020786536881317
 51
89.979260984596493
  0
ARC
  5
D642
  8
0
 10
447.40000369548812
 20
115.9000001981854
 30
0.0
 40
0.4000000000000057
 50
90.0
 51
180.0
  0
ARC
  5
D643
  8
0
 10
428.60000369548783
 20
115.9000001981854
 30
0.0
 40
0.4000000000000341
 50
0.0
 51
90.0
  0
LINE
  5
D644
  8
0
 10
429.00000408291811
 20
111.8000002112239
 30
0.0
 11
430.00000331550831
 21
110.8000002219341
 31
0.0
  0
LINE
  5
D645
  8
0
 10
447.00000330805779
 20
113.80000030621881
 30
0.0
 11
447.00000330805779
 21
115.8999999985098
 31
0.0
  0
LINE
  5
D646
  8
0
 10
429.00000408291811
 20
115.8999999985098
 30
0.0
 11
429.00000408291811
 21
111.8000002112239
 31
0.0
  0
LINE
  5
D64A
  8
0
 10
447.7500038966536
 20
110.8000002219341
 30
0.0
 11
442.25000392645592
 21
110.8000002219341
 31
0.0
  0
LINE
  5
D64B
  8
0
 10
447.7500038966536
 20
113.80000030621881
 30
0.0
 11
442.25000392645592
 21
113.80000030621881
 31
0.0
  0
LINE
  5
D64C
  8
0
 10
426.75000324845308
 20
113.80000030621881
 30
0.0
 11
421.25000327825541
 21
113.80000030621881
 31
0.0
  0
LINE
  5
D64D
  8
0
 10
426.75000324845308
 20
110.8000002219341
 30
0.0
 11
421.25000327825541
 21
110.8000002219341
 31
0.0
  0
ARC
  5
D65E
  8
0
 10
433.75973553356403
 20
85.285066506912855
 30
0.0
 40
61.661226080778881
 50
72.040058639855843
 51
88.191121241047412
  0
ARC
  5
D661
  8
0
 10
452.482235820825
 20
149.11083691912231
 30
0.0
 40
5.1773286279242026
 50
273.22055830630143
 51
276.28482911515169
  0
ARC
  5
D663
  8
0
 10
437.74377081422671
 20
225.95536963198191
 30
0.0
 40
78.99692011780688
 50
268.91651907929332
 51
272.3849546276295
  0
ARC
  5
D664
  8
0
 10
436.64268287549652
 20
97.245262909744554
 30
0.0
 40
49.974666291472417
 50
84.152611058395465
 51
84.962214924095093
  0
POLYLINE
  5
D67B
  8
0
 66
     1
 10
0.0
 20
0.0
 30
0.0
 70
   128
  0
VERTEX
  5
11494
  8
0
 10
446.27889048308339
 20
146.3822344318026
 30
0.0
  0
VERTEX
  5
11495
  8
0
 10
445.31774556264281
 20
146.54932860285041
 30
0.0
  0
VERTEX
  5
11496
  8
0
 10
443.88409320265049
 20
146.73361126333469
 30
0.0
  0
SEQEND
  5
11497
  8
0
  0
POLYLINE
  5
D683
  8
0
 66
     1
 10
0.0
 20
0.0
 30
0.0
 70
   128
  0
VERTEX
  5
11498
  8
0
 10
429.87792462110519
 20
146.4129978790879
 30
0.0
  0
VERTEX
  5
11499
  8
0
 10
430.51692878827453
 20
146.52199614793059
 30
0.0
  0
VERTEX
  5
1149A
  8
0
 10
432.16318067163229
 20
146.7374669387936
 30
0.0
  0
VERTEX
  5
1149B
  8
0
 10
433.90598369762301
 20
146.87098134309051
 30
0.0
  0
VERTEX
  5
1149C
  8
0
 10
435.70606003515422
 20
146.9155656173825
 30
0.0
  0
VERTEX
  5
1149D
  8
0
 10
435.7061119563877
 20
146.9155656173825
 30
0.0
  0
VERTEX
  5
1149E
  8
0
 10
435.7061119563877
 20
146.9155656173825
 30
0.0
  0
SEQEND
  5
1149F
  8
0
  0
LINE
  5
D694
  8
0
 10
434.96891472488642
 20
147.02602047473189
 30
0.0
 11
434.27467917092139
 21
146.95975873619309
 31
0.0
  0
POLYLINE
  5
D695
  8
0
 66
     1
 10
0.0
 20
0.0
 30
0.0
 70
   128
  0
VERTEX
  5
114A0
  8
0
 10
436.25000364147121
 20
146.9725737348198
 30
0.0
  0
VERTEX
  5
114A1
  8
0
 10
436.13944726996118
 20
146.9720852118831
 30
0.0
  0
SEQEND
  5
114A2
  8
0
  0
POLYLINE
  5
D696
  8
0
 66
     1
 10
0.0
 20
0.0
 30
0.0
 70
   128
  0
VERTEX
  5
114A3
  8
0
 10
434.96891472488642
 20
147.02602047473189
 30
0.0
  0
VERTEX
  5
114A4
  8
0
 10
435.71688409894699
 20
146.97945434600109
 30
0.0
  0
VERTEX
  5
114A5
  8
0
 10
436.13944726996118
 20
146.97208572179071
 30
0.0
  0
SEQEND
  5
114A6
  8
0
  0
LINE
  5
D6A0
  8
0
 10
455.17080950152013
 20
133.15600100904891
 30
0.0
 11
420.82919871149937
 21
133.156001009047
 31
0.0
  0
POLYLINE
  5
D6A1
  8
0
 66
     1
 10
0.0
 20
0.0
 30
0.0
 70
   128
  0
VERTEX
  5
114A7
  8
0
 10
441.93923462182278
 20
106.4117475412786
 30
0.0
  0
VERTEX
  5
114A8
  8
0
 10
441.95800635963678
 20
106.4060727600008
 30
0.0
  0
VERTEX
  5
114A9
  8
0
 10
441.99249509721989
 20
106.3266106881201
 30
0.0
  0
SEQEND
  5
114AA
  8
0
  0
LINE
  5
D6A2
  8
0
 10
441.93923462182278
 20
106.4117475412786
 30
0.0
 11
441.75877410918469
 21
106.4117475412786
 31
0.0
  0
LINE
  5
D6A3
  8
0
 10
441.75877410918469
 20
106.4117475412786
 30
0.0
 11
441.75877410918469
 21
106.40731118619441
 31
0.0
  0
POLYLINE
  5
D6A4
  8
0
 66
     1
 10
0.0
 20
0.0
 30
0.0
 70
   128
  0
VERTEX
  5
114AB
  8
0
 10
441.58041722141201
 20
106.3243038021028
 30
0.0
  0
VERTEX
  5
114AC
  8
0
 10
441.63958461023861
 20
106.36788457632061
 30
0.0
  0
VERTEX
  5
114AD
  8
0
 10
441.75877410918469
 20
106.40731118619441
 30
0.0
  0
SEQEND
  5
114AE
  8
0
  0
ARC
  5
D6A5
  8
0
 10
429.7301530754487
 20
135.0914865733815
 30
0.0
 40
31.11236996638565
 50
282.6054686322596
 51
292.3885703501337
  0
LINE
  5
D6A6
  8
0
 10
436.52000430040061
 20
104.7290511429309
 30
0.0
 11
436.00000360049302
 21
104.7298199497163
 31
0.0
  0
LINE
  5
D6A7
  8
0
 10
436.00000360049302
 20
104.7298199497163
 30
0.0
 11
436.00000360049302
 21
104.72732074558731
 31
0.0
  0
POLYLINE
  5
D6A8
  8
0
 66
     1
 10
0.0
 20
0.0
 30
0.0
 70
   128
  0
VERTEX
  5
114AF
  8
0
 10
434.85667498782271
 20
102.9560001567006
 30
0.0
  0
VERTEX
  5
114B0
  8
0
 10
434.86119702458382
 20
103.1237853690981
 30
0.0
  0
VERTEX
  5
114B1
  8
0
 10
434.9654851295054
 20
103.7517379969358
 30
0.0
  0
VERTEX
  5
114B2
  8
0
 10
435.2164658531546
 20
104.2886743322014
 30
0.0
  0
VERTEX
  5
114B3
  8
0
 10
435.51558407954872
 20
104.5827515423297
 30
0.0
  0
VERTEX
  5
114B4
  8
0
 10
435.84068643860519
 20
104.7131045721471
 30
0.0
  0
VERTEX
  5
114B5
  8
0
 10
436.00000360049302
 20
104.72732074558731
 30
0.0
  0
SEQEND
  5
114B6
  8
0
  0
LINE
  5
D6A9
  8
0
 10
434.85667498782271
 20
102.9560001567006
 30
0.0
 11
434.85667498782271
 21
101.2560002505779
 31
0.0
  0
LINE
  5
D6AA
  8
0
 10
434.00000350549811
 20
101.2560002505779
 30
0.0
 11
434.85667498782271
 21
101.2560002505779
 31
0.0
  0
POLYLINE
  5
D6AB
  8
0
 66
     1
 10
0.0
 20
0.0
 30
0.0
 70
   128
  0
VERTEX
  5
114B7
  8
0
 10
434.0256367623806
 20
106.13995501771559
 30
0.0
  0
VERTEX
  5
114B8
  8
0
 10
434.07590443268418
 20
105.9616472572088
 30
0.0
  0
VERTEX
  5
114B9
  8
0
 10
434.153830287978
 20
105.64162107184519
 30
0.0
  0
VERTEX
  5
114BA
  8
0
 10
434.23808773979539
 20
105.1651108078658
 30
0.0
  0
VERTEX
  5
114BB
  8
0
 10
434.28558495827019
 20
104.5522758737206
 30
0.0
  0
VERTEX
  5
114BC
  8
0
 10
434.25813073292369
 20
103.906400874257
 30
0.0
  0
VERTEX
  5
114BD
  8
0
 10
434.16671467013651
 20
103.3221570774912
 30
0.0
  0
VERTEX
  5
114BE
  8
0
 10
434.05988009646529
 20
102.88258166983719
 30
0.0
  0
VERTEX
  5
114BF
  8
0
 10
434.02918882668018
 20
102.7749664150178
 30
0.0
  0
VERTEX
  5
114C0
  8
0
 10
434.00000350549811
 20
102.6775957441474
 30
0.0
  0
SEQEND
  5
114C1
  8
0
  0
LINE
  5
D6AC
  8
0
 10
434.00470109656447
 20
106.20974833145731
 30
0.0
 11
434.0256367623806
 21
106.13995501771559
 31
0.0
  0
POLYLINE
  5
D6AD
  8
0
 66
     1
 10
0.0
 20
0.0
 30
0.0
 70
   128
  0
VERTEX
  5
114C2
  8
0
 10
434.00001049041742
 20
106.26162486150859
 30
0.0
  0
VERTEX
  5
114C3
  8
0
 10
434.00000350549811
 20
106.2615675851702
 30
0.0
  0
VERTEX
  5
114C4
  8
0
 10
434.00470109656447
 20
106.20974833145731
 30
0.0
  0
SEQEND
  5
114C5
  8
0
  0
LINE
  5
D6AE
  8
0
 10
437.42932979250321
 20
101.2560002505779
 30
0.0
 11
442.00000388547772
 21
101.2560002505779
 31
0.0
  0
LINE
  5
D6AF
  8
0
 10
437.42932979250321
 20
101.2560002505779
 30
0.0
 11
437.42932979250321
 21
101.36533472687
 31
0.0
  0
ARC
  5
D6B0
  8
0
 10
434.05190326064979
 20
118.3340953168718
 30
0.0
 40
17.301613969189859
 50
281.25691876503117
 51
296.62674368557208
  0
LINE
  5
D6B1
  8
0
 10
441.81806094013149
 20
102.86740157753221
 30
0.0
 11
441.8060783110559
 21
102.86740157753221
 31
0.0
  0
LINE
  5
D6B2
  8
0
 10
441.91408658400172
 20
102.86740157753221
 30
0.0
 11
441.81806094013149
 21
102.86740157753221
 31
0.0
  0
POLYLINE
  5
D6B3
  8
0
 66
     1
 10
0.0
 20
0.0
 30
0.0
 70
   128
  0
VERTEX
  5
114C6
  8
0
 10
441.97145977988839
 20
102.7726865373551
 30
0.0
  0
VERTEX
  5
114C7
  8
0
 10
441.94307027384639
 20
102.8258846141397
 30
0.0
  0
VERTEX
  5
114C8
  8
0
 10
441.91408658400172
 20
102.86740157753221
 30
0.0
  0
SEQEND
  5
114C9
  8
0
  0
ARC
  5
D6B4
  8
0
 10
447.47848141168168
 20
104.451561468805
 30
0.0
 40
5.7572483261095
 50
162.9465329243728
 51
196.9544079687324
  0
POLYLINE
  5
D6B5
  8
0
 66
     1
 10
0.0
 20
0.0
 30
0.0
 70
   128
  0
VERTEX
  5
114CA
  8
0
 10
442.00000388547772
 20
102.68912641331551
 30
0.0
  0
VERTEX
  5
114CB
  8
0
 10
441.98623241856689
 20
102.7229618281126
 30
0.0
  0
VERTEX
  5
114CC
  8
0
 10
441.97145977988839
 20
102.7726865373551
 30
0.0
  0
SEQEND
  5
114CD
  8
0
  0
LINE
  5
D6B6
  8
0
 10
441.99530629441142
 20
106.20974833145731
 30
0.0
 11
441.9743706285953
 21
106.13995501771559
 31
0.0
  0
POLYLINE
  5
D6B7
  8
0
 66
     1
 10
0.0
 20
0.0
 30
0.0
 70
   128
  0
VERTEX
  5
114CE
  8
0
 10
441.99249509721989
 20
106.3266106881201
 30
0.0
  0
VERTEX
  5
114CF
  8
0
 10
442.00000388547772
 20
106.2615675851702
 30
0.0
  0
VERTEX
  5
114D0
  8
0
 10
441.99530629441142
 20
106.20974833145731
 30
0.0
  0
SEQEND
  5
114D1
  8
0
  0
LINE
  5
D6C5
  8
0
 10
437.42932979250321
 20
101.2560002505779
 30
0.0
 11
437.33353028539563
 21
99.997180886566625
 31
0.0
  0
ARC
  5
D6C6
  8
0
 10
436.15210113597522
 20
99.982964948974811
 30
0.0
 40
1.181514675313845
 50
322.76040800824961
 51
0.6893971752661829
  0
LINE
  5
D6C7
  8
0
 10
440.6967783626169
 20
99.25599992275238
 30
0.0
 11
435.30322906832902
 21
99.25599992275238
 31
0.0
  0
LINE
  5
D6C8
  8
0
 10
437.0125718461349
 20
99.25599992275238
 30
0.0
 11
437.09271908039221
 21
99.267972074449062
 31
0.0
  0
ARC
  5
D6DE
  8
0
 10
436.21934258283432
 20
100.3175514834857
 30
0.0
 40
1.0549606723809191
 50
197.67877514015731
 51
264.21042880016182
  0
LINE
  5
D6DF
  8
0
 10
435.21420343779022
 20
99.997180886566625
 30
0.0
 11
434.85667498782271
 21
101.2560002505779
 31
0.0
  0
LINE
  5
D6E1
  8
0
 10
436.11292320303619
 20
99.267972074449062
 30
0.0
 11
436.32043211720878
 21
99.25599992275238
 31
0.0
  0
LINE
  5
D6EA
  8
0
 10
441.93923462182278
 20
106.4117475412786
 30
0.0
 11
440.75107656419272
 21
105.2052601240575
 31
0.0
  0
LINE
  5
D6ED
  8
0
 10
440.7387663424015
 20
104.0700552053749
 30
0.0
 11
440.735092042014
 21
104.0738889947533
 31
0.0
  0
POLYLINE
  5
D6EE
  8
0
 66
     1
 10
0.0
 20
0.0
 30
0.0
 70
   128
  0
VERTEX
  5
114D2
  8
0
 10
441.91408658400172
 20
102.86740157753221
 30
0.0
  0
VERTEX
  5
114D3
  8
0
 10
441.3225661311298
 20
103.467961680144
 30
0.0
  0
VERTEX
  5
114D4
  8
0
 10
440.7387663424015
 20
104.0700552053749
 30
0.0
  0
SEQEND
  5
114D5
  8
0
  0
ARC
  5
D6F3
  8
0
 10
441.32652003464682
 20
104.640617378001
 30
0.0
 40
0.8061988702313776
 50
135.5427812408964
 51
180.0740955897738
  0
ARC
  5
D6F4
  8
0
 10
441.31318465659751
 20
104.6169827063171
 30
0.0
 40
0.7931846257814407
 50
178.3678374276825
 51
223.21203806860609
  0
LINE
  5
D6FE
  8
0
 10
454.50000360608101
 20
116.30000025033949
 30
0.0
 11
421.50000378489489
 21
116.30000025033949
 31
0.0
  0
ARC
  5
D6FF
  8
0
 10
451.95428135767997
 20
137.42794685514011
 30
0.0
 40
6.8680270447692191
 50
239.3889708763252
 51
250.78811599142091
  0
ARC
  5
D700
  8
0
 10
455.3007558945082
 20
145.3408287534601
 30
0.0
 40
15.451441595868429
 50
248.72495385315341
 51
255.05804423732141
  0
ARC
  5
D701
  8
0
 10
452.45063670232872
 20
134.14895274968589
 30
0.0
 40
3.9053451115403548
 50
253.1215602365603
 51
266.02479154488702
  0
POLYLINE
  5
D702
  8
0
 66
     1
 10
0.0
 20
0.0
 30
0.0
 70
   128
  0
VERTEX
  5
114D6
  8
0
 10
452.13442470878363
 20
130.41247744113201
 30
0.0
  0
VERTEX
  5
114D7
  8
0
 10
452.24254008382559
 20
130.3438482806086
 30
0.0
  0
VERTEX
  5
114D8
  8
0
 10
452.28425867855549
 20
130.27265984565011
 30
0.0
  0
VERTEX
  5
114D9
  8
0
 10
452.17989932745689
 20
130.2530033513903
 30
0.0
  0
SEQEND
  5
114DA
  8
0
  0
ARC
  5
D703
  8
0
 10
447.03753680992162
 20
120.2401163586084
 30
0.0
 40
11.377837942544589
 50
63.386721823623581
 51
70.17490663442058
  0
ARC
  5
D704
  8
0
 10
440.59175370066282
 20
104.4209827556228
 30
0.0
 40
28.45407499545982
 50
68.767850782967614
 51
72.232401893883093
  0
ARC
  5
D705
  8
0
 10
448.08204474395143
 20
128.295321489793
 30
0.0
 40
3.436159505172844
 50
69.690445045096411
 51
84.511461445549017
  0
POLYLINE
  5
D706
  8
0
 66
     1
 10
0.0
 20
0.0
 30
0.0
 70
   128
  0
VERTEX
  5
114DB
  8
0
 10
448.4570332616567
 20
131.51702042669049
 30
0.0
  0
VERTEX
  5
114DC
  8
0
 10
448.30175012350082
 20
131.66478034108869
 30
0.0
  0
VERTEX
  5
114DD
  8
0
 10
448.32296285778278
 20
131.70267958194009
 30
0.0
  0
VERTEX
  5
114DE
  8
0
 10
448.41070182621479
 20
131.71572741121051
 30
0.0
  0
SEQEND
  5
114DF
  8
0
  0
LINE
  5
D709
  8
0
 10
445.87666716426611
 20
131.6816000267863
 30
0.0
 11
449.45624645799398
 21
130.5462470278143
 31
0.0
  0
LINE
  5
D70A
  8
0
 10
445.50000492483372
 20
131.65898378938431
 30
0.0
 11
445.87666716426611
 21
131.6816000267863
 31
0.0
  0
LINE
  5
D70B
  8
0
 10
448.50729767233128
 20
130.22689465433351
 30
0.0
 11
445.50000492483372
 21
131.65898378938431
 31
0.0
  0
LINE
  5
D70C
  8
0
 10
448.88310216367239
 20
130.2436286583542
 30
0.0
 11
448.50729767233128
 21
130.22689465433351
 31
0.0
  0
LINE
  5
D70D
  8
0
 10
446.5090137720108
 20
131.37891273945559
 30
0.0
 11
448.88310216367239
 21
130.2436286583542
 31
0.0
  0
LINE
  5
D70E
  8
0
 10
450.059421248734
 20
130.24440165609121
 30
0.0
 11
446.5090137720108
 21
131.37891273945559
 31
0.0
  0
LINE
  5
D70F
  8
0
 10
450.46525623649359
 20
130.22647555917499
 30
0.0
 11
450.059421248734
 21
130.24440165609121
 31
0.0
  0
LINE
  5
D710
  8
0
 10
447.4579625576734
 20
131.65838774293661
 30
0.0
 11
450.46525623649359
 21
130.22647555917499
 31
0.0
  0
LINE
  5
D711
  8
0
 10
447.08215806633228
 20
131.6812796518206
 30
0.0
 11
447.4579625576734
 21
131.65838774293661
 31
0.0
  0
LINE
  5
D712
  8
0
 10
449.45624645799398
 20
130.5462470278143
 30
0.0
 11
447.08215806633228
 21
131.6812796518206
 31
0.0
  0
LINE
  5
D719
  8
0
 10
428.6763303726911
 20
132.3000000789761
 30
0.0
 11
447.32367671477948
 21
132.30000019818539
 31
0.0
  0
LINE
  5
D71A
  8
0
 10
442.25000392645592
 20
110.8000002219341
 30
0.0
 11
430.00000331550831
 21
110.8000002219341
 31
0.0
  0
LINE
  5
D71D
  8
0
 10
429.00000408291811
 20
111.8000002112239
 30
0.0
 11
442.25000392645569
 21
111.8000002112239
 31
0.0
  0
ARC
  5
D72B
  8
0
 10
454.7117910929457
 20
143.1250921832526
 30
0.0
 40
13.08258235203555
 50
248.35614601286409
 51
254.300499302026
  0
ARC
  5
D72E
  8
0
 10
452.24239734503971
 20
137.55037925436719
 30
0.0
 40
6.9942052452394083
 50
241.218379246019
 51
250.3154753135361
  0
POLYLINE
  5
D72F
  8
0
 66
     1
 10
0.0
 20
0.0
 30
0.0
 70
   128
  0
VERTEX
  5
114E0
  8
0
 10
448.82168423384422
 20
131.5562570467591
 30
0.0
  0
VERTEX
  5
114E1
  8
0
 10
448.76664400100702
 20
131.54707420617339
 30
0.0
  0
VERTEX
  5
114E2
  8
0
 10
448.77473998814821
 20
131.49844799190751
 30
0.0
  0
VERTEX
  5
114E3
  8
0
 10
448.87487951666111
 20
131.42022993415591
 30
0.0
  0
SEQEND
  5
114E4
  8
0
  0
ARC
  5
D730
  8
0
 10
448.60502430791411
 20
129.21037588646161
 30
0.0
 40
2.3558650092360831
 50
69.768629510604001
 51
84.723269390736576
  0
ARC
  5
D731
  8
0
 10
443.81912313388011
 20
113.5811432510133
 30
0.0
 40
18.69821524029939
 50
68.394257416710801
 51
72.570909398114736
  0
ARC
  5
D732
  8
0
 10
447.00051911094192
 20
120.9388409696158
 30
0.0
 40
10.6889181205706
 50
63.818879966598779
 51
69.727134918624273
  0
POLYLINE
  5
D733
  8
0
 66
     1
 10
0.0
 20
0.0
 30
0.0
 70
   128
  0
VERTEX
  5
114E5
  8
0
 10
451.76805917173618
 20
130.412876047194
 30
0.0
  0
VERTEX
  5
114E6
  8
0
 10
451.82314969599241
 20
130.42065259069199
 30
0.0
  0
VERTEX
  5
114E7
  8
0
 10
451.81715663522482
 20
130.4612489417195
 30
0.0
  0
VERTEX
  5
114E8
  8
0
 10
451.71657845377922
 20
130.5311167612671
 30
0.0
  0
SEQEND
  5
114E9
  8
0
  0
ARC
  5
D734
  8
0
 10
451.96357604072358
 20
132.97303131805219
 30
0.0
 40
2.5676101450496511
 50
252.0377097171025
 51
265.63284724837541
  0
LINE
  5
D747
  8
0
 10
421.65798403322691
 20
129.8097087070345
 30
0.0
 11
454.34202335774899
 21
129.8097087070345
 31
0.0
  0
ARC
  5
D750
  8
0
 10
451.20000369548831
 20
220.63309121188809
 30
0.0
 40
34.400000000000041
 50
236.5737557328857
 51
243.42624426711799
  0
ARC
  5
D752
  8
0
 10
424.8000036954877
 20
174.90694989206989
 30
0.0
 40
34.400000000000063
 50
56.573755732885658
 51
63.426244267103797
  0
ARC
  5
D757
  8
0
 10
438.0479291439342
 20
194.33892959775079
 30
0.0
 40
4.9999999999999893
 50
243.42624426711799
 51
265.36530341226978
  0
ARC
  5
D759
  8
0
 10
440.9953783487677
 20
199.4440613732508
 30
0.0
 40
5.0000000000000249
 50
34.636084745764741
 51
56.573755732885658
  0
ARC
  5
D75E
  8
0
 10
435.00462904220831
 20
196.0959797307072
 30
0.0
 40
5.0000000000000249
 50
214.6360847457542
 51
236.5737557328857
  0
ARC
  5
D75F
  8
0
 10
437.95207824704181
 20
201.2011115062071
 30
0.0
 40
5.0000000000000266
 50
63.426244267103797
 51
85.365303412256722
  0
ARC
  5
D77D
  8
0
 10
451.20000369548831
 20
220.63309121188809
 30
0.0
 40
34.40000000000007
 50
236.5737557328857
 51
243.42624426711799
  0
ARC
  5
D786
  8
0
 10
437.95207824704181
 20
201.2011115062071
 30
0.0
 40
5.0000000000000053
 50
63.426244267103797
 51
85.365303412250199
  0
ARC
  5
D787
  8
0
 10
424.8000036954877
 20
174.90694989206989
 30
0.0
 40
34.400000000000027
 50
56.573755732885658
 51
63.426244267103797
  0
ARC
  5
D788
  8
0
 10
440.9953783487677
 20
199.44406137325069
 30
0.0
 40
5.0000000000000249
 50
34.636084745767441
 51
56.573755732885658
  0
LINE
  5
D7B3
  8
1
 10
459.59945332366578
 20
185.2995724948025
 30
0.0
 11
416.40055406731022
 21
210.2404686091555
 31
0.0
  0
POLYLINE
  5
D7E3
  8
0
 66
     1
 10
0.0
 20
0.0
 30
0.0
 70
   128
  0
VERTEX
  5
114EA
  8
0
 10
451.8667961284516
 20
195.5272612161931
 30
0.0
  0
VERTEX
  5
114EB
  8
0
 10
451.80206082761288
 20
195.58205395005601
 30
0.0
  0
VERTEX
  5
114EC
  8
0
 10
451.73081744462257
 20
195.64640624448609
 30
0.0
  0
VERTEX
  5
114ED
  8
0
 10
451.65902830660349
 20
195.71972461417269
 30
0.0
  0
VERTEX
  5
114EE
  8
0
 10
451.57207164913422
 20
195.81433185376179
 30
0.0
  0
VERTEX
  5
114EF
  8
0
 10
451.41960855573421
 20
195.9855828667055
 30
0.0
  0
VERTEX
  5
114F0
  8
0
 10
451.08572941273462
 20
196.3812720263372
 30
0.0
  0
VERTEX
  5
114F1
  8
0
 10
450.85502404719603
 20
196.6638028156008
 30
0.0
  0
VERTEX
  5
114F2
  8
0
 10
450.55151067674171
 20
197.03331115888389
 30
0.0
  0
VERTEX
  5
114F3
  8
0
 10
449.82379198074352
 20
197.8785656960095
 30
0.0
  0
VERTEX
  5
114F4
  8
0
 10
449.03429213911301
 20
198.72396821156099
 30
0.0
  0
VERTEX
  5
114F5
  8
0
 10
448.1946005299688
 20
199.55127323046281
 30
0.0
  0
VERTEX
  5
114F6
  8
0
 10
447.42667291313421
 20
200.253920955583
 30
0.0
  0
VERTEX
  5
114F7
  8
0
 10
446.82945672422647
 20
200.77049252577081
 30
0.0
  0
VERTEX
  5
114F8
  8
0
 10
446.41598023474222
 20
201.11589631997001
 30
0.0
  0
VERTEX
  5
114F9
  8
0
 10
446.25771500170242
 20
201.245639333501
 30
0.0
  0
VERTEX
  5
114FA
  8
0
 10
446.01252663880592
 20
201.44333769567271
 30
0.0
  0
VERTEX
  5
114FB
  8
0
 10
445.7577363401652
 20
201.6472565941508
 30
0.0
  0
VERTEX
  5
114FC
  8
0
 10
445.52799535915261
 20
201.83875607326581
 30
0.0
  0
VERTEX
  5
114FD
  8
0
 10
445.30628517270088
 20
202.0486594177778
 30
0.0
  0
VERTEX
  5
114FE
  8
0
 10
445.1092712421202
 20
202.285871581907
 30
0.0
  0
SEQEND
  5
114FF
  8
0
  0
POLYLINE
  5
D7E4
  8
0
 66
     1
 10
0.0
 20
0.0
 30
0.0
 70
   128
  0
VERTEX
  5
11500
  8
0
 10
424.13321126252418
 20
200.01277988776511
 30
0.0
  0
VERTEX
  5
11501
  8
0
 10
424.19794656336308
 20
199.9579871539022
 30
0.0
  0
VERTEX
  5
11502
  8
0
 10
424.26918994635349
 20
199.89363485947209
 30
0.0
  0
VERTEX
  5
11503
  8
0
 10
424.34097908437258
 20
199.82031648978551
 30
0.0
  0
VERTEX
  5
11504
  8
0
 10
424.42793574184179
 20
199.72570925019639
 30
0.0
  0
VERTEX
  5
11505
  8
0
 10
424.58039883524191
 20
199.5544582372527
 30
0.0
  0
VERTEX
  5
11506
  8
0
 10
424.9142779782415
 20
199.158769077621
 30
0.0
  0
VERTEX
  5
11507
  8
0
 10
425.1449833437801
 20
198.8762382883574
 30
0.0
  0
VERTEX
  5
11508
  8
0
 10
425.44849671423441
 20
198.50672994507431
 30
0.0
  0
VERTEX
  5
11509
  8
0
 10
426.1762154102326
 20
197.6614754079487
 30
0.0
  0
VERTEX
  5
1150A
  8
0
 10
426.96571525186312
 20
196.81607289239719
 30
0.0
  0
VERTEX
  5
1150B
  8
0
 10
427.80540686100733
 20
195.98876787349539
 30
0.0
  0
VERTEX
  5
1150C
  8
0
 10
428.57333447784191
 20
195.2861201483752
 30
0.0
  0
VERTEX
  5
1150D
  8
0
 10
429.17055066674948
 20
194.7695485781874
 30
0.0
  0
VERTEX
  5
1150E
  8
0
 10
429.58402715623379
 20
194.4241447839882
 30
0.0
  0
VERTEX
  5
1150F
  8
0
 10
429.7422923892737
 20
194.2944017704572
 30
0.0
  0
VERTEX
  5
11510
  8
0
 10
429.98748075217009
 20
194.09670340828549
 30
0.0
  0
VERTEX
  5
11511
  8
0
 10
430.24227105081093
 20
193.89278450980731
 30
0.0
  0
VERTEX
  5
11512
  8
0
 10
430.47201203182351
 20
193.7012850306923
 30
0.0
  0
VERTEX
  5
11513
  8
0
 10
430.69372221827513
 20
193.49138168618029
 30
0.0
  0
VERTEX
  5
11514
  8
0
 10
430.89073614885478
 20
193.25416952205219
 30
0.0
  0
SEQEND
  5
11515
  8
0
  0
POLYLINE
  5
D7E5
  8
0
 66
     1
 10
0.0
 20
0.0
 30
0.0
 70
   128
  0
VERTEX
  5
11516
  8
0
 10
438.35609089038508
 20
206.18476215447879
 30
0.0
  0
VERTEX
  5
11517
  8
0
 10
438.05217563669441
 20
206.2368184328075
 30
0.0
  0
VERTEX
  5
11518
  8
0
 10
437.75953642500099
 20
206.32388684898569
 30
0.0
  0
VERTEX
  5
11519
  8
0
 10
437.47881969204178
 20
206.4270941540594
 30
0.0
  0
VERTEX
  5
1151A
  8
0
 10
437.27489811601117
 20
206.5066142007704
 30
0.0
  0
VERTEX
  5
1151B
  8
0
 10
437.07589991856372
 20
206.58426601439669
 30
0.0
  0
VERTEX
  5
1151C
  8
0
 10
436.88101228792232
 20
206.6592635586853
 30
0.0
  0
VERTEX
  5
1151D
  8
0
 10
436.68951269239187
 20
206.73145316541149
 30
0.0
  0
VERTEX
  5
1151E
  8
0
 10
436.18356471881282
 20
206.9168599322434
 30
0.0
  0
VERTEX
  5
1151F
  8
0
 10
435.4375851154328
 20
207.17577692121219
 30
0.0
  0
VERTEX
  5
11520
  8
0
 10
434.44518244825309
 20
207.48946964740711
 30
0.0
  0
VERTEX
  5
11521
  8
0
 10
433.30905621871358
 20
207.80296027660319
 30
0.0
  0
VERTEX
  5
11522
  8
0
 10
432.18241201713693
 20
208.06394293904259
 30
0.0
  0
VERTEX
  5
11523
  8
0
 10
431.08681764453661
 20
208.27151238918259
 30
0.0
  0
VERTEX
  5
11524
  8
0
 10
430.61505386605859
 20
208.34961682558011
 30
0.0
  0
VERTEX
  5
11525
  8
0
 10
430.255041345954
 20
208.4081392735238
 30
0.0
  0
VERTEX
  5
11526
  8
0
 10
429.7454365342856
 20
208.4994079545136
 30
0.0
  0
VERTEX
  5
11527
  8
0
 10
429.54083334654581
 20
208.54157544672441
 30
0.0
  0
VERTEX
  5
11528
  8
0
 10
429.43249631673098
 20
208.56519751250701
 30
0.0
  0
VERTEX
  5
11529
  8
0
 10
429.33041311800491
 20
208.58994461595969
 30
0.0
  0
VERTEX
  5
1152A
  8
0
 10
429.22010913491249
 20
208.62320214509921
 30
0.0
  0
VERTEX
  5
1152B
  8
0
 10
429.12395741515252
 20
208.65747302971991
 30
0.0
  0
SEQEND
  5
1152C
  8
0
  0
POLYLINE
  5
D7E6
  8
0
 66
     1
 10
0.0
 20
0.0
 30
0.0
 70
   128
  0
VERTEX
  5
1152D
  8
0
 10
437.64391650059309
 20
189.3552789494789
 30
0.0
  0
VERTEX
  5
1152E
  8
0
 10
437.94783175428171
 20
189.30322267115059
 30
0.0
  0
VERTEX
  5
1152F
  8
0
 10
438.24047096597502
 20
189.21615425497239
 30
0.0
  0
VERTEX
  5
11530
  8
0
 10
438.52118769893428
 20
189.11294694989871
 30
0.0
  0
VERTEX
  5
11531
  8
0
 10
438.72510927496478
 20
189.03342690318769
 30
0.0
  0
VERTEX
  5
11532
  8
0
 10
438.92410747241229
 20
188.9557750895614
 30
0.0
  0
VERTEX
  5
11533
  8
0
 10
439.11899510305381
 20
188.88077754527279
 30
0.0
  0
VERTEX
  5
11534
  8
0
 10
439.31049469858408
 20
188.80858793854659
 30
0.0
  0
VERTEX
  5
11535
  8
0
 10
439.8164426721633
 20
188.62318117171469
 30
0.0
  0
VERTEX
  5
11536
  8
0
 10
440.56242227554333
 20
188.3642641827459
 30
0.0
  0
VERTEX
  5
11537
  8
0
 10
441.55482494272297
 20
188.05057145655101
 30
0.0
  0
VERTEX
  5
11538
  8
0
 10
442.69095117226249
 20
187.7370808273549
 30
0.0
  0
VERTEX
  5
11539
  8
0
 10
443.8175953738392
 20
187.4760981649155
 30
0.0
  0
VERTEX
  5
1153A
  8
0
 10
444.91318974643951
 20
187.2685287147755
 30
0.0
  0
VERTEX
  5
1153B
  8
0
 10
445.38495352491742
 20
187.190424278378
 30
0.0
  0
VERTEX
  5
1153C
  8
0
 10
445.74496604502212
 20
187.13190183043429
 30
0.0
  0
VERTEX
  5
1153D
  8
0
 10
446.25457085669052
 20
187.04063314944449
 30
0.0
  0
VERTEX
  5
1153E
  8
0
 10
446.45917404443031
 20
186.99846565723371
 30
0.0
  0
VERTEX
  5
1153F
  8
0
 10
446.56751107424498
 20
186.9748435914511
 30
0.0
  0
VERTEX
  5
11540
  8
0
 10
446.66959427297121
 20
186.95009648799851
 30
0.0
  0
VERTEX
  5
11541
  8
0
 10
446.77989825606352
 20
186.9168389588589
 30
0.0
  0
VERTEX
  5
11542
  8
0
 10
446.87592599540898
 20
186.88263241201611
 30
0.0
  0
SEQEND
  5
11543
  8
0
  0
CIRCLE
  5
D7E9
  8
0
 10
438.00000369548798
 20
197.77002055197909
 30
0.0
 40
3.000000000000028
  0
LINE
  5
D7EA
  8
0
 10
438.00000369548798
 20
196.6153200250115
 30
0.0
 11
439.00000374298548
 21
197.19267028849529
 31
0.0
  0
LINE
  5
D7EB
  8
0
 10
439.00000374298548
 20
197.19267028849529
 30
0.0
 11
439.00000374298548
 21
198.34737081546291
 31
0.0
  0
LINE
  5
D7EC
  8
0
 10
439.00000374298548
 20
198.34737081546291
 30
0.0
 11
438.00000369548798
 21
198.9247210789467
 31
0.0
  0
LINE
  5
D7ED
  8
0
 10
438.00000369548798
 20
198.9247210789467
 30
0.0
 11
437.00000364799058
 21
198.34737081546291
 31
0.0
  0
LINE
  5
D7EE
  8
0
 10
437.00000364799058
 20
198.34737081546291
 30
0.0
 11
437.00000364799058
 21
197.19267028849529
 31
0.0
  0
LINE
  5
D7EF
  8
0
 10
437.00000364799058
 20
197.19267028849529
 30
0.0
 11
438.00000369548798
 21
196.6153200250115
 31
0.0
  0
ARC
  5
D7FC
  8
0
 10
451.18428716439348
 20
219.9842985345627
 30
0.0
 40
33.258372482459052
 50
239.4645871624202
 51
271.42157689041568
  0
ARC
  5
D7FE
  8
0
 10
425.22886006214571
 20
175.12172429355249
 30
0.0
 40
33.427263927869973
 50
28.661294870188829
 51
60.452534740212499
  0
ARC
  5
D80D
  8
0
 10
424.81546875656068
 20
175.5553516089125
 30
0.0
 40
33.258836987288667
 50
59.464556223398638
 51
91.421370840813239
  0
ARC
  5
D80F
  8
0
 10
450.77150619692588
 20
220.41887951193121
 30
0.0
 40
33.42793042244891
 50
208.66160313735091
 51
240.45247525847631
  0
ARC
  5
D812
  8
0
 10
449.24081636084838
 20
191.4245388914251
 30
0.0
 40
4.8711497835737312
 50
32.91571810215143
 51
57.37840421127315
  0
ARC
  5
D813
  8
0
 10
423.4831320621106
 20
174.14743599291469
 30
0.0
 40
35.886012711884099
 50
27.42385489359572
 51
33.724865034575039
  0
POLYLINE
  5
D814
  8
0
 66
     1
 10
0.0
 20
0.0
 30
0.0
 70
   128
  0
VERTEX
  5
11544
  8
0
 10
455.36515943706041
 20
190.61806341633149
 30
0.0
  0
VERTEX
  5
11545
  8
0
 10
455.33643558621412
 20
190.6753816641862
 30
0.0
  0
VERTEX
  5
11546
  8
0
 10
455.33640764653688
 20
190.67543474957299
 30
0.0
  0
SEQEND
  5
11547
  8
0
  0
ARC
  5
D815
  8
0
 10
452.66710872318731
 20
189.30338127019971
 30
0.0
 40
3.001310846944766
 50
332.91010027841583
 51
25.97863610232697
  0
POLYLINE
  5
D816
  8
0
 66
     1
 10
0.0
 20
0.0
 30
0.0
 70
   128
  0
VERTEX
  5
11548
  8
0
 10
455.26932634413248
 20
187.7995725721116
 30
0.0
  0
VERTEX
  5
11549
  8
0
 10
455.30351147055632
 20
187.86666784435459
 30
0.0
  0
VERTEX
  5
1154A
  8
0
 10
455.339155048132
 20
187.93662041425651
 30
0.0
  0
SEQEND
  5
1154B
  8
0
  0
POLYLINE
  5
D818
  8
0
 66
     1
 10
0.0
 20
0.0
 30
0.0
 70
   128
  0
VERTEX
  5
1154C
  8
0
 10
454.57465283572679
 20
188.3819397538895
 30
0.0
  0
VERTEX
  5
1154D
  8
0
 10
454.57462489604961
 20
188.3818866685028
 30
0.0
  0
VERTEX
  5
1154E
  8
0
 10
454.50269140303141
 20
188.242189213633
 30
0.0
  0
SEQEND
  5
1154F
  8
0
  0
ARC
  5
D819
  8
0
 10
451.90004689040649
 20
189.75439070502091
 30
0.0
 40
3.0061833902815471
 50
332.83576452643098
 51
27.757707744236519
  0
ARC
  5
D81E
  8
0
 10
426.75919103012728
 20
204.1155022125331
 30
0.0
 40
4.8711497835737552
 50
212.91571810215541
 51
237.37840421127311
  0
ARC
  5
D81F
  8
0
 10
452.51687532886262
 20
221.39260511104189
 30
0.0
 40
35.886012711880817
 50
207.4238548935966
 51
213.72486503457549
  0
POLYLINE
  5
D820
  8
0
 66
     1
 10
0.0
 20
0.0
 30
0.0
 70
   128
  0
VERTEX
  5
11550
  8
0
 10
420.63484795391571
 20
204.92197768762659
 30
0.0
  0
VERTEX
  5
11551
  8
0
 10
420.66357180476189
 20
204.86465943977191
 30
0.0
  0
VERTEX
  5
11552
  8
0
 10
420.66359974443918
 20
204.86460635438519
 30
0.0
  0
SEQEND
  5
11553
  8
0
  0
ARC
  5
D821
  8
0
 10
423.3328986677887
 20
206.23665983375849
 30
0.0
 40
3.0013108469447891
 50
152.9101002784152
 51
205.97863610232659
  0
POLYLINE
  5
D822
  8
0
 66
     1
 10
0.0
 20
0.0
 30
0.0
 70
   128
  0
VERTEX
  5
11554
  8
0
 10
420.73068104684359
 20
207.7404685318466
 30
0.0
  0
VERTEX
  5
11555
  8
0
 10
420.69649592041969
 20
207.67337325960349
 30
0.0
  0
VERTEX
  5
11556
  8
0
 10
420.66085234284412
 20
207.60342068970161
 30
0.0
  0
SEQEND
  5
11557
  8
0
  0
POLYLINE
  5
D824
  8
0
 66
     1
 10
0.0
 20
0.0
 30
0.0
 70
   128
  0
VERTEX
  5
11558
  8
0
 10
421.42522044479853
 20
207.15817864984231
 30
0.0
  0
VERTEX
  5
11559
  8
0
 10
421.42524838447582
 20
207.15823173522901
 30
0.0
  0
VERTEX
  5
1155A
  8
0
 10
421.49718187749392
 20
207.29792919009881
 30
0.0
  0
SEQEND
  5
1155B
  8
0
  0
ARC
  5
D825
  8
0
 10
424.09983621765588
 20
205.78572638550349
 30
0.0
 40
3.006192733393287
 50
152.83582777126421
 51
207.75741524433641
  0
POLYLINE
  5
D829
  8
0
 66
     1
 10
0.0
 20
0.0
 30
0.0
 70
   128
  0
VERTEX
  5
1155C
  8
0
 10
423.18771023303282
 20
209.2364938929673
 30
0.0
  0
VERTEX
  5
1155D
  8
0
 10
423.18765062838798
 20
209.23649109899949
 30
0.0
  0
VERTEX
  5
1155E
  8
0
 10
423.1337289139629
 20
209.2333944514389
 30
0.0
  0
SEQEND
  5
1155F
  8
0
  0
POLYLINE
  5
D82A
  8
0
 66
     1
 10
0.0
 20
0.0
 30
0.0
 70
   128
  0
VERTEX
  5
11560
  8
0
 10
427.13230650871998
 20
209.1969341039653
 30
0.0
  0
VERTEX
  5
11561
  8
0
 10
426.13359995186329
 20
209.24982111900999
 30
0.0
  0
VERTEX
  5
11562
  8
0
 10
423.18776983767748
 20
209.236496686935
 30
0.0
  0
VERTEX
  5
11563
  8
0
 10
423.18771023303282
 20
209.2364938929673
 30
0.0
  0
SEQEND
  5
11564
  8
0
  0
ARC
  5
D82B
  8
0
 10
426.88791607327562
 20
204.34841703942149
 30
0.0
 40
4.8546724307731566
 50
62.572796585512471
 51
87.114437324106177
  0
ARC
  5
D82F
  8
0
 10
424.1081105106623
 20
205.80007219411911
 30
0.0
 40
3.0061851361809522
 50
92.242500401893153
 51
147.16424565142211
  0
POLYLINE
  5
D830
  8
0
 66
     1
 10
0.0
 20
0.0
 30
0.0
 70
   128
  0
VERTEX
  5
11565
  8
0
 10
421.49718187749392
 20
207.29792919009881
 30
0.0
  0
VERTEX
  5
11566
  8
0
 10
421.58219672739511
 20
207.4300736188884
 30
0.0
  0
VERTEX
  5
11567
  8
0
 10
421.58222839236271
 20
207.4301239103074
 30
0.0
  0
SEQEND
  5
11568
  8
0
  0
POLYLINE
  5
D831
  8
0
 66
     1
 10
0.0
 20
0.0
 30
0.0
 70
   128
  0
VERTEX
  5
11569
  8
0
 10
420.81450939178472
 20
207.8695517033334
 30
0.0
  0
VERTEX
  5
1156A
  8
0
 10
420.77236145734793
 20
207.8046496957536
 30
0.0
  0
VERTEX
  5
1156B
  8
0
 10
420.73068104684359
 20
207.7404685318466
 30
0.0
  0
SEQEND
  5
1156C
  8
0
  0
ARC
  5
D832
  8
0
 10
423.33410871138068
 20
206.23880591804621
 30
0.0
 40
3.0012851493219519
 50
93.828181155131475
 51
147.08807649285299
  0
POLYLINE
  5
D833
  8
0
 66
     1
 10
0.0
 20
0.0
 30
0.0
 70
   128
  0
VERTEX
  5
1156D
  8
0
 10
452.81229715794331
 20
186.3035472109909
 30
0.0
  0
VERTEX
  5
1156E
  8
0
 10
452.81235676258808
 20
186.30355000495859
 30
0.0
  0
VERTEX
  5
1156F
  8
0
 10
452.86627847701322
 20
186.30664665251919
 30
0.0
  0
SEQEND
  5
11570
  8
0
  0
POLYLINE
  5
D834
  8
0
 66
     1
 10
0.0
 20
0.0
 30
0.0
 70
   128
  0
VERTEX
  5
11571
  8
0
 10
448.86770088225609
 20
186.34310699999281
 30
0.0
  0
VERTEX
  5
11572
  8
0
 10
449.86640743911272
 20
186.2902199849481
 30
0.0
  0
VERTEX
  5
11573
  8
0
 10
452.81223755329847
 20
186.30354441702309
 30
0.0
  0
VERTEX
  5
11574
  8
0
 10
452.81229715794331
 20
186.3035472109909
 30
0.0
  0
SEQEND
  5
11575
  8
0
  0
ARC
  5
D835
  8
0
 10
449.11209131770022
 20
191.19162406453671
 30
0.0
 40
4.8546724307731566
 50
242.57279658551201
 51
267.11443732410618
  0
ARC
  5
D839
  8
0
 10
451.89176132285621
 20
189.74004861220351
 30
0.0
 40
3.0061881597542062
 50
272.24234810589951
 51
327.1642072158229
  0
POLYLINE
  5
D83A
  8
0
 66
     1
 10
0.0
 20
0.0
 30
0.0
 70
   128
  0
VERTEX
  5
11576
  8
0
 10
454.50269140303141
 20
188.242189213633
 30
0.0
  0
VERTEX
  5
11577
  8
0
 10
454.41767655313021
 20
188.11004478484341
 30
0.0
  0
VERTEX
  5
11578
  8
0
 10
454.41764488816273
 20
188.10999356210181
 30
0.0
  0
SEQEND
  5
11579
  8
0
  0
POLYLINE
  5
D83B
  8
0
 66
     1
 10
0.0
 20
0.0
 30
0.0
 70
   128
  0
VERTEX
  5
1157A
  8
0
 10
455.18549799919128
 20
187.67048940062469
 30
0.0
  0
VERTEX
  5
1157B
  8
0
 10
455.22764593362808
 20
187.73539140820449
 30
0.0
  0
VERTEX
  5
1157C
  8
0
 10
455.26932634413248
 20
187.7995725721116
 30
0.0
  0
SEQEND
  5
1157D
  8
0
  0
ARC
  5
D83C
  8
0
 10
452.66589867959527
 20
189.30123518591199
 30
0.0
 40
3.0012851493219088
 50
273.82818115513152
 51
327.08807649285438
  0
POLYLINE
  5
D845
  8
0
 66
     1
 10
0.0
 20
0.0
 30
0.0
 70
   128
  0
VERTEX
  5
1157E
  8
0
 10
449.83107306063181
 20
197.87010881409469
 30
0.0
  0
VERTEX
  5
1157F
  8
0
 10
450.60141559690243
 20
199.20438071712809
 30
0.0
  0
VERTEX
  5
11580
  8
0
 10
451.98487572371971
 20
201.60060361959
 30
0.0
  0
SEQEND
  5
11581
  8
0
  0
LINE
  5
D846
  8
0
 10
451.98487572371971
 20
201.60060361959
 30
0.0
 11
450.77928330749279
 21
201.27038084901821
 31
0.0
  0
ARC
  5
D847
  8
0
 10
438.00000369548798
 20
197.77002055197909
 30
0.0
 40
13.250000000000011
 50
15.318123217932079
 51
44.681876782069537
  0
LINE
  5
D848
  8
0
 10
447.42104399949318
 20
207.08702094852879
 30
0.0
 11
448.30982189625507
 21
207.96598270535421
 31
0.0
  0
LINE
  5
D849
  8
0
 10
448.30982189625507
 20
207.96598270535421
 30
0.0
 11
442.75445898994809
 21
207.96598270535421
 31
0.0
  0
ARC
  5
D84A
  8
0
 10
438.00000369548798
 20
197.77002055197909
 30
0.0
 40
11.25
 50
3.8263700370250322
 51
64.99999999999352
  0
LINE
  5
D84B
  8
0
 10
443.18306202068931
 20
209.69367455691051
 30
0.0
 11
441.60777272656571
 21
210.23249868303489
 31
0.0
  0
LINE
  5
D84C
  8
0
 10
443.33321217447519
 20
210.13211235403969
 30
0.0
 11
443.18306202068931
 21
209.69367455691051
 31
0.0
  0
LINE
  5
D84D
  8
0
 10
441.7579228803516
 20
210.67093741148659
 30
0.0
 11
443.33321217447519
 21
210.13211235403969
 31
0.0
  0
LINE
  5
D84E
  8
0
 10
442.16890528798109
 20
211.87299638986539
 30
0.0
 11
441.7579228803516
 21
210.67093741148659
 31
0.0
  0
LINE
  5
D84F
  8
0
 10
444.18177509680402
 20
211.18402164429381
 30
0.0
 11
442.16890528798109
 21
211.87299638986539
 31
0.0
  0
LINE
  5
D850
  8
0
 10
444.3319252505899
 20
211.62246037274551
 30
0.0
 11
444.18177509680402
 21
211.18402164429381
 31
0.0
  0
LINE
  5
D851
  8
0
 10
441.77079282701021
 20
212.49933689832639
 30
0.0
 11
444.3319252505899
 21
211.62246037274551
 31
0.0
  0
LINE
  5
D852
  8
0
 10
440.48979750834411
 20
208.75845346599769
 30
0.0
 11
441.77079282701021
 21
212.49933689832639
 31
0.0
  0
LINE
  5
D853
  8
0
 10
441.03806012310088
 20
208.5705507546659
 30
0.0
 11
440.48979750834411
 21
208.75845346599769
 31
0.0
  0
LINE
  5
D854
  8
0
 10
441.60777272656571
 20
210.23249868303489
 30
0.0
 11
441.03806012310088
 21
208.5705507546659
 31
0.0
  0
ARC
  5
D855
  8
0
 10
433.98942019537498
 20
210.15929111805741
 30
0.0
 40
2.092218026794709
 50
333.52143766748333
 51
19.494784900618289
  0
ARC
  5
D856
  8
0
 10
433.88135936046751
 20
210.33447879207361
 30
0.0
 40
2.145077486115722
 50
14.112571358198259
 51
58.893232789174739
  0
ARC
  5
D857
  8
0
 10
434.19897569832671
 20
210.7528497936338
 30
0.0
 40
1.6237332290938959
 50
60.862610062246318
 51
107.3881716841984
  0
ARC
  5
D858
  8
0
 10
434.15205138927399
 20
210.73566186308139
 30
0.0
 40
1.626878625780243
 50
105.6299261955033
 51
152.10829209237809
  0
ARC
  5
D859
  8
0
 10
434.58985910028468
 20
210.56510296455011
 30
0.0
 40
2.0943133334291879
 50
153.5874632874372
 51
199.48519798425829
  0
ARC
  5
D85A
  8
0
 10
434.6968949275618
 20
210.38841095780501
 30
0.0
 40
2.1458359577279138
 50
194.0762220331178
 51
238.84539963597209
  0
ARC
  5
D85B
  8
0
 10
434.3778958457101
 20
209.97242931971039
 30
0.0
 40
1.6258427714878061
 50
240.8821592807582
 51
287.3765479402723
  0
ARC
  5
D85C
  8
0
 10
434.42745628415111
 20
209.98309784242579
 30
0.0
 40
1.622009033249076
 50
285.5929373450715
 51
332.19337686754579
  0
LINE
  5
D85D
  8
0
 10
439.59478103090078
 20
210.70481333881571
 30
0.0
 11
437.92682730883831
 21
210.77431142330121
 31
0.0
  0
LINE
  5
D85E
  8
0
 10
439.61279897950601
 20
211.14325206726741
 30
0.0
 11
439.59478103090078
 21
210.70481333881571
 31
0.0
  0
LINE
  5
D85F
  8
0
 10
437.94484533020301
 20
211.21275015175291
 30
0.0
 11
439.61279897950601
 21
211.14325206726741
 31
0.0
  0
LINE
  5
D860
  8
0
 10
437.99975738371711
 20
212.51176353543951
 30
0.0
 11
437.94484533020301
 21
211.21275015175291
 31
0.0
  0
LINE
  5
D861
  8
0
 10
440.13103156350559
 20
212.4225316569204
 30
0.0
 11
437.99975738371711
 21
212.51176353543951
 31
0.0
  0
LINE
  5
D862
  8
0
 10
440.14904962852597
 20
212.86096945404961
 30
0.0
 11
440.13103156350559
 21
212.4225316569204
 31
0.0
  0
LINE
  5
D863
  8
0
 10
437.46951286913833
 20
212.9733679816122
 30
0.0
 11
440.14904962852597
 21
212.86096945404961
 31
0.0
  0
LINE
  5
D864
  8
0
 10
437.30306067038327
 20
209.01197809725949
 30
0.0
 11
437.46951286913833
 21
212.9733679816122
 31
0.0
  0
LINE
  5
D865
  8
0
 10
437.85132324148441
 20
208.98881237953859
 30
0.0
 11
437.30306067038327
 21
209.01197809725949
 31
0.0
  0
LINE
  5
D866
  8
0
 10
437.92682730883831
 20
210.77431142330121
 30
0.0
 11
437.85132324148441
 21
208.98881237953859
 31
0.0
  0
ARC
  5
D867
  8
0
 10
433.76335262069551
 20
210.3480254361464
 30
0.0
 40
1.6995382906067851
 50
11.910339272234969
 51
56.711851426099898
  0
ARC
  5
D868
  8
0
 10
433.77049000323268
 20
210.0883953532917
 30
0.0
 40
1.7647329661628099
 50
337.18312318899632
 51
20.235393575507992
  0
ARC
  5
D869
  8
0
 10
434.42126919811818
 20
209.886222767709
 30
0.0
 40
1.088481481698109
 50
286.8799177655967
 51
333.70626339221479
  0
ARC
  5
D86A
  8
0
 10
434.43484828585139
 20
209.88365428799361
 30
0.0
 40
1.082150065064964
 50
239.1657260627685
 51
286.23140578813411
  0
ARC
  5
D86B
  8
0
 10
434.80997935681359
 20
210.37176573341571
 30
0.0
 40
1.6950710945953329
 50
191.82559985735199
 51
236.733903031686
  0
ARC
  5
D86C
  8
0
 10
434.78539626177582
 20
210.63631569134711
 30
0.0
 40
1.745303017005799
 50
156.9695801557892
 51
200.52483800669191
  0
ARC
  5
D86D
  8
0
 10
434.15883751593901
 20
210.83248796483309
 30
0.0
 40
1.0938446010543439
 50
107.00148928794989
 51
153.58461771396861
  0
ARC
  5
D86E
  8
0
 10
434.14153064411522
 20
210.83989238054801
 30
0.0
 40
1.0817989610409611
 50
59.157692176288073
 51
106.2395621722559
  0
ARC
  5
D86F
  8
0
 10
438.00000369548798
 20
197.77002055197909
 30
0.0
 40
17.000000000000011
 50
342.55185823222217
 51
90.0
  0
ARC
  5
D870
  8
0
 10
438.00000369548798
 20
197.77002055197909
 30
0.0
 40
17.000000000000028
 50
162.551858232222
 51
317.53786490397277
  0
ARC
  5
D871
  8
0
 10
438.00000369548798
 20
197.77002055197909
 30
0.0
 40
17.0
 50
90.0
 51
137.5378649039728
  0
POLYLINE
  5
D875
  8
0
 66
     1
 10
0.0
 20
0.0
 30
0.0
 70
   128
  0
VERTEX
  5
11582
  8
0
 10
438.00000369548798
 20
207.09369387477591
 30
0.0
  0
VERTEX
  5
11583
  8
0
 10
436.89726328477269
 20
207.0282517001028
 30
0.0
  0
VERTEX
  5
11584
  8
0
 10
436.18155442034208
 20
206.91755767307251
 30
0.0
  0
SEQEND
  5
11585
  8
0
  0
ARC
  5
D876
  8
0
 10
438.00000369548798
 20
197.77002055197909
 30
0.0
 40
9.3236730192915562
 50
198.7859355489399
 51
281.21405958188552
  0
ARC
  5
D877
  8
0
 10
438.00000369548798
 20
197.77002055197909
 30
0.0
 40
9.3236730192915278
 50
18.785935548939399
 51
90.0
  0
LINE
  5
D87C
  8
1
 10
354.00000184774399
 20
94.255999922752366
 30
0.0
 11
354.00000184774399
 21
152.0260204747326
 31
0.0
  0
LINE
  5
D88C
  8
0
 10
344.62564595043659
 20
110.8000002219341
 30
0.0
 11
344.62564595043659
 21
113.80000030621881
 31
0.0
  0
LINE
  5
D88D
  8
0
 10
339.12564598023891
 20
113.80000030621881
 30
0.0
 11
339.12564598023891
 21
110.8000002219341
 31
0.0
  0
LINE
  5
D88E
  8
0
 10
343.37564621120691
 20
113.80000030621881
 30
0.0
 11
343.37564621120691
 21
116.30000025033949
 31
0.0
  0
LINE
  5
D88F
  8
0
 10
340.37564665079123
 20
116.30000025033949
 30
0.0
 11
340.37564665079123
 21
113.80000030621881
 31
0.0
  0
LINE
  5
D890
  8
0
 10
368.87435771524912
 20
110.8000002219341
 30
0.0
 11
368.87435771524912
 21
113.80000030621881
 31
0.0
  0
LINE
  5
D891
  8
0
 10
363.37435774505138
 20
113.80000030621881
 30
0.0
 11
363.37435774505138
 21
110.8000002219341
 31
0.0
  0
LINE
  5
D892
  8
0
 10
367.62435704469681
 20
113.80000030621881
 30
0.0
 11
367.62435704469681
 21
116.30000025033949
 31
0.0
  0
LINE
  5
D893
  8
0
 10
364.62435748428112
 20
116.30000025033949
 30
0.0
 11
364.62435748428112
 21
113.80000030621881
 31
0.0
  0
LINE
  5
D894
  8
0
 10
356.75000183284283
 20
110.8000002219341
 30
0.0
 11
356.75000183284283
 21
113.80000030621881
 31
0.0
  0
LINE
  5
D895
  8
0
 10
351.25000186264521
 20
113.80000030621881
 30
0.0
 11
351.25000186264521
 21
110.8000002219341
 31
0.0
  0
LINE
  5
D896
  8
0
 10
355.5000018607825
 20
113.80000030621881
 30
0.0
 11
355.5000018607825
 21
116.30000025033949
 31
0.0
  0
LINE
  5
D897
  8
0
 10
352.50000183470547
 20
116.30000025033949
 30
0.0
 11
352.50000183470547
 21
113.80000030621881
 31
0.0
  0
POLYLINE
  5
D898
  8
0
 66
     1
 10
0.0
 20
0.0
 30
0.0
 70
   128
  0
VERTEX
  5
11586
  8
0
 10
342.98462856560951
 20
141.78178030997509
 30
0.0
  0
VERTEX
  5
11587
  8
0
 10
342.80699275434017
 20
138.80723472684619
 30
0.0
  0
VERTEX
  5
11588
  8
0
 10
342.49552309513092
 20
133.69378950446841
 30
0.0
  0
SEQEND
  5
11589
  8
0
  0
ARC
  5
D899
  8
0
 10
348.68679223379468
 20
141.10974401811529
 30
0.0
 40
5.7416289741109354
 50
88.262746432773895
 51
173.27833474530209
  0
ARC
  5
D89A
  8
0
 10
342.99422730194152
 20
133.656046094256
 30
0.0
 40
0.5001304338919919
 50
175.67193684957201
 51
268.94147632244318
  0
LINE
  5
D89B
  8
0
 10
350.5649118963629
 20
146.969567425549
 30
0.0
 11
349.35403725132352
 21
146.89625371247519
 31
0.0
  0
LINE
  5
D89C
  8
0
 10
361.50000168010592
 20
132.3000000789761
 30
0.0
 11
361.50000168010592
 21
133.156001009047
 31
0.0
  0
LINE
  5
D89D
  8
0
 10
346.50000201538211
 20
133.156001009047
 30
0.0
 11
346.50000201538211
 21
132.3000000789761
 31
0.0
  0
POLYLINE
  5
D89F
  8
0
 66
     1
 10
0.0
 20
0.0
 30
0.0
 70
   128
  0
VERTEX
  5
1158A
  8
0
 10
365.5047190189357
 20
133.69050938636059
 30
0.0
  0
VERTEX
  5
1158B
  8
0
 10
365.1930109411478
 20
138.80723472684619
 30
0.0
  0
VERTEX
  5
1158C
  8
0
 10
365.02120368173928
 20
141.68418859392199
 30
0.0
  0
SEQEND
  5
1158D
  8
0
  0
LINE
  5
D8A0
  8
0
 10
358.66403177380562
 20
146.8775304034352
 30
0.0
 11
357.43897099047899
 21
146.96955252438781
 31
0.0
  0
ARC
  5
D8A2
  8
0
 10
365.00577504766972
 20
133.6560482730703
 30
0.0
 40
0.500132637199402
 50
271.05867322530429
 51
3.9510360600171488
  0
LINE
  5
D8A3
  8
0
 10
358.00000203773379
 20
105.13582630082961
 30
0.0
 11
358.00000203773379
 21
110.8000002219341
 31
0.0
  0
LINE
  5
D8A4
  8
0
 10
358.00000203773379
 20
101.2560002505779
 30
0.0
 11
358.00000203773362
 21
101.6264968813489
 31
0.0
  0
LINE
  5
D8A5
  8
0
 10
350.00000165775418
 20
101.5193633735179
 30
0.0
 11
350.00000165775418
 21
101.2560002505779
 31
0.0
  0
LINE
  5
D8A6
  8
0
 10
350.00000165775418
 20
110.8000002219341
 30
0.0
 11
350.00000165775418
 21
105.1447539590299
 31
0.0
  0
LINE
  5
D8A7
  8
0
 10
350.00000165775418
 20
101.2560002505779
 30
0.0
 11
350.33730131573981
 21
99.997180886566625
 31
0.0
  0
ARC
  5
D8A8
  8
0
 10
351.30322722058509
 20
100.2560001981854
 30
0.0
 40
1.0
 50
195.00000000000071
 51
270.0
  0
LINE
  5
D8A9
  8
0
 10
351.37570363469422
 20
103.1002885662019
 30
0.0
 11
350.05482582375407
 21
101.69781036674971
 31
0.0
  0
ARC
  5
D8AA
  8
0
 10
314.61714769935111
 20
70.017685900086335
 30
0.0
 40
49.753300796900596
 50
42.38303958623716
 51
44.433146986901122
  0
ARC
  5
D8AB
  8
0
 10
351.11436180444463
 20
103.3233853722688
 30
0.0
 40
0.3436239013423777
 50
319.56453432674209
 51
42.509921022108799
  0
ARC
  5
D8AD
  8
0
 10
356.69677647490272
 20
100.2560001981854
 30
0.0
 40
1.0000000000000131
 50
270.0
 51
345.00000000000108
  0
LINE
  5
D8AE
  8
0
 10
357.88149007596081
 20
101.7806533724069
 30
0.0
 11
356.62430006079381
 21
103.1002885662019
 31
0.0
  0
ARC
  5
D8AF
  8
0
 10
356.91751594266862
 20
103.3270299985589
 30
0.0
 40
0.3706578348435858
 50
147.68187451693569
 51
217.71448661469481
  0
LINE
  5
D8B0
  8
0
 10
357.66270237974823
 20
99.997180886566625
 30
0.0
 11
358.00000203773379
 21
101.2560002505779
 31
0.0
  0
LINE
  5
D8B1
  8
0
 10
337.00000092387199
 20
116.8000003322958
 30
0.0
 11
337.50000193715101
 21
116.30000025033949
 31
0.0
  0
LINE
  5
D8B2
  8
0
 10
370.50000175833702
 20
116.30000025033949
 30
0.0
 11
371.00000277161598
 21
116.8000003322958
 31
0.0
  0
LINE
  5
D8B3
  8
0
 10
371.00000277161598
 20
116.8000003322958
 30
0.0
 11
371.00000277161598
 21
128.87001540511841
 31
0.0
  0
LINE
  5
D8B4
  8
0
 10
337.00000092387199
 20
128.87001540511841
 30
0.0
 11
337.00000092387199
 21
116.8000003322958
 31
0.0
  0
ARC
  5
D8B5
  8
0
 10
338.00000184774399
 20
128.87001590297919
 30
0.0
 40
1.0
 50
110.0000000000035
 51
179.9999999999996
  0
ARC
  5
D8B6
  8
0
 10
370.00000184774399
 20
128.87001590297919
 30
0.0
 40
1.0000000000000051
 50
0.0
 51
69.999999999996504
  0
LINE
  5
D8B7
  8
0
 10
370.342021510005
 20
129.8097087070345
 30
0.0
 11
363.66569500416517
 21
132.2396932169795
 31
0.0
  0
LINE
  5
D8BA
  8
0
 10
344.3343086913228
 20
132.2396932169795
 30
0.0
 11
337.65798136313862
 21
129.80970870703459
 31
0.0
  0
ARC
  5
D8BB
  8
0
 10
344.67632882845243
 20
131.30000019818539
 30
0.0
 40
1.0
 50
90.0
 51
110.0000000000035
  0
ARC
  5
D8BC
  8
0
 10
363.32367486703538
 20
131.30000019818539
 30
0.0
 40
1.0
 50
69.999999999996504
 51
90.0
  0
ARC
  5
D8BD
  8
0
 10
363.40000184774391
 20
115.9000001981854
 30
0.0
 40
0.4000000000000199
 50
90.0
 51
179.9999999999996
  0
ARC
  5
D8BE
  8
0
 10
344.6000018477439
 20
115.9000001981854
 30
0.0
 40
0.4000000000000057
 50
0.0000000000004071
 51
90.0
  0
LINE
  5
D8BF
  8
0
 10
363.0000014603138
 20
111.8000002112239
 30
0.0
 11
363.0000014603138
 21
115.8999999985098
 31
0.0
  0
LINE
  5
D8C0
  8
0
 10
345.00000223517418
 20
115.8999999985098
 30
0.0
 11
345.00000223517418
 21
111.8000002112239
 31
0.0
  0
LINE
  5
D8C1
  8
0
 10
345.00000223517418
 20
111.8000002112239
 30
0.0
 11
346.00000146776438
 21
110.8000002219341
 31
0.0
  0
LINE
  5
D8C2
  8
0
 10
362.0000022277236
 20
110.8000002219341
 30
0.0
 11
363.0000014603138
 21
111.8000002112239
 31
0.0
  0
LINE
  5
D8C5
  8
0
 10
344.62564595043659
 20
110.8000002219341
 30
0.0
 11
339.12564598023891
 21
110.8000002219341
 31
0.0
  0
LINE
  5
D8C7
  8
0
 10
344.62564595043659
 20
113.80000030621881
 30
0.0
 11
339.12564598023891
 21
113.80000030621881
 31
0.0
  0
LINE
  5
D8CA
  8
0
 10
368.87435771524912
 20
110.8000002219341
 30
0.0
 11
363.37435774505138
 21
110.8000002219341
 31
0.0
  0
LINE
  5
D8CC
  8
0
 10
368.87435771524912
 20
113.80000030621881
 30
0.0
 11
363.37435774505138
 21
113.80000030621881
 31
0.0
  0
LINE
  5
D8CD
  8
0
 10
356.75000183284283
 20
110.8000002219341
 30
0.0
 11
351.25000186264521
 21
110.8000002219341
 31
0.0
  0
LINE
  5
D8CE
  8
0
 10
356.75000183284283
 20
113.80000030621881
 30
0.0
 11
351.25000186264521
 21
113.80000030621881
 31
0.0
  0
POLYLINE
  5
D8D8
  8
0
 66
     1
 10
0.0
 20
0.0
 30
0.0
 70
   128
  0
VERTEX
  5
1158E
  8
0
 10
344.02955386787647
 20
133.71237684041259
 30
0.0
  0
VERTEX
  5
1158F
  8
0
 10
344.27713200449938
 20
138.06801978498689
 30
0.0
  0
VERTEX
  5
11590
  8
0
 10
344.47209320962429
 20
141.4919508621096
 30
0.0
  0
SEQEND
  5
11591
  8
0
  0
ARC
  5
D8DF
  8
0
 10
361.22831236399452
 20
105.97851843744149
 30
0.0
 40
41.066263351340467
 50
94.420033259946266
 51
112.4217549716563
  0
LINE
  5
D8E7
  8
0
 10
345.41905827820301
 20
143.9460100606083
 30
0.0
 11
345.56476090103388
 21
143.94022468477479
 31
0.0
  0
ARC
  5
D8EA
  8
0
 10
355.5542396930357
 20
228.73392547759781
 30
0.0
 40
81.774688798261906
 50
267.6842413778067
 51
269.00231912256532
  0
LINE
  5
D8F8
  8
0
 10
365.01501563936472
 20
133.156001009047
 30
0.0
 11
342.98498805612331
 21
133.156001009047
 31
0.0
  0
ARC
  5
D8F9
  8
0
 10
348.12845136710422
 20
141.49078187730041
 30
0.0
 40
3.6563583443496239
 50
137.81740642034919
 51
179.98168180174969
  0
ARC
  5
D8FA
  8
0
 10
344.54299562826782
 20
163.06204494845809
 30
0.0
 40
19.136098756018679
 50
272.2134978922133
 51
272.6239539828112
  0
POLYLINE
  5
D900
  8
0
 66
     1
 10
0.0
 20
0.0
 30
0.0
 70
   128
  0
VERTEX
  5
11592
  8
0
 10
352.25000179372728
 20
147.02602047473189
 30
0.0
  0
VERTEX
  5
11593
  8
0
 10
351.34719864465302
 20
146.97945434600109
 30
0.0
  0
VERTEX
  5
11594
  8
0
 10
351.0883647700162
 20
146.97196284365279
 30
0.0
  0
SEQEND
  5
11595
  8
0
  0
LINE
  5
D90B
  8
0
 10
350.5649118963629
 20
146.969567425549
 30
0.0
 11
351.08835243619978
 21
146.97196278721091
 31
0.0
  0
POLYLINE
  5
D90C
  8
0
 66
     1
 10
0.0
 20
0.0
 30
0.0
 70
   128
  0
VERTEX
  5
11596
  8
0
 10
354.13038402373559
 20
146.9716336611034
 30
0.0
  0
VERTEX
  5
11597
  8
0
 10
355.04025959409768
 20
146.9926754012703
 30
0.0
  0
VERTEX
  5
11598
  8
0
 10
355.7500019017607
 20
147.02687729150051
 30
0.0
  0
SEQEND
  5
11599
  8
0
  0
ARC
  5
D90D
  8
0
 10
357.887559355966
 20
180.31220368743831
 30
0.0
 40
33.353891904156328
 50
266.32555587508011
 51
268.40227147486411
  0
POLYLINE
  5
D90E
  8
0
 66
     1
 10
0.0
 20
0.0
 30
0.0
 70
   128
  0
VERTEX
  5
1159A
  8
0
 10
357.43897099047899
 20
146.96955252438781
 30
0.0
  0
VERTEX
  5
1159B
  8
0
 10
357.32761973515147
 20
146.97100166231391
 30
0.0
  0
VERTEX
  5
1159C
  8
0
 10
357.0310908183456
 20
146.9725737348198
 30
0.0
  0
SEQEND
  5
1159D
  8
0
  0
ARC
  5
D922
  8
0
 10
357.44771244065578
 20
105.21880859173351
 30
0.0
 40
0.5584889073602711
 50
298.72540195000499
 51
351.45514713074158
  0
LINE
  5
D923
  8
0
 10
357.7161290962249
 20
104.7290511429309
 30
0.0
 11
357.46410342864692
 21
104.7298199497163
 31
0.0
  0
LINE
  5
D924
  8
0
 10
357.46410342864692
 20
104.7298199497163
 30
0.0
 11
357.46410342864692
 21
104.72732074558731
 31
0.0
  0
POLYLINE
  5
D925
  8
0
 66
     1
 10
0.0
 20
0.0
 30
0.0
 70
   128
  0
VERTEX
  5
1159E
  8
0
 10
356.47376107983291
 20
102.9560001567006
 30
0.0
  0
VERTEX
  5
1159F
  8
0
 10
356.47949616424739
 20
103.1237853690981
 30
0.0
  0
VERTEX
  5
115A0
  8
0
 10
356.60609037615359
 20
103.7517379969358
 30
0.0
  0
VERTEX
  5
115A1
  8
0
 10
356.87261673621828
 20
104.2886743322014
 30
0.0
  0
VERTEX
  5
115A2
  8
0
 10
357.13491163216531
 20
104.5827515423297
 30
0.0
  0
VERTEX
  5
115A3
  8
0
 10
357.3670998960734
 20
104.7131045721471
 30
0.0
  0
VERTEX
  5
115A4
  8
0
 10
357.46410342864692
 20
104.72732074558731
 30
0.0
  0
SEQEND
  5
115A5
  8
0
  0
LINE
  5
D926
  8
0
 10
356.47376107983291
 20
102.9560001567006
 30
0.0
 11
356.47376107983291
 21
101.2560002505779
 31
0.0
  0
LINE
  5
D927
  8
0
 10
350.00000165775418
 20
101.2560002505779
 30
0.0
 11
356.47376107983291
 21
101.2560002505779
 31
0.0
  0
POLYLINE
  5
D928
  8
0
 66
     1
 10
0.0
 20
0.0
 30
0.0
 70
   128
  0
VERTEX
  5
115A6
  8
0
 10
352.76963799726218
 20
102.86740157753221
 30
0.0
  0
VERTEX
  5
115A7
  8
0
 10
351.82942303828901
 20
102.5891186669468
 30
0.0
  0
VERTEX
  5
115A8
  8
0
 10
351.03255550377071
 20
102.30652559548609
 30
0.0
  0
VERTEX
  5
115A9
  8
0
 10
350.44080198742449
 20
102.0277835428714
 30
0.0
  0
VERTEX
  5
115AA
  8
0
 10
350.05482582375407
 20
101.69781036674971
 30
0.0
  0
VERTEX
  5
115AB
  8
0
 10
350.00000165775418
 20
101.5193633735179
 30
0.0
  0
SEQEND
  5
115AC
  8
0
  0
LINE
  5
D929
  8
0
 10
352.80734177678818
 20
102.86740157753221
 30
0.0
 11
352.76963799726218
 21
102.86740157753221
 31
0.0
  0
LINE
  5
D92A
  8
0
 10
353.1754075596109
 20
102.86740157753221
 30
0.0
 11
352.80734177678818
 21
102.86740157753221
 31
0.0
  0
POLYLINE
  5
D92B
  8
0
 66
     1
 10
0.0
 20
0.0
 30
0.0
 70
   128
  0
VERTEX
  5
115AD
  8
0
 10
353.52299446123652
 20
102.7726865373551
 30
0.0
  0
VERTEX
  5
115AE
  8
0
 10
353.32752385176718
 20
102.8258846141397
 30
0.0
  0
VERTEX
  5
115AF
  8
0
 10
353.1754075596109
 20
102.86740157753221
 30
0.0
  0
SEQEND
  5
115B0
  8
0
  0
POLYLINE
  5
D92C
  8
0
 66
     1
 10
0.0
 20
0.0
 30
0.0
 70
   128
  0
VERTEX
  5
115B1
  8
0
 10
354.45211763028061
 20
106.13995501771559
 30
0.0
  0
VERTEX
  5
115B2
  8
0
 10
354.77553115226328
 20
105.9616472572088
 30
0.0
  0
VERTEX
  5
115B3
  8
0
 10
355.09861463680858
 20
105.64162107184519
 30
0.0
  0
VERTEX
  5
115B4
  8
0
 10
355.35940893925732
 20
105.1651108078658
 30
0.0
  0
VERTEX
  5
115B5
  8
0
 10
355.48428416252142
 20
104.5522758737206
 30
0.0
  0
VERTEX
  5
115B6
  8
0
 10
355.41364497505128
 20
103.906400874257
 30
0.0
  0
VERTEX
  5
115B7
  8
0
 10
355.14275990892202
 20
103.3221570774912
 30
0.0
  0
VERTEX
  5
115B8
  8
0
 10
354.68951437389478
 20
102.88258166983719
 30
0.0
  0
VERTEX
  5
115B9
  8
0
 10
354.48232330265461
 20
102.7749664150178
 30
0.0
  0
VERTEX
  5
115BA
  8
0
 10
354.0863965175231
 20
102.6807091198861
 30
0.0
  0
VERTEX
  5
115BB
  8
0
 10
353.67979411268612
 20
102.71985772997139
 30
0.0
  0
VERTEX
  5
115BC
  8
0
 10
353.52299446123652
 20
102.7726865373551
 30
0.0
  0
SEQEND
  5
115BD
  8
0
  0
LINE
  5
D92D
  8
0
 10
354.19379655679222
 20
106.20974833145731
 30
0.0
 11
354.45211763028061
 21
106.13995501771559
 31
0.0
  0
POLYLINE
  5
D92E
  8
0
 66
     1
 10
0.0
 20
0.0
 30
0.0
 70
   128
  0
VERTEX
  5
115BE
  8
0
 10
353.75503123970702
 20
106.3266106881201
 30
0.0
  0
VERTEX
  5
115BF
  8
0
 10
354.0002166276463
 20
106.2615675851702
 30
0.0
  0
VERTEX
  5
115C0
  8
0
 10
354.19379655679222
 20
106.20974833145731
 30
0.0
  0
SEQEND
  5
115C1
  8
0
  0
POLYLINE
  5
D92F
  8
0
 66
     1
 10
0.0
 20
0.0
 30
0.0
 70
   128
  0
VERTEX
  5
115C2
  8
0
 10
353.30540913157171
 20
106.4117475412786
 30
0.0
  0
VERTEX
  5
115C3
  8
0
 10
353.42053550295532
 20
106.4062036108225
 30
0.0
  0
VERTEX
  5
115C4
  8
0
 10
353.75503123970702
 20
106.3266106881201
 30
0.0
  0
SEQEND
  5
115C5
  8
0
  0
LINE
  5
D930
  8
0
 10
353.30540913157171
 20
106.4117475412786
 30
0.0
 11
352.631921232678
 21
106.4117475412786
 31
0.0
  0
LINE
  5
D931
  8
0
 10
352.631921232678
 20
106.4117475412786
 30
0.0
 11
352.631921232678
 21
106.40731118619441
 31
0.0
  0
POLYLINE
  5
D932
  8
0
 66
     1
 10
0.0
 20
0.0
 30
0.0
 70
   128
  0
VERTEX
  5
115C6
  8
0
 10
352.21656731329858
 20
106.3243038021028
 30
0.0
  0
VERTEX
  5
115C7
  8
0
 10
352.24433190189302
 20
106.3355830498039
 30
0.0
  0
VERTEX
  5
115C8
  8
0
 10
352.631921232678
 20
106.40731118619441
 30
0.0
  0
SEQEND
  5
115C9
  8
0
  0
POLYLINE
  5
D933
  8
0
 66
     1
 10
0.0
 20
0.0
 30
0.0
 70
   128
  0
VERTEX
  5
115CA
  8
0
 10
350.14437714591622
 20
104.8488057218492
 30
0.0
  0
VERTEX
  5
115CB
  8
0
 10
350.11463698931038
 20
104.8788054846227
 30
0.0
  0
VERTEX
  5
115CC
  8
0
 10
350.08701279759413
 20
104.9123363569378
 30
0.0
  0
VERTEX
  5
115CD
  8
0
 10
350.06315371021628
 20
104.9458397552371
 30
0.0
  0
VERTEX
  5
115CE
  8
0
 10
350.0268055871129
 20
105.0126719288527
 30
0.0
  0
VERTEX
  5
115CF
  8
0
 10
350.01437010243541
 20
105.04591083154079
 30
0.0
  0
VERTEX
  5
115D0
  8
0
 10
350.00577399507171
 20
105.0790011882781
 30
0.0
  0
VERTEX
  5
115D1
  8
0
 10
350.00000165775418
 20
105.1447539590299
 30
0.0
  0
VERTEX
  5
115D2
  8
0
 10
350.00312298536301
 20
105.17774140462269
 30
0.0
  0
VERTEX
  5
115D3
  8
0
 10
350.0099547021091
 20
105.2108950912952
 30
0.0
  0
VERTEX
  5
115D4
  8
0
 10
350.03515116870398
 20
105.2776113152503
 30
0.0
  0
VERTEX
  5
115D5
  8
0
 10
350.0756199285388
 20
105.3446311503648
 30
0.0
  0
VERTEX
  5
115D6
  8
0
 10
350.10152233764529
 20
105.3781648166477
 30
0.0
  0
VERTEX
  5
115D7
  8
0
 10
350.16459429636598
 20
105.44518977403639
 30
0.0
  0
VERTEX
  5
115D8
  8
0
 10
350.24247335270047
 20
105.5119162425398
 30
0.0
  0
VERTEX
  5
115D9
  8
0
 10
350.28686484321952
 20
105.5450778454542
 30
0.0
  0
VERTEX
  5
115DA
  8
0
 10
350.38644837215543
 20
105.61091955751181
 30
0.0
  0
VERTEX
  5
115DB
  8
0
 10
350.44147626496851
 20
105.6438217870891
 30
0.0
  0
VERTEX
  5
115DC
  8
0
 10
350.49991559237242
 20
105.6769042275846
 30
0.0
  0
VERTEX
  5
115DD
  8
0
 10
350.62686184421182
 20
105.7435180060565
 30
0.0
  0
VERTEX
  5
115DE
  8
0
 10
350.76676093041903
 20
105.81049034371971
 30
0.0
  0
VERTEX
  5
115DF
  8
0
 10
350.84137476980692
 20
105.8440207503736
 30
0.0
  0
VERTEX
  5
115E0
  8
0
 10
350.99972871132201
 20
105.9110792353749
 30
0.0
  0
VERTEX
  5
115E1
  8
0
 10
351.16968972608453
 20
105.97789464518419
 30
0.0
  0
VERTEX
  5
115E2
  8
0
 10
351.2587963417173
 20
106.0111205093562
 30
0.0
  0
VERTEX
  5
115E3
  8
0
 10
351.44503384828568
 20
106.0771186836063
 30
0.0
  0
VERTEX
  5
115E4
  8
0
 10
351.54188906773931
 20
106.10993895679709
 30
0.0
  0
VERTEX
  5
115E5
  8
0
 10
351.59119235351682
 20
106.126417312771
 30
0.0
  0
VERTEX
  5
115E6
  8
0
 10
351.64106723852461
 20
106.14293990656731
 30
0.0
  0
VERTEX
  5
115E7
  8
0
 10
351.74249618314212
 20
106.17610802873961
 30
0.0
  0
VERTEX
  5
115E8
  8
0
 10
351.84607159346342
 20
106.2094093300402
 30
0.0
  0
VERTEX
  5
115E9
  8
0
 10
351.89862868748611
 20
106.2260986305773
 30
0.0
  0
VERTEX
  5
115EA
  8
0
 10
352.00524533167481
 20
106.2595433555543
 30
0.0
  0
VERTEX
  5
115EB
  8
0
 10
352.11001621093601
 20
106.2918965704739
 30
0.0
  0
VERTEX
  5
115EC
  8
0
 10
352.21656731329858
 20
106.3243038021028
 30
0.0
  0
SEQEND
  5
115ED
  8
0
  0
LINE
  5
D937
  8
0
 10
356.37796151451772
 20
99.997180886566625
 30
0.0
 11
356.47376107983291
 21
101.2560002505779
 31
0.0
  0
ARC
  5
D93C
  8
0
 10
355.41183362046468
 20
99.911864605559785
 30
0.0
 40
0.9698876097114954
 50
318.4032606688433
 51
5.0465527622702959
  0
LINE
  5
D93D
  8
0
 10
356.13715036772192
 20
99.267972074449062
 30
0.0
 11
356.10989102162421
 21
99.25599992275238
 31
0.0
  0
LINE
  5
D93E
  8
0
 10
356.69677647490272
 20
99.25599992275238
 30
0.0
 11
351.30322718061512
 21
99.25599992275238
 31
0.0
  0
POLYLINE
  5
D95F
  8
0
 66
     1
 10
0.0
 20
0.0
 30
0.0
 70
   128
  0
VERTEX
  5
115EE
  8
0
 10
357.7161290962249
 20
104.7290511429309
 30
0.0
  0
VERTEX
  5
115EF
  8
0
 10
357.15650131925941
 20
104.1319741867482
 30
0.0
  0
VERTEX
  5
115F0
  8
0
 10
356.60427569411701
 20
103.52519098669291
 30
0.0
  0
SEQEND
  5
115F1
  8
0
  0
LINE
  5
D961
  8
0
 10
356.62410005927092
 20
102.3995786905288
 30
0.0
 11
356.47376107983291
 21
102.5629722513258
 31
0.0
  0
LINE
  5
D962
  8
0
 10
356.62410005927092
 20
102.3995786905288
 30
0.0
 11
356.63506708107889
 21
102.390599809587
 31
0.0
  0
LINE
  5
D963
  8
0
 10
356.63506708107889
 20
102.390599809587
 30
0.0
 11
356.70283569954341
 21
102.3363605141639
 31
0.0
  0
LINE
  5
D968
  8
0
 10
356.70283569954341
 20
102.3363605141639
 30
0.0
 11
356.9951028842479
 21
102.1161343902349
 31
0.0
  0
POLYLINE
  5
D969
  8
0
 66
     1
 10
0.0
 20
0.0
 30
0.0
 70
   128
  0
VERTEX
  5
115F2
  8
0
 10
356.99513943865901
 20
102.1159732714295
 30
0.0
  0
VERTEX
  5
115F3
  8
0
 10
357.39751758985221
 20
101.81455351412291
 30
0.0
  0
VERTEX
  5
115F4
  8
0
 10
358.00000203773379
 20
101.33260272574169
 30
0.0
  0
SEQEND
  5
115F5
  8
0
  0
LINE
  5
D973
  8
0
 10
370.50000175833702
 20
116.30000025033949
 30
0.0
 11
337.50000193715101
 21
116.30000025033949
 31
0.0
  0
ARC
  5
D975
  8
0
 10
354.38348804698899
 20
95.582029199243223
 30
0.0
 40
37.834237439076439
 50
108.2366066510854
 51
110.8579620911095
  0
ARC
  5
D976
  8
0
 10
347.59693330477103
 20
112.61050377261211
 30
0.0
 40
19.507329985238538
 50
110.039136130258
 51
114.2048759213388
  0
POLYLINE
  5
D977
  8
0
 66
     1
 10
0.0
 20
0.0
 30
0.0
 70
   128
  0
VERTEX
  5
115F6
  8
0
 10
339.46764066815382
 20
130.24309780448669
 30
0.0
  0
VERTEX
  5
115F7
  8
0
 10
339.40220780670637
 20
130.25233279913661
 30
0.0
  0
VERTEX
  5
115F8
  8
0
 10
339.43045854568481
 20
130.3080389276146
 30
0.0
  0
VERTEX
  5
115F9
  8
0
 10
339.59891524165869
 20
130.40285129100079
 30
0.0
  0
SEQEND
  5
115FA
  8
0
  0
ARC
  5
D978
  8
0
 10
339.04795079076962
 20
134.44245155419571
 30
0.0
 40
4.2202738665131614
 50
275.70727672504
 51
286.87885874940758
  0
ARC
  5
D979
  8
0
 10
335.57763218801551
 20
147.4793418829905
 30
0.0
 40
17.709240088241121
 50
285.37608886529
 51
290.92879769133862
  0
ARC
  5
D97A
  8
0
 10
338.48722840789679
 20
140.47740262718079
 30
0.0
 40
10.132236891646411
 50
289.704493578192
 51
297.83321303511531
  0
POLYLINE
  5
D97B
  8
0
 66
     1
 10
0.0
 20
0.0
 30
0.0
 70
   128
  0
VERTEX
  5
115FB
  8
0
 10
343.3492366969586
 20
131.71655442565671
 30
0.0
  0
VERTEX
  5
115FC
  8
0
 10
343.41460436582571
 20
131.70424234122029
 30
0.0
  0
VERTEX
  5
115FD
  8
0
 10
343.3885645866394
 20
131.6350376233458
 30
0.0
  0
VERTEX
  5
115FE
  8
0
 10
343.21796305477619
 20
131.51735942810771
 30
0.0
  0
SEQEND
  5
115FF
  8
0
  0
ARC
  5
D97C
  8
0
 10
343.67694025474339
 20
128.68243393389699
 30
0.0
 40
3.0517661739231539
 50
96.164398599298792
 51
111.80078262563001
  0
LINE
  5
D984
  8
0
 10
344.67632852494722
 20
132.3000000789761
 30
0.0
 11
363.32367517054081
 21
132.3000000789761
 31
0.0
  0
LINE
  5
D985
  8
0
 10
345.00000223517418
 20
111.8000002112239
 30
0.0
 11
351.25000186264521
 21
111.8000002112239
 31
0.0
  0
LINE
  5
D986
  8
0
 10
356.75000183284283
 20
111.8000002112239
 30
0.0
 11
363.0000014603138
 21
111.8000002112239
 31
0.0
  0
LINE
  5
D987
  8
0
 10
362.0000022277236
 20
110.8000002219341
 30
0.0
 11
356.75000183284283
 21
110.8000002219341
 31
0.0
  0
LINE
  5
D988
  8
0
 10
351.25000186264521
 20
110.8000002219341
 30
0.0
 11
346.00000146776438
 21
110.8000002219341
 31
0.0
  0
ARC
  5
D993
  8
0
 10
345.68782064884272
 20
118.13042253902221
 30
0.0
 40
13.634631826391921
 50
109.7911072784286
 51
114.6493138098172
  0
ARC
  5
D994
  8
0
 10
350.69075830079049
 20
105.8749434705191
 30
0.0
 40
26.865966429816989
 50
108.0510228855581
 51
110.9808399293817
  0
ARC
  5
D995
  8
0
 10
343.23346898338559
 20
129.08706212797881
 30
0.0
 40
2.4876882975845871
 50
97.113988552897737
 51
110.4089113075193
  0
POLYLINE
  5
D996
  8
0
 66
     1
 10
0.0
 20
0.0
 30
0.0
 70
   128
  0
VERTEX
  5
11600
  8
0
 10
342.81555999070412
 20
131.4195239916443
 30
0.0
  0
VERTEX
  5
11601
  8
0
 10
342.95840624719858
 20
131.5187079831957
 30
0.0
  0
VERTEX
  5
11602
  8
0
 10
342.96664472669357
 20
131.54592122882599
 30
0.0
  0
VERTEX
  5
11603
  8
0
 10
342.9253843426705
 20
131.55559953302139
 30
0.0
  0
SEQEND
  5
11604
  8
0
  0
ARC
  5
D997
  8
0
 10
338.81683490966202
 20
139.2724588018167
 30
0.0
 40
8.8123996395176647
 50
289.41145524681002
 51
296.98525628203851
  0
ARC
  5
D998
  8
0
 10
335.96993370745872
 20
145.91573638263159
 30
0.0
 40
16.031318408971671
 50
286.23119334361741
 51
291.11714845369971
  0
ARC
  5
D999
  8
0
 10
339.61038507037301
 20
133.09047134053239
 30
0.0
 40
2.7011733933691668
 50
275.97354034197571
 51
288.12976379531977
  0
POLYLINE
  5
D99A
  8
0
 66
     1
 10
0.0
 20
0.0
 30
0.0
 70
   128
  0
VERTEX
  5
11605
  8
0
 10
340.0013173744083
 20
130.52263241261241
 30
0.0
  0
VERTEX
  5
11606
  8
0
 10
339.85809672623873
 20
130.43525386601681
 30
0.0
  0
VERTEX
  5
11607
  8
0
 10
339.85034719109541
 20
130.41206393390891
 30
0.0
  0
VERTEX
  5
11608
  8
0
 10
339.8914939537645
 20
130.4039651528
 30
0.0
  0
SEQEND
  5
11609
  8
0
  0
POLYLINE
  5
D9A8
  8
0
 66
     1
 10
0.0
 20
0.0
 30
0.0
 70
   128
  0
VERTEX
  5
1160A
  8
0
 10
349.35403725132352
 20
146.89625371247519
 30
0.0
  0
VERTEX
  5
1160B
  8
0
 10
348.97747838869691
 20
146.86668235808611
 30
0.0
  0
VERTEX
  5
1160C
  8
0
 10
348.02719129249448
 20
146.72042746096841
 30
0.0
  0
VERTEX
  5
1160D
  8
0
 10
347.05903304740792
 20
146.42813373357049
 30
0.0
  0
VERTEX
  5
1160E
  8
0
 10
346.30623104050761
 20
146.01804260164491
 30
0.0
  0
VERTEX
  5
1160F
  8
0
 10
345.81336628645658
 20
145.50784919410941
 30
0.0
  0
VERTEX
  5
11610
  8
0
 10
345.48930421471601
 20
144.87844649702311
 30
0.0
  0
VERTEX
  5
11611
  8
0
 10
345.29933955520391
 20
144.14932895451781
 30
0.0
  0
VERTEX
  5
11612
  8
0
 10
345.28209332376719
 20
143.94022468477479
 30
0.0
  0
SEQEND
  5
11613
  8
0
  0
LINE
  5
D9B4
  8
0
 10
337.65798218548298
 20
129.8097087070345
 30
0.0
 11
370.342021510005
 21
129.8097087070345
 31
0.0
  0
LINE
  5
D9B9
  8
1
 10
522.00000554323185
 20
94.255999922752366
 30
0.0
 11
522.00000554323185
 21
152.02687729150091
 31
0.0
  0
LINE
  5
D9C9
  8
0
 10
536.87436141073704
 20
110.8000002219341
 30
0.0
 11
536.87436141073704
 21
113.80000030621881
 31
0.0
  0
LINE
  5
D9CA
  8
0
 10
531.37436144053925
 20
113.80000030621881
 30
0.0
 11
531.37436144053925
 21
110.8000002219341
 31
0.0
  0
LINE
  5
D9CB
  8
0
 10
535.62436074018478
 20
113.80000030621881
 30
0.0
 11
535.62436074018478
 21
116.30000025033949
 31
0.0
  0
LINE
  5
D9CC
  8
0
 10
532.62436117976904
 20
116.30000025033949
 30
0.0
 11
532.62436117976904
 21
113.80000030621881
 31
0.0
  0
LINE
  5
D9CD
  8
0
 10
512.62564964592445
 20
110.8000002219341
 30
0.0
 11
512.62564964592445
 21
113.80000030621881
 31
0.0
  0
LINE
  5
D9CE
  8
0
 10
507.12564967572689
 20
113.80000030621881
 30
0.0
 11
507.12564967572689
 21
110.8000002219341
 31
0.0
  0
LINE
  5
D9CF
  8
0
 10
511.37564990669489
 20
113.80000030621881
 30
0.0
 11
511.37564990669489
 21
116.30000025033949
 31
0.0
  0
LINE
  5
D9D0
  8
0
 10
508.37565034627909
 20
116.30000025033949
 30
0.0
 11
508.37565034627909
 21
113.80000030621881
 31
0.0
  0
POLYLINE
  5
D9D2
  8
0
 66
     1
 10
0.0
 20
0.0
 30
0.0
 70
   128
  0
VERTEX
  5
11614
  8
0
 10
510.96233174204821
 20
141.40835534781209
 30
0.0
  0
VERTEX
  5
11615
  8
0
 10
510.80699644982809
 20
138.80723472684619
 30
0.0
  0
VERTEX
  5
11616
  8
0
 10
510.49552679061901
 20
133.69378950446841
 30
0.0
  0
SEQEND
  5
11617
  8
0
  0
ARC
  5
D9D3
  8
0
 10
516.48472670208685
 20
141.23417301920611
 30
0.0
 40
5.5251412269967561
 50
92.731890955721155
 51
178.1934278752245
  0
LINE
  5
D9D4
  8
0
 10
518.5008564312011
 20
146.9643520191311
 30
0.0
 11
517.36693883314729
 21
146.8972595408558
 31
0.0
  0
ARC
  5
D9D5
  8
0
 10
510.99423099742978
 20
133.65604609425631
 30
0.0
 40
0.5001304338922004
 50
175.6719368496021
 51
268.9414763224172
  0
LINE
  5
D9D6
  8
0
 10
529.5000053755939
 20
132.3000000789761
 30
0.0
 11
529.5000053755939
 21
133.156001009047
 31
0.0
  0
LINE
  5
D9D7
  8
0
 10
514.50000571087003
 20
133.156001009047
 30
0.0
 11
514.50000571087003
 21
132.3000000789761
 31
0.0
  0
POLYLINE
  5
D9D8
  8
0
 66
     1
 10
0.0
 20
0.0
 30
0.0
 70
   128
  0
VERTEX
  5
11618
  8
0
 10
533.0153788253665
 20
141.78178030997509
 30
0.0
  0
VERTEX
  5
11619
  8
0
 10
532.99740243703116
 20
141.87125060707331
 30
0.0
  0
VERTEX
  5
1161A
  8
0
 10
532.90006618946791
 20
142.51663107424969
 30
0.0
  0
VERTEX
  5
1161B
  8
0
 10
532.72856686264265
 20
143.15409157425159
 30
0.0
  0
VERTEX
  5
1161C
  8
0
 10
532.47064452618361
 20
143.7782267108559
 30
0.0
  0
VERTEX
  5
1161D
  8
0
 10
532.07997798919666
 20
144.430905021727
 30
0.0
  0
VERTEX
  5
1161E
  8
0
 10
531.59898992627859
 20
145.00550497323269
 30
0.0
  0
VERTEX
  5
1161F
  8
0
 10
531.03165149688721
 20
145.5034533515572
 30
0.0
  0
VERTEX
  5
11620
  8
0
 10
530.42969301342964
 20
145.89641559869051
 30
0.0
  0
VERTEX
  5
11621
  8
0
 10
529.79511775076389
 20
146.2092319503426
 30
0.0
  0
VERTEX
  5
11622
  8
0
 10
529.04601076617826
 20
146.4824298396706
 30
0.0
  0
VERTEX
  5
11623
  8
0
 10
528.16871095448732
 20
146.7033209279179
 30
0.0
  0
VERTEX
  5
11624
  8
0
 10
527.25745419040322
 20
146.84249032288781
 30
0.0
  0
VERTEX
  5
11625
  8
0
 10
526.64597013965249
 20
146.89625371247519
 30
0.0
  0
SEQEND
  5
11626
  8
0
  0
POLYLINE
  5
D9D9
  8
0
 66
     1
 10
0.0
 20
0.0
 30
0.0
 70
   128
  0
VERTEX
  5
11627
  8
0
 10
533.50472271442379
 20
133.69050938636059
 30
0.0
  0
VERTEX
  5
11628
  8
0
 10
533.19301463663567
 20
138.80723472684619
 30
0.0
  0
VERTEX
  5
11629
  8
0
 10
533.0153788253665
 20
141.78178030997509
 30
0.0
  0
SEQEND
  5
1162A
  8
0
  0
LINE
  5
D9DA
  8
0
 10
526.64597013965249
 20
146.89625371247519
 30
0.0
 11
525.43509549461305
 21
146.969567425549
 31
0.0
  0
ARC
  5
D9DC
  8
0
 10
533.00577874315809
 20
133.6560482730701
 30
0.0
 40
0.5001326371992088
 50
271.05867322525222
 51
3.951036060042358
  0
LINE
  5
D9DD
  8
0
 10
526.00000573322166
 20
105.13582630082961
 30
0.0
 11
526.00000573322166
 21
110.8000002219341
 31
0.0
  0
LINE
  5
D9DE
  8
0
 10
526.00000573322166
 20
101.2560002505779
 30
0.0
 11
526.00000573322166
 21
101.5193633735179
 31
0.0
  0
LINE
  5
D9DF
  8
0
 10
518.00000535324205
 20
101.5193633735179
 30
0.0
 11
518.00000535324205
 21
101.2560002505779
 31
0.0
  0
LINE
  5
D9E0
  8
0
 10
518.00000535324205
 20
110.8000002219341
 30
0.0
 11
518.00000535324205
 21
105.1447539590299
 31
0.0
  0
LINE
  5
D9E1
  8
0
 10
518.00000535324205
 20
101.2560002505779
 30
0.0
 11
518.33730501122773
 21
99.997180886566625
 31
0.0
  0
ARC
  5
D9E2
  8
0
 10
519.30323091607329
 20
100.2560001981854
 30
0.0
 40
1.0
 50
195.00000000000071
 51
270.0
  0
LINE
  5
D9E3
  8
0
 10
519.37570733018219
 20
103.1002885662019
 30
0.0
 11
518.05482951924205
 21
101.69781036674971
 31
0.0
  0
ARC
  5
D9E4
  8
0
 10
485.40976279382602
 20
72.612375468069203
 30
0.0
 40
45.941499233940917
 50
42.340479223349469
 51
44.562483263184973
  0
ARC
  5
D9E5
  8
0
 10
519.12247845238608
 20
103.32353477001131
 30
0.0
 40
0.3375851478741004
 50
318.6006471175603
 51
43.421697794510301
  0
ARC
  5
D9E7
  8
0
 10
524.69678017039087
 20
100.2560001981854
 30
0.0
 40
1.0
 50
270.0
 51
345.00000000000108
  0
LINE
  5
D9E8
  8
0
 10
525.88149377144873
 20
101.7806533724069
 30
0.0
 11
524.62430375628173
 21
103.1002885662019
 31
0.0
  0
ARC
  5
D9E9
  8
0
 10
524.96560725109089
 20
103.331653038561
 30
0.0
 40
0.4123318986435331
 50
154.65601563293649
 51
214.13275100824691
  0
LINE
  5
D9EA
  8
0
 10
525.6627060752362
 20
99.997180886566625
 30
0.0
 11
526.00000573322166
 21
101.2560002505779
 31
0.0
  0
LINE
  5
D9EB
  8
0
 10
505.00000461935991
 20
116.8000003322958
 30
0.0
 11
505.50000563263887
 21
116.30000025033949
 31
0.0
  0
LINE
  5
D9EC
  8
0
 10
538.500005453825
 20
116.30000025033949
 30
0.0
 11
539.00000646710384
 21
116.8000003322958
 31
0.0
  0
ARC
  5
D9ED
  8
0
 10
506.00000554323191
 20
128.87001590297919
 30
0.0
 40
1.00000000000001
 50
110.0000000000035
 51
179.9999999999996
  0
ARC
  5
D9EE
  8
0
 10
538.00000575717922
 20
128.8700163602719
 30
0.0
 40
0.9999997860530721
 50
359.99997379905579
 51
69.999987774519184
  0
LINE
  5
D9EF
  8
0
 10
539.00000646710384
 20
116.8000003322958
 30
0.0
 11
539.00000646710384
 21
128.87001540511841
 31
0.0
  0
LINE
  5
D9F0
  8
0
 10
505.00000461935991
 20
128.87001540511841
 30
0.0
 11
505.00000461935991
 21
116.8000003322958
 31
0.0
  0
LINE
  5
D9F1
  8
0
 10
538.34202602783739
 20
129.80970870703459
 30
0.0
 11
531.66569869965315
 21
132.2396932169795
 31
0.0
  0
LINE
  5
D9F4
  8
0
 10
512.33431238681067
 20
132.2396932169795
 30
0.0
 11
505.6579858809709
 21
129.8097087070345
 31
0.0
  0
ARC
  5
D9F7
  8
0
 10
512.67633252394046
 20
131.30000019818539
 30
0.0
 40
1.0000000000000071
 50
90.0
 51
110.0000000000035
  0
ARC
  5
D9F8
  8
0
 10
531.32367856252347
 20
131.30000019818539
 30
0.0
 40
1.0
 50
69.999999999996504
 51
90.0
  0
ARC
  5
D9F9
  8
0
 10
531.40000554323206
 20
115.9000001981854
 30
0.0
 40
0.4000000000000057
 50
90.0
 51
179.9999999999996
  0
ARC
  5
D9FA
  8
0
 10
512.6000055432321
 20
115.9000001981854
 30
0.0
 40
0.4000000000000341
 50
0.0000000000004071
 51
90.0
  0
LINE
  5
D9FB
  8
0
 10
531.00000515580166
 20
111.8000002112239
 30
0.0
 11
531.00000515580166
 21
115.8999999985098
 31
0.0
  0
LINE
  5
D9FC
  8
0
 10
513.00000593066216
 20
115.8999999985098
 30
0.0
 11
513.00000593066216
 21
111.8000002112239
 31
0.0
  0
LINE
  5
D9FD
  8
0
 10
513.00000593066216
 20
111.8000002112239
 30
0.0
 11
514.00000516325235
 21
110.8000002219341
 31
0.0
  0
LINE
  5
D9FE
  8
0
 10
530.00000592321146
 20
110.8000002219341
 30
0.0
 11
531.00000515580166
 21
111.8000002112239
 31
0.0
  0
LINE
  5
DA01
  8
0
 10
536.87436141073704
 20
110.8000002219341
 30
0.0
 11
531.37436144053925
 21
110.8000002219341
 31
0.0
  0
LINE
  5
DA02
  8
0
 10
536.87436141073704
 20
113.80000030621881
 30
0.0
 11
531.37436144053925
 21
113.80000030621881
 31
0.0
  0
LINE
  5
DA03
  8
0
 10
512.62564964592445
 20
110.8000002219341
 30
0.0
 11
507.12564967572689
 21
110.8000002219341
 31
0.0
  0
LINE
  5
DA04
  8
0
 10
512.62564964592445
 20
113.80000030621881
 30
0.0
 11
507.12564967572689
 21
113.80000030621881
 31
0.0
  0
POLYLINE
  5
DA0E
  8
0
 66
     1
 10
0.0
 20
0.0
 30
0.0
 70
   128
  0
VERTEX
  5
1162B
  8
0
 10
512.02955756336451
 20
133.71237684041259
 30
0.0
  0
VERTEX
  5
1162C
  8
0
 10
512.27717854082584
 20
138.06877788156271
 30
0.0
  0
VERTEX
  5
1162D
  8
0
 10
512.47217420488585
 20
141.493303142488
 30
0.0
  0
SEQEND
  5
1162E
  8
0
  0
ARC
  5
DA16
  8
0
 10
529.67949484548615
 20
104.0784851226809
 30
0.0
 40
42.997122133885107
 50
94.747885307049174
 51
112.0108026747081
  0
POLYLINE
  5
DA1D
  8
0
 66
     1
 10
0.0
 20
0.0
 30
0.0
 70
   128
  0
VERTEX
  5
1162F
  8
0
 10
513.41927897185076
 20
143.9474740996956
 30
0.0
  0
VERTEX
  5
11630
  8
0
 10
513.42017769813526
 20
143.94743684679261
 30
0.0
  0
VERTEX
  5
11631
  8
0
 10
513.56497321277845
 20
143.94168499857179
 30
0.0
  0
SEQEND
  5
11632
  8
0
  0
ARC
  5
DA1F
  8
0
 10
523.57171027150696
 20
228.9825719250984
 30
0.0
 40
82.022982178998134
 50
267.67904409538272
 51
269.01650202979249
  0
POLYLINE
  5
DA22
  8
0
 66
     1
 10
0.0
 20
0.0
 30
0.0
 70
   128
  0
VERTEX
  5
11633
  8
0
 10
512.27830450981855
 20
133.156001009047
 30
0.0
  0
VERTEX
  5
11634
  8
0
 10
512.27138850837935
 20
133.1561909988522
 30
0.0
  0
VERTEX
  5
11635
  8
0
 10
512.19578932970762
 20
133.18394068628541
 30
0.0
  0
VERTEX
  5
11636
  8
0
 10
512.12224837392569
 20
133.26503653079271
 30
0.0
  0
VERTEX
  5
11637
  8
0
 10
512.06631407141685
 20
133.39004423469299
 30
0.0
  0
VERTEX
  5
11638
  8
0
 10
512.03421417623758
 20
133.54495111852879
 30
0.0
  0
VERTEX
  5
11639
  8
0
 10
512.02955756336451
 20
133.71237684041259
 30
0.0
  0
SEQEND
  5
1163A
  8
0
  0
LINE
  5
DA2D
  8
0
 10
533.0150193348527
 20
133.156001009047
 30
0.0
 11
510.9849917516114
 21
133.156001009047
 31
0.0
  0
ARC
  5
DA2E
  8
0
 10
516.12816821823219
 20
141.49223227388239
 30
0.0
 40
3.6559941701789849
 50
137.81194580414419
 51
179.98321762849389
  0
ARC
  5
DA30
  8
0
 10
512.74456725213929
 20
158.28638304319611
 30
0.0
 40
14.35477431361125
 50
272.14691440310111
 51
272.69404321263693
  0
POLYLINE
  5
DA34
  8
0
 66
     1
 10
0.0
 20
0.0
 30
0.0
 70
   128
  0
VERTEX
  5
1163B
  8
0
 10
520.25000548921525
 20
147.02687729150051
 30
0.0
  0
VERTEX
  5
1163C
  8
0
 10
520.20765080116689
 20
147.0243217423558
 30
0.0
  0
VERTEX
  5
1163D
  8
0
 10
519.31332105770696
 20
146.978891827166
 30
0.0
  0
VERTEX
  5
1163E
  8
0
 10
518.72290934436023
 20
146.9623142853379
 30
0.0
  0
VERTEX
  5
1163F
  8
0
 10
518.5008564312011
 20
146.9643520191311
 30
0.0
  0
SEQEND
  5
11640
  8
0
  0
POLYLINE
  5
DA3F
  8
0
 66
     1
 10
0.0
 20
0.0
 30
0.0
 70
   128
  0
VERTEX
  5
11641
  8
0
 10
522.16383213930749
 20
146.97167335240189
 30
0.0
  0
VERTEX
  5
11642
  8
0
 10
523.04045781958848
 20
146.9918483868241
 30
0.0
  0
VERTEX
  5
11643
  8
0
 10
523.75000559724856
 20
147.02602047473189
 30
0.0
  0
SEQEND
  5
11644
  8
0
  0
POLYLINE
  5
DA40
  8
0
 66
     1
 10
0.0
 20
0.0
 30
0.0
 70
   128
  0
VERTEX
  5
11645
  8
0
 10
523.75000559724856
 20
147.02602047473189
 30
0.0
  0
VERTEX
  5
11646
  8
0
 10
524.65280874632299
 20
146.97945434600109
 30
0.0
  0
VERTEX
  5
11647
  8
0
 10
524.94304796712981
 20
146.97105420678761
 30
0.0
  0
SEQEND
  5
11648
  8
0
  0
POLYLINE
  5
DA41
  8
0
 66
     1
 10
0.0
 20
0.0
 30
0.0
 70
   128
  0
VERTEX
  5
11649
  8
0
 10
525.43509549461305
 20
146.969567425549
 30
0.0
  0
VERTEX
  5
1164A
  8
0
 10
525.3435958456248
 20
146.97069991379971
 30
0.0
  0
VERTEX
  5
1164B
  8
0
 10
525.03109451383352
 20
146.9725737348198
 30
0.0
  0
SEQEND
  5
1164C
  8
0
  0
POLYLINE
  5
DA55
  8
0
 66
     1
 10
0.0
 20
0.0
 30
0.0
 70
   128
  0
VERTEX
  5
1164D
  8
0
 10
521.30541282705963
 20
106.4117475412786
 30
0.0
  0
VERTEX
  5
1164E
  8
0
 10
521.4218931668438
 20
106.4060727600008
 30
0.0
  0
VERTEX
  5
1164F
  8
0
 10
521.755034935195
 20
106.3266106881201
 30
0.0
  0
SEQEND
  5
11650
  8
0
  0
LINE
  5
DA56
  8
0
 10
521.30541282705963
 20
106.4117475412786
 30
0.0
 11
520.63192492816586
 21
106.4117475412786
 31
0.0
  0
LINE
  5
DA57
  8
0
 10
520.63192492816586
 20
106.4117475412786
 30
0.0
 11
520.63192492816586
 21
106.40731118619441
 31
0.0
  0
POLYLINE
  5
DA58
  8
0
 66
     1
 10
0.0
 20
0.0
 30
0.0
 70
   128
  0
VERTEX
  5
11651
  8
0
 10
520.21657100878645
 20
106.3243038021028
 30
0.0
  0
VERTEX
  5
11652
  8
0
 10
520.34065286163241
 20
106.36788457632061
 30
0.0
  0
VERTEX
  5
11653
  8
0
 10
520.63192492816586
 20
106.40731118619441
 30
0.0
  0
SEQEND
  5
11654
  8
0
  0
POLYLINE
  5
DA59
  8
0
 66
     1
 10
0.0
 20
0.0
 30
0.0
 70
   128
  0
VERTEX
  5
11655
  8
0
 10
518.1443808414042
 20
104.8488057218492
 30
0.0
  0
VERTEX
  5
11656
  8
0
 10
518.11464068479825
 20
104.8788054846227
 30
0.0
  0
VERTEX
  5
11657
  8
0
 10
518.08701649308205
 20
104.9123363569378
 30
0.0
  0
VERTEX
  5
11658
  8
0
 10
518.06315740570415
 20
104.9458397552371
 30
0.0
  0
VERTEX
  5
11659
  8
0
 10
518.02680928260077
 20
105.0126719288527
 30
0.0
  0
VERTEX
  5
1165A
  8
0
 10
518.01437379792333
 20
105.04591083154079
 30
0.0
  0
VERTEX
  5
1165B
  8
0
 10
518.00577769055963
 20
105.0790011882781
 30
0.0
  0
VERTEX
  5
1165C
  8
0
 10
518.00000535324205
 20
105.1447539590299
 30
0.0
  0
VERTEX
  5
1165D
  8
0
 10
518.00312668085098
 20
105.17774140462269
 30
0.0
  0
VERTEX
  5
1165E
  8
0
 10
518.00995839759696
 20
105.2108950912952
 30
0.0
  0
VERTEX
  5
1165F
  8
0
 10
518.03515486419201
 20
105.2776113152503
 30
0.0
  0
VERTEX
  5
11660
  8
0
 10
518.07562362402666
 20
105.3446311503648
 30
0.0
  0
VERTEX
  5
11661
  8
0
 10
518.10152603313315
 20
105.3781648166477
 30
0.0
  0
VERTEX
  5
11662
  8
0
 10
518.16459799185395
 20
105.44518977403639
 30
0.0
  0
VERTEX
  5
11663
  8
0
 10
518.24247704818845
 20
105.5119162425398
 30
0.0
  0
VERTEX
  5
11664
  8
0
 10
518.28686853870749
 20
105.5450778454542
 30
0.0
  0
VERTEX
  5
11665
  8
0
 10
518.3864520676434
 20
105.61091955751181
 30
0.0
  0
VERTEX
  5
11666
  8
0
 10
518.44147996045649
 20
105.6438217870891
 30
0.0
  0
VERTEX
  5
11667
  8
0
 10
518.49991928786039
 20
105.6769042275846
 30
0.0
  0
VERTEX
  5
11668
  8
0
 10
518.62686553969979
 20
105.7435180060565
 30
0.0
  0
VERTEX
  5
11669
  8
0
 10
518.76676462590694
 20
105.81049034371971
 30
0.0
  0
VERTEX
  5
1166A
  8
0
 10
518.84137846529484
 20
105.8440207503736
 30
0.0
  0
VERTEX
  5
1166B
  8
0
 10
518.99973240680993
 20
105.9110792353749
 30
0.0
  0
VERTEX
  5
1166C
  8
0
 10
519.16969342157245
 20
105.97789464518419
 30
0.0
  0
VERTEX
  5
1166D
  8
0
 10
519.25880003720522
 20
106.0111205093562
 30
0.0
  0
VERTEX
  5
1166E
  8
0
 10
519.44503754377365
 20
106.0771186836063
 30
0.0
  0
VERTEX
  5
1166F
  8
0
 10
519.54189276322722
 20
106.10993895679709
 30
0.0
  0
VERTEX
  5
11670
  8
0
 10
519.59119604900479
 20
106.126417312771
 30
0.0
  0
VERTEX
  5
11671
  8
0
 10
519.64107093401253
 20
106.14293990656731
 30
0.0
  0
VERTEX
  5
11672
  8
0
 10
519.74249987863004
 20
106.17610802873961
 30
0.0
  0
VERTEX
  5
11673
  8
0
 10
519.8460752889514
 20
106.2094093300402
 30
0.0
  0
VERTEX
  5
11674
  8
0
 10
519.89863238297403
 20
106.2260986305773
 30
0.0
  0
VERTEX
  5
11675
  8
0
 10
520.00524902716279
 20
106.2595433555543
 30
0.0
  0
VERTEX
  5
11676
  8
0
 10
520.11001990642399
 20
106.2918965704739
 30
0.0
  0
VERTEX
  5
11677
  8
0
 10
520.21657100878645
 20
106.3243038021028
 30
0.0
  0
SEQEND
  5
11678
  8
0
  0
POLYLINE
  5
DA5C
  8
0
 66
     1
 10
0.0
 20
0.0
 30
0.0
 70
   128
  0
VERTEX
  5
11679
  8
0
 10
525.88149377144873
 20
101.7806533724069
 30
0.0
  0
VERTEX
  5
1167A
  8
0
 10
525.94518156722177
 20
101.69781036674971
 30
0.0
  0
VERTEX
  5
1167B
  8
0
 10
526.00000573322166
 20
101.5193633735179
 30
0.0
  0
SEQEND
  5
1167C
  8
0
  0
ARC
  5
DA5D
  8
0
 10
525.44771613614444
 20
105.2188085917326
 30
0.0
 40
0.5584889073592924
 50
298.72540195000551
 51
351.45514713081928
  0
LINE
  5
DA5E
  8
0
 10
525.71613279171277
 20
104.7290511429309
 30
0.0
 11
525.4641071241349
 21
104.7298199497163
 31
0.0
  0
LINE
  5
DA5F
  8
0
 10
525.4641071241349
 20
104.7298199497163
 30
0.0
 11
525.4641071241349
 21
104.72732074558731
 31
0.0
  0
ARC
  5
DA60
  8
0
 10
526.14659763623035
 20
103.1832317917378
 30
0.0
 40
1.688195485274222
 50
113.8455278301861
 51
187.7355083739553
  0
LINE
  5
DA61
  8
0
 10
524.47376477532089
 20
102.9560001567006
 30
0.0
 11
524.47376477532089
 21
101.2560002505779
 31
0.0
  0
LINE
  5
DA62
  8
0
 10
518.00000535324205
 20
101.2560002505779
 30
0.0
 11
524.47376477532089
 21
101.2560002505779
 31
0.0
  0
POLYLINE
  5
DA63
  8
0
 66
     1
 10
0.0
 20
0.0
 30
0.0
 70
   128
  0
VERTEX
  5
1167D
  8
0
 10
520.76964169275016
 20
102.86740157753221
 30
0.0
  0
VERTEX
  5
1167E
  8
0
 10
519.82942673377693
 20
102.5891186669468
 30
0.0
  0
VERTEX
  5
1167F
  8
0
 10
519.03255919925869
 20
102.30652559548609
 30
0.0
  0
VERTEX
  5
11680
  8
0
 10
518.44080568291236
 20
102.0277835428714
 30
0.0
  0
VERTEX
  5
11681
  8
0
 10
518.05482951924205
 20
101.69781036674971
 30
0.0
  0
VERTEX
  5
11682
  8
0
 10
518.00000535324205
 20
101.5193633735179
 30
0.0
  0
SEQEND
  5
11683
  8
0
  0
LINE
  5
DA64
  8
0
 10
520.80734547227621
 20
102.86740157753221
 30
0.0
 11
520.76964169275016
 21
102.86740157753221
 31
0.0
  0
LINE
  5
DA65
  8
0
 10
521.17541125509877
 20
102.86740157753221
 30
0.0
 11
520.80734547227621
 21
102.86740157753221
 31
0.0
  0
POLYLINE
  5
DA66
  8
0
 66
     1
 10
0.0
 20
0.0
 30
0.0
 70
   128
  0
VERTEX
  5
11684
  8
0
 10
521.5229981567245
 20
102.7726865373551
 30
0.0
  0
VERTEX
  5
11685
  8
0
 10
521.32752754725504
 20
102.8258846141397
 30
0.0
  0
VERTEX
  5
11686
  8
0
 10
521.17541125509877
 20
102.86740157753221
 30
0.0
  0
SEQEND
  5
11687
  8
0
  0
POLYLINE
  5
DA67
  8
0
 66
     1
 10
0.0
 20
0.0
 30
0.0
 70
   128
  0
VERTEX
  5
11688
  8
0
 10
522.45212132576853
 20
106.13995501771559
 30
0.0
  0
VERTEX
  5
11689
  8
0
 10
522.59197716368362
 20
106.0765501111745
 30
0.0
  0
VERTEX
  5
1168A
  8
0
 10
522.93225513305515
 20
105.8290776796638
 30
0.0
  0
VERTEX
  5
1168B
  8
0
 10
523.23291586246341
 20
105.4375394247472
 30
0.0
  0
VERTEX
  5
1168C
  8
0
 10
523.44018286559731
 20
104.8887520097196
 30
0.0
  0
VERTEX
  5
1168D
  8
0
 10
523.47643191926181
 20
104.2451005429029
 30
0.0
  0
VERTEX
  5
1168E
  8
0
 10
523.31079049501557
 20
103.6197723820805
 30
0.0
  0
VERTEX
  5
1168F
  8
0
 10
522.94841148424894
 20
103.08981304988259
 30
0.0
  0
VERTEX
  5
11690
  8
0
 10
522.55678649991751
 20
102.8085312806069
 30
0.0
  0
VERTEX
  5
11691
  8
0
 10
522.08416933164699
 20
102.6805535890161
 30
0.0
  0
VERTEX
  5
11692
  8
0
 10
521.66837275028229
 20
102.7229618281126
 30
0.0
  0
VERTEX
  5
11693
  8
0
 10
521.5229981567245
 20
102.7726865373551
 30
0.0
  0
SEQEND
  5
11694
  8
0
  0
LINE
  5
DA68
  8
0
 10
522.1938002522802
 20
106.20974833145731
 30
0.0
 11
522.45212132576853
 21
106.13995501771559
 31
0.0
  0
POLYLINE
  5
DA69
  8
0
 66
     1
 10
0.0
 20
0.0
 30
0.0
 70
   128
  0
VERTEX
  5
11695
  8
0
 10
521.755034935195
 20
106.3266106881201
 30
0.0
  0
VERTEX
  5
11696
  8
0
 10
522.00022032310585
 20
106.2615675851702
 30
0.0
  0
VERTEX
  5
11697
  8
0
 10
522.1938002522802
 20
106.20974833145731
 30
0.0
  0
SEQEND
  5
11698
  8
0
  0
LINE
  5
DA6A
  8
0
 10
524.47376477532089
 20
101.2560002505779
 30
0.0
 11
524.37796521000564
 21
99.997180886566625
 31
0.0
  0
ARC
  5
DA6B
  8
0
 10
523.41183731595277
 20
99.911864605559785
 30
0.0
 40
0.9698876097114677
 50
318.4032606688433
 51
5.0465527622706947
  0
LINE
  5
DA6C
  8
0
 10
524.13715406320989
 20
99.267972074449062
 30
0.0
 11
524.10989471711218
 21
99.25599992275238
 31
0.0
  0
LINE
  5
DA6D
  8
0
 10
524.69678017039087
 20
99.25599992275238
 30
0.0
 11
519.30323087610304
 21
99.25599992275238
 31
0.0
  0
POLYLINE
  5
DA91
  8
0
 66
     1
 10
0.0
 20
0.0
 30
0.0
 70
   128
  0
VERTEX
  5
11699
  8
0
 10
525.71613279171277
 20
104.7290511429309
 30
0.0
  0
VERTEX
  5
1169A
  8
0
 10
525.15650501474727
 20
104.1319741867482
 30
0.0
  0
VERTEX
  5
1169B
  8
0
 10
524.60427938960493
 20
103.52519098669291
 30
0.0
  0
SEQEND
  5
1169C
  8
0
  0
LINE
  5
DA92
  8
0
 10
524.60427938960493
 20
103.52519098669291
 30
0.0
 11
524.59296056069434
 21
103.5081524401903
 31
0.0
  0
LINE
  5
DA93
  8
0
 10
524.62410375475883
 20
102.3995786905288
 30
0.0
 11
524.47376477532089
 21
102.5629722513258
 31
0.0
  0
LINE
  5
DA94
  8
0
 10
524.62410375475883
 20
102.3995786905288
 30
0.0
 11
524.63507077656675
 21
102.390599809587
 31
0.0
  0
LINE
  5
DA95
  8
0
 10
524.63507077656675
 20
102.390599809587
 30
0.0
 11
524.70283939503133
 21
102.3363605141639
 31
0.0
  0
LINE
  5
DA99
  8
0
 10
524.70283939503133
 20
102.3363605141639
 30
0.0
 11
524.99514313414693
 21
102.1159732714295
 31
0.0
  0
POLYLINE
  5
DA9A
  8
0
 66
     1
 10
0.0
 20
0.0
 30
0.0
 70
   128
  0
VERTEX
  5
1169D
  8
0
 10
524.99514313414693
 20
102.1159732714295
 30
0.0
  0
VERTEX
  5
1169E
  8
0
 10
525.39752128534019
 20
101.81455351412291
 30
0.0
  0
VERTEX
  5
1169F
  8
0
 10
526.00000573322166
 20
101.33260272574169
 30
0.0
  0
SEQEND
  5
116A0
  8
0
  0
LINE
  5
DAA4
  8
0
 10
538.500005453825
 20
116.30000025033949
 30
0.0
 11
505.50000563263887
 21
116.30000025033949
 31
0.0
  0
ARC
  5
DAA6
  8
0
 10
517.48698140054717
 20
129.1323398228817
 30
0.0
 40
2.465276234636236
 50
104.6909850288838
 51
132.7580327478498
  0
POLYLINE
  5
DAA7
  8
0
 66
     1
 10
0.0
 20
0.0
 30
0.0
 70
   128
  0
VERTEX
  5
116A1
  8
0
 10
515.80385824665416
 20
130.4118385538458
 30
0.0
  0
VERTEX
  5
116A2
  8
0
 10
515.64470592886209
 20
130.600287951529
 30
0.0
  0
VERTEX
  5
116A3
  8
0
 10
515.71499144658435
 20
130.8242524042725
 30
0.0
  0
VERTEX
  5
116A4
  8
0
 10
515.81329626962543
 20
130.94241302460429
 30
0.0
  0
SEQEND
  5
116A5
  8
0
  0
ARC
  5
DAA8
  8
0
 10
516.61439264933028
 20
132.3508797152713
 30
0.0
 40
2.1016295210201781
 50
247.31469018594271
 51
273.42470033884638
  0
ARC
  5
DAA9
  8
0
 10
516.75768255816536
 20
135.27409389260421
 30
0.0
 40
5.0211218990243589
 50
269.79750684864109
 51
284.48042954523891
  0
ARC
  5
DAAA
  8
0
 10
517.57748666991029
 20
132.57542668873711
 30
0.0
 40
2.206400863414812
 50
281.38973718320858
 51
312.3043325418252
  0
POLYLINE
  5
DAAB
  8
0
 66
     1
 10
0.0
 20
0.0
 30
0.0
 70
   128
  0
VERTEX
  5
116A6
  8
0
 10
519.07112549990416
 20
131.5178586170077
 30
0.0
  0
VERTEX
  5
116A7
  8
0
 10
519.23231648281205
 20
131.2584778293967
 30
0.0
  0
VERTEX
  5
116A8
  8
0
 10
519.18556991033245
 20
131.1036324128508
 30
0.0
  0
VERTEX
  5
116A9
  8
0
 10
519.06254545785475
 20
130.9436162933707
 30
0.0
  0
SEQEND
  5
116AA
  8
0
  0
ARC
  5
DAAC
  8
0
 10
518.24535821416919
 20
129.92493213337929
 30
0.0
 40
1.79424256789173
 50
62.597941083543937
 51
93.552266373693215
  0
ARC
  5
DAAD
  8
0
 10
518.14477404421132
 20
127.4746493693451
 30
0.0
 40
4.241091251921917
 50
90.143005016595396
 51
107.6088240435501
  0
POLYLINE
  5
DAAE
  8
0
 66
     1
 10
0.0
 20
0.0
 30
0.0
 70
   128
  0
VERTEX
  5
116AB
  8
0
 10
521.01950343232602
 20
131.6630518063902
 30
0.0
  0
VERTEX
  5
116AC
  8
0
 10
523.43436570838094
 20
131.14156145602459
 30
0.0
  0
VERTEX
  5
116AD
  8
0
 10
525.83058861084282
 20
130.48014920204869
 30
0.0
  0
SEQEND
  5
116AE
  8
0
  0
LINE
  5
DAAF
  8
0
 10
525.83058861084282
 20
130.48014920204869
 30
0.0
 11
525.50036584027112
 21
130.93511145561931
 31
0.0
  0
LINE
  5
DAB0
  8
0
 10
525.50036584027112
 20
130.93511145561931
 30
0.0
 11
531.31700593978155
 21
130.93511145561931
 31
0.0
  0
LINE
  5
DAB1
  8
0
 10
531.31700593978155
 20
130.93511145561931
 30
0.0
 11
532.19596769660711
 21
130.48014920204869
 31
0.0
  0
LINE
  5
DAB2
  8
0
 10
532.19596769660711
 20
130.48014920204869
 30
0.0
 11
532.19596769660711
 21
131.6630518063902
 31
0.0
  0
LINE
  5
DAB3
  8
0
 10
532.19596769660711
 20
131.6630518063902
 30
0.0
 11
521.01950343232602
 21
131.6630518063902
 31
0.0
  0
LINE
  5
DAB4
  8
0
 10
533.92365954816341
 20
131.02557826787231
 30
0.0
 11
534.4624836742878
 21
131.03550244122741
 31
0.0
  0
LINE
  5
DAB5
  8
0
 10
534.36209734529245
 20
130.85742238909
 30
0.0
 11
533.92365954816341
 21
131.02557826787231
 31
0.0
  0
LINE
  5
DAB6
  8
0
 10
534.90092240273952
 20
130.86701314896339
 30
0.0
 11
534.36209734529245
 21
130.85742238909
 31
0.0
  0
LINE
  5
DAB7
  8
0
 10
536.1029813811183
 20
130.40508087724439
 30
0.0
 11
534.90092240273952
 21
130.86701314896339
 31
0.0
  0
LINE
  5
DAB8
  8
0
 10
535.41400663554668
 20
130.38191702216861
 30
0.0
 11
536.1029813811183
 21
130.40508087724439
 31
0.0
  0
LINE
  5
DAB9
  8
0
 10
535.85244536399841
 20
130.21408710628739
 30
0.0
 11
535.41400663554668
 21
130.38191702216861
 31
0.0
  0
LINE
  5
DABA
  8
0
 10
536.7293218895793
 20
130.22379335016009
 30
0.0
 11
535.85244536399841
 21
130.21408710628739
 31
0.0
  0
LINE
  5
DABB
  8
0
 10
532.9884384572506
 20
131.6568734124302
 30
0.0
 11
536.7293218895793
 21
130.22379335016009
 31
0.0
  0
LINE
  5
DABC
  8
0
 10
532.80053574591875
 20
131.67408797889939
 30
0.0
 11
532.9884384572506
 21
131.6568734124302
 31
0.0
  0
LINE
  5
DABD
  8
0
 10
534.4624836742878
 20
131.03550244122741
 30
0.0
 11
532.80053574591875
 21
131.67408797889939
 31
0.0
  0
LINE
  5
DAC6
  8
0
 10
514.03905738145113
 20
131.6816000267863
 30
0.0
 11
513.41100137680769
 21
130.5462470278143
 31
0.0
  0
LINE
  5
DAC7
  8
0
 10
513.59976090490807
 20
131.65898378938431
 30
0.0
 11
514.03905738145113
 21
131.6816000267863
 31
0.0
  0
LINE
  5
DAC8
  8
0
 10
511.02232661098242
 20
130.22689465433351
 30
0.0
 11
513.59976090490807
 21
131.65898378938431
 31
0.0
  0
LINE
  5
DAC9
  8
0
 10
511.46076533943409
 20
130.2436286583542
 30
0.0
 11
511.02232661098242
 21
130.22689465433351
 31
0.0
  0
LINE
  5
DACA
  8
0
 10
513.49508490413416
 20
131.37891273945559
 30
0.0
 11
511.46076533943409
 21
130.2436286583542
 31
0.0
  0
LINE
  5
DACB
  8
0
 10
512.8335664793849
 20
130.24440165609121
 30
0.0
 11
513.49508490413416
 21
131.37891273945559
 31
0.0
  0
LINE
  5
DACC
  8
0
 10
513.307183124125
 20
130.22647555917499
 30
0.0
 11
512.8335664793849
 21
130.24440165609121
 31
0.0
  0
LINE
  5
DACD
  8
0
 10
515.88461741805065
 20
131.65838774293661
 30
0.0
 11
513.307183124125
 21
130.22647555917499
 31
0.0
  0
LINE
  5
DACE
  8
0
 10
515.44617915526032
 20
131.6812796518206
 30
0.0
 11
515.88461741805065
 21
131.65838774293661
 31
0.0
  0
LINE
  5
DACF
  8
0
 10
513.41100137680769
 20
130.5462470278143
 30
0.0
 11
515.44617915526032
 21
131.6812796518206
 31
0.0
  0
LINE
  5
DADA
  8
0
 10
525.50036584027112
 20
130.92447016388169
 30
0.0
 11
525.83058861084282
 21
130.46950791031119
 31
0.0
  0
LINE
  5
DADC
  8
0
 10
525.50036584027112
 20
130.92447016388169
 30
0.0
 11
525.50036584027112
 21
130.93511145561931
 31
0.0
  0
ARC
  5
DADD
  8
0
 10
516.87409321537405
 20
133.7133708454148
 30
0.0
 40
3.3005470290728889
 50
270.32233598752691
 51
285.38614444039843
  0
POLYLINE
  5
DAE0
  8
0
 66
     1
 10
0.0
 20
0.0
 30
0.0
 70
   128
  0
VERTEX
  5
116AF
  8
0
 10
516.33324481546879
 20
130.9649044647812
 30
0.0
  0
VERTEX
  5
116B0
  8
0
 10
516.2054505944252
 20
130.7962344959378
 30
0.0
  0
VERTEX
  5
116B1
  8
0
 10
516.181302331388
 20
130.63548635691399
 30
0.0
  0
VERTEX
  5
116B2
  8
0
 10
516.27661667764175
 20
130.53056728094811
 30
0.0
  0
SEQEND
  5
116B3
  8
0
  0
ARC
  5
DAE1
  8
0
 10
517.5754303506651
 20
129.71991594032249
 30
0.0
 40
1.7586987604148021
 50
104.80473100177051
 51
134.93542897162681
  0
ARC
  5
DAE2
  8
0
 10
518.01070086482673
 20
128.61446576382289
 30
0.0
 40
2.941928159135109
 50
90.552697182429696
 51
107.5001672851252
  0
ARC
  5
DAE3
  8
0
 10
518.04217352496994
 20
130.35561424213691
 30
0.0
 40
1.2021336488297309
 50
62.394203677721542
 51
92.853791748144232
  0
POLYLINE
  5
DAE4
  8
0
 66
     1
 10
0.0
 20
0.0
 30
0.0
 70
   128
  0
VERTEX
  5
116B4
  8
0
 10
518.54259714484215
 20
130.96561413258311
 30
0.0
  0
VERTEX
  5
116B5
  8
0
 10
518.66847586818039
 20
131.1326971277594
 30
0.0
  0
VERTEX
  5
116B6
  8
0
 10
518.67831086739886
 20
131.3426880165934
 30
0.0
  0
VERTEX
  5
116B7
  8
0
 10
518.59922504983842
 20
131.42089303582901
 30
0.0
  0
SEQEND
  5
116B8
  8
0
  0
ARC
  5
DAE5
  8
0
 10
517.39961142678112
 20
132.11060776279999
 30
0.0
 40
1.6178463353881321
 50
282.50096794015082
 51
314.94971770059828
  0
ARC
  5
DAE6
  8
0
 10
516.82940649221132
 20
131.75293600863091
 30
0.0
 40
1.3415520435332979
 50
245.666167743247
 51
272.7025297757163
  0
LINE
  5
DAF6
  8
0
 10
512.67633222043514
 20
132.3000000789761
 30
0.0
 11
531.32367886602879
 21
132.3000000789761
 31
0.0
  0
LINE
  5
DAF7
  8
0
 10
513.00000593066216
 20
111.8000002112239
 30
0.0
 11
531.00000515580166
 21
111.8000002112239
 31
0.0
  0
LINE
  5
DAF8
  8
0
 10
530.00000592321146
 20
110.8000002219341
 30
0.0
 11
514.00000516325235
 21
110.8000002219341
 31
0.0
  0
POLYLINE
  5
DB04
  8
0
 66
     1
 10
0.0
 20
0.0
 30
0.0
 70
   128
  0
VERTEX
  5
116B9
  8
0
 10
517.36693883314729
 20
146.8972595408558
 30
0.0
  0
VERTEX
  5
116BA
  8
0
 10
516.38455230742693
 20
146.78932297974819
 30
0.0
  0
VERTEX
  5
116BB
  8
0
 10
515.58823145925999
 20
146.61222267895931
 30
0.0
  0
VERTEX
  5
116BC
  8
0
 10
514.89992400631309
 20
146.36338446289301
 30
0.0
  0
VERTEX
  5
116BD
  8
0
 10
514.33268290013075
 20
146.03991378098721
 30
0.0
  0
VERTEX
  5
116BE
  8
0
 10
513.91660150140524
 20
145.6544207409024
 30
0.0
  0
VERTEX
  5
116BF
  8
0
 10
513.52360107004642
 20
144.96984649449581
 30
0.0
  0
VERTEX
  5
116C0
  8
0
 10
513.29967200756073
 20
144.1506700590252
 30
0.0
  0
VERTEX
  5
116C1
  8
0
 10
513.28232519328594
 20
143.94168499857179
 30
0.0
  0
SEQEND
  5
116C2
  8
0
  0
LINE
  5
DB10
  8
0
 10
505.6579858809709
 20
129.8097087070345
 30
0.0
 11
538.34202520549286
 21
129.8097087070345
 31
0.0
  0
LINE
  5
DD2F
  8
1
 10
424.0000032633543
 20
108.8000002219341
 30
0.0
 11
424.0000032633543
 21
118.30000025033949
 31
0.0
  0
LINE
  5
DD30
  8
1
 10
445.00000391155481
 20
108.8000002219341
 30
0.0
 11
445.00000391155481
 21
118.30000025033949
 31
0.0
  0
LINE
  5
DD34
  8
3
 10
425.22950326335513
 20
115.30000030621881
 30
0.0
 11
425.22950326335513
 21
116.30000025033939
 31
0.0
  0
LINE
  5
DD35
  8
3
 10
425.22950326335513
 20
115.30000030621881
 30
0.0
 11
425.50000326335419
 21
114.8314805627727
 31
0.0
  0
LINE
  5
DD36
  8
3
 10
422.77050326335348
 20
115.30000030621881
 30
0.0
 11
422.5000032633543
 21
114.8314805627727
 31
0.0
  0
LINE
  5
DD37
  8
3
 10
422.77050326335348
 20
115.30000030621881
 30
0.0
 11
422.77050326335348
 21
116.30000025033939
 31
0.0
  0
LINE
  5
DD38
  8
0
 10
422.5000032633543
 20
115.30000030621881
 30
0.0
 11
425.50000326335419
 21
115.30000030621881
 31
0.0
  0
LINE
  5
DD39
  8
3
 10
446.22950391155558
 20
115.30000030621881
 30
0.0
 11
446.22950391155558
 21
116.30000025033939
 31
0.0
  0
LINE
  5
DD3A
  8
3
 10
446.22950391155558
 20
115.30000030621881
 30
0.0
 11
446.5000039115547
 21
114.8314805627727
 31
0.0
  0
LINE
  5
DD3B
  8
3
 10
443.77050391155399
 20
115.30000030621881
 30
0.0
 11
443.50000391155481
 21
114.8314805627727
 31
0.0
  0
LINE
  5
DD3C
  8
3
 10
443.77050391155399
 20
115.30000030621881
 30
0.0
 11
443.77050391155399
 21
116.30000025033939
 31
0.0
  0
LINE
  5
DD3D
  8
0
 10
443.50000391155481
 20
115.30000030621881
 30
0.0
 11
446.5000039115547
 21
115.30000030621881
 31
0.0
  0
POLYLINE
  5
DD84
  8
0
 66
     1
 10
0.0
 20
0.0
 30
0.0
 70
   128
  0
VERTEX
  5
116C3
  8
0
 10
365.02120368173951
 20
141.6841885939202
 30
0.0
  0
VERTEX
  5
116C4
  8
0
 10
364.9530016630888
 20
142.26577375084159
 30
0.0
  0
VERTEX
  5
116C5
  8
0
 10
364.80230435729032
 20
142.9242188110947
 30
0.0
  0
VERTEX
  5
116C6
  8
0
 10
364.56779640167952
 20
143.56726352125401
 30
0.0
  0
VERTEX
  5
116C7
  8
0
 10
364.19929347932339
 20
144.2508542910218
 30
0.0
  0
VERTEX
  5
116C8
  8
0
 10
363.9252825453878
 20
144.6334602311253
 30
0.0
  0
VERTEX
  5
116C9
  8
0
 10
363.5206182301045
 20
145.08337844163171
 30
0.0
  0
VERTEX
  5
116CA
  8
0
 10
363.04996784776449
 20
145.48670444637531
 30
0.0
  0
VERTEX
  5
116CB
  8
0
 10
362.50788036733871
 20
145.8458187058568
 30
0.0
  0
VERTEX
  5
116CC
  8
0
 10
361.88518691807991
 20
146.1619207635521
 30
0.0
  0
VERTEX
  5
116CD
  8
0
 10
361.15794505923992
 20
146.4372122660279
 30
0.0
  0
VERTEX
  5
116CE
  8
0
 10
360.30219605192542
 20
146.66519258171309
 30
0.0
  0
VERTEX
  5
116CF
  8
0
 10
359.3110285513103
 20
146.82978708297011
 30
0.0
  0
VERTEX
  5
116D0
  8
0
 10
358.66403177380562
 20
146.8775304034352
 30
0.0
  0
SEQEND
  5
116D1
  8
0
  0
POLYLINE
  5
DEBE
  8
0
 66
     1
 10
0.0
 20
0.0
 30
0.0
 70
   128
  0
VERTEX
  5
116D2
  8
0
 10
455.26932634413242
 20
133.71237684041259
 30
0.0
  0
VERTEX
  5
116D3
  8
0
 10
454.8404336720705
 20
138.06877788156271
 30
0.0
  0
VERTEX
  5
116D4
  8
0
 10
454.50269140303129
 20
141.493303142488
 30
0.0
  0
SEQEND
  5
116D5
  8
0
  0
ARC
  5
DEBF
  8
0
 10
454.80514548638462
 20
133.62682170514881
 30
0.0
 40
0.4719995231665325
 50
274.0502546473715
 51
10.443221767830799
  0
ARC
  5
DEC5
  8
0
 10
451.50801862275341
 20
141.26692357482241
 30
0.0
 40
3.0032170700090659
 50
4.3230003532699204
 51
63.196681066317687
  0
POLYLINE
  5
DECB
  8
0
 66
     1
 10
0.0
 20
0.0
 30
0.0
 70
   128
  0
VERTEX
  5
116D6
  8
0
 10
344.02955386787647
 20
133.71237684041259
 30
0.0
  0
VERTEX
  5
116D7
  8
0
 10
344.03421048074961
 20
133.54495111852879
 30
0.0
  0
VERTEX
  5
116D8
  8
0
 10
344.06631037592888
 20
133.39004423469299
 30
0.0
  0
VERTEX
  5
116D9
  8
0
 10
344.12224467843771
 20
133.26503653079271
 30
0.0
  0
VERTEX
  5
116DA
  8
0
 10
344.1957856342197
 20
133.18394068628541
 30
0.0
  0
VERTEX
  5
116DB
  8
0
 10
344.27138481289148
 20
133.1561909988522
 30
0.0
  0
VERTEX
  5
116DC
  8
0
 10
344.27830081433058
 20
133.156001009047
 30
0.0
  0
SEQEND
  5
116DD
  8
0
  0
ARC
  5
DECC
  8
0
 10
355.5542396930357
 20
228.73392547759781
 30
0.0
 40
81.774688798261906
 50
270.98330863763391
 51
271.03481820865011
  0
LINE
  5
DECF
  8
0
 10
357.88149007596081
 20
101.7806533724069
 30
0.0
 11
358.00000203773379
 21
101.6264968813487
 31
0.0
  0
LINE
  5
DED5
  8
1
 10
341.87564596533781
 20
118.30000025033949
 30
0.0
 11
341.87564596533781
 21
108.8000002219341
 31
0.0
  0
LINE
  5
DED6
  8
1
 10
366.12435773015022
 20
118.30000025033949
 30
0.0
 11
366.12435773015022
 21
108.8000002219341
 31
0.0
  0
LINE
  5
DED7
  8
3
 10
343.10514596533858
 20
115.30000030621881
 30
0.0
 11
343.10514596533858
 21
116.30000025033939
 31
0.0
  0
LINE
  5
DED8
  8
3
 10
343.10514596533858
 20
115.30000030621881
 30
0.0
 11
343.3756459653377
 21
114.8314805627727
 31
0.0
  0
LINE
  5
DED9
  8
3
 10
340.64614596533693
 20
115.30000030621881
 30
0.0
 11
340.37564596533781
 21
114.8314805627727
 31
0.0
  0
LINE
  5
DEDA
  8
3
 10
340.64614596533693
 20
115.30000030621881
 30
0.0
 11
340.64614596533693
 21
116.30000025033939
 31
0.0
  0
LINE
  5
DEDB
  8
0
 10
340.37564596533781
 20
115.30000030621881
 30
0.0
 11
343.3756459653377
 21
115.30000030621881
 31
0.0
  0
LINE
  5
DEDC
  8
3
 10
355.22950184774481
 20
115.30000030621881
 30
0.0
 11
355.22950184774481
 21
116.30000025033939
 31
0.0
  0
LINE
  5
DEDD
  8
3
 10
355.22950184774481
 20
115.30000030621881
 30
0.0
 11
355.50000184774399
 21
114.8314805627727
 31
0.0
  0
LINE
  5
DEDE
  8
3
 10
352.77050184774322
 20
115.30000030621881
 30
0.0
 11
352.50000184774399
 21
114.8314805627727
 31
0.0
  0
LINE
  5
DEDF
  8
3
 10
352.77050184774322
 20
115.30000030621881
 30
0.0
 11
352.77050184774322
 21
116.30000025033939
 31
0.0
  0
LINE
  5
DEE0
  8
0
 10
352.50000184774399
 20
115.30000030621881
 30
0.0
 11
355.50000184774399
 21
115.30000030621881
 31
0.0
  0
LINE
  5
DEE1
  8
3
 10
367.35385773015099
 20
115.30000030621881
 30
0.0
 11
367.35385773015099
 21
116.30000025033939
 31
0.0
  0
LINE
  5
DEE2
  8
3
 10
367.35385773015099
 20
115.30000030621881
 30
0.0
 11
367.62435773015022
 21
114.8314805627727
 31
0.0
  0
LINE
  5
DEE3
  8
3
 10
364.8948577301494
 20
115.30000030621881
 30
0.0
 11
364.62435773015022
 21
114.8314805627727
 31
0.0
  0
LINE
  5
DEE4
  8
3
 10
364.8948577301494
 20
115.30000030621881
 30
0.0
 11
364.8948577301494
 21
116.30000025033939
 31
0.0
  0
LINE
  5
DEE5
  8
0
 10
364.62435773015022
 20
115.30000030621881
 30
0.0
 11
367.62435773015022
 21
115.30000030621881
 31
0.0
  0
ARC
  5
DF30
  8
0
 10
523.57171027150696
 20
228.9825719250984
 30
0.0
 40
82.022982178998134
 50
270.95796959658588
 51
271.01948219771782
  0
LINE
  5
DF79
  8
1
 10
509.87564966082567
 20
108.8000002219341
 30
0.0
 11
509.87564966082567
 21
118.30000025033949
 31
0.0
  0
LINE
  5
DF7A
  8
1
 10
534.1243614256382
 20
108.8000002219341
 30
0.0
 11
534.1243614256382
 21
118.30000025033949
 31
0.0
  0
LINE
  5
DF7E
  8
3
 10
511.10514966082678
 20
115.30000030621881
 30
0.0
 11
511.10514966082678
 21
116.30000025033939
 31
0.0
  0
LINE
  5
DF7F
  8
3
 10
511.10514966082678
 20
115.30000030621881
 30
0.0
 11
511.3756496608259
 21
114.8314805627727
 31
0.0
  0
LINE
  5
DF80
  8
3
 10
508.64614966082507
 20
115.30000030621881
 30
0.0
 11
508.3756496608259
 21
114.8314805627727
 31
0.0
  0
LINE
  5
DF81
  8
3
 10
508.64614966082507
 20
115.30000030621881
 30
0.0
 11
508.64614966082507
 21
116.30000025033939
 31
0.0
  0
LINE
  5
DF82
  8
0
 10
508.3756496608259
 20
115.30000030621881
 30
0.0
 11
511.3756496608259
 21
115.30000030621881
 31
0.0
  0
LINE
  5
DF83
  8
3
 10
535.35386142563925
 20
115.30000030621881
 30
0.0
 11
535.35386142563925
 21
116.30000025033939
 31
0.0
  0
LINE
  5
DF84
  8
3
 10
535.35386142563925
 20
115.30000030621881
 30
0.0
 11
535.62436142563843
 21
114.8314805627727
 31
0.0
  0
LINE
  5
DF85
  8
3
 10
532.8948614256376
 20
115.30000030621881
 30
0.0
 11
532.62436142563843
 21
114.8314805627727
 31
0.0
  0
LINE
  5
DF86
  8
3
 10
532.8948614256376
 20
115.30000030621881
 30
0.0
 11
532.8948614256376
 21
116.30000025033939
 31
0.0
  0
LINE
  5
DF87
  8
0
 10
532.62436142563843
 20
115.30000030621881
 30
0.0
 11
535.62436142563843
 21
115.30000030621881
 31
0.0
  0
LINE
  5
DF98
  8
1
 10
459.5994533236651
 20
62.469992551557318
 30
0.0
 11
416.40055406731273
 21
37.529096437206093
 31
0.0
  0
LINE
  5
DF99
  8
1
 10
442.62500369548837
 20
41.988809509375507
 30
0.0
 11
447.37500369548872
 21
33.761568173423278
 31
0.0
  0
LINE
  5
DF9A
  8
0
 10
438.55501519749009
 20
46.038236566415492
 30
0.0
 11
439.25000366754898
 21
44.83448118396705
 31
0.0
  0
ARC
  5
DF9B
  8
0
 10
439.25000369548872
 20
47.834480984920468
 30
0.0
 40
3.0000000000000209
 50
270.0
 51
300.0
  0
ARC
  5
DF9C
  8
0
 10
439.25000369548872
 20
47.834480984920468
 30
0.0
 40
3.0000000000000009
 50
300.0
 51
330.00000000000199
  0
LINE
  5
DF9D
  8
0
 10
420.66085234284469
 20
40.166144356658961
 30
0.0
 11
420.73068104684421
 21
40.029096514514151
 31
0.0
  0
LINE
  5
DF9E
  8
0
 10
455.33915519982042
 20
59.83294433555114
 30
0.0
 11
455.26932634413311
 21
59.969992474249061
 31
0.0
  0
LINE
  5
DF9F
  8
0
 10
445.0000039115555
 20
36.431812778642843
 30
0.0
 11
446.25000365078517
 21
37.153501160970393
 31
0.0
  0
LINE
  5
DFA0
  8
0
 10
446.25000365078517
 20
38.596876994302932
 30
0.0
 11
446.25000365078517
 21
37.153501160970393
 31
0.0
  0
LINE
  5
DFA1
  8
0
 10
446.25000365078517
 20
38.596876994302932
 30
0.0
 11
445.0000039115555
 21
39.318564445307921
 31
0.0
  0
LINE
  5
DFA2
  8
0
 10
445.0000039115555
 20
39.318564445307921
 30
0.0
 11
443.75000370666447
 21
38.596876994302932
 31
0.0
  0
LINE
  5
DFA3
  8
0
 10
443.75000370666447
 20
37.153501160970393
 30
0.0
 11
443.75000370666447
 21
38.596876994302932
 31
0.0
  0
LINE
  5
DFA4
  8
0
 10
443.75000370666447
 20
37.153501160970393
 30
0.0
 11
445.0000039115555
 21
36.431812778642843
 31
0.0
  0
CIRCLE
  5
DFA5
  8
0
 10
445.00000369548872
 20
37.875188841399471
 30
0.0
 40
2.7500000000000688
  0
LINE
  5
DFA6
  8
0
 10
446.25000365078517
 20
62.845587827792812
 30
0.0
 11
445.0000039115555
 21
63.567276210120369
 31
0.0
  0
LINE
  5
DFA7
  8
0
 10
443.75000370666447
 20
62.845587827792812
 30
0.0
 11
445.0000039115555
 21
63.567276210120369
 31
0.0
  0
LINE
  5
DFA8
  8
0
 10
443.75000370666447
 20
62.845587827792812
 30
0.0
 11
443.75000370666447
 21
61.402211994460281
 31
0.0
  0
LINE
  5
DFA9
  8
0
 10
443.75000370666447
 20
61.402211994460281
 30
0.0
 11
445.0000039115555
 21
60.680524543455292
 31
0.0
  0
LINE
  5
DFAA
  8
0
 10
446.25000365078517
 20
61.402211994460281
 30
0.0
 11
445.0000039115555
 21
60.680524543455292
 31
0.0
  0
LINE
  5
DFAB
  8
0
 10
446.25000365078517
 20
61.402211994460281
 30
0.0
 11
446.25000365078517
 21
62.845587827792812
 31
0.0
  0
CIRCLE
  5
DFAC
  8
0
 10
445.00000369548872
 20
62.123900147363827
 30
0.0
 40
2.7500000000000648
  0
LINE
  5
DFAD
  8
0
 10
422.7500035241253
 20
50.721232352840211
 30
0.0
 11
422.7500035241253
 21
49.277856635923001
 31
0.0
  0
LINE
  5
DFAE
  8
0
 10
424.00000326335498
 20
48.556168777464393
 30
0.0
 11
422.7500035241253
 21
49.277856635923001
 31
0.0
  0
LINE
  5
DFAF
  8
0
 10
424.00000326335498
 20
48.556168777464393
 30
0.0
 11
425.25000393390718
 21
49.277856635923001
 31
0.0
  0
LINE
  5
DFB0
  8
0
 10
425.25000393390718
 20
49.277856635923001
 30
0.0
 11
425.25000393390718
 21
50.721232352840211
 31
0.0
  0
LINE
  5
DFB1
  8
0
 10
424.00000326335498
 20
51.442920211298819
 30
0.0
 11
425.25000393390718
 21
50.721232352840211
 31
0.0
  0
LINE
  5
DFB2
  8
0
 10
424.00000326335498
 20
51.442920211298819
 30
0.0
 11
422.7500035241253
 21
50.721232352840211
 31
0.0
  0
CIRCLE
  5
DFB3
  8
0
 10
424.00000369548872
 20
49.999544494381617
 30
0.0
 40
2.750000000000056
  0
POLYLINE
  5
DFB4
  8
0
 66
     1
 10
0.0
 20
0.0
 30
0.0
 70
   128
  0
VERTEX
  5
116DE
  8
0
 10
439.25000366754898
 20
44.83448118396705
 30
0.0
  0
VERTEX
  5
116DF
  8
0
 10
439.26451285835418
 20
44.842857964864429
 30
0.0
  0
VERTEX
  5
116E0
  8
0
 10
439.37864888459512
 20
44.908754159292641
 30
0.0
  0
VERTEX
  5
116E1
  8
0
 10
439.59677953273132
 20
45.034692254445019
 30
0.0
  0
VERTEX
  5
116E2
  8
0
 10
439.89952269941642
 20
45.209481012603703
 30
0.0
  0
VERTEX
  5
116E3
  8
0
 10
440.25997852906647
 20
45.417590164175692
 30
0.0
  0
VERTEX
  5
116E4
  8
0
 10
440.64611907117143
 20
45.640528765103276
 30
0.0
  0
VERTEX
  5
116E5
  8
0
 10
441.02363370359012
 20
45.858486652901831
 30
0.0
  0
VERTEX
  5
116E6
  8
0
 10
441.35897874832222
 20
46.052098371616069
 30
0.0
  0
VERTEX
  5
116E7
  8
0
 10
441.6223574709154
 20
46.204160064986411
 30
0.0
  0
VERTEX
  5
116E8
  8
0
 10
441.7903673648841
 20
46.301160570761617
 30
0.0
  0
VERTEX
  5
116E9
  8
0
 10
441.84807979501852
 20
46.334480964174929
 30
0.0
  0
VERTEX
  5
116EA
  8
0
 10
441.84807979501852
 20
46.334480964174929
 30
0.0
  0
SEQEND
  5
116EB
  8
0
  0
POLYLINE
  5
DFB5
  8
0
 66
     1
 10
0.0
 20
0.0
 30
0.0
 70
   128
  0
VERTEX
  5
116EC
  8
0
 10
420.81450939178529
 20
39.900013343027297
 30
0.0
  0
VERTEX
  5
116ED
  8
0
 10
420.7723614573485
 20
39.9649153506071
 30
0.0
  0
VERTEX
  5
116EE
  8
0
 10
420.73068104684421
 20
40.029096514514151
 30
0.0
  0
SEQEND
  5
116EF
  8
0
  0
POLYLINE
  5
DFB6
  8
0
 66
     1
 10
0.0
 20
0.0
 30
0.0
 70
   128
  0
VERTEX
  5
116F0
  8
0
 10
455.18549799919202
 20
60.099075645735908
 30
0.0
  0
VERTEX
  5
116F1
  8
0
 10
455.22764593362882
 20
60.034173638156112
 30
0.0
  0
VERTEX
  5
116F2
  8
0
 10
455.26932634413311
 20
59.969992474249061
 30
0.0
  0
SEQEND
  5
116F3
  8
0
  0
LINE
  5
DFB7
  8
0
 10
453.61168485134908
 20
58.042122148504902
 30
0.0
 11
453.28118907830799
 21
57.448394962467667
 31
0.0
  0
ARC
  5
DFB8
  8
0
 10
452.72220021805128
 20
58.499409094833027
 30
0.0
 40
1.000147121255228
 50
332.7921564836173
 51
87.207847173491004
  0
LINE
  5
DFB9
  8
0
 10
452.09149137141139
 20
59.50901214926742
 30
0.0
 11
452.77092035859891
 21
59.498368859818633
 31
0.0
  0
LINE
  5
DFBA
  8
0
 10
422.38832253962818
 20
41.956966840258303
 30
0.0
 11
422.71882005990869
 21
42.550690441865541
 31
0.0
  0
ARC
  5
DFBB
  8
0
 10
423.27780717292609
 20
41.499679893930178
 30
0.0
 40
1.000147121255202
 50
152.79215648361651
 51
267.20784717349102
  0
LINE
  5
DFBC
  8
0
 10
423.90851536864739
 20
40.490077804051623
 30
0.0
 11
423.2290870323784
 21
40.500720128944579
 31
0.0
  0
POLYLINE
  5
DFBD
  8
0
 66
     1
 10
0.0
 20
0.0
 30
0.0
 70
   128
  0
VERTEX
  5
116F4
  8
0
 10
425.45870173637633
 20
38.52279647195094
 30
0.0
  0
VERTEX
  5
116F5
  8
0
 10
423.18776983767822
 20
38.533068359425727
 30
0.0
  0
VERTEX
  5
116F6
  8
0
 10
423.18771023303339
 20
38.53307115339345
 30
0.0
  0
VERTEX
  5
116F7
  8
0
 10
423.18771023303339
 20
38.53307115339345
 30
0.0
  0
SEQEND
  5
116F8
  8
0
  0
POLYLINE
  5
DFBE
  8
0
 66
     1
 10
0.0
 20
0.0
 30
0.0
 70
   128
  0
VERTEX
  5
116F9
  8
0
 10
423.18771023303339
 20
38.53307115339345
 30
0.0
  0
VERTEX
  5
116FA
  8
0
 10
423.18765062838861
 20
38.533073947361181
 30
0.0
  0
VERTEX
  5
116FB
  8
0
 10
423.13372891396352
 20
38.536170594921771
 30
0.0
  0
SEQEND
  5
116FC
  8
0
  0
ARC
  5
DFBF
  8
0
 10
423.3341087113813
 20
41.530759128314493
 30
0.0
 40
3.001285149321931
 50
212.91192350714689
 51
266.17181884486848
  0
POLYLINE
  5
DFC0
  8
0
 66
     1
 10
0.0
 20
0.0
 30
0.0
 70
   128
  0
VERTEX
  5
116FD
  8
0
 10
420.63484795391628
 20
42.847587358734067
 30
0.0
  0
VERTEX
  5
116FE
  8
0
 10
420.66357180476263
 20
42.904905606588777
 30
0.0
  0
VERTEX
  5
116FF
  8
0
 10
420.66359974443981
 20
42.90495869197553
 30
0.0
  0
SEQEND
  5
11700
  8
0
  0
ARC
  5
DFC1
  8
0
 10
441.93278329128623
 20
31.976530604187399
 30
0.0
 40
23.91252201712307
 50
147.3764022347213
 51
152.80521581931461
  0
ARC
  5
DFC2
  8
0
 10
423.33289866778938
 20
41.532905212602273
 30
0.0
 40
3.001310846944786
 50
154.02136389767341
 51
207.089899721585
  0
POLYLINE
  5
DFC3
  8
0
 66
     1
 10
0.0
 20
0.0
 30
0.0
 70
   128
  0
VERTEX
  5
11701
  8
0
 10
455.36515943706098
 20
57.151501630029131
 30
0.0
  0
VERTEX
  5
11702
  8
0
 10
455.33643558621469
 20
57.094183382174421
 30
0.0
  0
VERTEX
  5
11703
  8
0
 10
455.33640764653751
 20
57.094130296787668
 30
0.0
  0
SEQEND
  5
11704
  8
0
  0
ARC
  5
DFC4
  8
0
 10
434.13144656036388
 20
67.988537197462904
 30
0.0
 40
23.839850594825741
 50
327.36253655546182
 51
332.80740206771412
  0
ARC
  5
DFC5
  8
0
 10
452.66710872318799
 20
58.466183776160939
 30
0.0
 40
3.0013108469447598
 50
334.02136389767338
 51
27.089899721584079
  0
POLYLINE
  5
DFC6
  8
0
 66
     1
 10
0.0
 20
0.0
 30
0.0
 70
   128
  0
VERTEX
  5
11705
  8
0
 10
450.54130565855291
 20
61.476292512493927
 30
0.0
  0
VERTEX
  5
11706
  8
0
 10
452.81223755329921
 20
61.466020629337478
 30
0.0
  0
VERTEX
  5
11707
  8
0
 10
452.81229715794387
 20
61.466017835369762
 30
0.0
  0
VERTEX
  5
11708
  8
0
 10
452.81229715794387
 20
61.466017835369762
 30
0.0
  0
SEQEND
  5
11709
  8
0
  0
POLYLINE
  5
DFC7
  8
0
 66
     1
 10
0.0
 20
0.0
 30
0.0
 70
   128
  0
VERTEX
  5
1170A
  8
0
 10
452.81229715794387
 20
61.466017835369762
 30
0.0
  0
VERTEX
  5
1170B
  8
0
 10
452.81235676258871
 20
61.466015041402031
 30
0.0
  0
VERTEX
  5
1170C
  8
0
 10
452.86627847701379
 20
61.462918393841441
 30
0.0
  0
SEQEND
  5
1170D
  8
0
  0
ARC
  5
DFC8
  8
0
 10
452.66589867959601
 20
58.468329860448712
 30
0.0
 40
3.0012851493219381
 50
32.911923507146511
 51
86.171818844868525
  0
POLYLINE
  5
DFC9
  8
0
 66
     1
 10
0.0
 20
0.0
 30
0.0
 70
   128
  0
VERTEX
  5
1170E
  8
0
 10
438.90728831058442
 20
47.296710642582241
 30
0.0
  0
VERTEX
  5
1170F
  8
0
 10
438.80384666146779
 20
46.910661137259069
 30
0.0
  0
VERTEX
  5
11710
  8
0
 10
438.71754146413952
 20
46.588565785965379
 30
0.0
  0
VERTEX
  5
11711
  8
0
 10
438.6701033846482
 20
46.411524391329351
 30
0.0
  0
VERTEX
  5
11712
  8
0
 10
438.6664771055809
 20
46.397990877336319
 30
0.0
  0
SEQEND
  5
11713
  8
0
  0
POLYLINE
  5
DFCA
  8
0
 66
     1
 10
0.0
 20
0.0
 30
0.0
 70
   128
  0
VERTEX
  5
11714
  8
0
 10
435.21420343779101
 20
52.377504161155279
 30
0.0
  0
VERTEX
  5
11715
  8
0
 10
435.35443244502022
 20
52.339929951882418
 30
0.0
  0
VERTEX
  5
11716
  8
0
 10
435.57801412418547
 20
52.280021463117059
 30
0.0
  0
VERTEX
  5
11717
  8
0
 10
435.87474257685312
 20
52.200513290768917
 30
0.0
  0
VERTEX
  5
11718
  8
0
 10
436.11292320303693
 20
52.13669301435953
 30
0.0
  0
SEQEND
  5
11719
  8
0
  0
LINE
  5
DFCB
  8
0
 10
436.11292320303693
 20
52.13669301435953
 30
0.0
 11
436.32043211720952
 21
52.109433668261829
 31
0.0
  0
LINE
  5
DFCC
  8
0
 10
438.98743554484167
 20
47.490048086798247
 30
0.0
 11
438.90728831058442
 21
47.296710642582241
 31
0.0
  0
POLYLINE
  5
DFCD
  8
0
 66
     1
 10
0.0
 20
0.0
 30
0.0
 70
   128
  0
VERTEX
  5
1171A
  8
0
 10
437.0927190803929
 20
52.702378346180978
 30
0.0
  0
VERTEX
  5
1171B
  8
0
 10
437.19616072950947
 20
53.08842785150415
 30
0.0
  0
VERTEX
  5
1171C
  8
0
 10
437.28246592683792
 20
53.410523202797833
 30
0.0
  0
VERTEX
  5
1171D
  8
0
 10
437.32990400632912
 20
53.587564597433868
 30
0.0
  0
VERTEX
  5
1171E
  8
0
 10
437.33353028539642
 20
53.6010981114269
 30
0.0
  0
SEQEND
  5
1171F
  8
0
  0
POLYLINE
  5
DFCE
  8
0
 66
     1
 10
0.0
 20
0.0
 30
0.0
 70
   128
  0
VERTEX
  5
11720
  8
0
 10
440.78580395318642
 20
47.621584827607933
 30
0.0
  0
VERTEX
  5
11721
  8
0
 10
440.64557494595709
 20
47.659159036880787
 30
0.0
  0
VERTEX
  5
11722
  8
0
 10
440.42199326679179
 20
47.719067525646153
 30
0.0
  0
VERTEX
  5
11723
  8
0
 10
440.12526481412419
 20
47.798575697994288
 30
0.0
  0
VERTEX
  5
11724
  8
0
 10
439.88708418794039
 20
47.862395974403682
 30
0.0
  0
SEQEND
  5
11725
  8
0
  0
LINE
  5
DFCF
  8
0
 10
439.88708418794039
 20
47.862395974403682
 30
0.0
 11
439.6795752737678
 21
47.88965532050139
 31
0.0
  0
LINE
  5
DFD0
  8
0
 10
437.01257184613559
 20
52.509040901964958
 30
0.0
 11
437.0927190803929
 21
52.702378346180978
 31
0.0
  0
ARC
  5
DFD1
  8
0
 10
436.31997844231921
 20
52.909433590869789
 30
0.0
 40
0.8000000000000126
 50
270.03248864107832
 51
329.967511358926
  0
ARC
  5
DFD2
  8
0
 10
439.68002894865799
 20
47.089655397893431
 30
0.0
 40
0.8000000000000063
 50
90.032488641078317
 51
149.96751135892549
  0
LINE
  5
DFD3
  8
0
 10
435.21420343779101
 20
52.377504161155279
 30
0.0
 11
434.8566749878234
 21
52.473303726470533
 31
0.0
  0
LINE
  5
DFD4
  8
0
 10
438.6664771055809
 20
46.397990877336319
 30
0.0
 11
438.57067759847342
 21
46.040462427368823
 31
0.0
  0
LINE
  5
DFD5
  8
0
 10
441.14333240315392
 20
47.525785262292679
 30
0.0
 11
440.78580395318642
 21
47.621584827607933
 31
0.0
  0
LINE
  5
DFD6
  8
0
 10
437.42932979250389
 20
53.958626561394382
 30
0.0
 11
437.33353028539642
 21
53.6010981114269
 31
0.0
  0
CIRCLE
  5
DFD7
  8
0
 10
438.00000369548872
 20
49.99954449438161
 30
0.0
 40
7.999999999999992
  0
CIRCLE
  5
DFD8
  8
0
 10
438.00000369548872
 20
49.99954449438161
 30
0.0
 40
8.9999999999999911
  0
ARC
  5
DFD9
  8
0
 10
432.50000369548872
 20
49.99954449438161
 30
0.0
 40
1.5
 50
90.0
 51
180.0
  0
ARC
  5
DFDA
  8
0
 10
438.00000369548872
 20
49.99954449438161
 30
0.0
 40
7.0000000000000071
 50
180.0
 51
300.0
  0
ARC
  5
DFDB
  8
0
 10
440.7500036954886
 20
45.23640477356723
 30
0.0
 40
1.4999999999999929
 50
300.0
 51
29.999999999999218
  0
LINE
  5
DFDC
  8
0
 10
442.04904174432232
 20
45.986404739847842
 30
0.0
 11
441.15309149958262
 21
47.538236346623357
 31
0.0
  0
LINE
  5
DFDD
  8
0
 10
434.29190444760093
 20
51.499544507420119
 30
0.0
 11
432.50000372529098
 21
51.499544507420119
 31
0.0
  0
CIRCLE
  5
DFDE
  8
0
 10
438.00000369548872
 20
49.99954449438161
 30
0.0
 40
17.000000000000011
  0
CIRCLE
  5
DFDF
  8
0
 10
438.00000369548872
 20
49.99954449438161
 30
0.0
 40
4.0
  0
CIRCLE
  5
DFE0
  8
1
 10
438.00000369548872
 20
49.99954449438161
 30
0.0
 40
14.0
  0
LINE
  5
DFE1
  8
1
 10
460.00000369548872
 20
49.999544494381702
 30
0.0
 11
416.00000369548872
 21
49.999544494381702
 31
0.0
  0
LINE
  5
DFE2
  8
1
 10
442.6250036954882
 20
58.010279479387883
 30
0.0
 11
447.37500369548849
 21
66.237520815340076
 31
0.0
  0
LINE
  5
DFEA
  8
1
 10
438.00000369548889
 20
71.99954449438161
 30
0.0
 11
438.00000369548889
 21
27.999544494381599
 31
0.0
  0
LINE
  5
E0BD
  8
1
 10
438.00000369548798
 20
222.71091666633151
 30
0.0
 11
438.00000369548798
 21
172.8291244376264
 31
0.0
  0
LINE
  5
E0BE
  8
1
 10
462.9408998098404
 20
197.77002055197889
 30
0.0
 11
413.05910758113561
 21
197.77002055197889
 31
0.0
  0
LINE
  5
E39A
  8
1
 10
247.5
 20
-33.094764855300546
 30
0.0
 11
247.5
 21
-71.094764855300554
 31
0.0
  0
LINE
  5
E39B
  8
1
 10
266.5
 20
-52.094764855300546
 30
0.0
 11
228.5
 21
-52.094764855300546
 31
0.0
  0
CIRCLE
  5
E39C
  8
0
 10
247.5
 20
-52.094764855300546
 30
0.0
 40
9.0
  0
CIRCLE
  5
E39D
  8
1
 10
247.5
 20
-52.094764855300546
 30
0.0
 40
14.0
  0
CIRCLE
  5
E39F
  8
0
 10
233.5
 20
-52.094764855300546
 30
0.0
 40
1.7
  0
CIRCLE
  5
E3A0
  8
2
 10
233.5
 20
-52.094764855300546
 30
0.0
 40
3.25
  0
LINE
  5
E3A1
  8
1
 10
251.875
 20
-44.51704257218671
 30
0.0
 11
257.125
 21
-35.423775832450133
 31
0.0
  0
LINE
  5
E3A2
  8
1
 10
251.875
 20
-59.67248713841439
 30
0.0
 11
257.125
 21
-68.765753878151003
 31
0.0
  0
CIRCLE
  5
E3A3
  8
2
 10
254.5
 20
-39.970409202318422
 30
0.0
 40
3.25
  0
CIRCLE
  5
E3A4
  8
0
 10
254.5
 20
-39.970409202318422
 30
0.0
 40
1.7
  0
CIRCLE
  5
E3A6
  8
0
 10
254.5
 20
-64.219120508282685
 30
0.0
 40
1.7
  0
CIRCLE
  5
E3A7
  8
2
 10
254.5
 20
-64.219120508282685
 30
0.0
 40
3.25
  0
LINE
  5
E3AA
  8
1
 10
247.5
 20
-90.373270445642973
 30
0.0
 11
247.5
 21
-106.373270445643
 31
0.0
  0
LINE
  5
E3AB
  8
0
 10
238.5
 20
-96.373270445642987
 30
0.0
 11
238.5
 21
-100.3732704456429
 31
0.0
  0
LINE
  5
E3AC
  8
0
 10
256.5
 20
-96.373270445642945
 30
0.0
 11
256.5
 21
-100.373270445643
 31
0.0
  0
LINE
  5
E3AE
  8
1
 10
233.5
 20
-93.373270445642987
 30
0.0
 11
233.5
 21
-103.373270445643
 31
0.0
  0
LINE
  5
EDBA
  8
0
 10
225.0
 20
-95.373270445642973
 30
0.0
 11
270.0
 21
-95.373270445642973
 31
0.0
  0
LINE
  5
EDBB
  8
0
 10
225.0
 20
-101.373270445643
 30
0.0
 11
270.0
 21
-101.373270445643
 31
0.0
  0
LINE
  5
EE04
  8
0
 10
238.5
 20
-96.373270445642987
 30
0.0
 11
256.5
 21
-96.373270445642987
 31
0.0
  0
LINE
  5
EE05
  8
0
 10
238.5
 20
-100.373270445643
 30
0.0
 11
256.5
 21
-100.373270445643
 31
0.0
  0
LINE
  5
EE08
  8
0
 10
257.5
 20
-101.373270445643
 30
0.0
 11
256.5
 21
-100.373270445643
 31
0.0
  0
LINE
  5
EE09
  8
0
 10
257.5
 20
-95.373270445642973
 30
0.0
 11
256.5
 21
-96.373270445642987
 31
0.0
  0
LINE
  5
EE0A
  8
0
 10
237.5
 20
-95.373270445642973
 30
0.0
 11
238.5
 21
-96.373270445642987
 31
0.0
  0
LINE
  5
EE0B
  8
0
 10
238.5
 20
-100.373270445643
 30
0.0
 11
237.5
 21
-101.373270445643
 31
0.0
  0
LINE
  5
EE0C
  8
0
 10
231.80000000000001
 20
-97.873270445643001
 30
0.0
 11
231.80000000000001
 21
-95.873270445642987
 31
0.0
  0
LINE
  5
EE0D
  8
0
 10
235.19999999999999
 20
-97.873270445643001
 30
0.0
 11
235.19999999999999
 21
-95.873270445642987
 31
0.0
  0
LINE
  5
EE0E
  8
0
 10
236.75
 20
-97.873270445643001
 30
0.0
 11
236.75
 21
-100.873270445643
 31
0.0
  0
LINE
  5
EE0F
  8
0
 10
230.25
 20
-97.873270445643001
 30
0.0
 11
230.25
 21
-100.873270445643
 31
0.0
  0
LINE
  5
EE10
  8
0
 10
230.25
 20
-97.873270445643001
 30
0.0
 11
236.75
 21
-97.87327044564293
 31
0.0
  0
LINE
  5
EE15
  8
0
 10
231.80000000000001
 20
-95.873270445642987
 30
0.0
 11
235.19999999999999
 21
-95.873270445642987
 31
0.0
  0
LINE
  5
EE16
  8
0
 10
231.30000000000001
 20
-95.373270445642973
 30
0.0
 11
231.80000000000001
 21
-95.873270445642987
 31
0.0
  0
LINE
  5
EE17
  8
0
 10
235.19999999999999
 20
-95.873270445642987
 30
0.0
 11
235.69999999999999
 21
-95.373270445642973
 31
0.0
  0
LINE
  5
EE1A
  8
0
 10
230.25
 20
-100.873270445643
 30
0.0
 11
236.75
 21
-100.873270445643
 31
0.0
  0
LINE
  5
EE1B
  8
0
 10
230.25
 20
-100.873270445643
 30
0.0
 11
229.75
 21
-101.373270445643
 31
0.0
  0
LINE
  5
EE1C
  8
0
 10
236.75
 20
-100.873270445643
 30
0.0
 11
237.25
 21
-101.373270445643
 31
0.0
  0
LINE
  5
EE26
  8
1
 10
163.49999999999989
 20
-93.373270445642987
 30
0.0
 11
163.49999999999989
 21
-103.373270445643
 31
0.0
  0
LINE
  5
EE27
  8
0
 10
154.99999999999989
 20
-95.373270445642973
 30
0.0
 11
199.99999999999989
 21
-95.373270445642973
 31
0.0
  0
LINE
  5
EE28
  8
0
 10
161.79999999999981
 20
-95.873270445642987
 30
0.0
 11
162.0000002533196
 21
-95.87327044564293
 31
0.0
  0
LINE
  5
EE29
  8
0
 10
160.2499999999998
 20
-97.873270445643001
 30
0.0
 11
166.7499999999998
 21
-97.87327044564293
 31
0.0
  0
LINE
  5
EE2B
  8
0
 10
154.99999999999989
 20
-101.373270445643
 30
0.0
 11
173.49999981001
 21
-101.373270445643
 31
0.0
  0
LINE
  5
EE2C
  8
0
 10
160.24999999999989
 20
-100.873270445643
 30
0.0
 11
166.74999999999989
 21
-100.873270445643
 31
0.0
  0
LINE
  5
EE2D
  8
0
 10
168.49999999999989
 20
-100.373270445643
 30
0.0
 11
168.9999999699647
 21
-100.3732704456429
 31
0.0
  0
LINE
  5
EE2E
  8
0
 10
187.49999999999989
 20
-101.373270445643
 30
0.0
 11
186.49999999999989
 21
-100.373270445643
 31
0.0
  0
LINE
  5
EE2F
  8
0
 10
187.49999999999989
 20
-95.373270445642973
 30
0.0
 11
186.49999999999989
 21
-96.373270445642987
 31
0.0
  0
LINE
  5
EE30
  8
0
 10
167.49999999999989
 20
-95.373270445642973
 30
0.0
 11
168.49999999999989
 21
-96.373270445642987
 31
0.0
  0
LINE
  5
EE31
  8
0
 10
168.49999999999989
 20
-100.373270445643
 30
0.0
 11
167.49999999999989
 21
-101.373270445643
 31
0.0
  0
LINE
  5
EE32
  8
0
 10
161.7999999999999
 20
-97.873270445643001
 30
0.0
 11
161.79999999999981
 21
-95.873270445642987
 31
0.0
  0
LINE
  5
EE33
  8
0
 10
165.1999999999999
 20
-97.873270445643001
 30
0.0
 11
165.1999999999999
 21
-95.873270445642987
 31
0.0
  0
LINE
  5
EE34
  8
0
 10
166.74999999999989
 20
-97.873270445643001
 30
0.0
 11
166.74999999999989
 21
-100.873270445643
 31
0.0
  0
LINE
  5
EE35
  8
0
 10
160.24999999999989
 20
-97.873270445643001
 30
0.0
 11
160.24999999999989
 21
-100.873270445643
 31
0.0
  0
LINE
  5
EE36
  8
0
 10
161.2999999999999
 20
-95.373270445642973
 30
0.0
 11
161.7999999999999
 21
-95.873270445642987
 31
0.0
  0
LINE
  5
EE37
  8
0
 10
165.1999999999999
 20
-95.873270445642987
 30
0.0
 11
165.69999999999979
 21
-95.373270445642973
 31
0.0
  0
LINE
  5
EE38
  8
0
 10
160.24999999999989
 20
-100.873270445643
 30
0.0
 11
159.74999999999989
 21
-101.373270445643
 31
0.0
  0
LINE
  5
EE39
  8
0
 10
166.74999999999989
 20
-100.873270445643
 30
0.0
 11
167.24999999999989
 21
-101.373270445643
 31
0.0
  0
LINE
  5
EE3E
  8
0
 10
166.24999955296499
 20
-100.8732704740483
 30
0.0
 11
166.24999955296499
 21
-97.873270389763647
 31
0.0
  0
LINE
  5
EE3F
  8
0
 10
160.74999958276729
 20
-97.873270389763647
 30
0.0
 11
160.74999958276729
 21
-100.8732704740483
 31
0.0
  0
LINE
  5
EE40
  8
0
 10
164.99999981373529
 20
-97.873270389763647
 30
0.0
 11
164.99999981373529
 21
-95.373270445642973
 31
0.0
  0
LINE
  5
EE41
  8
0
 10
162.0000002533196
 20
-95.373270445642973
 30
0.0
 11
162.0000002533196
 21
-97.873270389763647
 31
0.0
  0
LINE
  5
EE42
  8
0
 10
184.99999983236179
 20
-79.373270617006341
 30
0.0
 11
184.99999983236179
 21
-77.773269609687844
 31
0.0
  0
LINE
  5
EE43
  8
0
 10
170.00000016763789
 20
-77.773269609687844
 30
0.0
 11
170.00000016763789
 21
-79.373270617006341
 31
0.0
  0
POLYLINE
  5
EE44
  8
0
 66
     1
 10
0.0
 20
0.0
 30
0.0
 70
   128
  0
VERTEX
  5
11726
  8
0
 10
174.8203795962034
 20
-108.459894889174
 30
0.0
  0
VERTEX
  5
11727
  8
0
 10
174.48902526870361
 20
-108.8146924685221
 30
0.0
  0
VERTEX
  5
11728
  8
0
 10
174.1675124596803
 20
-109.1457706588786
 30
0.0
  0
SEQEND
  5
11729
  8
0
  0
LINE
  5
EE45
  8
0
 10
181.50000018998949
 20
-106.2019503388089
 30
0.0
 11
181.50000018998961
 21
-100.8732704740483
 31
0.0
  0
LINE
  5
EE46
  8
0
 10
173.49999981001
 20
-100.8732704740483
 30
0.0
 11
173.49999981001
 21
-106.201950338809
 31
0.0
  0
LINE
  5
EE47
  8
0
 10
194.5000009238718
 20
-94.873270363686586
 30
0.0
 11
194.5000009238718
 21
-82.803255290864016
 31
0.0
  0
LINE
  5
EE48
  8
0
 10
160.49999907612789
 20
-82.803255290864016
 30
0.0
 11
160.49999907612789
 21
-94.873270363686586
 31
0.0
  0
LINE
  5
EE49
  8
0
 10
160.49999907612789
 20
-94.873270363686586
 30
0.0
 11
161.0000000894068
 21
-95.373270445642973
 31
0.0
  0
LINE
  5
EE4A
  8
0
 10
193.99999991059289
 20
-95.373270445642973
 30
0.0
 11
194.5000009238718
 21
-94.873270363686586
 31
0.0
  0
ARC
  5
EE4B
  8
0
 10
161.49999999999989
 20
-82.803254793003248
 30
0.0
 40
1.00000000000001
 50
109.9999999999964
 51
180.0
  0
ARC
  5
EE4C
  8
0
 10
193.49999999999989
 20
-82.803254793003248
 30
0.0
 40
1.00000000000001
 50
0.0
 51
70.000000000003539
  0
LINE
  5
EE4D
  8
0
 10
193.8420196622609
 20
-81.863561988947893
 30
0.0
 11
187.165693162617
 21
-79.433577877011118
 31
0.0
  0
LINE
  5
EE4E
  8
0
 10
167.8343068435787
 20
-79.433577479002992
 30
0.0
 11
161.15798033773879
 21
-81.863561988947893
 31
0.0
  0
ARC
  5
EE4F
  8
0
 10
168.1763269807083
 20
-80.373270497797051
 30
0.0
 40
1.0
 50
90.0
 51
109.9999999999964
  0
ARC
  5
EE50
  8
0
 10
186.82367301929139
 20
-80.373270497797051
 30
0.0
 40
1.0
 50
70.000000000003539
 51
90.0
  0
ARC
  5
EE51
  8
0
 10
186.89999999999981
 20
-95.773270497797014
 30
0.0
 40
0.3999999999999915
 50
90.0
 51
180.0
  0
ARC
  5
EE52
  8
0
 10
168.09999999999991
 20
-95.773270497797014
 30
0.0
 40
0.3999999999999915
 50
0.0
 51
90.0
  0
LINE
  5
EE53
  8
0
 10
186.4999996125697
 20
-100.373270445643
 30
0.0
 11
186.4999996125697
 21
-95.773270697472597
 31
0.0
  0
LINE
  5
EE54
  8
0
 10
168.50000038742999
 20
-95.773270697472597
 30
0.0
 11
168.50000038742999
 21
-100.3732704456429
 31
0.0
  0
LINE
  5
EE55
  8
0
 10
168.50000038742999
 20
-99.873270484758535
 30
0.0
 11
169.49999962002019
 21
-100.8732704740483
 31
0.0
  0
LINE
  5
EE5A
  8
1
 10
177.49999999999969
 20
-116.6732706959825
 30
0.0
 11
177.49999999999989
 21
-58.9032501440036
 31
0.0
  0
LINE
  5
EE5B
  8
0
 10
184.9266497977076
 20
-66.852312878845282
 30
0.0
 11
185.4724117889773
 21
-77.24778076403166
 31
0.0
  0
LINE
  5
EE5C
  8
0
 10
170.07335036068719
 20
-66.852311246608338
 30
0.0
 11
169.52758818864811
 21
-77.247780160186807
 31
0.0
  0
ARC
  5
EE5D
  8
0
 10
173.06922956760869
 20
-67.009598597010836
 30
0.0
 40
3.0000052555057062
 50
93.000093750172397
 51
176.99466022465509
  0
ARC
  5
EE5E
  8
0
 10
181.9307782183966
 20
-67.009591985037446
 30
0.0
 40
2.9999972061600588
 50
3.0051901766216549
 51
87.000049434053366
  0
ARC
  5
EE5F
  8
0
 10
179.96324587648431
 20
-17.222532427745818
 30
0.0
 40
46.745662758729857
 50
266.9794205300509
 51
271.27084544937719
  0
LINE
  5
EE60
  8
0
 10
181.0000001080333
 20
-63.956696883915008
 30
0.0
 11
182.087783356096
 21
-64.013706035321661
 31
0.0
  0
LINE
  5
EE61
  8
0
 10
172.91221652179939
 20
-64.013705001352378
 30
0.0
 11
173.99999989196641
 21
-63.956696883915008
 31
0.0
  0
ARC
  5
EE62
  8
0
 10
175.0384027723145
 20
-17.330495438858009
 30
0.0
 40
46.637763043878408
 50
268.72418796518411
 51
273.02554605539189
  0
LINE
  5
EE63
  8
0
 10
185.00001647828611
 20
-77.773269609687844
 30
0.0
 11
169.99998352134179
 21
-77.773269609687873
 31
0.0
  0
ARC
  5
EE64
  8
0
 10
184.97309943031971
 20
-77.273994662861185
 30
0.0
 40
0.4999999999999941
 50
273.0840672780181
 51
3.0052693596903901
  0
ARC
  5
EE65
  8
0
 10
170.02689992995749
 20
-77.273995186584045
 30
0.0
 40
0.4999994426181066
 50
176.99459789922491
 51
266.91600269387419
  0
LINE
  5
EE66
  8
0
 10
174.16813202202309
 20
-109.146362980036
 30
0.0
 11
173.78599733114231
 21
-109.5639358918648
 31
0.0
  0
ARC
  5
EE67
  8
0
 10
182.60617842113311
 20
-128.64360196999741
 30
0.0
 40
21.01973482499902
 50
101.7170705944183
 51
114.81023835955671
  0
ARC
  5
EE68
  8
0
 10
187.35674959239941
 20
-108.0563303283046
 30
0.0
 40
6.1433084496929924
 50
162.43102916268049
 51
179.2253156705554
  0
LINE
  5
EE69
  8
0
 10
181.2140026688574
 20
-107.97327046203419
 30
0.0
 11
181.2140026688574
 21
-109.67327036815691
 31
0.0
  0
LINE
  5
EE6A
  8
0
 10
173.78599733114231
 20
-109.67327036815691
 30
0.0
 11
181.2140026688574
 21
-109.67327036815691
 31
0.0
  0
LINE
  5
EE6B
  8
0
 10
178.37615475058541
 20
-108.0618690412026
 30
0.0
 11
178.3375109755433
 21
-108.0618690412026
 31
0.0
  0
LINE
  5
EE6C
  8
0
 10
178.74292180407781
 20
-108.0618690412026
 30
0.0
 11
178.37615475058541
 21
-108.0618690412026
 31
0.0
  0
POLYLINE
  5
EE6D
  8
0
 66
     1
 10
0.0
 20
0.0
 30
0.0
 70
   128
  0
VERTEX
  5
1172A
  8
0
 10
179.07262757420531
 20
-108.15658408137971
 30
0.0
  0
VERTEX
  5
1172B
  8
0
 10
178.88915027491731
 20
-108.10338600459509
 30
0.0
  0
VERTEX
  5
1172C
  8
0
 10
178.74292180407781
 20
-108.0618690412026
 30
0.0
  0
SEQEND
  5
1172D
  8
0
  0
POLYLINE
  5
EE6E
  8
0
 66
     1
 10
0.0
 20
0.0
 30
0.0
 70
   128
  0
VERTEX
  5
1172E
  8
0
 10
179.87872707657499
 20
-104.7893156010192
 30
0.0
  0
VERTEX
  5
1172F
  8
0
 10
180.1336777955292
 20
-104.96762336152599
 30
0.0
  0
VERTEX
  5
11730
  8
0
 10
180.3745133895425
 20
-105.2876495468896
 30
0.0
  0
VERTEX
  5
11731
  8
0
 10
180.55823911912719
 20
-105.764159810869
 30
0.0
  0
VERTEX
  5
11732
  8
0
 10
180.64263557083891
 20
-106.3769947450142
 30
0.0
  0
VERTEX
  5
11733
  8
0
 10
180.5951872467993
 20
-107.0228697444778
 30
0.0
  0
VERTEX
  5
11734
  8
0
 10
180.40630199015121
 20
-107.60711354124361
 30
0.0
  0
VERTEX
  5
11735
  8
0
 10
180.0671969633548
 20
-108.0466889488976
 30
0.0
  0
VERTEX
  5
11736
  8
0
 10
179.903110032901
 20
-108.154304203717
 30
0.0
  0
VERTEX
  5
11737
  8
0
 10
179.57435339689241
 20
-108.2485614988487
 30
0.0
  0
VERTEX
  5
11738
  8
0
 10
179.21627337113009
 20
-108.2094128887634
 30
0.0
  0
VERTEX
  5
11739
  8
0
 10
179.07262757420531
 20
-108.15658408137971
 30
0.0
  0
SEQEND
  5
1173A
  8
0
  0
LINE
  5
EE6F
  8
0
 10
179.6654823794959
 20
-104.7195222872775
 30
0.0
 11
179.87872707657499
 21
-104.7893156010192
 31
0.0
  0
POLYLINE
  5
EE70
  8
0
 66
     1
 10
0.0
 20
0.0
 30
0.0
 70
   128
  0
VERTEX
  5
1173B
  8
0
 10
179.28409507498131
 20
-104.60265993061471
 30
0.0
  0
VERTEX
  5
1173C
  8
0
 10
179.5001858938484
 20
-104.66770303356461
 30
0.0
  0
VERTEX
  5
1173D
  8
0
 10
179.6654823794959
 20
-104.7195222872775
 30
0.0
  0
SEQEND
  5
1173E
  8
0
  0
POLYLINE
  5
EE71
  8
0
 66
     1
 10
0.0
 20
0.0
 30
0.0
 70
   128
  0
VERTEX
  5
1173F
  8
0
 10
178.86808061506579
 20
-104.5175233102869
 30
0.0
  0
VERTEX
  5
11740
  8
0
 10
178.97706980351339
 20
-104.5230670079123
 30
0.0
  0
VERTEX
  5
11741
  8
0
 10
179.28409507498131
 20
-104.60265993061471
 30
0.0
  0
SEQEND
  5
11742
  8
0
  0
LINE
  5
EE72
  8
0
 10
178.86808061506579
 20
-104.5175233102869
 30
0.0
 11
178.1945927161722
 21
-104.5175233102869
 31
0.0
  0
LINE
  5
EE73
  8
0
 10
178.1945927161722
 20
-104.5175233102869
 30
0.0
 11
178.1945927161722
 21
-104.5219594325404
 31
0.0
  0
POLYLINE
  5
EE74
  8
0
 66
     1
 10
0.0
 20
0.0
 30
0.0
 70
   128
  0
VERTEX
  5
11743
  8
0
 10
177.7457071968818
 20
-104.604966816632
 30
0.0
  0
VERTEX
  5
11744
  8
0
 10
177.7765999524853
 20
-104.5936875689309
 30
0.0
  0
VERTEX
  5
11745
  8
0
 10
178.1945927161722
 20
-104.5219594325404
 30
0.0
  0
SEQEND
  5
11746
  8
0
  0
POLYLINE
  5
EE75
  8
0
 66
     1
 10
0.0
 20
0.0
 30
0.0
 70
   128
  0
VERTEX
  5
11747
  8
0
 10
173.5417398251592
 20
-106.20021947580391
 30
0.0
  0
VERTEX
  5
11748
  8
0
 10
173.5723570547996
 20
-106.1509548399131
 30
0.0
  0
VERTEX
  5
11749
  8
0
 10
173.59774886630461
 20
-106.1175208251457
 30
0.0
  0
VERTEX
  5
1174A
  8
0
 10
173.65979660302389
 20
-106.0504651341121
 30
0.0
  0
VERTEX
  5
1174B
  8
0
 10
173.69636777788389
 20
-106.016934261797
 30
0.0
  0
VERTEX
  5
1174C
  8
0
 10
173.73660300858299
 20
-105.9834308634977
 30
0.0
  0
VERTEX
  5
1174D
  8
0
 10
173.8279664516447
 20
-105.91659868988209
 30
0.0
  0
VERTEX
  5
1174E
  8
0
 10
173.8789754547177
 20
-105.8833602528553
 30
0.0
  0
VERTEX
  5
1174F
  8
0
 10
173.93349251709861
 20
-105.85026943045671
 30
0.0
  0
VERTEX
  5
11750
  8
0
 10
174.05290856026099
 20
-105.78451665970491
 30
0.0
  0
VERTEX
  5
11751
  8
0
 10
174.11759450100351
 20
-105.7515292141121
 30
0.0
  0
VERTEX
  5
11752
  8
0
 10
174.1855191159992
 20
-105.7183755274396
 30
0.0
  0
VERTEX
  5
11753
  8
0
 10
174.3308932147919
 20
-105.6516597691457
 30
0.0
  0
VERTEX
  5
11754
  8
0
 10
174.4884338788687
 20
-105.58463946837
 30
0.0
  0
VERTEX
  5
11755
  8
0
 10
174.57155046053219
 20
-105.55110580208709
 30
0.0
  0
VERTEX
  5
11756
  8
0
 10
174.7462530713527
 20
-105.4840808446984
 30
0.0
  0
VERTEX
  5
11757
  8
0
 10
174.93162863887829
 20
-105.41735437619499
 30
0.0
  0
VERTEX
  5
11758
  8
0
 10
175.0280719809233
 20
-105.3841932389419
 30
0.0
  0
VERTEX
  5
11759
  8
0
 10
175.2282176259904
 20
-105.318351061223
 30
0.0
  0
VERTEX
  5
1175A
  8
0
 10
175.3315848857163
 20
-105.2854488316457
 30
0.0
  0
VERTEX
  5
1175B
  8
0
 10
175.43700431473539
 20
-105.2523663911502
 30
0.0
  0
VERTEX
  5
1175C
  8
0
 10
175.65370829310251
 20
-105.1857528455089
 30
0.0
  0
VERTEX
  5
1175D
  8
0
 10
175.8774448046459
 20
-105.1187802750151
 30
0.0
  0
VERTEX
  5
1175E
  8
0
 10
175.99164637271301
 20
-105.0852501011919
 30
0.0
  0
VERTEX
  5
1175F
  8
0
 10
176.22440786566571
 20
-105.01819138335991
 30
0.0
  0
VERTEX
  5
11760
  8
0
 10
176.46214809268699
 20
-104.9513762063812
 30
0.0
  0
VERTEX
  5
11761
  8
0
 10
176.5825657150707
 20
-104.9181503422092
 30
0.0
  0
VERTEX
  5
11762
  8
0
 10
176.82617467129589
 20
-104.8521519351285
 30
0.0
  0
VERTEX
  5
11763
  8
0
 10
176.94900168338779
 20
-104.81933142910709
 30
0.0
  0
VERTEX
  5
11764
  8
0
 10
177.01059679733569
 20
-104.80285330596379
 30
0.0
  0
VERTEX
  5
11765
  8
0
 10
177.07229819847259
 20
-104.7863307121675
 30
0.0
  0
VERTEX
  5
11766
  8
0
 10
177.1959778654853
 20
-104.7531625899952
 30
0.0
  0
VERTEX
  5
11767
  8
0
 10
177.3199149413266
 20
-104.7198615215253
 30
0.0
  0
VERTEX
  5
11768
  8
0
 10
177.38193815806869
 20
-104.70317222098819
 30
0.0
  0
VERTEX
  5
11769
  8
0
 10
177.50605206196249
 20
-104.6697272631805
 30
0.0
  0
VERTEX
  5
1176A
  8
0
 10
177.62588966637841
 20
-104.6373742810916
 30
0.0
  0
VERTEX
  5
1176B
  8
0
 10
177.7457071968818
 20
-104.604966816632
 30
0.0
  0
SEQEND
  5
1176C
  8
0
  0
LINE
  5
EE76
  8
0
 10
173.5417398251592
 20
-106.20021947580391
 30
0.0
 11
173.49999981001
 21
-106.1994506690185
 31
0.0
  0
ARC
  5
EE77
  8
0
 10
167.68492075831551
 20
-108.04960222938389
 30
0.0
 40
6.1015540550094052
 50
0.7168013525227776
 51
17.626853814239158
  0
LINE
  5
EE78
  8
0
 10
173.78599733114231
 20
-107.97327046203419
 30
0.0
 11
173.78599733114231
 21
-109.67327036815691
 31
0.0
  0
LINE
  5
EE79
  8
0
 10
180.9522735513745
 20
-110.93208973216819
 30
0.0
 11
181.2140026688574
 21
-109.67327036815691
 31
0.0
  0
LINE
  5
EE7A
  8
0
 10
174.04772644862521
 20
-110.93208973216819
 30
0.0
 11
173.78599733114231
 21
-109.67327036815691
 31
0.0
  0
POLYLINE
  5
EE7B
  8
0
 66
     1
 10
0.0
 20
0.0
 30
0.0
 70
   128
  0
VERTEX
  5
1176D
  8
0
 10
173.5417398251592
 20
-106.20021947580391
 30
0.0
  0
VERTEX
  5
1176E
  8
0
 10
174.1306549031286
 20
-106.7972964319866
 30
0.0
  0
VERTEX
  5
1176F
  8
0
 10
174.7353409975766
 20
-107.4040796320419
 30
0.0
  0
SEQEND
  5
11770
  8
0
  0
ARC
  5
EE7C
  8
0
 10
174.9418034143799
 20
-110.7868278214098
 30
0.0
 40
0.9058005538805724
 50
189.22828813800581
 51
254.8866701424619
  0
ARC
  5
EE7D
  8
0
 10
180.08893716358051
 20
-110.8145626535774
 30
0.0
 40
0.8712992211009824
 50
283.6371367466835
 51
352.24790497285193
  0
LINE
  5
EE7E
  8
0
 10
180.29436516575501
 20
-111.6612985442858
 30
0.0
 11
180.1670035440473
 21
-111.6732706959825
 31
0.0
  0
LINE
  5
EE7F
  8
0
 10
180.1670035440473
 20
-111.6732706959825
 30
0.0
 11
174.83299645595241
 21
-111.6732706959825
 31
0.0
  0
LINE
  5
EE80
  8
0
 10
174.83299645595241
 20
-111.6732706959825
 30
0.0
 11
174.70563483424471
 21
-111.6612985442858
 31
0.0
  0
ARC
  5
EE81
  8
0
 10
174.1512529625048
 20
-107.996825064361
 30
0.0
 40
0.832158414827416
 50
1.6305302075752479
 51
45.10058289233384
  0
LINE
  5
EE82
  8
0
 10
174.7353409975766
 20
-107.4040796320419
 30
0.0
 11
174.73864393308739
 21
-107.40736813205289
 31
0.0
  0
LINE
  5
EE96
  8
0
 10
168.17632667720301
 20
-79.373270617006341
 30
0.0
 11
186.82367301929139
 21
-79.373270497797051
 31
0.0
  0
LINE
  5
EE98
  8
0
 10
185.50000037997839
 20
-100.8732704740483
 30
0.0
 11
169.49999962002039
 21
-100.8732704740483
 31
0.0
  0
ARC
  5
EEA1
  8
0
 10
174.17574062207001
 20
-107.9738609558118
 30
0.0
 40
0.8073341262150092
 50
322.98505822655602
 51
0.0506974729869256
  0
LINE
  5
EEA2
  8
0
 10
161.15798033773879
 20
-81.863561988947893
 30
0.0
 11
193.8420196622609
 21
-81.863561988947893
 31
0.0
  0
LINE
  5
EEA3
  8
3
 10
164.7294995678669
 20
-96.373270389763647
 30
0.0
 11
164.7294995678669
 21
-95.373270445642973
 31
0.0
  0
LINE
  5
EEA4
  8
3
 10
164.7294995678669
 20
-96.373270389763647
 30
0.0
 11
164.99999956786621
 21
-96.841790133209741
 31
0.0
  0
LINE
  5
EEA5
  8
3
 10
162.2704995678655
 20
-96.373270389763647
 30
0.0
 11
161.99999956786621
 21
-96.841790133209741
 31
0.0
  0
LINE
  5
EEA6
  8
3
 10
162.2704995678655
 20
-96.373270389763647
 30
0.0
 11
162.2704995678655
 21
-95.373270445642973
 31
0.0
  0
LINE
  5
EEA7
  8
0
 10
161.99999956786621
 20
-96.373270389763647
 30
0.0
 11
164.99999956786621
 21
-96.373270389763647
 31
0.0
  0
LINE
  5
EEAF
  8
0
 10
186.49999961256989
 20
-99.873270484756887
 30
0.0
 11
185.50000037997989
 21
-100.87327047404681
 31
0.0
  0
LINE
  5
EEB0
  8
0
 10
181.50000018998961
 20
-101.373270445643
 30
0.0
 11
199.99999999999989
 21
-101.373270445643
 31
0.0
  0
LINE
  5
EEB1
  8
0
 10
186.00000003003379
 20
-100.373270445643
 30
0.0
 11
186.49999999999989
 21
-100.373270445643
 31
0.0
  0
LINE
  5
EEB2
  8
0
 10
168.50000038742999
 20
-99.873270484758535
 30
0.0
 11
186.49999961256989
 21
-99.873270484756887
 31
0.0
  0
LINE
  5
EEB3
  8
0
 10
164.99999981373529
 20
-95.87327044564293
 30
0.0
 11
165.1999999999999
 21
-95.873270445642987
 31
0.0
  0
LINE
  5
EFFC
  8
1
 10
402.5
 20
-29.594764855300561
 30
0.0
 11
402.5
 21
-74.594764855300554
 31
0.0
  0
LINE
  5
EFFD
  8
1
 10
425.0
 20
-52.094764855300546
 30
0.0
 11
380.0
 21
-52.094764855300546
 31
0.0
  0
CIRCLE
  5
EFFE
  8
0
 10
402.5
 20
-52.094764855300546
 30
0.0
 40
9.0
  0
CIRCLE
  5
EFFF
  8
0
 10
402.5
 20
-52.094764855300546
 30
0.0
 40
17.5
  0
CIRCLE
  5
F000
  8
1
 10
402.5
 20
-52.094764855300546
 30
0.0
 40
14.0
  0
CIRCLE
  5
F002
  8
2
 10
388.5
 20
-52.094764855300546
 30
0.0
 40
3.25
  0
CIRCLE
  5
F003
  8
0
 10
388.5
 20
-52.094764855300546
 30
0.0
 40
1.7
  0
LINE
  5
F004
  8
1
 10
406.87499999999989
 20
-44.517042572186682
 30
0.0
 11
412.12499999999989
 21
-35.423775832450083
 31
0.0
  0
LINE
  5
F005
  8
1
 10
406.87499999999989
 20
-59.672487138414368
 30
0.0
 11
412.12499999999989
 21
-68.765753878151003
 31
0.0
  0
CIRCLE
  5
F006
  8
2
 10
409.49999999999989
 20
-39.970409202318422
 30
0.0
 40
3.25
  0
CIRCLE
  5
F007
  8
0
 10
409.49999999999989
 20
-39.970409202318422
 30
0.0
 40
1.7
  0
CIRCLE
  5
F009
  8
2
 10
409.49999999999989
 20
-64.219120508282685
 30
0.0
 40
3.25
  0
CIRCLE
  5
F00A
  8
0
 10
409.49999999999989
 20
-64.219120508282685
 30
0.0
 40
1.7
  0
LINE
  5
F00C
  8
1
 10
402.5
 20
-120.373270445643
 30
0.0
 11
402.5
 21
-90.373270445643016
 31
0.0
  0
LINE
  5
F00D
  8
0
 10
380.0
 20
-95.373270445643016
 30
0.0
 11
425.0
 21
-95.373270445643016
 31
0.0
  0
LINE
  5
F00E
  8
0
 10
380.0
 20
-115.373270445643
 30
0.0
 11
425.0
 21
-115.373270445643
 31
0.0
  0
LINE
  5
F014
  8
0
 10
411.5
 20
-114.373270445643
 30
0.0
 11
411.5
 21
-110.373270445643
 31
0.0
  0
LINE
  5
F015
  8
0
 10
393.5
 20
-114.373270445643
 30
0.0
 11
393.5
 21
-110.373270445643
 31
0.0
  0
LINE
  5
F016
  8
0
 10
420.00000000000011
 20
-109.373270445643
 30
0.0
 11
420.00000000000011
 21
-95.873270445642987
 31
0.0
  0
LINE
  5
F017
  8
0
 10
385.00000000000011
 20
-109.373270445643
 30
0.0
 11
385.00000000000011
 21
-95.873270445643016
 31
0.0
  0
LINE
  5
F018
  8
0
 10
385.00000000000011
 20
-109.373270445643
 30
0.0
 11
420.00000000000011
 21
-109.3732704456431
 31
0.0
  0
LINE
  5
F05C
  8
0
 10
393.5
 20
-110.373270445643
 30
0.0
 11
411.5
 21
-110.373270445643
 31
0.0
  0
LINE
  5
F05D
  8
0
 10
393.5
 20
-114.373270445643
 30
0.0
 11
411.5
 21
-114.373270445643
 31
0.0
  0
LINE
  5
F060
  8
0
 10
392.50000000000011
 20
-109.373270445643
 30
0.0
 11
393.5
 21
-110.373270445643
 31
0.0
  0
LINE
  5
F061
  8
0
 10
392.50000000000011
 20
-115.373270445643
 30
0.0
 11
393.5
 21
-114.373270445643
 31
0.0
  0
LINE
  5
F062
  8
0
 10
411.5
 20
-114.373270445643
 30
0.0
 11
412.5
 21
-115.373270445643
 31
0.0
  0
LINE
  5
F063
  8
0
 10
411.5
 20
-110.373270445643
 30
0.0
 11
412.5
 21
-109.373270445643
 31
0.0
  0
LINE
  5
F064
  8
0
 10
385.00000000000011
 20
-95.873270445643016
 30
0.0
 11
420.00000000000011
 21
-95.873270445642987
 31
0.0
  0
LINE
  5
F067
  8
0
 10
420.5
 20
-95.373270445643016
 30
0.0
 11
420.00000000000011
 21
-95.873270445643016
 31
0.0
  0
LINE
  5
F068
  8
0
 10
384.5
 20
-95.373270445643016
 30
0.0
 11
385.00000000000011
 21
-95.873270445643016
 31
0.0
  0
LINE
  5
F069
  8
1
 10
388.5
 20
-107.373270445643
 30
0.0
 11
388.5
 21
-117.373270445643
 31
0.0
  0
LINE
  5
F06A
  8
0
 10
391.75
 20
-114.873270445643
 30
0.0
 11
391.75
 21
-111.873270445643
 31
0.0
  0
LINE
  5
F06B
  8
0
 10
385.25
 20
-114.873270445643
 30
0.0
 11
385.25
 21
-111.873270445643
 31
0.0
  0
LINE
  5
F06C
  8
0
 10
385.25
 20
-111.873270445643
 30
0.0
 11
391.75
 21
-111.873270445643
 31
0.0
  0
LINE
  5
F06D
  8
0
 10
390.19999999999999
 20
-111.873270445643
 30
0.0
 11
390.19999999999999
 21
-109.873270445643
 31
0.0
  0
LINE
  5
F06E
  8
0
 10
386.80000000000001
 20
-111.873270445643
 30
0.0
 11
386.80000000000001
 21
-109.873270445643
 31
0.0
  0
LINE
  5
F071
  8
0
 10
386.80000000000001
 20
-109.873270445643
 30
0.0
 11
390.2000000000001
 21
-109.873270445643
 31
0.0
  0
LINE
  5
F074
  8
0
 10
390.69999999999999
 20
-109.373270445643
 30
0.0
 11
390.19999999999999
 21
-109.873270445643
 31
0.0
  0
LINE
  5
F075
  8
0
 10
386.30000000000001
 20
-109.373270445643
 30
0.0
 11
386.80000000000001
 21
-109.873270445643
 31
0.0
  0
LINE
  5
F076
  8
0
 10
385.25
 20
-114.873270445643
 30
0.0
 11
391.75
 21
-114.873270445643
 31
0.0
  0
LINE
  5
F079
  8
0
 10
385.25
 20
-114.873270445643
 30
0.0
 11
384.75
 21
-115.373270445643
 31
0.0
  0
LINE
  5
F07A
  8
0
 10
391.75
 20
-114.873270445643
 30
0.0
 11
392.25
 21
-115.373270445643
 31
0.0
  0
LINE
  5
F07C
  8
0
 10
314.99999999999989
 20
-109.373270445643
 30
0.0
 11
314.99999999999989
 21
-95.873270445643016
 31
0.0
  0
LINE
  5
F07D
  8
0
 10
350.0
 20
-109.373270445643
 30
0.0
 11
350.0
 21
-95.873270445642987
 31
0.0
  0
LINE
  5
F07E
  8
0
 10
323.49999999999989
 20
-114.373270445643
 30
0.0
 11
323.49999999999989
 21
-109.773270497797
 31
0.0
  0
LINE
  5
F07F
  8
0
 10
341.5
 20
-114.373270445643
 30
0.0
 11
341.5
 21
-109.773270497797
 31
0.0
  0
LINE
  5
F080
  8
0
 10
309.99999999999989
 20
-95.373270445643016
 30
0.0
 11
317.50504506706511
 21
-95.373270445643044
 31
0.0
  0
LINE
  5
F081
  8
0
 10
314.99999999999989
 20
-95.873270445643016
 30
0.0
 11
316.13240087912919
 21
-95.873270445643016
 31
0.0
  0
LINE
  5
F082
  8
0
 10
309.99999999999989
 20
-115.373270445643
 30
0.0
 11
328.49999981001008
 21
-115.373270445643
 31
0.0
  0
LINE
  5
F083
  8
0
 10
315.24999999999989
 20
-114.873270445643
 30
0.0
 11
321.74999999999989
 21
-114.873270445643
 31
0.0
  0
LINE
  5
F084
  8
0
 10
323.49999999999989
 20
-114.373270445643
 30
0.0
 11
323.99999996996479
 21
-114.373270445643
 31
0.0
  0
LINE
  5
F085
  8
0
 10
314.99999999999989
 20
-109.3732704456428
 30
0.0
 11
350.0
 21
-109.3732704456431
 31
0.0
  0
LINE
  5
F086
  8
0
 10
316.7999999999999
 20
-109.873270445643
 30
0.0
 11
317.00000025331963
 21
-109.8732704456431
 31
0.0
  0
LINE
  5
F087
  8
0
 10
315.24999999999989
 20
-111.873270445643
 30
0.0
 11
321.74999999999989
 21
-111.873270445643
 31
0.0
  0
LINE
  5
F089
  8
0
 10
322.5
 20
-109.373270445643
 30
0.0
 11
323.49999999999989
 21
-110.373270445643
 31
0.0
  0
LINE
  5
F08A
  8
0
 10
322.5
 20
-115.373270445643
 30
0.0
 11
323.49999999999989
 21
-114.373270445643
 31
0.0
  0
LINE
  5
F08B
  8
0
 10
341.5
 20
-114.373270445643
 30
0.0
 11
342.49999999999989
 21
-115.373270445643
 31
0.0
  0
LINE
  5
F08C
  8
0
 10
341.5
 20
-110.373270445643
 30
0.0
 11
342.49999999999989
 21
-109.373270445643
 31
0.0
  0
LINE
  5
F08D
  8
0
 10
350.49999999999989
 20
-95.373270445643016
 30
0.0
 11
350.0
 21
-95.873270445643016
 31
0.0
  0
LINE
  5
F08E
  8
0
 10
314.5
 20
-95.373270445643016
 30
0.0
 11
314.99999999999989
 21
-95.873270445643016
 31
0.0
  0
LINE
  5
F08F
  8
1
 10
318.49999999999989
 20
-107.373270445643
 30
0.0
 11
318.49999999999989
 21
-117.373270445643
 31
0.0
  0
LINE
  5
F090
  8
0
 10
316.7999999999999
 20
-111.873270445643
 30
0.0
 11
316.7999999999999
 21
-109.873270445643
 31
0.0
  0
LINE
  5
F091
  8
0
 10
320.19999999999987
 20
-111.873270445643
 30
0.0
 11
320.19999999999987
 21
-109.873270445643
 31
0.0
  0
LINE
  5
F092
  8
0
 10
315.24999999999989
 20
-114.873270445643
 30
0.0
 11
315.24999999999989
 21
-111.873270445643
 31
0.0
  0
LINE
  5
F093
  8
0
 10
321.74999999999989
 20
-114.873270445643
 30
0.0
 11
321.74999999999989
 21
-111.873270445643
 31
0.0
  0
LINE
  5
F094
  8
0
 10
320.69999999999987
 20
-109.373270445643
 30
0.0
 11
320.19999999999987
 21
-109.873270445643
 31
0.0
  0
LINE
  5
F095
  8
0
 10
316.2999999999999
 20
-109.373270445643
 30
0.0
 11
316.7999999999999
 21
-109.873270445643
 31
0.0
  0
LINE
  5
F096
  8
0
 10
315.24999999999989
 20
-114.873270445643
 30
0.0
 11
314.74999999999989
 21
-115.373270445643
 31
0.0
  0
LINE
  5
F097
  8
0
 10
321.74999999999989
 20
-114.873270445643
 30
0.0
 11
322.24999999999989
 21
-115.373270445643
 31
0.0
  0
LINE
  5
F09C
  8
0
 10
321.24999955296499
 20
-114.8732704740483
 30
0.0
 11
321.24999955296499
 21
-111.8732703897636
 31
0.0
  0
LINE
  5
F09D
  8
0
 10
315.74999958276737
 20
-111.8732703897636
 30
0.0
 11
315.74999958276737
 21
-114.8732704740483
 31
0.0
  0
LINE
  5
F09E
  8
0
 10
319.99999981373543
 20
-111.8732703897636
 30
0.0
 11
319.99999981373543
 21
-109.373270445643
 31
0.0
  0
LINE
  5
F09F
  8
0
 10
317.00000025331963
 20
-109.373270445643
 30
0.0
 11
317.00000025331963
 21
-111.8732703897636
 31
0.0
  0
LINE
  5
F0A0
  8
0
 10
339.99999983236182
 20
-93.373270617006369
 30
0.0
 11
339.99999983236182
 21
-91.773269609687873
 31
0.0
  0
LINE
  5
F0A1
  8
0
 10
325.00000016763789
 20
-91.773269609687873
 30
0.0
 11
325.00000016763789
 21
-93.373270617006369
 31
0.0
  0
POLYLINE
  5
F0A2
  8
0
 66
     1
 10
0.0
 20
0.0
 30
0.0
 70
   128
  0
VERTEX
  5
11771
  8
0
 10
329.8203795962034
 20
-122.459894889174
 30
0.0
  0
VERTEX
  5
11772
  8
0
 10
329.48902526870359
 20
-122.8146924685221
 30
0.0
  0
VERTEX
  5
11773
  8
0
 10
329.16751245968032
 20
-123.1457706588786
 30
0.0
  0
SEQEND
  5
11774
  8
0
  0
LINE
  5
F0A3
  8
0
 10
336.50000018998958
 20
-120.2019503388089
 30
0.0
 11
336.50000018998969
 21
-114.8732704740483
 31
0.0
  0
LINE
  5
F0A4
  8
0
 10
328.49999981001008
 20
-114.8732704740483
 30
0.0
 11
328.49999981001008
 21
-120.201950338809
 31
0.0
  0
LINE
  5
F0A5
  8
0
 10
349.50000092387188
 20
-108.8732703636866
 30
0.0
 11
349.50000092387188
 21
-96.803255290864058
 31
0.0
  0
LINE
  5
F0A6
  8
0
 10
315.49999907612789
 20
-96.803255290864058
 30
0.0
 11
315.49999907612789
 21
-108.8732703636866
 31
0.0
  0
LINE
  5
F0A7
  8
0
 10
315.49999907612789
 20
-108.8732703636866
 30
0.0
 11
316.0000000894068
 21
-109.373270445643
 31
0.0
  0
LINE
  5
F0A8
  8
0
 10
348.99999991059292
 20
-109.373270445643
 30
0.0
 11
349.50000092387188
 21
-108.8732703636866
 31
0.0
  0
ARC
  5
F0A9
  8
0
 10
316.49999999999989
 20
-96.803254793003291
 30
0.0
 40
1.00000000000001
 50
109.9999999999964
 51
180.0
  0
ARC
  5
F0AA
  8
0
 10
348.49999999999989
 20
-96.803254793003291
 30
0.0
 40
1.00000000000001
 50
0.0
 51
70.000000000003539
  0
LINE
  5
F0AB
  8
0
 10
348.8420196622609
 20
-95.863561988947936
 30
0.0
 11
342.165693162617
 21
-93.433577877011146
 31
0.0
  0
LINE
  5
F0AC
  8
0
 10
322.8343068435787
 20
-93.43357747900302
 30
0.0
 11
316.15798033773888
 21
-95.863561988947936
 31
0.0
  0
ARC
  5
F0AD
  8
0
 10
323.17632698070832
 20
-94.373270497797094
 30
0.0
 40
1.0
 50
90.0
 51
109.9999999999964
  0
ARC
  5
F0AE
  8
0
 10
341.82367301929139
 20
-94.373270497797094
 30
0.0
 40
1.0
 50
70.000000000003539
 51
90.0
  0
ARC
  5
F0AF
  8
0
 10
341.89999999999992
 20
-109.773270497797
 30
0.0
 40
0.3999999999999915
 50
90.0
 51
180.0
  0
ARC
  5
F0B0
  8
0
 10
323.09999999999991
 20
-109.773270497797
 30
0.0
 40
0.3999999999999915
 50
0.0
 51
90.0
  0
LINE
  5
F0B3
  8
0
 10
323.50000038743008
 20
-113.87327048475851
 30
0.0
 11
324.49999962002028
 21
-114.8732704740483
 31
0.0
  0
LINE
  5
F0B8
  8
1
 10
332.49999999999977
 20
-130.6732706959825
 30
0.0
 11
332.49999999999989
 21
-72.903250144003636
 31
0.0
  0
LINE
  5
F0B9
  8
0
 10
339.92664979770768
 20
-80.852312878845296
 30
0.0
 11
340.4724117889773
 21
-91.247780764031688
 31
0.0
  0
LINE
  5
F0BA
  8
0
 10
325.07335036068719
 20
-80.852311246608366
 30
0.0
 11
324.52758818864811
 21
-91.247780160186835
 31
0.0
  0
ARC
  5
F0BB
  8
0
 10
328.06922956760877
 20
-81.009598597010864
 30
0.0
 40
3.0000052555057062
 50
93.000093750172496
 51
176.99466022465509
  0
ARC
  5
F0BC
  8
0
 10
336.9307782183966
 20
-81.009591985037474
 30
0.0
 40
2.9999972061600588
 50
3.0051901766216549
 51
87.000049434053281
  0
ARC
  5
F0BD
  8
0
 10
334.96324587648428
 20
-31.22253242774585
 30
0.0
 40
46.745662758729857
 50
266.9794205300509
 51
271.27084544937719
  0
LINE
  5
F0BE
  8
0
 10
336.0000001080333
 20
-77.956696883915043
 30
0.0
 11
337.087783356096
 21
-78.01370603532169
 31
0.0
  0
LINE
  5
F0BF
  8
0
 10
327.91221652179939
 20
-78.013705001352406
 30
0.0
 11
328.99999989196652
 21
-77.956696883915043
 31
0.0
  0
ARC
  5
F0C0
  8
0
 10
330.0384027723145
 20
-31.330495438858041
 30
0.0
 40
46.637763043878408
 50
268.72418796518411
 51
273.02554605539183
  0
LINE
  5
F0C1
  8
0
 10
340.00001647828623
 20
-91.773269609687873
 30
0.0
 11
324.9999835213419
 21
-91.773269609687887
 31
0.0
  0
ARC
  5
F0C2
  8
0
 10
339.97309943031968
 20
-91.273994662861213
 30
0.0
 40
0.4999999999999941
 50
273.0840672780181
 51
3.0052693596903901
  0
ARC
  5
F0C3
  8
0
 10
325.02689992995749
 20
-91.273995186584074
 30
0.0
 40
0.4999994426181066
 50
176.99459789922491
 51
266.9160026938743
  0
LINE
  5
F0C4
  8
0
 10
329.16813202202309
 20
-123.146362980036
 30
0.0
 11
328.78599733114231
 21
-123.5639358918648
 31
0.0
  0
ARC
  5
F0C5
  8
0
 10
337.60617842113311
 20
-142.64360196999741
 30
0.0
 40
21.01973482499902
 50
101.7170705944183
 51
114.81023835955649
  0
ARC
  5
F0C6
  8
0
 10
342.35674959239941
 20
-122.0563303283046
 30
0.0
 40
6.1433084496929924
 50
162.43102916268049
 51
179.2253156705554
  0
LINE
  5
F0C7
  8
0
 10
336.21400266885752
 20
-121.97327046203429
 30
0.0
 11
336.21400266885752
 21
-123.67327036815691
 31
0.0
  0
LINE
  5
F0C8
  8
0
 10
328.78599733114231
 20
-123.67327036815691
 30
0.0
 11
336.21400266885752
 21
-123.67327036815691
 31
0.0
  0
LINE
  5
F0C9
  8
0
 10
333.37615475058539
 20
-122.0618690412026
 30
0.0
 11
333.3375109755433
 21
-122.0618690412026
 31
0.0
  0
LINE
  5
F0CA
  8
0
 10
333.74292180407781
 20
-122.0618690412026
 30
0.0
 11
333.37615475058539
 21
-122.0618690412026
 31
0.0
  0
POLYLINE
  5
F0CB
  8
0
 66
     1
 10
0.0
 20
0.0
 30
0.0
 70
   128
  0
VERTEX
  5
11775
  8
0
 10
334.07262757420528
 20
-122.15658408137971
 30
0.0
  0
VERTEX
  5
11776
  8
0
 10
333.88915027491743
 20
-122.10338600459509
 30
0.0
  0
VERTEX
  5
11777
  8
0
 10
333.74292180407781
 20
-122.0618690412026
 30
0.0
  0
SEQEND
  5
11778
  8
0
  0
POLYLINE
  5
F0CC
  8
0
 66
     1
 10
0.0
 20
0.0
 30
0.0
 70
   128
  0
VERTEX
  5
11779
  8
0
 10
334.87872707657499
 20
-118.7893156010192
 30
0.0
  0
VERTEX
  5
1177A
  8
0
 10
335.1336777955292
 20
-118.96762336152599
 30
0.0
  0
VERTEX
  5
1177B
  8
0
 10
335.37451338954259
 20
-119.2876495468896
 30
0.0
  0
VERTEX
  5
1177C
  8
0
 10
335.55823911912728
 20
-119.764159810869
 30
0.0
  0
VERTEX
  5
1177D
  8
0
 10
335.64263557083888
 20
-120.3769947450142
 30
0.0
  0
VERTEX
  5
1177E
  8
0
 10
335.5951872467993
 20
-121.0228697444778
 30
0.0
  0
VERTEX
  5
1177F
  8
0
 10
335.40630199015129
 20
-121.60711354124361
 30
0.0
  0
VERTEX
  5
11780
  8
0
 10
335.06719696335477
 20
-122.0466889488976
 30
0.0
  0
VERTEX
  5
11781
  8
0
 10
334.903110032901
 20
-122.154304203717
 30
0.0
  0
VERTEX
  5
11782
  8
0
 10
334.57435339689238
 20
-122.2485614988487
 30
0.0
  0
VERTEX
  5
11783
  8
0
 10
334.21627337113011
 20
-122.2094128887635
 30
0.0
  0
VERTEX
  5
11784
  8
0
 10
334.07262757420528
 20
-122.15658408137971
 30
0.0
  0
SEQEND
  5
11785
  8
0
  0
LINE
  5
F0CD
  8
0
 10
334.66548237949598
 20
-118.7195222872775
 30
0.0
 11
334.87872707657499
 21
-118.7893156010192
 31
0.0
  0
POLYLINE
  5
F0CE
  8
0
 66
     1
 10
0.0
 20
0.0
 30
0.0
 70
   128
  0
VERTEX
  5
11786
  8
0
 10
334.28409507498128
 20
-118.60265993061471
 30
0.0
  0
VERTEX
  5
11787
  8
0
 10
334.50018589384842
 20
-118.66770303356461
 30
0.0
  0
VERTEX
  5
11788
  8
0
 10
334.66548237949598
 20
-118.7195222872775
 30
0.0
  0
SEQEND
  5
11789
  8
0
  0
POLYLINE
  5
F0CF
  8
0
 66
     1
 10
0.0
 20
0.0
 30
0.0
 70
   128
  0
VERTEX
  5
1178A
  8
0
 10
333.86808061506588
 20
-118.5175233102869
 30
0.0
  0
VERTEX
  5
1178B
  8
0
 10
333.97706980351347
 20
-118.5230670079123
 30
0.0
  0
VERTEX
  5
1178C
  8
0
 10
334.28409507498128
 20
-118.60265993061471
 30
0.0
  0
SEQEND
  5
1178D
  8
0
  0
LINE
  5
F0D0
  8
0
 10
333.86808061506588
 20
-118.5175233102869
 30
0.0
 11
333.19459271617222
 21
-118.5175233102869
 31
0.0
  0
LINE
  5
F0D1
  8
0
 10
333.19459271617222
 20
-118.5175233102869
 30
0.0
 11
333.19459271617222
 21
-118.5219594325404
 31
0.0
  0
POLYLINE
  5
F0D2
  8
0
 66
     1
 10
0.0
 20
0.0
 30
0.0
 70
   128
  0
VERTEX
  5
1178E
  8
0
 10
332.74570719688188
 20
-118.6049668166321
 30
0.0
  0
VERTEX
  5
1178F
  8
0
 10
332.7765999524853
 20
-118.5936875689309
 30
0.0
  0
VERTEX
  5
11790
  8
0
 10
333.19459271617222
 20
-118.5219594325404
 30
0.0
  0
SEQEND
  5
11791
  8
0
  0
POLYLINE
  5
F0D3
  8
0
 66
     1
 10
0.0
 20
0.0
 30
0.0
 70
   128
  0
VERTEX
  5
11792
  8
0
 10
328.5417398251592
 20
-120.20021947580391
 30
0.0
  0
VERTEX
  5
11793
  8
0
 10
328.57235705479968
 20
-120.1509548399132
 30
0.0
  0
VERTEX
  5
11794
  8
0
 10
328.59774886630458
 20
-120.1175208251457
 30
0.0
  0
VERTEX
  5
11795
  8
0
 10
328.65979660302389
 20
-120.0504651341121
 30
0.0
  0
VERTEX
  5
11796
  8
0
 10
328.69636777788389
 20
-120.016934261797
 30
0.0
  0
VERTEX
  5
11797
  8
0
 10
328.73660300858307
 20
-119.9834308634978
 30
0.0
  0
VERTEX
  5
11798
  8
0
 10
328.82796645164478
 20
-119.91659868988209
 30
0.0
  0
VERTEX
  5
11799
  8
0
 10
328.87897545471782
 20
-119.8833602528553
 30
0.0
  0
VERTEX
  5
1179A
  8
0
 10
328.93349251709873
 20
-119.85026943045671
 30
0.0
  0
VERTEX
  5
1179B
  8
0
 10
329.05290856026102
 20
-119.78451665970491
 30
0.0
  0
VERTEX
  5
1179C
  8
0
 10
329.11759450100351
 20
-119.7515292141121
 30
0.0
  0
VERTEX
  5
1179D
  8
0
 10
329.18551911599923
 20
-119.7183755274396
 30
0.0
  0
VERTEX
  5
1179E
  8
0
 10
329.3308932147919
 20
-119.65165976914579
 30
0.0
  0
VERTEX
  5
1179F
  8
0
 10
329.4884338788687
 20
-119.58463946837
 30
0.0
  0
VERTEX
  5
117A0
  8
0
 10
329.57155046053219
 20
-119.55110580208709
 30
0.0
  0
VERTEX
  5
117A1
  8
0
 10
329.74625307135273
 20
-119.4840808446985
 30
0.0
  0
VERTEX
  5
117A2
  8
0
 10
329.93162863887829
 20
-119.41735437619499
 30
0.0
  0
VERTEX
  5
117A3
  8
0
 10
330.0280719809233
 20
-119.3841932389419
 30
0.0
  0
VERTEX
  5
117A4
  8
0
 10
330.2282176259904
 20
-119.3183510612231
 30
0.0
  0
VERTEX
  5
117A5
  8
0
 10
330.33158488571632
 20
-119.28544883164579
 30
0.0
  0
VERTEX
  5
117A6
  8
0
 10
330.43700431473542
 20
-119.2523663911503
 30
0.0
  0
VERTEX
  5
117A7
  8
0
 10
330.65370829310262
 20
-119.185752845509
 30
0.0
  0
VERTEX
  5
117A8
  8
0
 10
330.87744480464602
 20
-119.1187802750151
 30
0.0
  0
VERTEX
  5
117A9
  8
0
 10
330.99164637271298
 20
-119.0852501011919
 30
0.0
  0
VERTEX
  5
117AA
  8
0
 10
331.22440786566568
 20
-119.01819138335991
 30
0.0
  0
VERTEX
  5
117AB
  8
0
 10
331.46214809268702
 20
-118.9513762063812
 30
0.0
  0
VERTEX
  5
117AC
  8
0
 10
331.5825657150707
 20
-118.9181503422092
 30
0.0
  0
VERTEX
  5
117AD
  8
0
 10
331.82617467129592
 20
-118.8521519351285
 30
0.0
  0
VERTEX
  5
117AE
  8
0
 10
331.94900168338779
 20
-118.81933142910709
 30
0.0
  0
VERTEX
  5
117AF
  8
0
 10
332.01059679733578
 20
-118.80285330596379
 30
0.0
  0
VERTEX
  5
117B0
  8
0
 10
332.07229819847259
 20
-118.7863307121675
 30
0.0
  0
VERTEX
  5
117B1
  8
0
 10
332.19597786548542
 20
-118.7531625899952
 30
0.0
  0
VERTEX
  5
117B2
  8
0
 10
332.3199149413266
 20
-118.7198615215253
 30
0.0
  0
VERTEX
  5
117B3
  8
0
 10
332.38193815806869
 20
-118.70317222098819
 30
0.0
  0
VERTEX
  5
117B4
  8
0
 10
332.50605206196258
 20
-118.6697272631805
 30
0.0
  0
VERTEX
  5
117B5
  8
0
 10
332.62588966637838
 20
-118.6373742810916
 30
0.0
  0
VERTEX
  5
117B6
  8
0
 10
332.74570719688188
 20
-118.6049668166321
 30
0.0
  0
SEQEND
  5
117B7
  8
0
  0
LINE
  5
F0D4
  8
0
 10
328.5417398251592
 20
-120.20021947580391
 30
0.0
 11
328.49999981001008
 21
-120.1994506690185
 31
0.0
  0
ARC
  5
F0D5
  8
0
 10
322.68492075831563
 20
-122.04960222938389
 30
0.0
 40
6.1015540550094052
 50
0.7168013525227776
 51
17.626853814239158
  0
LINE
  5
F0D6
  8
0
 10
328.78599733114231
 20
-121.97327046203429
 30
0.0
 11
328.78599733114231
 21
-123.67327036815691
 31
0.0
  0
LINE
  5
F0D7
  8
0
 10
335.95227355137462
 20
-124.93208973216819
 30
0.0
 11
336.21400266885752
 21
-123.67327036815691
 31
0.0
  0
LINE
  5
F0D8
  8
0
 10
329.04772644862521
 20
-124.93208973216819
 30
0.0
 11
328.78599733114231
 21
-123.67327036815691
 31
0.0
  0
POLYLINE
  5
F0D9
  8
0
 66
     1
 10
0.0
 20
0.0
 30
0.0
 70
   128
  0
VERTEX
  5
117B8
  8
0
 10
328.5417398251592
 20
-120.20021947580391
 30
0.0
  0
VERTEX
  5
117B9
  8
0
 10
329.13065490312857
 20
-120.7972964319866
 30
0.0
  0
VERTEX
  5
117BA
  8
0
 10
329.7353409975766
 20
-121.404079632042
 30
0.0
  0
SEQEND
  5
117BB
  8
0
  0
ARC
  5
F0DA
  8
0
 10
329.94180341437988
 20
-124.7868278214098
 30
0.0
 40
0.9058005538805724
 50
189.22828813800581
 51
254.88667014246209
  0
ARC
  5
F0DB
  8
0
 10
335.08893716358062
 20
-124.8145626535774
 30
0.0
 40
0.8712992211009824
 50
283.63713674668372
 51
352.24790497285193
  0
LINE
  5
F0DC
  8
0
 10
335.29436516575498
 20
-125.6612985442858
 30
0.0
 11
335.16700354404742
 21
-125.6732706959825
 31
0.0
  0
LINE
  5
F0DD
  8
0
 10
335.16700354404742
 20
-125.6732706959825
 30
0.0
 11
329.83299645595241
 21
-125.6732706959825
 31
0.0
  0
LINE
  5
F0DE
  8
0
 10
329.83299645595241
 20
-125.6732706959825
 30
0.0
 11
329.70563483424468
 21
-125.6612985442858
 31
0.0
  0
ARC
  5
F0DF
  8
0
 10
329.15125296250483
 20
-121.9968250643611
 30
0.0
 40
0.832158414827416
 50
1.6305302075752479
 51
45.100582892333819
  0
LINE
  5
F0E0
  8
0
 10
329.7353409975766
 20
-121.404079632042
 30
0.0
 11
329.73864393308747
 21
-121.40736813205289
 31
0.0
  0
LINE
  5
F0F4
  8
0
 10
323.17632667720312
 20
-93.373270617006369
 30
0.0
 11
341.82367301929139
 21
-93.373270497797066
 31
0.0
  0
LINE
  5
F0F5
  8
0
 10
323.50000038743008
 20
-113.87327048475851
 30
0.0
 11
341.49999961257078
 21
-113.87327048475851
 31
0.0
  0
LINE
  5
F0F6
  8
0
 10
340.50000037998018
 20
-114.8732704740484
 30
0.0
 11
324.49999962002039
 21
-114.8732704740483
 31
0.0
  0
ARC
  5
F0FF
  8
0
 10
329.17574062207012
 20
-121.9738609558117
 30
0.0
 40
0.8073341262150092
 50
322.98505822655602
 51
0.0506974729869256
  0
LINE
  5
F100
  8
0
 10
316.15798033773888
 20
-95.863561988947936
 30
0.0
 11
348.8420196622609
 21
-95.863561988947936
 31
0.0
  0
LINE
  5
F101
  8
3
 10
319.72949956786692
 20
-110.3732703897636
 30
0.0
 11
319.72949956786692
 21
-109.373270445643
 31
0.0
  0
LINE
  5
F102
  8
3
 10
319.72949956786692
 20
-110.3732703897636
 30
0.0
 11
319.99999956786621
 21
-110.8417901332097
 31
0.0
  0
LINE
  5
F103
  8
3
 10
317.2704995678655
 20
-110.3732703897636
 30
0.0
 11
316.99999956786621
 21
-110.8417901332097
 31
0.0
  0
LINE
  5
F104
  8
3
 10
317.2704995678655
 20
-110.3732703897636
 30
0.0
 11
317.2704995678655
 21
-109.373270445643
 31
0.0
  0
LINE
  5
F105
  8
0
 10
316.99999956786621
 20
-110.3732703897636
 30
0.0
 11
319.99999956786621
 21
-110.3732703897636
 31
0.0
  0
LINE
  5
F10D
  8
0
 10
347.49495471354868
 20
-95.373270445643016
 30
0.0
 11
354.99999999999989
 21
-95.373270445643016
 31
0.0
  0
LINE
  5
F10E
  8
0
 10
348.86759912087052
 20
-95.873270445642945
 30
0.0
 11
350.0
 21
-95.873270445642987
 31
0.0
  0
LINE
  5
F10F
  8
0
 10
341.49999961256913
 20
-113.8732704847602
 30
0.0
 11
340.50000037997881
 21
-114.8732704740498
 31
0.0
  0
LINE
  5
F110
  8
0
 10
336.50000018998969
 20
-115.373270445643
 30
0.0
 11
354.99999999999989
 21
-115.373270445643
 31
0.0
  0
LINE
  5
F111
  8
0
 10
341.00000003003601
 20
-114.373270445643
 30
0.0
 11
341.5
 21
-114.373270445643
 31
0.0
  0
LINE
  5
F112
  8
0
 10
319.99999981373543
 20
-109.8732704456431
 30
0.0
 11
320.19999999999987
 21
-109.873270445643
 31
0.0
  0
LINE
  5
FBE2
  8
0
 10
194.5000009238718
 20
-265.045106374081
 30
0.0
 11
194.5000009238718
 21
-263.04510651191669
 31
0.0
  0
LINE
  5
FBE3
  8
0
 10
193.99999991059281
 20
-265.54510645603739
 30
0.0
 11
194.5000009238718
 21
-265.045106374081
 31
0.0
  0
LINE
  5
FBE4
  8
0
 10
194.5000009238718
 20
-263.04510651191669
 30
0.0
 11
193.99999991059281
 21
-262.5451064299603
 31
0.0
  0
LINE
  5
FBE6
  8
0
 10
160.49999907612781
 20
-263.04510651191669
 30
0.0
 11
160.49999907612781
 21
-265.045106374081
 31
0.0
  0
LINE
  5
FBE8
  8
0
 10
160.49999907612781
 20
-265.045106374081
 30
0.0
 11
161.0000000894068
 21
-265.54510645603739
 31
0.0
  0
LINE
  5
FBEB
  8
0
 10
161.0000000894068
 20
-262.5451064299603
 30
0.0
 11
160.49999907612781
 21
-263.04510651191669
 31
0.0
  0
LINE
  5
FBF0
  8
1
 10
163.4999999999998
 20
-260.54510642996041
 30
0.0
 11
163.4999999999998
 21
-270.54510645603739
 31
0.0
  0
LINE
  5
FC28
  8
0
 10
164.9999999999998
 20
-266.84510648211449
 30
0.0
 11
161.9999999999998
 21
-266.84510648211437
 31
0.0
  0
LINE
  5
FC29
  8
0
 10
166.4999999999998
 20
-268.34510648211449
 30
0.0
 11
164.9999999999998
 21
-266.84510648211449
 31
0.0
  0
LINE
  5
FC2B
  8
0
 10
166.4999999999998
 20
-268.34510648211449
 30
0.0
 11
166.4999999999998
 21
-268.54510648211442
 31
0.0
  0
LINE
  5
FC2C
  8
0
 10
160.4999999999998
 20
-268.34510648211449
 30
0.0
 11
166.4999999999998
 21
-268.34510648211449
 31
0.0
  0
LINE
  5
FC2D
  8
0
 10
160.4999999999998
 20
-268.34510648211449
 30
0.0
 11
161.9999999999998
 21
-266.84510648211449
 31
0.0
  0
LINE
  5
FC2E
  8
0
 10
160.4999999999998
 20
-268.54510648211442
 30
0.0
 11
160.4999999999998
 21
-268.34510648211449
 31
0.0
  0
LINE
  5
FC2F
  8
0
 10
161.9999999999998
 20
-266.84510648211437
 30
0.0
 11
161.9999999999998
 21
-265.54510645603739
 31
0.0
  0
LINE
  5
FC33
  8
0
 10
164.9999999999998
 20
-265.54510645603739
 30
0.0
 11
164.9999999999998
 21
-266.84510648211449
 31
0.0
  0
LINE
  5
FC37
  8
0
 10
161.9999999999998
 20
-266.37658673866838
 30
0.0
 11
164.9999999999998
 21
-266.37658673866838
 31
0.0
  0
LINE
  5
FC38
  8
3
 10
162.27049999999909
 20
-266.37658673866838
 30
0.0
 11
162.27049999999909
 21
-265.54510645603739
 31
0.0
  0
LINE
  5
FC3A
  8
3
 10
162.27049999999909
 20
-266.37658673866838
 30
0.0
 11
161.9999999999998
 21
-266.84510648211449
 31
0.0
  0
LINE
  5
FC3B
  8
3
 10
164.72950000000051
 20
-266.37658673866838
 30
0.0
 11
164.9999999999998
 21
-266.84510648211449
 31
0.0
  0
LINE
  5
FC3C
  8
3
 10
164.72950000000051
 20
-266.37658673866838
 30
0.0
 11
164.72950000000051
 21
-265.54510645603739
 31
0.0
  0
LINE
  5
FC41
  8
0
 10
349.50000092387182
 20
-267.045106374081
 30
0.0
 11
349.50000092387182
 21
-265.04510651191669
 31
0.0
  0
LINE
  5
FC42
  8
0
 10
348.99999991059281
 20
-267.54510645603739
 30
0.0
 11
349.50000092387182
 21
-267.045106374081
 31
0.0
  0
LINE
  5
FC43
  8
0
 10
349.50000092387182
 20
-265.04510651191669
 30
0.0
 11
348.99999991059281
 21
-264.5451064299603
 31
0.0
  0
LINE
  5
FC45
  8
0
 10
315.49999907612778
 20
-265.04510651191669
 30
0.0
 11
315.49999907612778
 21
-267.045106374081
 31
0.0
  0
LINE
  5
FC47
  8
0
 10
315.49999907612778
 20
-267.045106374081
 30
0.0
 11
316.0000000894068
 21
-267.54510645603739
 31
0.0
  0
LINE
  5
FC4A
  8
0
 10
316.0000000894068
 20
-264.5451064299603
 30
0.0
 11
315.49999907612778
 21
-265.04510651191669
 31
0.0
  0
LINE
  5
FC4C
  8
1
 10
318.49999999999977
 20
-262.5451064299603
 30
0.0
 11
318.49999999999972
 21
-272.54510645603739
 31
0.0
  0
LINE
  5
FC4D
  8
0
 10
319.99999999999977
 20
-268.84510648211449
 30
0.0
 11
316.99999999999977
 21
-268.84510648211437
 31
0.0
  0
LINE
  5
FC4E
  8
0
 10
321.49999999999977
 20
-270.34510648211449
 30
0.0
 11
319.99999999999977
 21
-268.84510648211449
 31
0.0
  0
LINE
  5
FC50
  8
0
 10
321.49999999999977
 20
-270.34510648211449
 30
0.0
 11
321.49999999999977
 21
-270.54510648211442
 31
0.0
  0
LINE
  5
FC51
  8
0
 10
315.49999999999977
 20
-270.34510648211449
 30
0.0
 11
321.49999999999977
 21
-270.34510648211449
 31
0.0
  0
LINE
  5
FC52
  8
0
 10
315.49999999999977
 20
-270.34510648211449
 30
0.0
 11
316.99999999999977
 21
-268.84510648211449
 31
0.0
  0
LINE
  5
FC53
  8
0
 10
315.49999999999977
 20
-270.54510648211442
 30
0.0
 11
315.49999999999977
 21
-270.34510648211449
 31
0.0
  0
LINE
  5
FC54
  8
0
 10
316.99999999999977
 20
-268.84510648211437
 30
0.0
 11
316.99999999999977
 21
-267.54510645603739
 31
0.0
  0
LINE
  5
FC58
  8
0
 10
319.99999999999977
 20
-267.54510645603739
 30
0.0
 11
319.99999999999977
 21
-268.84510648211449
 31
0.0
  0
LINE
  5
FC5C
  8
0
 10
316.99999999999977
 20
-268.37658673866838
 30
0.0
 11
319.99999999999977
 21
-268.37658673866838
 31
0.0
  0
LINE
  5
FC5D
  8
3
 10
317.27049999999912
 20
-268.37658673866838
 30
0.0
 11
317.27049999999912
 21
-267.54510645603739
 31
0.0
  0
LINE
  5
FC5F
  8
3
 10
317.27049999999912
 20
-268.37658673866838
 30
0.0
 11
316.99999999999977
 21
-268.84510648211449
 31
0.0
  0
LINE
  5
FC60
  8
3
 10
319.72950000000048
 20
-268.37658673866838
 30
0.0
 11
319.99999999999977
 21
-268.84510648211449
 31
0.0
  0
LINE
  5
FC61
  8
3
 10
319.72950000000048
 20
-268.37658673866838
 30
0.0
 11
319.72950000000048
 21
-267.54510645603739
 31
0.0
  0
TEXT
  5
10DE4
  8
0
 62
     3
 10
185.0866666666665
 20
-189.34136863427679
 30
0.0
 40
3.2000000000000002
  1
3mmのプレートに固定する場合
 72
     1
 11
212.49999999999989
 21
-189.7680353009435
 31
0.0
 73
     1
  0
TEXT
  5
10DE5
  8
0
 62
     3
 10
323.43333333333328
 20
-295.14510668029999
 30
0.0
 40
3.2000000000000002
  1
組付け状態
 72
     1
 11
332.5
 21
-295.14510668029999
 31
0.0
  0
TEXT
  5
10DE6
  8
0
 62
     3
 10
395.24666666666673
 20
-295.14510668029999
 30
0.0
 40
3.2000000000000002
  1
取付け穴
 72
     1
 11
402.5
 21
-295.14510668029999
 31
0.0
  0
TEXT
  5
10DE7
  8
0
 62
     3
 10
153.77999999999989
 20
-196.34136863427679
 30
0.0
 40
3.2000000000000002
  1
For installation on plate of 3 mm thickness.
 72
     1
 11
212.49999999999989
 21
-196.7680353009435
 31
0.0
 73
     1
  0
TEXT
  5
10DE8
  8
0
 62
     3
 10
307.54000000000002
 20
-302.14510668029999
 30
0.0
 40
3.2000000000000002
  1
Installed condition
 72
     1
 11
332.5
 21
-302.14510668029999
 31
0.0
  0
TEXT
  5
10DE9
  8
0
 62
     3
 10
380.4733333333333
 20
-302.14510668029999
 30
0.0
 40
3.2000000000000002
  1
Installation hole
 72
     1
 11
402.5
 21
-302.14510668029999
 31
0.0
  0
TEXT
  5
10DEA
  8
0
 62
     3
 10
325.68666666666661
 20
-189.34136863427679
 30
0.0
 40
3.2000000000000002
  1
3mmを超え6mm未満のプレートに固定する場合
 72
     1
 11
367.5
 21
-189.7680353009435
 31
0.0
 73
     1
  0
TEXT
  5
10DEB
  8
0
 62
     3
 10
168.4333333333332
 20
-295.14510668029999
 30
0.0
 40
3.2000000000000002
  1
組付け状態
 72
     1
 11
177.49999999999989
 21
-295.14510668029999
 31
0.0
  0
TEXT
  5
10DEC
  8
0
 62
     3
 10
240.2466666666667
 20
-295.14510668029999
 30
0.0
 40
3.2000000000000002
  1
取付け穴
 72
     1
 11
247.5
 21
-295.14510668029999
 31
0.0
  0
TEXT
  5
10DED
  8
0
 62
     3
 10
294.69999999999999
 20
-196.34136863427679
 30
0.0
 40
3.2000000000000002
  1
For installation on plate of over 3 to 6 mm thickness.
 72
     1
 11
367.5
 21
-196.7680353009435
 31
0.0
 73
     1
  0
TEXT
  5
10DEE
  8
0
 62
     3
 10
152.53999999999979
 20
-302.14510668029999
 30
0.0
 40
3.2000000000000002
  1
Installed condition
 72
     1
 11
177.49999999999989
 21
-302.14510668029999
 31
0.0
  0
TEXT
  5
10DEF
  8
0
 62
     3
 10
225.4733333333333
 20
-302.14510668029999
 30
0.0
 40
3.2000000000000002
  1
Installation hole
 72
     1
 11
247.5
 21
-302.14510668029999
 31
0.0
  0
LINE
  5
10F11
  8
1
 10
247.5
 20
-203.2666008656951
 30
0.0
 11
247.5
 21
-241.2666008656951
 31
0.0
  0
LINE
  5
10F12
  8
1
 10
228.5
 20
-222.2666008656951
 30
0.0
 11
266.5
 21
-222.2666008656951
 31
0.0
  0
LINE
  5
10F13
  8
0
 10
225.0
 20
-265.54510645603762
 30
0.0
 11
270.0
 21
-265.54510645603762
 31
0.0
  0
LINE
  5
10F14
  8
0
 10
238.5
 20
-266.54510645603762
 30
0.0
 11
237.5
 21
-265.54510645603762
 31
0.0
  0
LINE
  5
10F15
  8
0
 10
225.0
 20
-268.54510645603762
 30
0.0
 11
270.0
 21
-268.54510645603762
 31
0.0
  0
LINE
  5
10F16
  8
0
 10
238.5
 20
-268.04510645603762
 30
0.0
 11
238.0
 21
-268.54510645603762
 31
0.0
  0
LINE
  5
10F17
  8
1
 10
247.5
 20
-260.5451064560375
 30
0.0
 11
247.5
 21
-273.54510645603762
 31
0.0
  0
CIRCLE
  5
10F18
  8
0
 10
247.5
 20
-222.2666008656951
 30
0.0
 40
9.0
  0
CIRCLE
  5
10F19
  8
1
 10
247.5
 20
-222.2666008656951
 30
0.0
 40
14.0
  0
CIRCLE
  5
10F1A
  8
0
 10
233.5
 20
-222.2666008656951
 30
0.0
 40
1.7
  0
CIRCLE
  5
10F1B
  8
2
 10
233.5
 20
-222.2666008656951
 30
0.0
 40
3.5
  0
LINE
  5
10F1C
  8
1
 10
257.25
 20
-205.3791054918986
 30
0.0
 11
251.75
 21
-214.90538493352739
 31
0.0
  0
CIRCLE
  5
10F1D
  8
0
 10
254.5
 20
-210.14224521271299
 30
0.0
 40
1.7
  0
CIRCLE
  5
10F1E
  8
2
 10
254.5
 20
-210.14224521271299
 30
0.0
 40
3.5
  0
LINE
  5
10F1F
  8
1
 10
257.25
 20
-239.15409623949171
 30
0.0
 11
251.75
 21
-229.62781679786289
 31
0.0
  0
CIRCLE
  5
10F20
  8
0
 10
254.5
 20
-234.3909565186772
 30
0.0
 40
1.6999999999999991
  0
CIRCLE
  5
10F21
  8
2
 10
254.5
 20
-234.3909565186772
 30
0.0
 40
3.5
  0
LINE
  5
10F22
  8
0
 10
238.5
 20
-266.54510645603762
 30
0.0
 11
238.5
 21
-268.04510645603762
 31
0.0
  0
LINE
  5
10F23
  8
1
 10
233.5
 20
-263.54510645603762
 30
0.0
 11
233.5
 21
-270.54510645603762
 31
0.0
  0
LINE
  5
10F24
  8
0
 10
256.5
 20
-266.54510645603762
 30
0.0
 11
257.5
 21
-265.54510645603762
 31
0.0
  0
LINE
  5
10F25
  8
0
 10
256.5
 20
-268.04510645603762
 30
0.0
 11
257.0
 21
-268.54510645603762
 31
0.0
  0
LINE
  5
10F26
  8
0
 10
256.5
 20
-266.54510645603762
 30
0.0
 11
256.5
 21
-268.04510645603762
 31
0.0
  0
LINE
  5
10F27
  8
0
 10
238.5
 20
-266.54510645603762
 30
0.0
 11
256.5
 21
-266.54510645603779
 31
0.0
  0
LINE
  5
10F28
  8
0
 10
256.5
 20
-268.04510645603762
 30
0.0
 11
238.5
 21
-268.04510645603767
 31
0.0
  0
LINE
  5
10F5B
  8
0
 10
231.80000000000001
 20
-265.54510645603762
 30
0.0
 11
231.80000000000001
 21
-266.74510645603749
 31
0.0
  0
LINE
  5
10F5C
  8
0
 10
235.19999999999999
 20
-265.54510645603762
 30
0.0
 11
235.19999999999999
 21
-266.74510645603749
 31
0.0
  0
LINE
  5
10F5D
  8
0
 10
231.80000000000001
 20
-266.74510645603749
 30
0.0
 11
230.0
 21
-268.54510645603762
 31
0.0
  0
LINE
  5
10F5E
  8
0
 10
235.19999999999999
 20
-266.74510645603749
 30
0.0
 11
237.0
 21
-268.54510645603762
 31
0.0
  0
LINE
  5
10F5F
  8
0
 10
231.80000000000001
 20
-266.74510645603749
 30
0.0
 11
235.19999999999999
 21
-266.74510645603749
 31
0.0
  0
LINE
  5
10FCB
  8
1
 10
402.5
 20
-199.56803530094351
 30
0.0
 11
402.5
 21
-244.56803530094351
 31
0.0
  0
LINE
  5
10FCC
  8
1
 10
380.0
 20
-222.2666008656951
 30
0.0
 11
425.0
 21
-222.2666008656951
 31
0.0
  0
LINE
  5
10FCD
  8
0
 10
385.0
 20
-267.54510645603762
 30
0.0
 11
420.0
 21
-267.54510645603762
 31
0.0
  0
LINE
  5
10FCE
  8
0
 10
380.0
 20
-265.54510645603762
 30
0.0
 11
425.0
 21
-265.54510645603762
 31
0.0
  0
LINE
  5
10FCF
  8
0
 10
420.0
 20
-266.0451064560375
 30
0.0
 11
420.5
 21
-265.5451064560375
 31
0.0
  0
LINE
  5
10FD0
  8
0
 10
385.0
 20
-266.0451064560375
 30
0.0
 11
384.5
 21
-265.5451064560375
 31
0.0
  0
LINE
  5
10FD1
  8
0
 10
393.5
 20
-268.54510645603762
 30
0.0
 11
392.5
 21
-267.54510645603762
 31
0.0
  0
LINE
  5
10FD2
  8
0
 10
380.0
 20
-270.54510645603762
 30
0.0
 11
425.0
 21
-270.54510645603762
 31
0.0
  0
LINE
  5
10FD3
  8
0
 10
393.5
 20
-270.04510645603762
 30
0.0
 11
393.0
 21
-270.54510645603762
 31
0.0
  0
LINE
  5
10FD4
  8
1
 10
402.5
 20
-260.5451064560375
 30
0.0
 11
402.5
 21
-275.54510645603762
 31
0.0
  0
CIRCLE
  5
10FD5
  8
0
 10
402.5
 20
-222.2666008656951
 30
0.0
 40
9.0
  0
CIRCLE
  5
10FD6
  8
1
 10
402.5
 20
-222.2666008656951
 30
0.0
 40
14.0
  0
CIRCLE
  5
10FD7
  8
0
 10
388.5
 20
-222.2666008656951
 30
0.0
 40
1.7
  0
CIRCLE
  5
10FD8
  8
2
 10
388.5
 20
-222.2666008656951
 30
0.0
 40
3.5
  0
LINE
  5
10FD9
  8
1
 10
412.25
 20
-205.3791054918986
 30
0.0
 11
406.74999999999989
 21
-214.90538493352739
 31
0.0
  0
CIRCLE
  5
10FDA
  8
0
 10
409.49999999999989
 20
-210.14224521271299
 30
0.0
 40
1.7
  0
CIRCLE
  5
10FDB
  8
2
 10
409.49999999999989
 20
-210.14224521271299
 30
0.0
 40
3.5
  0
LINE
  5
10FDC
  8
1
 10
412.25
 20
-239.15409623949171
 30
0.0
 11
406.74999999999989
 21
-229.62781679786289
 31
0.0
  0
CIRCLE
  5
10FDD
  8
0
 10
409.49999999999989
 20
-234.3909565186772
 30
0.0
 40
1.6999999999999991
  0
CIRCLE
  5
10FDE
  8
2
 10
409.49999999999989
 20
-234.3909565186772
 30
0.0
 40
3.5
  0
LINE
  5
10FDF
  8
0
 10
393.5
 20
-268.54510645603762
 30
0.0
 11
393.5
 21
-270.04510645603762
 31
0.0
  0
LINE
  5
10FE0
  8
1
 10
388.5
 20
-265.54510645603762
 30
0.0
 11
388.5
 21
-272.54510645603762
 31
0.0
  0
LINE
  5
10FE1
  8
0
 10
411.5
 20
-268.54510645603762
 30
0.0
 11
412.5
 21
-267.54510645603762
 31
0.0
  0
LINE
  5
10FE2
  8
0
 10
411.5
 20
-270.04510645603762
 30
0.0
 11
412.0
 21
-270.54510645603762
 31
0.0
  0
LINE
  5
10FE3
  8
0
 10
411.5
 20
-268.54510645603762
 30
0.0
 11
411.5
 21
-270.04510645603762
 31
0.0
  0
LINE
  5
10FE4
  8
0
 10
393.5
 20
-268.54510645603762
 30
0.0
 11
411.5
 21
-268.54510645603779
 31
0.0
  0
LINE
  5
10FE5
  8
0
 10
411.5
 20
-270.04510645603762
 30
0.0
 11
393.5
 21
-270.04510645603767
 31
0.0
  0
LINE
  5
10FE6
  8
0
 10
386.80000000000018
 20
-267.54510645603762
 30
0.0
 11
386.80000000000018
 21
-268.74510645603749
 31
0.0
  0
LINE
  5
10FE7
  8
0
 10
390.2000000000001
 20
-267.54510645603762
 30
0.0
 11
390.2000000000001
 21
-268.74510645603749
 31
0.0
  0
LINE
  5
10FE8
  8
0
 10
386.80000000000018
 20
-268.74510645603749
 30
0.0
 11
385.0
 21
-270.54510645603762
 31
0.0
  0
LINE
  5
10FE9
  8
0
 10
390.2000000000001
 20
-268.74510645603749
 30
0.0
 11
392.0
 21
-270.54510645603762
 31
0.0
  0
LINE
  5
10FEA
  8
0
 10
386.80000000000018
 20
-268.74510645603749
 30
0.0
 11
390.2000000000001
 21
-268.74510645603749
 31
0.0
  0
CIRCLE
  5
10FEB
  8
0
 10
402.5
 20
-222.2666008656951
 30
0.0
 40
17.5
  0
LINE
  5
10FEC
  8
0
 10
420.0
 20
-267.54510645603762
 30
0.0
 11
420.0
 21
-266.0451064560375
 31
0.0
  0
LINE
  5
10FED
  8
0
 10
385.0
 20
-267.54510645603762
 30
0.0
 11
385.0
 21
-266.0451064560375
 31
0.0
  0
LINE
  5
10FEE
  8
0
 10
385.0
 20
-266.0451064560375
 30
0.0
 11
420.0
 21
-266.0451064560375
 31
0.0
  0
LINE
  5
11017
  8
0
 10
184.99999983236179
 20
-246.54510660132371
 30
0.0
 11
184.99999983236179
 21
-244.94510559400521
 31
0.0
  0
LINE
  5
11018
  8
0
 10
170.00000016763789
 20
-244.94510559400521
 30
0.0
 11
170.00000016763789
 21
-246.54510660132371
 31
0.0
  0
POLYLINE
  5
11019
  8
0
 66
     1
 10
0.0
 20
0.0
 30
0.0
 70
   128
  0
VERTEX
  5
117BC
  8
0
 10
174.8203795962034
 20
-275.63173087349139
 30
0.0
  0
VERTEX
  5
117BD
  8
0
 10
174.48902526870361
 20
-275.98652845283948
 30
0.0
  0
VERTEX
  5
117BE
  8
0
 10
174.1675124596803
 20
-276.31760664319597
 30
0.0
  0
SEQEND
  5
117BF
  8
0
  0
LINE
  5
1101A
  8
0
 10
181.50000018998949
 20
-273.3737863231263
 30
0.0
 11
181.50000018998961
 21
-268.04510645836569
 31
0.0
  0
LINE
  5
1101B
  8
0
 10
173.49999981001
 20
-268.04510645836569
 30
0.0
 11
173.49999981001
 21
-273.37378632312641
 31
0.0
  0
LINE
  5
1101C
  8
0
 10
194.5000009238718
 20
-262.04510634800391
 30
0.0
 11
194.5000009238718
 21
-249.9750912751814
 31
0.0
  0
LINE
  5
1101D
  8
0
 10
160.49999907612789
 20
-249.9750912751814
 30
0.0
 11
160.49999907612789
 21
-262.04510634800391
 31
0.0
  0
LINE
  5
1101E
  8
0
 10
160.49999907612789
 20
-262.04510634800391
 30
0.0
 11
161.0000000894068
 21
-262.5451064299603
 31
0.0
  0
LINE
  5
1101F
  8
0
 10
193.99999991059289
 20
-262.5451064299603
 30
0.0
 11
194.5000009238718
 21
-262.04510634800391
 31
0.0
  0
ARC
  5
11020
  8
0
 10
161.49999999999989
 20
-249.97509077732059
 30
0.0
 40
1.00000000000001
 50
109.9999999999965
 51
180.0
  0
ARC
  5
11021
  8
0
 10
193.49999999999989
 20
-249.97509077732059
 30
0.0
 40
1.00000000000001
 50
0.0
 51
70.000000000003439
  0
LINE
  5
11022
  8
0
 10
193.8420196622609
 20
-249.0353979732653
 30
0.0
 11
187.165693162617
 21
-246.60541386132849
 31
0.0
  0
LINE
  5
11023
  8
0
 10
167.8343068435787
 20
-246.60541346332039
 30
0.0
 11
161.15798033773879
 21
-249.0353979732653
 31
0.0
  0
ARC
  5
11024
  8
0
 10
168.1763269807083
 20
-247.54510648211439
 30
0.0
 40
1.0
 50
90.0
 51
109.9999999999965
  0
ARC
  5
11025
  8
0
 10
186.82367301929139
 20
-247.54510648211439
 30
0.0
 40
1.0
 50
70.000000000003439
 51
90.0
  0
LINE
  5
1102A
  8
0
 10
168.50000038742999
 20
-267.0451064690759
 30
0.0
 11
169.49999962002019
 21
-268.04510645836569
 31
0.0
  0
LINE
  5
1102F
  8
1
 10
177.49999999999969
 20
-283.84510668029992
 30
0.0
 11
177.49999999999989
 21
-226.075086128321
 31
0.0
  0
LINE
  5
11030
  8
0
 10
184.9266497977076
 20
-234.02414886316271
 30
0.0
 11
185.4724117889773
 21
-244.419616748349
 31
0.0
  0
LINE
  5
11031
  8
0
 10
170.07335036068719
 20
-234.02414723092571
 30
0.0
 11
169.52758818864811
 21
-244.4196161445042
 31
0.0
  0
ARC
  5
11032
  8
0
 10
173.06922956760869
 20
-234.1814345813282
 30
0.0
 40
3.0000052555057062
 50
93.000093750172496
 51
176.99466022465509
  0
ARC
  5
11033
  8
0
 10
181.9307782183966
 20
-234.1814279693549
 30
0.0
 40
2.9999972061600588
 50
3.005190176621646
 51
87.000049434053281
  0
ARC
  5
11034
  8
0
 10
179.96324587648431
 20
-184.39436841206319
 30
0.0
 40
46.745662758729857
 50
266.9794205300509
 51
271.27084544937719
  0
LINE
  5
11035
  8
0
 10
181.0000001080333
 20
-231.12853286823241
 30
0.0
 11
182.087783356096
 21
-231.18554201963909
 31
0.0
  0
LINE
  5
11036
  8
0
 10
172.91221652179939
 20
-231.1855409856698
 30
0.0
 11
173.99999989196641
 21
-231.12853286823241
 31
0.0
  0
ARC
  5
11037
  8
0
 10
175.0384027723145
 20
-184.50233142317541
 30
0.0
 40
46.637763043878408
 50
268.72418796518411
 51
273.02554605539183
  0
LINE
  5
11038
  8
0
 10
185.00001647828611
 20
-244.94510559400521
 30
0.0
 11
169.99998352134179
 21
-244.9451055940053
 31
0.0
  0
ARC
  5
11039
  8
0
 10
184.97309943031971
 20
-244.44583064717861
 30
0.0
 40
0.4999999999999941
 50
273.0840672780181
 51
3.0052693596903848
  0
ARC
  5
1103A
  8
0
 10
170.02689992995749
 20
-244.4458311709015
 30
0.0
 40
0.4999994426181066
 50
176.99459789922491
 51
266.9160026938743
  0
LINE
  5
1103B
  8
0
 10
174.16813202202309
 20
-276.31819896435343
 30
0.0
 11
173.78599733114231
 21
-276.73577187618218
 31
0.0
  0
ARC
  5
1103C
  8
0
 10
182.60617842113311
 20
-295.8154379543148
 30
0.0
 40
21.01973482499902
 50
101.7170705944185
 51
114.81023835955639
  0
ARC
  5
1103D
  8
0
 10
187.35674959239941
 20
-275.22816631262202
 30
0.0
 40
6.1433084496929924
 50
162.4310291626806
 51
179.2253156705554
  0
LINE
  5
1103E
  8
0
 10
181.2140026688574
 20
-275.14510644635158
 30
0.0
 11
181.2140026688574
 21
-276.84510635247432
 31
0.0
  0
LINE
  5
1103F
  8
0
 10
173.78599733114231
 20
-276.84510635247432
 30
0.0
 11
181.2140026688574
 21
-276.84510635247432
 31
0.0
  0
LINE
  5
11040
  8
0
 10
178.37615475058541
 20
-275.2337050255199
 30
0.0
 11
178.3375109755433
 21
-275.2337050255199
 31
0.0
  0
LINE
  5
11041
  8
0
 10
178.74292180407781
 20
-275.2337050255199
 30
0.0
 11
178.37615475058541
 21
-275.2337050255199
 31
0.0
  0
POLYLINE
  5
11042
  8
0
 66
     1
 10
0.0
 20
0.0
 30
0.0
 70
   128
  0
VERTEX
  5
117C0
  8
0
 10
179.07262757420531
 20
-275.328420065697
 30
0.0
  0
VERTEX
  5
117C1
  8
0
 10
178.88915027491731
 20
-275.27522198891239
 30
0.0
  0
VERTEX
  5
117C2
  8
0
 10
178.74292180407781
 20
-275.2337050255199
 30
0.0
  0
SEQEND
  5
117C3
  8
0
  0
POLYLINE
  5
11043
  8
0
 66
     1
 10
0.0
 20
0.0
 30
0.0
 70
   128
  0
VERTEX
  5
117C4
  8
0
 10
179.87872707657499
 20
-271.96115158533649
 30
0.0
  0
VERTEX
  5
117C5
  8
0
 10
180.1336777955292
 20
-272.13945934584342
 30
0.0
  0
VERTEX
  5
117C6
  8
0
 10
180.3745133895425
 20
-272.45948553120689
 30
0.0
  0
VERTEX
  5
117C7
  8
0
 10
180.55823911912719
 20
-272.93599579518639
 30
0.0
  0
VERTEX
  5
117C8
  8
0
 10
180.64263557083891
 20
-273.5488307293316
 30
0.0
  0
VERTEX
  5
117C9
  8
0
 10
180.5951872467993
 20
-274.1947057287951
 30
0.0
  0
VERTEX
  5
117CA
  8
0
 10
180.40630199015121
 20
-274.7789495255609
 30
0.0
  0
VERTEX
  5
117CB
  8
0
 10
180.0671969633548
 20
-275.21852493321501
 30
0.0
  0
VERTEX
  5
117CC
  8
0
 10
179.903110032901
 20
-275.3261401880344
 30
0.0
  0
VERTEX
  5
117CD
  8
0
 10
179.57435339689241
 20
-275.42039748316608
 30
0.0
  0
VERTEX
  5
117CE
  8
0
 10
179.21627337113009
 20
-275.38124887308078
 30
0.0
  0
VERTEX
  5
117CF
  8
0
 10
179.07262757420531
 20
-275.328420065697
 30
0.0
  0
SEQEND
  5
117D0
  8
0
  0
LINE
  5
11044
  8
0
 10
179.6654823794959
 20
-271.89135827159481
 30
0.0
 11
179.87872707657499
 21
-271.96115158533649
 31
0.0
  0
POLYLINE
  5
11045
  8
0
 66
     1
 10
0.0
 20
0.0
 30
0.0
 70
   128
  0
VERTEX
  5
117D1
  8
0
 10
179.28409507498131
 20
-271.77449591493212
 30
0.0
  0
VERTEX
  5
117D2
  8
0
 10
179.5001858938484
 20
-271.83953901788198
 30
0.0
  0
VERTEX
  5
117D3
  8
0
 10
179.6654823794959
 20
-271.89135827159481
 30
0.0
  0
SEQEND
  5
117D4
  8
0
  0
POLYLINE
  5
11046
  8
0
 66
     1
 10
0.0
 20
0.0
 30
0.0
 70
   128
  0
VERTEX
  5
117D5
  8
0
 10
178.86808061506579
 20
-271.68935929460429
 30
0.0
  0
VERTEX
  5
117D6
  8
0
 10
178.97706980351339
 20
-271.69490299222969
 30
0.0
  0
VERTEX
  5
117D7
  8
0
 10
179.28409507498131
 20
-271.77449591493212
 30
0.0
  0
SEQEND
  5
117D8
  8
0
  0
LINE
  5
11047
  8
0
 10
178.86808061506579
 20
-271.68935929460429
 30
0.0
 11
178.1945927161722
 21
-271.68935929460429
 31
0.0
  0
LINE
  5
11048
  8
0
 10
178.1945927161722
 20
-271.68935929460429
 30
0.0
 11
178.1945927161722
 21
-271.69379541685782
 31
0.0
  0
POLYLINE
  5
11049
  8
0
 66
     1
 10
0.0
 20
0.0
 30
0.0
 70
   128
  0
VERTEX
  5
117D9
  8
0
 10
177.7457071968818
 20
-271.77680280094938
 30
0.0
  0
VERTEX
  5
117DA
  8
0
 10
177.7765999524853
 20
-271.76552355324827
 30
0.0
  0
VERTEX
  5
117DB
  8
0
 10
178.1945927161722
 20
-271.69379541685782
 30
0.0
  0
SEQEND
  5
117DC
  8
0
  0
POLYLINE
  5
1104A
  8
0
 66
     1
 10
0.0
 20
0.0
 30
0.0
 70
   128
  0
VERTEX
  5
117DD
  8
0
 10
173.5417398251592
 20
-273.3720554601212
 30
0.0
  0
VERTEX
  5
117DE
  8
0
 10
173.5723570547996
 20
-273.32279082423048
 30
0.0
  0
VERTEX
  5
117DF
  8
0
 10
173.59774886630461
 20
-273.28935680946307
 30
0.0
  0
VERTEX
  5
117E0
  8
0
 10
173.65979660302389
 20
-273.22230111842953
 30
0.0
  0
VERTEX
  5
117E1
  8
0
 10
173.69636777788389
 20
-273.1887702461143
 30
0.0
  0
VERTEX
  5
117E2
  8
0
 10
173.73660300858299
 20
-273.15526684781508
 30
0.0
  0
VERTEX
  5
117E3
  8
0
 10
173.8279664516447
 20
-273.08843467419939
 30
0.0
  0
VERTEX
  5
117E4
  8
0
 10
173.8789754547177
 20
-273.05519623717271
 30
0.0
  0
VERTEX
  5
117E5
  8
0
 10
173.93349251709861
 20
-273.02210541477399
 30
0.0
  0
VERTEX
  5
117E6
  8
0
 10
174.05290856026099
 20
-272.95635264402227
 30
0.0
  0
VERTEX
  5
117E7
  8
0
 10
174.11759450100351
 20
-272.92336519842939
 30
0.0
  0
VERTEX
  5
117E8
  8
0
 10
174.1855191159992
 20
-272.890211511757
 30
0.0
  0
VERTEX
  5
117E9
  8
0
 10
174.3308932147919
 20
-272.82349575346308
 30
0.0
  0
VERTEX
  5
117EA
  8
0
 10
174.4884338788687
 20
-272.75647545268731
 30
0.0
  0
VERTEX
  5
117EB
  8
0
 10
174.57155046053219
 20
-272.72294178640448
 30
0.0
  0
VERTEX
  5
117EC
  8
0
 10
174.7462530713527
 20
-272.65591682901578
 30
0.0
  0
VERTEX
  5
117ED
  8
0
 10
174.93162863887829
 20
-272.5891903605123
 30
0.0
  0
VERTEX
  5
117EE
  8
0
 10
175.0280719809233
 20
-272.55602922325932
 30
0.0
  0
VERTEX
  5
117EF
  8
0
 10
175.2282176259904
 20
-272.49018704554038
 30
0.0
  0
VERTEX
  5
117F0
  8
0
 10
175.3315848857163
 20
-272.45728481596308
 30
0.0
  0
VERTEX
  5
117F1
  8
0
 10
175.43700431473539
 20
-272.42420237546759
 30
0.0
  0
VERTEX
  5
117F2
  8
0
 10
175.65370829310251
 20
-272.35758882982628
 30
0.0
  0
VERTEX
  5
117F3
  8
0
 10
175.8774448046459
 20
-272.29061625933252
 30
0.0
  0
VERTEX
  5
117F4
  8
0
 10
175.99164637271301
 20
-272.25708608550929
 30
0.0
  0
VERTEX
  5
117F5
  8
0
 10
176.22440786566571
 20
-272.19002736767732
 30
0.0
  0
VERTEX
  5
117F6
  8
0
 10
176.46214809268699
 20
-272.12321219069861
 30
0.0
  0
VERTEX
  5
117F7
  8
0
 10
176.5825657150707
 20
-272.08998632652663
 30
0.0
  0
VERTEX
  5
117F8
  8
0
 10
176.82617467129589
 20
-272.0239879194458
 30
0.0
  0
VERTEX
  5
117F9
  8
0
 10
176.94900168338779
 20
-271.99116741342448
 30
0.0
  0
VERTEX
  5
117FA
  8
0
 10
177.01059679733569
 20
-271.97468929028111
 30
0.0
  0
VERTEX
  5
117FB
  8
0
 10
177.07229819847259
 20
-271.95816669648491
 30
0.0
  0
VERTEX
  5
117FC
  8
0
 10
177.1959778654853
 20
-271.9249985743125
 30
0.0
  0
VERTEX
  5
117FD
  8
0
 10
177.3199149413266
 20
-271.89169750584261
 30
0.0
  0
VERTEX
  5
117FE
  8
0
 10
177.38193815806869
 20
-271.87500820530551
 30
0.0
  0
VERTEX
  5
117FF
  8
0
 10
177.50605206196249
 20
-271.8415632474979
 30
0.0
  0
VERTEX
  5
11800
  8
0
 10
177.62588966637841
 20
-271.80921026540898
 30
0.0
  0
VERTEX
  5
11801
  8
0
 10
177.7457071968818
 20
-271.77680280094938
 30
0.0
  0
SEQEND
  5
11802
  8
0
  0
LINE
  5
1104B
  8
0
 10
173.5417398251592
 20
-273.3720554601212
 30
0.0
 11
173.49999981001
 21
-273.37128665333591
 31
0.0
  0
ARC
  5
1104C
  8
0
 10
167.68492075831551
 20
-275.22143821370128
 30
0.0
 40
6.1015540550094052
 50
0.7168013525227782
 51
17.626853814239279
  0
LINE
  5
1104D
  8
0
 10
173.78599733114231
 20
-275.14510644635158
 30
0.0
 11
173.78599733114231
 21
-276.84510635247432
 31
0.0
  0
LINE
  5
1104E
  8
0
 10
180.9522735513745
 20
-278.10392571648561
 30
0.0
 11
181.2140026688574
 21
-276.84510635247432
 31
0.0
  0
LINE
  5
1104F
  8
0
 10
174.04772644862521
 20
-278.10392571648561
 30
0.0
 11
173.78599733114231
 21
-276.84510635247432
 31
0.0
  0
POLYLINE
  5
11050
  8
0
 66
     1
 10
0.0
 20
0.0
 30
0.0
 70
   128
  0
VERTEX
  5
11803
  8
0
 10
173.5417398251592
 20
-273.3720554601212
 30
0.0
  0
VERTEX
  5
11804
  8
0
 10
174.1306549031286
 20
-273.96913241630398
 30
0.0
  0
VERTEX
  5
11805
  8
0
 10
174.7353409975766
 20
-274.57591561635928
 30
0.0
  0
SEQEND
  5
11806
  8
0
  0
ARC
  5
11051
  8
0
 10
174.9418034143799
 20
-277.95866380572721
 30
0.0
 40
0.9058005538805724
 50
189.22828813800589
 51
254.88667014246221
  0
ARC
  5
11052
  8
0
 10
180.08893716358051
 20
-277.98639863789481
 30
0.0
 40
0.8712992211009824
 50
283.63713674668372
 51
352.24790497285181
  0
LINE
  5
11053
  8
0
 10
180.29436516575501
 20
-278.83313452860318
 30
0.0
 11
180.1670035440473
 21
-278.84510668029981
 31
0.0
  0
LINE
  5
11054
  8
0
 10
180.1670035440473
 20
-278.84510668029981
 30
0.0
 11
174.83299645595241
 21
-278.84510668029981
 31
0.0
  0
LINE
  5
11055
  8
0
 10
174.83299645595241
 20
-278.84510668029981
 30
0.0
 11
174.70563483424471
 21
-278.83313452860318
 31
0.0
  0
ARC
  5
11056
  8
0
 10
174.1512529625048
 20
-275.16866104867847
 30
0.0
 40
0.832158414827416
 50
1.6305302075752399
 51
45.100582892333982
  0
LINE
  5
11057
  8
0
 10
174.7353409975766
 20
-274.57591561635928
 30
0.0
 11
174.73864393308739
 21
-274.57920411637031
 31
0.0
  0
LINE
  5
11058
  8
0
 10
193.99999991059289
 20
-262.5451064299603
 30
0.0
 11
161.0000000894068
 21
-262.5451064299603
 31
0.0
  0
LINE
  5
1106B
  8
0
 10
168.17632667720301
 20
-246.54510660132371
 30
0.0
 11
186.82367301929139
 21
-246.54510648211451
 31
0.0
  0
LINE
  5
1106C
  8
0
 10
168.50000038742999
 20
-267.0451064690759
 30
0.0
 11
186.4999996125695
 21
-267.0451064690759
 31
0.0
  0
ARC
  5
11076
  8
0
 10
174.17574062207001
 20
-275.14569694012908
 30
0.0
 40
0.8073341262150092
 50
322.98505822655591
 51
0.0506974729869256
  0
LINE
  5
11077
  8
0
 10
161.15798033773879
 20
-249.0353979732653
 30
0.0
 11
193.8420196622609
 21
-249.0353979732653
 31
0.0
  0
LINE
  5
1108C
  8
0
 10
339.99999983236182
 20
-248.54510660132371
 30
0.0
 11
339.99999983236182
 21
-246.94510559400521
 31
0.0
  0
LINE
  5
1108D
  8
0
 10
325.00000016763789
 20
-246.94510559400521
 30
0.0
 11
325.00000016763789
 21
-248.54510660132371
 31
0.0
  0
POLYLINE
  5
1108E
  8
0
 66
     1
 10
0.0
 20
0.0
 30
0.0
 70
   128
  0
VERTEX
  5
11807
  8
0
 10
329.8203795962034
 20
-277.63173087349139
 30
0.0
  0
VERTEX
  5
11808
  8
0
 10
329.48902526870347
 20
-277.98652845283948
 30
0.0
  0
VERTEX
  5
11809
  8
0
 10
329.16751245968032
 20
-278.31760664319597
 30
0.0
  0
SEQEND
  5
1180A
  8
0
  0
LINE
  5
1108F
  8
0
 10
336.50000018998952
 20
-275.3737863231263
 30
0.0
 11
336.50000018998958
 21
-270.04510645836569
 31
0.0
  0
LINE
  5
11090
  8
0
 10
328.49999981001002
 20
-270.04510645836569
 30
0.0
 11
328.49999981001002
 21
-275.37378632312641
 31
0.0
  0
LINE
  5
11091
  8
0
 10
349.50000092387182
 20
-264.04510634800391
 30
0.0
 11
349.50000092387182
 21
-251.9750912751814
 31
0.0
  0
LINE
  5
11092
  8
0
 10
315.49999907612778
 20
-251.9750912751814
 30
0.0
 11
315.49999907612778
 21
-264.04510634800391
 31
0.0
  0
LINE
  5
11093
  8
0
 10
315.49999907612778
 20
-264.04510634800391
 30
0.0
 11
316.0000000894068
 21
-264.5451064299603
 31
0.0
  0
LINE
  5
11094
  8
0
 10
348.99999991059281
 20
-264.5451064299603
 30
0.0
 11
349.50000092387182
 21
-264.04510634800391
 31
0.0
  0
ARC
  5
11095
  8
0
 10
316.49999999999977
 20
-251.97509077732059
 30
0.0
 40
1.00000000000001
 50
109.9999999999965
 51
180.0
  0
ARC
  5
11096
  8
0
 10
348.49999999999977
 20
-251.97509077732059
 30
0.0
 40
1.00000000000001
 50
0.0
 51
70.000000000003453
  0
LINE
  5
11097
  8
0
 10
348.84201966226078
 20
-251.0353979732653
 30
0.0
 11
342.165693162617
 21
-248.60541386132849
 31
0.0
  0
LINE
  5
11098
  8
0
 10
322.83430684357859
 20
-248.60541346332039
 30
0.0
 11
316.15798033773882
 21
-251.0353979732653
 31
0.0
  0
ARC
  5
11099
  8
0
 10
323.17632698070821
 20
-249.54510648211439
 30
0.0
 40
1.0
 50
90.0
 51
109.9999999999965
  0
ARC
  5
1109A
  8
0
 10
341.82367301929128
 20
-249.54510648211439
 30
0.0
 40
1.0
 50
70.000000000003453
 51
90.0
  0
LINE
  5
1109F
  8
0
 10
323.50000038743002
 20
-269.0451064690759
 30
0.0
 11
324.49999962002022
 21
-270.04510645836569
 31
0.0
  0
LINE
  5
110A4
  8
1
 10
332.49999999999972
 20
-285.84510668029992
 30
0.0
 11
332.49999999999977
 21
-228.075086128321
 31
0.0
  0
LINE
  5
110A5
  8
0
 10
339.92664979770763
 20
-236.02414886316271
 30
0.0
 11
340.47241178897718
 21
-246.419616748349
 31
0.0
  0
LINE
  5
110A6
  8
0
 10
325.07335036068707
 20
-236.02414723092571
 30
0.0
 11
324.52758818864811
 21
-246.4196161445042
 31
0.0
  0
ARC
  5
110A7
  8
0
 10
328.06922956760872
 20
-236.1814345813282
 30
0.0
 40
3.0000052555057062
 50
93.000093750172496
 51
176.99466022465509
  0
ARC
  5
110A8
  8
0
 10
336.9307782183966
 20
-236.1814279693549
 30
0.0
 40
2.9999972061600588
 50
3.005190176621646
 51
87.000049434053281
  0
ARC
  5
110A9
  8
0
 10
334.96324587648422
 20
-186.39436841206319
 30
0.0
 40
46.745662758729857
 50
266.9794205300509
 51
271.27084544937719
  0
LINE
  5
110AA
  8
0
 10
336.0000001080333
 20
-233.12853286823241
 30
0.0
 11
337.08778335609588
 21
-233.18554201963909
 31
0.0
  0
LINE
  5
110AB
  8
0
 10
327.91221652179939
 20
-233.1855409856698
 30
0.0
 11
328.99999989196641
 21
-233.12853286823241
 31
0.0
  0
ARC
  5
110AC
  8
0
 10
330.03840277231438
 20
-186.50233142317541
 30
0.0
 40
46.637763043878408
 50
268.72418796518411
 51
273.02554605539183
  0
LINE
  5
110AD
  8
0
 10
340.00001647828611
 20
-246.94510559400521
 30
0.0
 11
324.99998352134179
 21
-246.9451055940053
 31
0.0
  0
ARC
  5
110AE
  8
0
 10
339.97309943031968
 20
-246.44583064717861
 30
0.0
 40
0.4999999999999941
 50
273.0840672780181
 51
3.0052693596904292
  0
ARC
  5
110AF
  8
0
 10
325.02689992995738
 20
-246.4458311709015
 30
0.0
 40
0.4999994426181066
 50
176.99459789922491
 51
266.9160026938743
  0
LINE
  5
110B0
  8
0
 10
329.16813202202297
 20
-278.31819896435343
 30
0.0
 11
328.78599733114231
 21
-278.73577187618218
 31
0.0
  0
ARC
  5
110B1
  8
0
 10
337.606178421133
 20
-297.8154379543148
 30
0.0
 40
21.01973482499902
 50
101.7170705944184
 51
114.81023835955639
  0
ARC
  5
110B2
  8
0
 10
342.35674959239941
 20
-277.22816631262202
 30
0.0
 40
6.1433084496929924
 50
162.43102916268009
 51
179.2253156705554
  0
LINE
  5
110B3
  8
0
 10
336.2140026688574
 20
-277.14510644635158
 30
0.0
 11
336.2140026688574
 21
-278.84510635247432
 31
0.0
  0
LINE
  5
110B4
  8
0
 10
328.78599733114231
 20
-278.84510635247432
 30
0.0
 11
336.2140026688574
 21
-278.84510635247432
 31
0.0
  0
LINE
  5
110B5
  8
0
 10
333.37615475058539
 20
-277.2337050255199
 30
0.0
 11
333.33751097554318
 21
-277.2337050255199
 31
0.0
  0
LINE
  5
110B6
  8
0
 10
333.74292180407781
 20
-277.2337050255199
 30
0.0
 11
333.37615475058539
 21
-277.2337050255199
 31
0.0
  0
POLYLINE
  5
110B7
  8
0
 66
     1
 10
0.0
 20
0.0
 30
0.0
 70
   128
  0
VERTEX
  5
1180B
  8
0
 10
334.07262757420523
 20
-277.328420065697
 30
0.0
  0
VERTEX
  5
1180C
  8
0
 10
333.88915027491731
 20
-277.27522198891239
 30
0.0
  0
VERTEX
  5
1180D
  8
0
 10
333.74292180407781
 20
-277.2337050255199
 30
0.0
  0
SEQEND
  5
1180E
  8
0
  0
POLYLINE
  5
110B8
  8
0
 66
     1
 10
0.0
 20
0.0
 30
0.0
 70
   128
  0
VERTEX
  5
1180F
  8
0
 10
334.87872707657499
 20
-273.96115158533649
 30
0.0
  0
VERTEX
  5
11810
  8
0
 10
335.1336777955292
 20
-274.13945934584342
 30
0.0
  0
VERTEX
  5
11811
  8
0
 10
335.37451338954253
 20
-274.45948553120689
 30
0.0
  0
VERTEX
  5
11812
  8
0
 10
335.55823911912722
 20
-274.93599579518639
 30
0.0
  0
VERTEX
  5
11813
  8
0
 10
335.64263557083888
 20
-275.5488307293316
 30
0.0
  0
VERTEX
  5
11814
  8
0
 10
335.5951872467993
 20
-276.1947057287951
 30
0.0
  0
VERTEX
  5
11815
  8
0
 10
335.40630199015118
 20
-276.7789495255609
 30
0.0
  0
VERTEX
  5
11816
  8
0
 10
335.06719696335477
 20
-277.21852493321501
 30
0.0
  0
VERTEX
  5
11817
  8
0
 10
334.903110032901
 20
-277.3261401880344
 30
0.0
  0
VERTEX
  5
11818
  8
0
 10
334.57435339689238
 20
-277.42039748316608
 30
0.0
  0
VERTEX
  5
11819
  8
0
 10
334.21627337113011
 20
-277.38124887308078
 30
0.0
  0
VERTEX
  5
1181A
  8
0
 10
334.07262757420523
 20
-277.328420065697
 30
0.0
  0
SEQEND
  5
1181B
  8
0
  0
LINE
  5
110B9
  8
0
 10
334.66548237949593
 20
-273.89135827159481
 30
0.0
 11
334.87872707657499
 21
-273.96115158533649
 31
0.0
  0
POLYLINE
  5
110BA
  8
0
 66
     1
 10
0.0
 20
0.0
 30
0.0
 70
   128
  0
VERTEX
  5
1181C
  8
0
 10
334.28409507498128
 20
-273.77449591493212
 30
0.0
  0
VERTEX
  5
1181D
  8
0
 10
334.50018589384842
 20
-273.83953901788198
 30
0.0
  0
VERTEX
  5
1181E
  8
0
 10
334.66548237949593
 20
-273.89135827159481
 30
0.0
  0
SEQEND
  5
1181F
  8
0
  0
POLYLINE
  5
110BB
  8
0
 66
     1
 10
0.0
 20
0.0
 30
0.0
 70
   128
  0
VERTEX
  5
11820
  8
0
 10
333.86808061506582
 20
-273.68935929460429
 30
0.0
  0
VERTEX
  5
11821
  8
0
 10
333.97706980351342
 20
-273.69490299222969
 30
0.0
  0
VERTEX
  5
11822
  8
0
 10
334.28409507498128
 20
-273.77449591493212
 30
0.0
  0
SEQEND
  5
11823
  8
0
  0
LINE
  5
110BC
  8
0
 10
333.86808061506582
 20
-273.68935929460429
 30
0.0
 11
333.19459271617222
 21
-273.68935929460429
 31
0.0
  0
LINE
  5
110BD
  8
0
 10
333.19459271617222
 20
-273.68935929460429
 30
0.0
 11
333.19459271617222
 21
-273.69379541685782
 31
0.0
  0
POLYLINE
  5
110BE
  8
0
 66
     1
 10
0.0
 20
0.0
 30
0.0
 70
   128
  0
VERTEX
  5
11824
  8
0
 10
332.74570719688182
 20
-273.77680280094938
 30
0.0
  0
VERTEX
  5
11825
  8
0
 10
332.77659995248518
 20
-273.76552355324827
 30
0.0
  0
VERTEX
  5
11826
  8
0
 10
333.19459271617222
 20
-273.69379541685782
 30
0.0
  0
SEQEND
  5
11827
  8
0
  0
POLYLINE
  5
110BF
  8
0
 66
     1
 10
0.0
 20
0.0
 30
0.0
 70
   128
  0
VERTEX
  5
11828
  8
0
 10
328.54173982515908
 20
-275.3720554601212
 30
0.0
  0
VERTEX
  5
11829
  8
0
 10
328.57235705479962
 20
-275.32279082423048
 30
0.0
  0
VERTEX
  5
1182A
  8
0
 10
328.59774886630458
 20
-275.28935680946307
 30
0.0
  0
VERTEX
  5
1182B
  8
0
 10
328.65979660302378
 20
-275.22230111842953
 30
0.0
  0
VERTEX
  5
1182C
  8
0
 10
328.69636777788378
 20
-275.1887702461143
 30
0.0
  0
VERTEX
  5
1182D
  8
0
 10
328.73660300858302
 20
-275.15526684781508
 30
0.0
  0
VERTEX
  5
1182E
  8
0
 10
328.82796645164473
 20
-275.08843467419939
 30
0.0
  0
VERTEX
  5
1182F
  8
0
 10
328.8789754547177
 20
-275.05519623717271
 30
0.0
  0
VERTEX
  5
11830
  8
0
 10
328.93349251709861
 20
-275.02210541477399
 30
0.0
  0
VERTEX
  5
11831
  8
0
 10
329.05290856026102
 20
-274.95635264402227
 30
0.0
  0
VERTEX
  5
11832
  8
0
 10
329.11759450100351
 20
-274.92336519842939
 30
0.0
  0
VERTEX
  5
11833
  8
0
 10
329.18551911599923
 20
-274.890211511757
 30
0.0
  0
VERTEX
  5
11834
  8
0
 10
329.33089321479179
 20
-274.82349575346308
 30
0.0
  0
VERTEX
  5
11835
  8
0
 10
329.4884338788687
 20
-274.75647545268731
 30
0.0
  0
VERTEX
  5
11836
  8
0
 10
329.57155046053208
 20
-274.72294178640448
 30
0.0
  0
VERTEX
  5
11837
  8
0
 10
329.74625307135273
 20
-274.65591682901578
 30
0.0
  0
VERTEX
  5
11838
  8
0
 10
329.93162863887829
 20
-274.5891903605123
 30
0.0
  0
VERTEX
  5
11839
  8
0
 10
330.02807198092319
 20
-274.55602922325932
 30
0.0
  0
VERTEX
  5
1183A
  8
0
 10
330.22821762599028
 20
-274.49018704554038
 30
0.0
  0
VERTEX
  5
1183B
  8
0
 10
330.33158488571632
 20
-274.45728481596308
 30
0.0
  0
VERTEX
  5
1183C
  8
0
 10
330.43700431473542
 20
-274.42420237546759
 30
0.0
  0
VERTEX
  5
1183D
  8
0
 10
330.65370829310251
 20
-274.35758882982628
 30
0.0
  0
VERTEX
  5
1183E
  8
0
 10
330.8774448046459
 20
-274.29061625933252
 30
0.0
  0
VERTEX
  5
1183F
  8
0
 10
330.99164637271298
 20
-274.25708608550929
 30
0.0
  0
VERTEX
  5
11840
  8
0
 10
331.22440786566568
 20
-274.19002736767732
 30
0.0
  0
VERTEX
  5
11841
  8
0
 10
331.46214809268702
 20
-274.12321219069861
 30
0.0
  0
VERTEX
  5
11842
  8
0
 10
331.58256571507059
 20
-274.08998632652663
 30
0.0
  0
VERTEX
  5
11843
  8
0
 10
331.82617467129592
 20
-274.0239879194458
 30
0.0
  0
VERTEX
  5
11844
  8
0
 10
331.94900168338768
 20
-273.99116741342448
 30
0.0
  0
VERTEX
  5
11845
  8
0
 10
332.01059679733572
 20
-273.97468929028111
 30
0.0
  0
VERTEX
  5
11846
  8
0
 10
332.07229819847248
 20
-273.95816669648491
 30
0.0
  0
VERTEX
  5
11847
  8
0
 10
332.1959778654853
 20
-273.9249985743125
 30
0.0
  0
VERTEX
  5
11848
  8
0
 10
332.31991494132649
 20
-273.89169750584273
 30
0.0
  0
VERTEX
  5
11849
  8
0
 10
332.38193815806858
 20
-273.87500820530551
 30
0.0
  0
VERTEX
  5
1184A
  8
0
 10
332.50605206196252
 20
-273.8415632474979
 30
0.0
  0
VERTEX
  5
1184B
  8
0
 10
332.62588966637833
 20
-273.80921026540898
 30
0.0
  0
VERTEX
  5
1184C
  8
0
 10
332.74570719688182
 20
-273.77680280094938
 30
0.0
  0
SEQEND
  5
1184D
  8
0
  0
LINE
  5
110C0
  8
0
 10
328.54173982515908
 20
-275.3720554601212
 30
0.0
 11
328.49999981001002
 21
-275.37128665333591
 31
0.0
  0
ARC
  5
110C1
  8
0
 10
322.68492075831551
 20
-277.22143821370128
 30
0.0
 40
6.1015540550094052
 50
0.7168013525227686
 51
17.626853814239809
  0
LINE
  5
110C2
  8
0
 10
328.78599733114231
 20
-277.14510644635158
 30
0.0
 11
328.78599733114231
 21
-278.84510635247432
 31
0.0
  0
LINE
  5
110C3
  8
0
 10
335.9522735513745
 20
-280.10392571648561
 30
0.0
 11
336.2140026688574
 21
-278.84510635247432
 31
0.0
  0
LINE
  5
110C4
  8
0
 10
329.04772644862521
 20
-280.10392571648561
 30
0.0
 11
328.78599733114231
 21
-278.84510635247432
 31
0.0
  0
POLYLINE
  5
110C5
  8
0
 66
     1
 10
0.0
 20
0.0
 30
0.0
 70
   128
  0
VERTEX
  5
1184E
  8
0
 10
328.54173982515908
 20
-275.3720554601212
 30
0.0
  0
VERTEX
  5
1184F
  8
0
 10
329.13065490312857
 20
-275.96913241630398
 30
0.0
  0
VERTEX
  5
11850
  8
0
 10
329.73534099757649
 20
-276.57591561635928
 30
0.0
  0
SEQEND
  5
11851
  8
0
  0
ARC
  5
110C6
  8
0
 10
329.94180341437988
 20
-279.95866380572721
 30
0.0
 40
0.9058005538805724
 50
189.22828813800569
 51
254.88667014246221
  0
ARC
  5
110C7
  8
0
 10
335.08893716358051
 20
-279.98639863789481
 30
0.0
 40
0.8712992211009824
 50
283.63713674668372
 51
352.24790497285198
  0
LINE
  5
110C8
  8
0
 10
335.29436516575498
 20
-280.83313452860318
 30
0.0
 11
335.1670035440473
 21
-280.84510668029981
 31
0.0
  0
LINE
  5
110C9
  8
0
 10
335.1670035440473
 20
-280.84510668029981
 30
0.0
 11
329.83299645595241
 21
-280.84510668029981
 31
0.0
  0
LINE
  5
110CA
  8
0
 10
329.83299645595241
 20
-280.84510668029981
 30
0.0
 11
329.70563483424468
 21
-280.83313452860318
 31
0.0
  0
ARC
  5
110CB
  8
0
 10
329.15125296250483
 20
-277.16866104867847
 30
0.0
 40
0.832158414827416
 50
1.6305302075752399
 51
45.100582892334543
  0
LINE
  5
110CC
  8
0
 10
329.73534099757649
 20
-276.57591561635928
 30
0.0
 11
329.73864393308742
 21
-276.57920411637031
 31
0.0
  0
LINE
  5
110CD
  8
0
 10
348.99999991059281
 20
-264.5451064299603
 30
0.0
 11
316.0000000894068
 21
-264.5451064299603
 31
0.0
  0
LINE
  5
110E0
  8
0
 10
323.17632667720301
 20
-248.54510660132371
 30
0.0
 11
341.82367301929128
 21
-248.54510648211451
 31
0.0
  0
LINE
  5
110E1
  8
0
 10
323.50000038743002
 20
-269.0451064690759
 30
0.0
 11
341.49999961256952
 21
-269.0451064690759
 31
0.0
  0
ARC
  5
110EB
  8
0
 10
329.17574062207001
 20
-277.14569694012908
 30
0.0
 40
0.8073341262150092
 50
322.98505822655551
 51
0.0506974729869256
  0
LINE
  5
110EC
  8
0
 10
316.15798033773882
 20
-251.0353979732653
 30
0.0
 11
348.84201966226078
 21
-251.0353979732653
 31
0.0
  0
LINE
  5
110F9
  8
0
 10
186.4999996125695
 20
-267.0451064690759
 30
0.0
 11
185.5000003799793
 21
-268.04510645836569
 31
0.0
  0
LINE
  5
110FA
  8
0
 10
154.9999999999998
 20
-265.54510645603739
 30
0.0
 11
199.9999999999998
 21
-265.54510645603739
 31
0.0
  0
LINE
  5
110FB
  8
0
 10
168.4999999999998
 20
-266.54510645603739
 30
0.0
 11
167.4999999999998
 21
-265.54510645603739
 31
0.0
  0
LINE
  5
110FC
  8
0
 10
154.9999999999998
 20
-268.54510645603739
 30
0.0
 11
173.49999981001
 21
-268.54510645603739
 31
0.0
  0
LINE
  5
110FD
  8
0
 10
168.4999999999998
 20
-268.04510645603739
 30
0.0
 11
167.9999999999998
 21
-268.54510645603739
 31
0.0
  0
LINE
  5
110FF
  8
0
 10
168.4999999999998
 20
-265.54510645603739
 30
0.0
 11
168.4999999999998
 21
-268.04510645603739
 31
0.0
  0
LINE
  5
11101
  8
0
 10
186.4999999999998
 20
-266.54510645603739
 30
0.0
 11
187.4999999999998
 21
-265.54510645603739
 31
0.0
  0
LINE
  5
11102
  8
0
 10
186.4999999999998
 20
-268.04510645603739
 30
0.0
 11
186.9999999999998
 21
-268.54510645603739
 31
0.0
  0
LINE
  5
11103
  8
0
 10
186.4999999999998
 20
-265.54510645603739
 30
0.0
 11
186.4999999999998
 21
-268.04510645603739
 31
0.0
  0
LINE
  5
11105
  8
0
 10
186.4999999999998
 20
-268.04510645603739
 30
0.0
 11
168.4999999999998
 21
-268.0451064560375
 31
0.0
  0
LINE
  5
11106
  8
0
 10
161.7999999999997
 20
-265.54510645603739
 30
0.0
 11
161.7999999999997
 21
-266.74510645603732
 31
0.0
  0
LINE
  5
11107
  8
0
 10
165.19999999999979
 20
-265.54510645603739
 30
0.0
 11
165.19999999999979
 21
-266.74510645603732
 31
0.0
  0
LINE
  5
11108
  8
0
 10
161.7999999999997
 20
-266.74510645603732
 30
0.0
 11
159.9999999999998
 21
-268.54510645603739
 31
0.0
  0
LINE
  5
11109
  8
0
 10
165.19999999999979
 20
-266.74510645603732
 30
0.0
 11
166.9999999999998
 21
-268.54510645603739
 31
0.0
  0
LINE
  5
1110A
  8
0
 10
161.7999999999997
 20
-266.74510645603732
 30
0.0
 11
161.9999999999998
 21
-266.74510645603732
 31
0.0
  0
LINE
  5
1110B
  8
0
 10
164.9999999999998
 20
-266.74510645603732
 30
0.0
 11
165.19999999999979
 21
-266.74510645603732
 31
0.0
  0
LINE
  5
1110E
  8
0
 10
181.50000018998961
 20
-268.54510645603739
 30
0.0
 11
199.9999999999998
 21
-268.54510645603739
 31
0.0
  0
LINE
  5
11116
  8
0
 10
314.99999999999977
 20
-267.54510645603739
 30
0.0
 11
349.99999999999977
 21
-267.54510645603739
 31
0.0
  0
LINE
  5
11117
  8
0
 10
309.99999999999977
 20
-265.54510645603739
 30
0.0
 11
315.49999907612778
 21
-265.54510645603739
 31
0.0
  0
LINE
  5
11118
  8
0
 10
349.99999999999977
 20
-266.04510645603739
 30
0.0
 11
350.49999999999977
 21
-265.54510645603739
 31
0.0
  0
LINE
  5
11119
  8
0
 10
314.99999999999977
 20
-266.04510645603739
 30
0.0
 11
314.49999999999977
 21
-265.54510645603739
 31
0.0
  0
LINE
  5
1111A
  8
0
 10
323.49999999999977
 20
-268.54510645603739
 30
0.0
 11
322.49999999999977
 21
-267.54510645603739
 31
0.0
  0
LINE
  5
1111B
  8
0
 10
309.99999999999977
 20
-270.54510645603739
 30
0.0
 11
328.49999981001002
 21
-270.54510645603739
 31
0.0
  0
LINE
  5
1111C
  8
0
 10
323.49999999999977
 20
-270.04510645603739
 30
0.0
 11
322.99999999999977
 21
-270.54510645603739
 31
0.0
  0
LINE
  5
1111E
  8
0
 10
323.49999999999977
 20
-267.54510645603739
 30
0.0
 11
323.49999999999977
 21
-270.04510645603739
 31
0.0
  0
LINE
  5
11120
  8
0
 10
341.49999999999977
 20
-268.54510645603739
 30
0.0
 11
342.49999999999977
 21
-267.54510645603739
 31
0.0
  0
LINE
  5
11121
  8
0
 10
341.49999999999977
 20
-270.04510645603739
 30
0.0
 11
341.99999999999977
 21
-270.54510645603739
 31
0.0
  0
LINE
  5
11122
  8
0
 10
341.49999999999977
 20
-267.54510645603739
 30
0.0
 11
341.49999999999977
 21
-270.04510645603739
 31
0.0
  0
LINE
  5
11124
  8
0
 10
341.49999999999977
 20
-270.04510645603739
 30
0.0
 11
323.49999999999977
 21
-270.0451064560375
 31
0.0
  0
LINE
  5
11125
  8
0
 10
316.80000000000001
 20
-267.54510645603739
 30
0.0
 11
316.80000000000001
 21
-268.74510645603732
 31
0.0
  0
LINE
  5
11126
  8
0
 10
320.19999999999982
 20
-267.54510645603739
 30
0.0
 11
320.19999999999982
 21
-268.74510645603732
 31
0.0
  0
LINE
  5
11127
  8
0
 10
316.80000000000001
 20
-268.74510645603732
 30
0.0
 11
314.99999999999977
 21
-270.54510645603739
 31
0.0
  0
LINE
  5
11128
  8
0
 10
320.19999999999982
 20
-268.74510645603732
 30
0.0
 11
321.99999999999977
 21
-270.54510645603739
 31
0.0
  0
LINE
  5
11129
  8
0
 10
316.80000000000001
 20
-268.74510645603732
 30
0.0
 11
316.99999999999977
 21
-268.74510645603732
 31
0.0
  0
LINE
  5
1112A
  8
0
 10
349.99999999999977
 20
-267.54510645603739
 30
0.0
 11
349.99999999999977
 21
-266.04510645603739
 31
0.0
  0
LINE
  5
1112B
  8
0
 10
314.99999999999977
 20
-267.54510645603739
 30
0.0
 11
314.99999999999977
 21
-266.04510645603739
 31
0.0
  0
LINE
  5
1112C
  8
0
 10
314.99999999999977
 20
-266.04510645603739
 30
0.0
 11
315.49999907612778
 21
-266.04510645603739
 31
0.0
  0
LINE
  5
11134
  8
0
 10
341.49999961256952
 20
-269.0451064690759
 30
0.0
 11
340.50000037997933
 21
-270.04510645836569
 31
0.0
  0
LINE
  5
1113C
  8
0
 10
349.50000092387182
 20
-266.04510645603739
 30
0.0
 11
349.99999999999977
 21
-266.04510645603739
 31
0.0
  0
LINE
  5
1113D
  8
0
 10
349.50000092387182
 20
-265.54510645603739
 30
0.0
 11
354.99999999999977
 21
-265.54510645603739
 31
0.0
  0
LINE
  5
1113E
  8
0
 10
319.99999999999977
 20
-268.74510645603732
 30
0.0
 11
320.19999999999982
 21
-268.74510645603732
 31
0.0
  0
LINE
  5
1113F
  8
0
 10
336.50000018998958
 20
-270.54510645603739
 30
0.0
 11
354.99999999999977
 21
-270.54510645603739
 31
0.0
  0
TEXT
  5
11184
  8
0
 62
     3
 10
141.00146734992691
 20
-170.1413686342768
 30
0.0
 40
3.2000000000000002
  1
スペーサー(ボルト付き)(QCASP)を使用する場合
  0
TEXT
  5
11185
  8
0
 62
     3
 10
141.00146734992691
 20
-177.1413686342768
 30
0.0
 40
3.2000000000000002
  1
To use with a spacer(QCASP)
 41
0.85
  0
POLYLINE
  5
111EC
  8
5
 66
     1
 10
0.0
 20
0.0
 30
0.0
 70
     1
  0
VERTEX
  5
11852
  8
5
 10
445.0
 20
-308.14510668029999
 30
0.0
  0
VERTEX
  5
11853
  8
5
 10
135.0
 20
-308.14510668029999
 30
0.0
  0
VERTEX
  5
11854
  8
5
 10
135.0
 20
-10.0
 30
0.0
  0
VERTEX
  5
11855
  8
5
 10
445.0
 20
-10.0
 30
0.0
  0
SEQEND
  5
11856
  8
5
  0
ENDSEC
  0
EOF
