  0
SECTION
  2
HEADER
  9
$ACADVER
  1
AC1009
  9
$INSBASE
 10
0.0
 20
0.0
 30
0.0
  9
$EXTMIN
 10
0.0
 20
-150.1732704456428
 30
0.0
  9
$EXTMAX
 10
470.0000013090048
 20
232.49999987530799
 30
0.0
  9
$LIMMIN
 10
0.0
 20
0.0
  9
$LIMMAX
 10
187.5
 20
135.0
  9
$ORTHOMODE
 70
     1
  9
$REGENMODE
 70
     1
  9
$FILLMODE
 70
     1
  9
$QTEXTMODE
 70
     0
  9
$MIRRTEXT
 70
     0
  9
$DRAGMODE
 70
     2
  9
$LTSCALE
 40
5.0
  9
$OSMODE
 70
    37
  9
$ATTMODE
 70
     1
  9
$TEXTSIZE
 40
0.2
  9
$TRACEWID
 40
0.05
  9
$TEXTSTYLE
  7
STANDARD
  9
$CLAYER
  8
0
  9
$CELTYPE
  6
BYLAYER
  9
$CECOLOR
 62
   256
  9
$DIMSCALE
 40
1.0
  9
$DIMASZ
 40
3.0
  9
$DIMEXO
 40
2.0
  9
$DIMDLI
 40
0.3799999999999999
  9
$DIMRND
 40
0.0
  9
$DIMDLE
 40
0.0
  9
$DIMEXE
 40
2.0
  9
$DIMTP
 40
0.0
  9
$DIMTM
 40
0.0
  9
$DIMTXT
 40
3.0
  9
$DIMCEN
 40
0.0
  9
$DIMTSZ
 40
0.0
  9
$DIMTOL
 70
     0
  9
$DIMLIM
 70
     0
  9
$DIMTIH
 70
     0
  9
$DIMTOH
 70
     0
  9
$DIMSE1
 70
     0
  9
$DIMSE2
 70
     0
  9
$DIMTAD
 70
     1
  9
$DIMZIN
 70
     8
  9
$DIMBLK
  1

  9
$DIMASO
 70
     0
  9
$DIMSHO
 70
     0
  9
$DIMPOST
  1

  9
$DIMAPOST
  1

  9
$DIMALT
 70
     0
  9
$DIMALTD
 70
     2
  9
$DIMALTF
 40
25.399999999999999
  9
$DIMLFAC
 40
1.0
  9
$DIMTOFL
 70
     1
  9
$DIMTVP
 40
1.6000000000000001
  9
$DIMTIX
 70
     1
  9
$DIMSOXD
 70
     0
  9
$DIMSAH
 70
     0
  9
$DIMBLK1
  1

  9
$DIMBLK2
  1

  9
$DIMSTYLE
  2
STANDARD
  9
$DIMCLRD
 70
   256
  9
$DIMCLRE
 70
   256
  9
$DIMCLRT
 70
   256
  9
$DIMTFAC
 40
1.0
  9
$DIMGAP
 40
1.1999999999999991
  9
$LUNITS
 70
     2
  9
$LUPREC
 70
     1
  9
$SKETCHINC
 40
0.1
  9
$FILLETRAD
 40
0.4
  9
$AUNITS
 70
     0
  9
$AUPREC
 70
     1
  9
$MENU
  1
E:\r13\win\SUPPORT\ACAD
  9
$ELEVATION
 40
0.0
  9
$PELEVATION
 40
0.0
  9
$THICKNESS
 40
0.0
  9
$LIMCHECK
 70
     0
  9
$BLIPMODE
 70
     0
  9
$CHAMFERA
 40
0.5
  9
$CHAMFERB
 40
0.5
  9
$SKPOLY
 70
     0
  9
$TDCREATE
 40
2451824.6906229062
  9
$TDUPDATE
 40
2459762.556715243
  9
$TDINDWG
 40
2.4930854629999999
  9
$TDUSRTIMER
 40
2.4930852778000001
  9
$USRTIMER
 70
     1
  9
$ANGBASE
 50
0.0
  9
$ANGDIR
 70
     0
  9
$PDMODE
 70
     0
  9
$PDSIZE
 40
0.0
  9
$PLINEWID
 40
0.0
  9
$COORDS
 70
     1
  9
$SPLFRAME
 70
     0
  9
$SPLINETYPE
 70
     6
  9
$SPLINESEGS
 70
     8
  9
$ATTDIA
 70
     0
  9
$ATTREQ
 70
     1
  9
$HANDLING
 70
     1
  9
$HANDSEED
  5
1AD5F
  9
$SURFTAB1
 70
     6
  9
$SURFTAB2
 70
     6
  9
$SURFTYPE
 70
     6
  9
$SURFU
 70
     6
  9
$SURFV
 70
     6
  9
$UCSNAME
  2

  9
$UCSORG
 10
0.0
 20
0.0
 30
0.0
  9
$UCSXDIR
 10
1.0
 20
0.0
 30
0.0
  9
$UCSYDIR
 10
0.0
 20
1.0
 30
0.0
  9
$PUCSNAME
  2

  9
$PUCSORG
 10
0.0
 20
0.0
 30
0.0
  9
$PUCSXDIR
 10
1.0
 20
0.0
 30
0.0
  9
$PUCSYDIR
 10
0.0
 20
1.0
 30
0.0
  9
$USERI1
 70
     0
  9
$USERI2
 70
     1
  9
$USERI3
 70
     0
  9
$USERI4
 70
     0
  9
$USERI5
 70
     0
  9
$USERR1
 40
0.0
  9
$USERR2
 40
0.0
  9
$USERR3
 40
0.0
  9
$USERR4
 40
0.0
  9
$USERR5
 40
0.0
  9
$WORLDVIEW
 70
     1
  9
$SHADEDGE
 70
     3
  9
$SHADEDIF
 70
    70
  9
$TILEMODE
 70
     1
  9
$MAXACTVP
 70
    16
  9
$PLIMCHECK
 70
     0
  9
$PEXTMIN
 10
1.0000000000000000E+020
 20
1.0000000000000000E+020
 30
1.0000000000000000E+020
  9
$PEXTMAX
 10
-1.0000000000000000E+020
 20
-1.0000000000000000E+020
 30
-1.0000000000000000E+020
  9
$PLIMMIN
 10
0.0
 20
0.0
  9
$PLIMMAX
 10
12.0
 20
9.0
  9
$UNITMODE
 70
     0
  9
$VISRETAIN
 70
     0
  9
$PLINEGEN
 70
     0
  9
$PSLTSCALE
 70
     0
  0
ENDSEC
  0
SECTION
  2
TABLES
  0
TABLE
  2
VPORT
 70
     1
  0
VPORT
  2
*ACTIVE
 70
     0
 10
0.0
 20
0.0
 11
1.0
 21
1.0
 12
398.58774038461542
 22
175.0
 13
0.0
 23
0.0
 14
5.0
 24
5.0
 15
5.0
 25
5.0
 16
0.0
 26
0.0
 36
1.0
 17
0.0
 27
0.0
 37
0.0
 40
350.0
 41
2.2776442307692299
 42
50.0
 43
0.0
 44
0.0
 50
0.0
 51
0.0
 71
     0
 72
   500
 73
     1
 74
     0
 75
     0
 76
     0
 77
     0
 78
     0
  0
ENDTAB
  0
TABLE
  2
LTYPE
 70
     5
  0
LTYPE
  2
CONTINUOUS
 70
     0
  3
Solid Line
 72
    65
 73
     0
 40
0.0
  0
LTYPE
  2
CENTER
 70
     0
  3
____ _ ____ _ ____ _ ____ _ ____ _ ____ _ ____
 72
    65
 73
     4
 40
2.0
 49
1.25
 49
-0.25
 49
0.25
 49
-0.25
  0
LTYPE
  2
PHANTOM2
 70
     0
  3
___ _ _ ___ _ _ ___ _ _ ___ _ _
 72
    65
 73
     6
 40
1.25
 49
0.625
 49
-0.125
 49
0.125
 49
-0.125
 49
0.125
 49
-0.125
  0
LTYPE
  2
HIDDEN
 70
     0
  3
__ __ __ __ __ __ __ __ __ __ __ __ __ __ __ __
 72
    65
 73
     2
 40
0.375
 49
0.25
 49
-0.125
  0
LTYPE
  2
PHANTOM
 70
     0
  3
_____ _ _ _____ _ _ _____ _ _ _____ _ _ ____
 72
    65
 73
     6
 40
2.5
 49
1.25
 49
-0.25
 49
0.25
 49
-0.25
 49
0.25
 49
-0.25
  0
ENDTAB
  0
TABLE
  2
LAYER
 70
     6
  0
LAYER
  2
0
 70
     0
 62
     7
  6
CONTINUOUS
  0
LAYER
  2
1
 70
     0
 62
     1
  6
CENTER
  0
LAYER
  2
2
 70
     0
 62
     2
  6
HIDDEN
  0
LAYER
  2
5
 70
     0
 62
     3
  6
PHANTOM
  0
LAYER
  2
3
 70
     0
 62
     3
  6
CONTINUOUS
  0
LAYER
  2
DEFPOINTS
 70
     0
 62
     7
  6
CONTINUOUS
  0
ENDTAB
  0
TABLE
  2
STYLE
 70
     2
  0
STYLE
  2
STANDARD
 70
     0
 40
0.0
 41
1.0
 50
0.0
 71
     0
 42
0.2
  3
TXT
  4
BIGFONT
  0
STYLE
  2
STANDARD1
 70
     0
 40
0.0
 41
1.0
 50
0.0
 71
     0
 42
3.0
  3
txt
  4

  0
ENDTAB
  0
TABLE
  2
VIEW
 70
     2
  0
VIEW
  2
OLE1
 70
     0
 40
230.57206781759481
 10
150.69838489794819
 20
404.39942226326519
 41
272.25240315385241
 11
0.0
 21
0.0
 31
1.0
 12
0.0
 22
0.0
 32
0.0
 42
50.0
 43
0.0
 44
0.0
 50
0.0
 71
     0
  0
VIEW
  2
OLE2
 70
     0
 40
202.3282431621931
 10
347.29567904807772
 20
-206.63887725582759
 41
238.9029640415126
 11
0.0
 21
0.0
 31
1.0
 12
0.0
 22
0.0
 32
0.0
 42
50.0
 43
0.0
 44
0.0
 50
0.0
 71
     0
  0
ENDTAB
  0
TABLE
  2
UCS
 70
     0
  0
ENDTAB
  0
TABLE
  2
APPID
 70
    14
  0
APPID
  2
ACAD
 70
     0
  0
APPID
  2
ACAD_MLEADERVER
 70
     0
  0
APPID
  2
ACAD_EXEMPT_FROM_CAD_STANDARDS
 70
     0
  0
APPID
  2
ACAD_DSTYLE_DIMJAG
 70
     0
  0
APPID
  2
ACAD_DSTYLE_DIMTALN
 70
     0
  0
APPID
  2
ACAD_NAV_VCDISPLAY
 70
     0
  0
APPID
  2
ACAD_PSEXT
 70
     0
  0
APPID
  2
ACAECLAYERSTANDARD
 70
     0
  0
APPID
  2
ACCMTRANSPARENCY
 70
     0
  0
APPID
  2
ACAD_DSTYLE_DIMRADIAL_EXTENSION
 70
     0
  0
APPID
  2
ACADANNOTATIVE
 70
     0
  0
APPID
  2
ACAD_DSTYLE_DIMBREAK
 70
     0
  0
APPID
  2
GRADIENTCOLOR1ACI
 70
     0
  0
APPID
  2
GRADIENTCOLOR2ACI
 70
     0
  0
ENDTAB
  0
TABLE
  2
DIMSTYLE
 70
     1
  0
DIMSTYLE
  2
STANDARD
 70
     0
  3

  4

  5

  6

  7

 40
1.0
 41
0.18
 42
0.0625
 43
0.38
 44
0.18
 45
0.0
 46
0.0
 47
0.0
 48
0.0
140
0.18
141
0.09
142
0.0
143
25.399999999999999
144
1.0
145
0.0
146
1.0
147
0.09
 71
     0
 72
     0
 73
     1
 74
     1
 75
     0
 76
     0
 77
     0
 78
     0
170
     0
171
     2
172
     0
173
     0
174
     0
175
     0
176
     0
177
     0
178
     0
  0
ENDTAB
  0
ENDSEC
  0
SECTION
  2
BLOCKS
  0
BLOCK
  8
0
  2
$MODEL_SPACE
 70
     0
 10
0.0
 20
0.0
 30
0.0
  3
$MODEL_SPACE
  1

  0
ENDBLK
  5
9
  8
0
  0
BLOCK
 67
     1
  8
0
  2
$PAPER_SPACE
 70
     0
 10
0.0
 20
0.0
 30
0.0
  3
$PAPER_SPACE
  1

  0
ENDBLK
  5
E
 67
     1
  8
0
  0
ENDSEC
  0
SECTION
  2
ENTITIES
  0
TEXT
  5
7FEA
  8
0
 62
     3
 10
135.0
 20
0.0
 30
0.0
 40
3.2000000000000002
  1
■クサビロッククランパー ストロングの取付け方法(下図)
  0
TEXT
  5
7FEB
  8
0
 62
     3
 10
185.0866666666665
 20
-19.168098188633891
 30
0.0
 40
3.2000000000000002
  1
6mmのプレートに固定する場合
 72
     1
 11
212.49999999999989
 21
-19.594764855300561
 31
0.0
 73
     1
  0
TEXT
  5
80DD
  8
0
 62
     3
 10
324.61999999999989
 20
-19.168098188633891
 30
0.0
 40
3.2000000000000002
  1
6mmを超え16mm以下のプレートに固定する場合
 72
     1
 11
367.49999999999989
 21
-19.594764855300561
 31
0.0
 73
     1
  0
TEXT
  5
8474
  8
0
 62
     3
 10
168.4333333333332
 20
-137.173270445643
 30
0.0
 40
3.2000000000000002
  1
組付け状態
 72
     1
 11
177.49999999999989
 21
-137.173270445643
 31
0.0
  0
POLYLINE
  5
8487
  8
5
 66
     1
 10
0.0
 20
0.0
 30
0.0
 70
     1
  0
VERTEX
  5
1AA90
  8
5
 10
135.0
 20
-10.0
 30
0.0
  0
VERTEX
  5
1AA91
  8
5
 10
445.0
 20
-10.0
 30
0.0
  0
VERTEX
  5
1AA92
  8
5
 10
445.0
 20
-150.1732704456428
 30
0.0
  0
VERTEX
  5
1AA93
  8
5
 10
135.0
 20
-150.1732704456428
 30
0.0
  0
SEQEND
  5
1AA94
  8
5
  0
TEXT
  5
8489
  8
0
 62
     3
 10
240.2466666666667
 20
-137.173270445643
 30
0.0
 40
3.2000000000000002
  1
取付け穴
 72
     1
 11
247.5
 21
-137.173270445643
 31
0.0
  0
TEXT
  5
848A
  8
0
 62
     3
 10
323.43333333333322
 20
-137.173270445643
 30
0.0
 40
3.2000000000000002
  1
組付け状態
 72
     1
 11
332.49999999999989
 21
-137.173270445643
 31
0.0
  0
TEXT
  5
848B
  8
0
 62
     3
 10
395.24666666666673
 20
-137.173270445643
 30
0.0
 40
3.2000000000000002
  1
取付け穴
 72
     1
 11
402.5
 21
-137.173270445643
 31
0.0
  0
TEXT
  5
87B9
  8
0
 62
     3
 10
0.0
 20
0.0
 30
0.0
 40
10.0
  1
QCWES1225-16S
  7
STANDARD1
  0
TEXT
  5
884B
  8
0
 62
     3
 10
135.0
 20
-7.0
 30
0.0
 40
3.2000000000000002
  1
■Installation Instructions for Heavy Duty Knob-Locking pins (see diagram below)
  0
TEXT
  5
884C
  8
0
 62
     3
 10
153.77999999999989
 20
-26.168098188633891
 30
0.0
 40
3.2000000000000002
  1
For installation on plate of 6 mm thickness.
 72
     1
 11
212.49999999999989
 21
-26.594764855300561
 31
0.0
 73
     1
  0
TEXT
  5
884D
  8
0
 62
     3
 10
293.63333333333333
 20
-26.168098188633891
 30
0.0
 40
3.2000000000000002
  1
For installation on plate of over 6 to 16 mm thickness.
 72
     1
 11
367.49999999999989
 21
-26.594764855300561
 31
0.0
 73
     1
  0
TEXT
  5
884E
  8
0
 62
     3
 10
152.53999999999979
 20
-144.17327044564291
 30
0.0
 40
3.2000000000000002
  1
Installed condition
 72
     1
 11
177.49999999999989
 21
-144.17327044564291
 31
0.0
  0
TEXT
  5
884F
  8
0
 62
     3
 10
225.4733333333333
 20
-144.17327044564291
 30
0.0
 40
3.2000000000000002
  1
Installation hole
 72
     1
 11
247.5
 21
-144.17327044564291
 31
0.0
  0
TEXT
  5
8850
  8
0
 62
     3
 10
307.53999999999991
 20
-144.17327044564291
 30
0.0
 40
3.2000000000000002
  1
Installed condition
 72
     1
 11
332.49999999999989
 21
-144.17327044564291
 31
0.0
  0
TEXT
  5
8851
  8
0
 62
     3
 10
380.4733333333333
 20
-144.17327044564291
 30
0.0
 40
3.2000000000000002
  1
Installation hole
 72
     1
 11
402.5
 21
-144.17327044564291
 31
0.0
  0
LINE
  5
16326
  8
1
 10
125.000000372529
 20
107.2
 30
0.0
 11
125.000000372529
 21
169.7100007653236
 31
0.0
  0
LINE
  5
16482
  8
1
 10
187.50000055879369
 20
169.7100007653236
 30
0.0
 11
187.5000005587936
 21
107.2
 31
0.0
  0
LINE
  5
164F1
  8
1
 10
125.000000372529
 20
232.49999987530799
 30
0.0
 11
125.000000372529
 21
196.49999987530791
 31
0.0
  0
LINE
  5
164F2
  8
1
 10
143.000000372529
 20
214.49999987530799
 30
0.0
 11
107.000000372529
 21
214.49999987530799
 31
0.0
  0
LINE
  5
16A84
  8
1
 10
395.00000112274029
 20
232.49999987530799
 30
0.0
 11
395.00000112274029
 21
196.49999987530791
 31
0.0
  0
LINE
  5
16A85
  8
1
 10
413.0000011227404
 20
214.49999987530799
 30
0.0
 11
377.00000112274029
 21
214.49999987530799
 31
0.0
  0
LINE
  5
16A89
  8
1
 10
410.58845839086018
 20
205.49999987530799
 30
0.0
 11
379.41154385462039
 21
223.49999987530791
 31
0.0
  0
LINE
  5
16B40
  8
1
 10
410.58845839086018
 20
71.499999999999915
 30
0.0
 11
379.4115438546205
 21
53.5
 31
0.0
  0
LINE
  5
18D29
  8
0
 10
466.10000130900482
 20
127.1999999254942
 30
0.0
 11
466.10000130900482
 21
125.1999999254942
 31
0.0
  0
LINE
  5
18D2A
  8
0
 10
469.90000130900478
 20
125.1999999254942
 30
0.0
 11
469.90000130900478
 21
127.1999999254942
 31
0.0
  0
LINE
  5
18D2B
  8
0
 10
469.0000013090048
 20
127.1999999254942
 30
0.0
 11
469.0000013090048
 21
129.6999999254941
 31
0.0
  0
LINE
  5
18D2C
  8
0
 10
467.0000013090048
 20
129.6999999254941
 30
0.0
 11
467.0000013090048
 21
127.1999999254942
 31
0.0
  0
LINE
  5
18D2D
  8
0
 10
455.60000130900488
 20
127.1999999254942
 30
0.0
 11
455.60000130900488
 21
125.1999999254942
 31
0.0
  0
LINE
  5
18D2E
  8
0
 10
459.40000130900489
 20
125.1999999254942
 30
0.0
 11
459.40000130900489
 21
127.1999999254942
 31
0.0
  0
LINE
  5
18D2F
  8
0
 10
458.50000130900492
 20
127.1999999254942
 30
0.0
 11
458.50000130900492
 21
129.6999999254941
 31
0.0
  0
LINE
  5
18D30
  8
0
 10
456.50000130900492
 20
129.6999999254941
 30
0.0
 11
456.50000130900492
 21
127.1999999254942
 31
0.0
  0
LINE
  5
18D31
  8
0
 10
445.10000130900488
 20
127.1999999254942
 30
0.0
 11
445.10000130900488
 21
125.1999999254942
 31
0.0
  0
LINE
  5
18D32
  8
0
 10
448.90000130900478
 20
125.1999999254942
 30
0.0
 11
448.90000130900478
 21
127.1999999254942
 31
0.0
  0
LINE
  5
18D33
  8
0
 10
448.00000130900492
 20
127.1999999254942
 30
0.0
 11
448.00000130900492
 21
129.6999999254941
 31
0.0
  0
LINE
  5
18D34
  8
0
 10
446.00000130900492
 20
129.6999999254941
 30
0.0
 11
446.00000130900492
 21
127.1999999254942
 31
0.0
  0
LINE
  5
18D35
  8
0
 10
454.5000013090048
 20
160.42709992545869
 30
0.0
 11
454.5000013090048
 21
160.4170999254942
 31
0.0
  0
LINE
  5
18D36
  8
0
 10
460.50000130900469
 20
160.4170999254942
 30
0.0
 11
460.50000130900469
 21
160.42709992545869
 31
0.0
  0
ARC
  5
18D37
  8
0
 10
452.28183853593572
 20
117.79999992549421
 30
0.0
 40
2.5000000000000022
 50
107.35587483360921
 51
252.64471903914469
  0
ARC
  5
18D39
  8
0
 10
460.10908269553948
 20
117.79999992549401
 30
0.0
 40
2.4999999999998468
 50
277.80883999492988
 51
81.031946651001277
  0
LINE
  5
18D3A
  8
0
 10
466.75882035410729
 20
160.07980037894211
 30
0.0
 11
465.56358458276247
 21
160.40006283863869
 31
0.0
  0
LINE
  5
18D3B
  8
0
 10
449.43641803524719
 20
160.40006283863869
 30
0.0
 11
448.24118226390232
 21
160.07980037894211
 31
0.0
  0
ARC
  5
18D3C
  8
0
 10
449.41440712478231
 20
157.8698955949761
 30
0.0
 40
0.939883329568517
 50
160.96324174294131
 51
182.42354749963019
  0
ARC
  5
18D3D
  8
0
 10
448.97536448738668
 20
142.9170999254942
 30
0.0
 40
0.5
 50
179.9999999999992
 51
270.0
  0
LINE
  5
18D3E
  8
0
 10
448.47536448738668
 20
157.83015143371861
 30
0.0
 11
448.47536448738668
 21
142.9170999254942
 31
0.0
  0
ARC
  5
18D3F
  8
0
 10
466.5000013090048
 20
159.11387455265299
 30
0.0
 40
1.0
 50
0.0
 51
74.999999999998764
  0
LINE
  5
18D40
  8
0
 10
467.50000130900469
 20
142.9170999254942
 30
0.0
 11
467.50000130900469
 21
159.11387455265299
 31
0.0
  0
ARC
  5
18D41
  8
0
 10
467.0000013090048
 20
142.9170999254942
 30
0.0
 40
0.5
 50
270.0
 51
0.0
  0
ARC
  5
18D42
  8
0
 10
449.49253116239282
 20
157.94202883077941
 30
0.0
 40
0.9946272753631372
 50
148.42406060849561
 51
166.36715451647751
  0
ARC
  5
18D43
  8
0
 10
449.56582755779851
 20
159.9170999254942
 30
0.0
 40
0.5000000000000189
 50
90.0
 51
105.00000000000119
  0
ARC
  5
18D44
  8
0
 10
465.43417506021109
 20
159.9170999254942
 30
0.0
 40
0.5000000000000152
 50
74.999999999998764
 51
90.0
  0
POLYLINE
  5
18D45
  8
0
 66
     1
 10
0.0
 20
0.0
 30
0.0
 70
   128
  0
VERTEX
  5
1AA96
  8
0
 10
448.87626319262529
 20
158.87095279826809
 30
0.0
  0
VERTEX
  5
1AA97
  8
0
 10
448.82389461060359
 20
158.78441148447291
 30
0.0
  0
VERTEX
  5
1AA98
  8
0
 10
448.64516153847029
 20
158.4628437089749
 30
0.0
  0
SEQEND
  5
1AA99
  8
0
  0
ARC
  5
18D46
  8
0
 10
448.5000013090048
 20
159.11387455265299
 30
0.0
 40
1.0
 50
105.00000000000119
 51
179.9999999999992
  0
ARC
  5
18D47
  8
0
 10
448.00000130900469
 20
142.9170999254942
 30
0.0
 40
0.5
 50
179.9999999999992
 51
270.0
  0
LINE
  5
18D48
  8
0
 10
447.50000130900469
 20
159.11387455265299
 30
0.0
 11
447.50000130900469
 21
142.9170999254942
 31
0.0
  0
LINE
  5
18D49
  8
0
 10
445.0000013090048
 20
130.19999992549421
 30
0.0
 11
445.5000013090048
 21
129.69999992549421
 31
0.0
  0
LINE
  5
18D4A
  8
0
 10
469.5000013090048
 20
129.69999992549421
 30
0.0
 11
470.0000013090048
 21
130.19999992549421
 31
0.0
  0
ARC
  5
18D4B
  8
0
 10
445.5000013090048
 20
137.71203010219139
 30
0.0
 40
0.5000000000000142
 50
110.0000000000034
 51
179.9999999999992
  0
ARC
  5
18D4C
  8
0
 10
469.5000013090048
 20
137.71203010219139
 30
0.0
 40
0.5
 50
0.0
 51
70.000000000003425
  0
LINE
  5
18D4D
  8
0
 10
445.0000013090048
 20
137.71203010219139
 30
0.0
 11
445.0000013090048
 21
130.19999992549421
 31
0.0
  0
LINE
  5
18D4E
  8
0
 10
470.0000013090048
 20
130.19999992549421
 30
0.0
 11
470.0000013090048
 21
137.71203010219139
 31
0.0
  0
LINE
  5
18D4F
  8
0
 10
469.67101138066761
 20
138.1818764125843
 30
0.0
 11
465.76319325167452
 21
139.60420589246371
 31
0.0
  0
ARC
  5
18D53
  8
0
 10
465.90000130900478
 20
139.980082940778
 30
0.0
 40
0.3999999999999892
 50
179.9999999999992
 51
249.99999999999659
  0
ARC
  5
18D54
  8
0
 10
449.10000130900482
 20
139.980082940778
 30
0.0
 40
0.4000000000000057
 50
290.00000000000341
 51
0.0
  0
LINE
  5
18D55
  8
0
 10
449.5000013090048
 20
142.4170999254942
 30
0.0
 11
449.5000013090048
 21
139.980082940778
 31
0.0
  0
LINE
  5
18D56
  8
0
 10
465.5000013090048
 20
139.980082940778
 30
0.0
 11
465.5000013090048
 21
142.4170999254942
 31
0.0
  0
LINE
  5
18D57
  8
0
 10
450.5000013090048
 20
124.6999999254942
 30
0.0
 11
451.00000130900469
 21
124.1999999254942
 31
0.0
  0
LINE
  5
18D58
  8
0
 10
464.00000130900469
 20
124.1999999254942
 30
0.0
 11
464.50000130900469
 21
124.6999999254942
 31
0.0
  0
LINE
  5
18D59
  8
0
 10
450.5000013090048
 20
129.69999992549421
 30
0.0
 11
450.5000013090048
 21
124.6999999254942
 31
0.0
  0
LINE
  5
18D5A
  8
0
 10
464.50000130900469
 20
124.6999999254942
 30
0.0
 11
464.50000130900469
 21
129.69999992549421
 31
0.0
  0
ARC
  5
18D5B
  8
0
 10
463.90000130900489
 20
123.79999992549411
 30
0.0
 40
0.4000000000000199
 50
90.0
 51
179.9999999999992
  0
ARC
  5
18D5C
  8
0
 10
451.10000130900482
 20
123.79999992549411
 30
0.0
 40
0.4000000000000199
 50
0.0
 51
90.0
  0
LINE
  5
18D5D
  8
0
 10
451.50000130900469
 20
115.3249999254942
 30
0.0
 11
451.50000130900469
 21
114.1999999254942
 31
0.0
  0
LINE
  5
18D5E
  8
0
 10
451.50000130900469
 20
123.79999992549411
 30
0.0
 11
451.50000130900469
 21
120.2750064108953
 31
0.0
  0
LINE
  5
18D5F
  8
0
 10
463.50000130900469
 20
114.1999999254942
 30
0.0
 11
463.50000130900469
 21
123.79999992549411
 31
0.0
  0
LINE
  5
18D60
  8
0
 10
451.50000130900469
 20
114.1999999254942
 30
0.0
 11
452.03589969386712
 21
112.1999999254942
 31
0.0
  0
LINE
  5
18D61
  8
0
 10
462.96410292414248
 20
112.1999999254942
 30
0.0
 11
463.50000130900469
 21
114.1999999254942
 31
0.0
  0
LINE
  5
18D66
  8
0
 10
466.10000130900482
 20
127.1999999254942
 30
0.0
 11
469.90000130900478
 21
127.1999999254942
 31
0.0
  0
LINE
  5
18D67
  8
0
 10
466.10000130900482
 20
125.1999999254942
 30
0.0
 11
469.90000130900478
 21
125.1999999254942
 31
0.0
  0
LINE
  5
18D68
  8
0
 10
455.60000130900488
 20
127.1999999254942
 30
0.0
 11
459.40000130900489
 21
127.1999999254942
 31
0.0
  0
LINE
  5
18D69
  8
0
 10
455.60000130900488
 20
125.1999999254942
 30
0.0
 11
459.40000130900489
 21
125.1999999254942
 31
0.0
  0
LINE
  5
18D6B
  8
0
 10
445.10000130900488
 20
125.1999999254942
 30
0.0
 11
448.90000130900478
 21
125.1999999254942
 31
0.0
  0
LINE
  5
18D6D
  8
0
 10
445.10000130900488
 20
127.1999999254942
 30
0.0
 11
448.90000130900478
 21
127.1999999254942
 31
0.0
  0
LINE
  5
18D6E
  8
0
 10
460.50000130900469
 20
160.42709992545869
 30
0.0
 11
454.5000013090048
 21
160.42709992545869
 31
0.0
  0
ARC
  5
18D72
  8
0
 10
456.08923644641698
 20
146.89670224908539
 30
0.0
 40
11.49363635167777
 50
106.85485411149
 51
118.4027402355124
  0
LINE
  5
18D75
  8
0
 10
452.75667741811429
 20
157.89659892621319
 30
0.0
 11
452.75667741811429
 21
142.9170999254942
 31
0.0
  0
POLYLINE
  5
18D79
  8
0
 66
     1
 10
0.0
 20
0.0
 30
0.0
 70
   128
  0
VERTEX
  5
1AA9A
  8
0
 10
452.75667741811429
 20
142.9170999254942
 30
0.0
  0
VERTEX
  5
1AA9B
  8
0
 10
452.75082882803429
 20
142.8195547644861
 30
0.0
  0
VERTEX
  5
1AA9C
  8
0
 10
452.73350781583167
 20
142.72575820931161
 30
0.0
  0
VERTEX
  5
1AA9D
  8
0
 10
452.70538001829129
 20
142.63931480898441
 30
0.0
  0
VERTEX
  5
1AA9E
  8
0
 10
452.66752637089832
 20
142.56354653490089
 30
0.0
  0
VERTEX
  5
1AA9F
  8
0
 10
452.62140156809369
 20
142.50136511934289
 30
0.0
  0
VERTEX
  5
1AAA0
  8
0
 10
452.56877816018209
 20
142.45516015923849
 30
0.0
  0
VERTEX
  5
1AAA1
  8
0
 10
452.51167843521807
 20
142.42670728529259
 30
0.0
  0
VERTEX
  5
1AAA2
  8
0
 10
452.45229670360987
 20
142.4170999254942
 30
0.0
  0
SEQEND
  5
1AAA3
  8
0
  0
LINE
  5
18D7E
  8
0
 10
450.62210121411101
 20
157.00680160251841
 30
0.0
 11
449.3946511302147
 21
157.00680160251841
 31
0.0
  0
ARC
  5
18D80
  8
0
 10
454.895384389838
 20
158.7718914991508
 30
0.0
 40
0.2738223795389878
 50
317.0007945431268
 51
337.37740055951349
  0
POLYLINE
  5
18D81
  8
0
 66
     1
 10
0.0
 20
0.0
 30
0.0
 70
   128
  0
VERTEX
  5
1AAA4
  8
0
 10
455.09564799036679
 20
158.58514786247301
 30
0.0
  0
VERTEX
  5
1AAA5
  8
0
 10
454.01503211695501
 20
158.2847003516093
 30
0.0
  0
VERTEX
  5
1AAA6
  8
0
 10
452.93638414347532
 20
157.9727274288075
 30
0.0
  0
SEQEND
  5
1AAA7
  8
0
  0
LINE
  5
18D83
  8
0
 10
455.09564799036679
 20
142.9170999254942
 30
0.0
 11
455.09564799036679
 21
158.58514786247301
 31
0.0
  0
ARC
  5
18D85
  8
0
 10
453.17802652457749
 20
157.15214398225191
 30
0.0
 40
0.855422838779686
 50
106.40845195819659
 51
119.50913874416371
  0
POLYLINE
  5
18D86
  8
0
 66
     1
 10
0.0
 20
0.0
 30
0.0
 70
   128
  0
VERTEX
  5
1AAA8
  8
0
 10
454.79126727586242
 20
142.4170999254942
 30
0.0
  0
VERTEX
  5
1AAA9
  8
0
 10
454.85064900747051
 20
142.42670728529259
 30
0.0
  0
VERTEX
  5
1AAAA
  8
0
 10
454.90774873243458
 20
142.45516015923849
 30
0.0
  0
VERTEX
  5
1AAAB
  8
0
 10
454.96037214034629
 20
142.50136511934289
 30
0.0
  0
VERTEX
  5
1AAAC
  8
0
 10
455.00649694315092
 20
142.56354653490089
 30
0.0
  0
VERTEX
  5
1AAAD
  8
0
 10
455.04435059054367
 20
142.63931480898441
 30
0.0
  0
VERTEX
  5
1AAAE
  8
0
 10
455.07247838808411
 20
142.72575820931161
 30
0.0
  0
VERTEX
  5
1AAAF
  8
0
 10
455.08979940028689
 20
142.8195547644861
 30
0.0
  0
VERTEX
  5
1AAB0
  8
0
 10
455.09564799036679
 20
142.9170999254942
 30
0.0
  0
SEQEND
  5
1AAB1
  8
0
  0
ARC
  5
18D8D
  8
0
 10
510.05731331225348
 20
-248.4224294060345
 30
0.0
 40
410.77544392231772
 50
97.200058866728796
 51
97.681835054053934
  0
POLYLINE
  5
18D8E
  8
0
 66
     1
 10
0.0
 20
0.0
 30
0.0
 70
   128
  0
VERTEX
  5
1AAB2
  8
0
 10
458.573079946402
 20
159.11387455265299
 30
0.0
  0
VERTEX
  5
1AAB3
  8
0
 10
458.58756589572022
 20
158.84987309867381
 30
0.0
  0
VERTEX
  5
1AAB4
  8
0
 10
458.59234053513597
 20
158.58514786247301
 30
0.0
  0
SEQEND
  5
1AAB5
  8
0
  0
ARC
  5
18D91
  8
0
 10
457.40704465271892
 20
142.79359143172539
 30
0.0
 40
1.191713336716492
 50
341.5833626153983
 51
5.948784101769653
  0
LINE
  5
18D93
  8
0
 10
458.59234053513597
 20
158.58514786247301
 30
0.0
 11
458.59234053513597
 21
142.9170999254942
 31
0.0
  0
LINE
  5
18D96
  8
0
 10
449.56582755779851
 20
160.4170999254942
 30
0.0
 11
465.43417506021109
 21
160.4170999254942
 31
0.0
  0
LINE
  5
18D9C
  8
0
 10
467.0000013090048
 20
142.4170999254942
 30
0.0
 11
448.00000130900469
 21
142.4170999254942
 31
0.0
  0
LINE
  5
18D9D
  8
0
 10
445.0000013090048
 20
130.19999992549421
 30
0.0
 11
470.0000013090048
 21
130.19999992549421
 31
0.0
  0
LINE
  5
18D9E
  8
0
 10
469.5000013090048
 20
129.69999992549421
 30
0.0
 11
445.5000013090048
 21
129.69999992549421
 31
0.0
  0
ARC
  5
18D9F
  8
0
 10
443.91456973259
 20
149.90880086233619
 30
0.0
 40
11.70779334023481
 50
289.34764073673563
 51
295.46896473170449
  0
POLYLINE
  5
18DA0
  8
0
 66
     1
 10
0.0
 20
0.0
 30
0.0
 70
   128
  0
VERTEX
  5
1AAB6
  8
0
 10
449.02148940815403
 20
139.42801840293649
 30
0.0
  0
VERTEX
  5
1AAB7
  8
0
 10
449.04929144600368
 20
139.42283420556279
 30
0.0
  0
VERTEX
  5
1AAB8
  8
0
 10
449.02858479224511
 20
139.3878804897553
 30
0.0
  0
VERTEX
  5
1AAB9
  8
0
 10
448.94917999111368
 20
139.3387902453872
 30
0.0
  0
SEQEND
  5
1AABA
  8
0
  0
ARC
  5
18DA1
  8
0
 10
449.2892554522864
 20
137.5198463433693
 30
0.0
 40
1.9268677337335429
 50
97.987925749255226
 51
109.92887881843789
  0
ARC
  5
18DA2
  8
0
 10
458.36164655167948
 20
110.00714101058129
 30
0.0
 40
30.896029010213869
 50
108.3547986047252
 51
110.9400310870777
  0
ARC
  5
18DA3
  8
0
 10
453.82993434304387
 20
120.7792026442655
 30
0.0
 40
19.219624905220041
 50
109.79943883710681
 51
113.4690873546385
  0
POLYLINE
  5
18DA4
  8
0
 66
     1
 10
0.0
 20
0.0
 30
0.0
 70
   128
  0
VERTEX
  5
1AABB
  8
0
 10
446.12294680725722
 20
138.3400085442463
 30
0.0
  0
VERTEX
  5
1AABC
  8
0
 10
446.09408169518417
 20
138.34358026288331
 30
0.0
  0
VERTEX
  5
1AABD
  8
0
 10
446.11035221612161
 20
138.37293241574969
 30
0.0
  0
VERTEX
  5
1AABE
  8
0
 10
446.17563739021682
 20
138.4088855584672
 30
0.0
  0
SEQEND
  5
1AABF
  8
0
  0
ARC
  5
18DA5
  8
0
 10
445.97618320480672
 20
139.95096224215999
 30
0.0
 40
1.6176252260107069
 50
275.20547913319501
 51
287.50075815657277
  0
ARC
  5
18DA6
  8
0
 10
441.65011727155928
 20
154.69195754884049
 30
0.0
 40
16.980008044642432
 50
286.46457442691047
 51
291.21029716135058
  0
LINE
  5
18DAD
  8
0
 10
450.5000013090048
 20
124.6999999254942
 30
0.0
 11
464.50000130900469
 21
124.6999999254942
 31
0.0
  0
LINE
  5
18DAE
  8
0
 10
464.00000130900469
 20
124.1999999254942
 30
0.0
 11
451.00000130900469
 21
124.1999999254942
 31
0.0
  0
ARC
  5
18DAF
  8
0
 10
460.42500130900481
 20
117.22040836783211
 30
0.0
 40
1.8973743457219161
 50
232.51666951006661
 51
307.48333048993328
  0
LINE
  5
18DB0
  8
0
 10
461.5796116328803
 20
115.71478410932551
 30
0.0
 11
461.5796116328803
 21
115.68517132723851
 31
0.0
  0
POLYLINE
  5
18DB1
  8
0
 66
     1
 10
0.0
 20
0.0
 30
0.0
 70
   128
  0
VERTEX
  5
1AAC0
  8
0
 10
461.5796116328803
 20
115.68517132723851
 30
0.0
  0
VERTEX
  5
1AAC1
  8
0
 10
461.8279287492507
 20
115.9398599245859
 30
0.0
  0
VERTEX
  5
1AAC2
  8
0
 10
461.91447751340507
 20
116.07067937926099
 30
0.0
  0
SEQEND
  5
1AAC3
  8
0
  0
ARC
  5
18DB2
  8
0
 10
460.52914548011631
 20
118.641594940723
 30
0.0
 40
1.650637117918601
 50
31.73048183868211
 51
50.476071548317243
  0
LINE
  5
18DB3
  8
0
 10
461.5796116328803
 20
119.9148285237498
 30
0.0
 11
461.5796116328803
 21
119.8852157416628
 31
0.0
  0
ARC
  5
18DB4
  8
0
 10
460.42500130900481
 20
118.3495792412361
 30
0.0
 40
1.9212767789787679
 50
53.061322748316783
 51
126.9386772516832
  0
LINE
  5
18DB5
  8
0
 10
459.27039098512932
 20
119.8852157416628
 30
0.0
 11
459.27039098512932
 21
119.9148285237498
 31
0.0
  0
ARC
  5
18DB6
  8
0
 10
460.55447566522889
 20
117.79999992549421
 30
0.0
 40
2.4741409550925781
 50
121.2653470207815
 51
238.73465297921979
  0
LINE
  5
18DB7
  8
0
 10
459.27039098512932
 20
115.68517132723851
 30
0.0
 11
459.27039098512932
 21
115.71478410932551
 31
0.0
  0
ARC
  5
18DB8
  8
0
 10
443.53620922839002
 20
118.6134470206934
 30
0.0
 40
8.6160239438611015
 50
337.56305660290923
 51
340.34066478398978
  0
LINE
  5
18DB9
  8
0
 10
451.65000130900478
 20
115.71478410932551
 30
0.0
 11
451.65000130900478
 21
115.68517132723851
 31
0.0
  0
ARC
  5
18DBA
  8
0
 10
446.08057012630479
 20
117.79999992549421
 30
0.0
 40
5.9574376789716537
 50
339.2071911625369
 51
20.79280883746301
  0
LINE
  5
18DBB
  8
0
 10
451.65000130900478
 20
119.9148285237498
 30
0.0
 11
451.65000130900478
 21
119.8852157416628
 31
0.0
  0
POLYLINE
  5
18DBC
  8
0
 66
     1
 10
0.0
 20
0.0
 30
0.0
 70
   128
  0
VERTEX
  5
1AAC4
  8
0
 10
451.65000130900478
 20
119.8852157416628
 30
0.0
  0
VERTEX
  5
1AAC5
  8
0
 10
451.6345445736805
 20
119.92819345850781
 30
0.0
  0
VERTEX
  5
1AAC6
  8
0
 10
451.56555753739758
 20
120.1115465675429
 30
0.0
  0
VERTEX
  5
1AAC7
  8
0
 10
451.53840631518159
 20
120.18038642150221
 30
0.0
  0
VERTEX
  5
1AAC8
  8
0
 10
451.51790579473408
 20
120.2312736126503
 30
0.0
  0
VERTEX
  5
1AAC9
  8
0
 10
451.50036235700861
 20
120.2741245291288
 30
0.0
  0
VERTEX
  5
1AACA
  8
0
 10
451.50000130900469
 20
120.2750064108953
 30
0.0
  0
SEQEND
  5
1AACB
  8
0
  0
LINE
  5
18DBD
  8
0
 10
451.50000130900469
 20
114.1999999254942
 30
0.0
 11
463.50000130900469
 21
114.1999999254942
 31
0.0
  0
LINE
  5
18DBE
  8
0
 10
462.96410292414248
 20
112.1999999254942
 30
0.0
 11
452.03589969386712
 21
112.1999999254942
 31
0.0
  0
POLYLINE
  5
18DCB
  8
0
 66
     1
 10
0.0
 20
0.0
 30
0.0
 70
   128
  0
VERTEX
  5
1AACC
  8
0
 10
446.51924725568767
 20
138.5140185206464
 30
0.0
  0
VERTEX
  5
1AACD
  8
0
 10
446.48065985983442
 20
138.4930644150146
 30
0.0
  0
VERTEX
  5
1AACE
  8
0
 10
446.45802667159933
 20
138.47279778510381
 30
0.0
  0
VERTEX
  5
1AACF
  8
0
 10
446.46879882519443
 20
138.46984955213799
 30
0.0
  0
SEQEND
  5
1AAD0
  8
0
  0
ARC
  5
18DCC
  8
0
 10
452.10629183834641
 20
125.62976035913201
 30
0.0
 40
14.043474482519199
 50
109.41083634116281
 51
113.4431654396715
  0
ARC
  5
18DCD
  8
0
 10
455.74640531539683
 20
117.415109676686
 30
0.0
 40
23.011701971229058
 50
108.4278736243168
 51
111.1618640380251
  0
ARC
  5
18DCE
  8
0
 10
448.85766921267862
 20
138.0847758948741
 30
0.0
 40
1.224326297873312
 50
99.13443742493898
 51
108.3531404063814
  0
POLYLINE
  5
18DCF
  8
0
 66
     1
 10
0.0
 20
0.0
 30
0.0
 70
   128
  0
VERTEX
  5
1AAD1
  8
0
 10
448.61117550680871
 20
139.24654311292099
 30
0.0
  0
VERTEX
  5
1AAD2
  8
0
 10
448.65048543916907
 20
139.26918005915661
 30
0.0
  0
VERTEX
  5
1AAD3
  8
0
 10
448.67309951743749
 20
139.28985294051071
 30
0.0
  0
VERTEX
  5
1AAD4
  8
0
 10
448.66330555165172
 20
139.29357598212451
 30
0.0
  0
SEQEND
  5
1AAD5
  8
0
  0
ARC
  5
18DD0
  8
0
 10
443.7131756526955
 20
150.23344303502029
 30
0.0
 40
12.02922992003724
 50
289.2212201435587
 51
294.02748623703911
  0
ARC
  5
18DD1
  8
0
 10
441.25017633632609
 20
155.3282154643658
 30
0.0
 40
17.662757445981839
 50
287.82951479246623
 51
291.32507225431641
  0
ARC
  5
18DD2
  8
0
 10
446.27664065747928
 20
139.72941730359301
 30
0.0
 40
1.274141154631258
 50
278.67409487113719
 51
287.42827083509098
  0
ARC
  5
18DE2
  8
0
 10
450.3185270066453
 20
158.96320352294529
 30
0.0
 40
2.1635746137586831
 50
211.5803980158463
 51
244.7218128705976
  0
LINE
  5
18DE5
  8
0
 10
467.50000130900469
 20
159.11387455265299
 30
0.0
 11
458.573079946402
 21
159.11387455265299
 31
0.0
  0
ARC
  5
18DEA
  8
0
 10
448.09024886672211
 20
157.86310343587741
 30
0.0
 40
1.2781153538692409
 50
52.049592875174092
 51
78.126934980053477
  0
LINE
  5
18DEC
  8
0
 10
448.35321363857599
 20
159.11387455265299
 30
0.0
 11
447.50000130900469
 21
159.11387455265299
 31
0.0
  0
LINE
  5
18DEE
  8
0
 10
470.0000013090048
 20
137.71203010219139
 30
0.0
 11
445.0000013090048
 21
137.71203010219139
 31
0.0
  0
LINE
  5
18DEF
  8
0
 10
445.328991237342
 20
138.1818764125843
 30
0.0
 11
469.67101138066761
 21
138.1818764125843
 31
0.0
  0
LINE
  5
18DF0
  8
0
 10
465.76319325167452
 20
139.60420589246371
 30
0.0
 11
449.23680936633508
 21
139.60420589246371
 31
0.0
  0
LINE
  5
18DF1
  8
0
 10
449.5000013090048
 20
139.980082940778
 30
0.0
 11
465.5000013090048
 21
139.980082940778
 31
0.0
  0
LINE
  5
18DF3
  8
1
 10
457.50000130385172
 20
165.4270999254588
 30
0.0
 11
457.50000130385172
 21
107.1999999254942
 31
0.0
  0
LINE
  5
18DF4
  8
0
 10
403.60000112789328
 20
127.1999999254942
 30
0.0
 11
403.60000112789328
 21
125.1999999254942
 31
0.0
  0
LINE
  5
18DF5
  8
0
 10
407.40000112789329
 20
125.1999999254942
 30
0.0
 11
407.40000112789329
 21
127.1999999254942
 31
0.0
  0
LINE
  5
18DF6
  8
0
 10
406.50000112789331
 20
127.1999999254942
 30
0.0
 11
406.50000112789331
 21
129.6999999254941
 31
0.0
  0
LINE
  5
18DF7
  8
0
 10
404.50000112789343
 20
129.6999999254941
 30
0.0
 11
404.50000112789343
 21
127.1999999254942
 31
0.0
  0
LINE
  5
18DF8
  8
0
 10
393.10000112789339
 20
127.1999999254942
 30
0.0
 11
393.10000112789339
 21
125.1999999254942
 31
0.0
  0
LINE
  5
18DF9
  8
0
 10
396.9000011278934
 20
125.1999999254942
 30
0.0
 11
396.9000011278934
 21
127.1999999254942
 31
0.0
  0
LINE
  5
18DFA
  8
0
 10
396.00000112789343
 20
127.1999999254942
 30
0.0
 11
396.00000112789343
 21
129.6999999254941
 31
0.0
  0
LINE
  5
18DFB
  8
0
 10
394.00000112789343
 20
129.6999999254941
 30
0.0
 11
394.00000112789343
 21
127.1999999254942
 31
0.0
  0
LINE
  5
18DFC
  8
0
 10
382.60000112789339
 20
127.1999999254942
 30
0.0
 11
382.60000112789339
 21
125.1999999254942
 31
0.0
  0
LINE
  5
18DFD
  8
0
 10
386.4000011278934
 20
125.1999999254942
 30
0.0
 11
386.4000011278934
 21
127.1999999254942
 31
0.0
  0
LINE
  5
18DFE
  8
0
 10
385.50000112789343
 20
127.1999999254942
 30
0.0
 11
385.50000112789343
 21
129.6999999254941
 31
0.0
  0
LINE
  5
18DFF
  8
0
 10
383.50000112789343
 20
129.6999999254941
 30
0.0
 11
383.50000112789343
 21
127.1999999254942
 31
0.0
  0
LINE
  5
18E00
  8
0
 10
392.00000112789343
 20
160.42709992545869
 30
0.0
 11
392.00000112789343
 21
160.4170999254942
 31
0.0
  0
LINE
  5
18E01
  8
0
 10
398.00000112789343
 20
160.4170999254942
 30
0.0
 11
398.00000112789343
 21
160.42709992545869
 31
0.0
  0
LINE
  5
18E02
  8
0
 10
397.49962870531277
 20
117.7568493263805
 30
0.0
 11
397.50000112789343
 21
117.79999992549421
 31
0.0
  0
ARC
  5
18E03
  8
0
 10
390.48093960533328
 20
117.79999992549421
 30
0.0
 40
2.4999999999999929
 50
126.3257549673711
 51
233.67424503263609
  0
ARC
  5
18E05
  8
0
 10
399.51906265045341
 20
117.79999992549421
 30
0.0
 40
2.5
 50
306.32575496737132
 51
53.674210281525554
  0
LINE
  5
18E06
  8
0
 10
404.25882017299591
 20
160.07980037894211
 30
0.0
 11
403.06358440165093
 21
160.40006283863869
 31
0.0
  0
LINE
  5
18E07
  8
0
 10
386.93641785413581
 20
160.40006283863869
 30
0.0
 11
385.74118208279077
 21
160.07980037894211
 31
0.0
  0
ARC
  5
18E08
  8
0
 10
386.00000112789348
 20
159.11387455265279
 30
0.0
 40
1.0000000000001841
 50
105.0000000000084
 51
116.2514286647336
  0
ARC
  5
18E09
  8
0
 10
387.06582737668703
 20
159.9170999254942
 30
0.0
 40
0.5000000000000116
 50
90.0
 51
105.00000000000119
  0
ARC
  5
18E0A
  8
0
 10
402.9341748790996
 20
159.9170999254942
 30
0.0
 40
0.5000000000000116
 50
74.999999999998764
 51
90.0
  0
ARC
  5
18E0B
  8
0
 10
407.02988003925458
 20
157.47836525686941
 30
0.0
 40
1.5232518030036379
 50
358.8968644448812
 51
53.344899205901868
  0
ARC
  5
18E0C
  8
0
 10
408.05284952281448
 20
142.9170999254942
 30
0.0
 40
0.5
 50
270.0
 51
0.0
  0
LINE
  5
18E0D
  8
0
 10
408.55284952281448
 20
142.9170999254942
 30
0.0
 11
408.55284952281448
 21
157.44903937241361
 31
0.0
  0
POLYLINE
  5
18E0E
  8
0
 66
     1
 10
0.0
 20
0.0
 30
0.0
 70
   128
  0
VERTEX
  5
1AAD6
  8
0
 10
407.87939933899531
 20
158.73990233888509
 30
0.0
  0
VERTEX
  5
1AAD7
  8
0
 10
407.737764092791
 20
158.8284338256822
 30
0.0
  0
VERTEX
  5
1AAD8
  8
0
 10
407.5652680922413
 20
158.9099840172089
 30
0.0
  0
SEQEND
  5
1AAD9
  8
0
  0
ARC
  5
18E10
  8
0
 10
392.5246130758303
 20
120.9418851737472
 30
0.0
 40
40.838680599519371
 50
68.389536639456836
 51
72.979252973930841
  0
ARC
  5
18E11
  8
0
 10
404.00000112789547
 20
159.11387455265981
 30
0.0
 40
0.9999999999928272
 50
61.3911466707779
 51
75.000000000019526
  0
ARC
  5
18E12
  8
0
 10
397.99880618249421
 20
119.4418512280196
 30
0.0
 40
42.425562015062958
 50
107.7370376850175
 51
111.5214438899911
  0
POLYLINE
  5
18E13
  8
0
 66
     1
 10
0.0
 20
0.0
 30
0.0
 70
   128
  0
VERTEX
  5
1AADA
  8
0
 10
382.38901586177479
 20
158.88512967270799
 30
0.0
  0
VERTEX
  5
1AADB
  8
0
 10
382.31678826366709
 20
158.85600199125261
 30
0.0
  0
VERTEX
  5
1AADC
  8
0
 10
382.06030094196097
 20
158.70135924729479
 30
0.0
  0
SEQEND
  5
1AADD
  8
0
  0
ARC
  5
18E14
  8
0
 10
381.9471527329722
 20
142.9170999254942
 30
0.0
 40
0.5000000000000071
 50
180.0
 51
270.0
  0
LINE
  5
18E15
  8
0
 10
381.4471527329722
 20
157.44903937241361
 30
0.0
 11
381.4471527329722
 21
142.9170999254942
 31
0.0
  0
ARC
  5
18E16
  8
0
 10
382.9064631467304
 20
157.5057567745157
 30
0.0
 40
1.4604121840781901
 50
126.89495371519131
 51
182.22573137697881
  0
ARC
  5
18E17
  8
0
 10
383.00000112789343
 20
137.71203010219139
 30
0.0
 40
0.5
 50
110.0000000000035
 51
180.0
  0
ARC
  5
18E18
  8
0
 10
407.00000112789331
 20
137.71203010219139
 30
0.0
 40
0.5
 50
0.0
 51
69.999999999996504
  0
LINE
  5
18E19
  8
0
 10
382.50000112789343
 20
137.71203010219139
 30
0.0
 11
382.50000112789343
 21
130.19999992549421
 31
0.0
  0
LINE
  5
18E1A
  8
0
 10
407.50000112789331
 20
130.19999992549421
 30
0.0
 11
407.50000112789331
 21
137.71203010219139
 31
0.0
  0
LINE
  5
18E1B
  8
0
 10
382.50000112789343
 20
130.19999992549421
 30
0.0
 11
383.00000112789343
 21
129.69999992549421
 31
0.0
  0
LINE
  5
18E1C
  8
0
 10
407.00000112789331
 20
129.69999992549421
 30
0.0
 11
407.50000112789331
 21
130.19999992549421
 31
0.0
  0
LINE
  5
18E1D
  8
0
 10
407.17101119955618
 20
138.1818764125843
 30
0.0
 11
403.26319307056309
 21
139.60420589246371
 31
0.0
  0
ARC
  5
18E24
  8
0
 10
403.40000112789329
 20
139.980082940778
 30
0.0
 40
0.3999999999999915
 50
179.9999999999992
 51
249.99999999999659
  0
ARC
  5
18E25
  8
0
 10
386.60000112789339
 20
139.980082940778
 30
0.0
 40
0.3999999999999915
 50
290.00000000000341
 51
0.0
  0
LINE
  5
18E26
  8
0
 10
387.00000112789343
 20
142.4170999254942
 30
0.0
 11
387.00000112789343
 21
139.980082940778
 31
0.0
  0
LINE
  5
18E27
  8
0
 10
403.00000112789331
 20
139.980082940778
 30
0.0
 11
403.00000112789331
 21
142.4170999254942
 31
0.0
  0
LINE
  5
18E28
  8
0
 10
388.00000112789343
 20
129.69999992549421
 30
0.0
 11
388.00000112789343
 21
124.6999999254942
 31
0.0
  0
LINE
  5
18E29
  8
0
 10
402.00000112789331
 20
124.6999999254942
 30
0.0
 11
402.00000112789331
 21
129.69999992549421
 31
0.0
  0
LINE
  5
18E2A
  8
0
 10
388.00000112789343
 20
124.6999999254942
 30
0.0
 11
388.50000112789343
 21
124.1999999254942
 31
0.0
  0
LINE
  5
18E2B
  8
0
 10
401.50000112789331
 20
124.1999999254942
 30
0.0
 11
402.00000112789331
 21
124.6999999254942
 31
0.0
  0
ARC
  5
18E2C
  8
0
 10
401.40000112789329
 20
123.79999992549411
 30
0.0
 40
0.4000000000000199
 50
90.0
 51
179.9999999999992
  0
ARC
  5
18E2D
  8
0
 10
388.60000112789339
 20
123.79999992549411
 30
0.0
 40
0.4000000000000199
 50
0.0
 51
90.0
  0
LINE
  5
18E2E
  8
0
 10
389.00000112789343
 20
114.1999999254942
 30
0.0
 11
389.53589951275569
 21
112.1999999254942
 31
0.0
  0
LINE
  5
18E2F
  8
0
 10
400.46410274303111
 20
112.1999999254942
 30
0.0
 11
401.00000112789343
 21
114.1999999254942
 31
0.0
  0
LINE
  5
18E30
  8
0
 10
389.00000112789343
 20
123.79999992549411
 30
0.0
 11
389.00000112789343
 21
114.1999999254942
 31
0.0
  0
LINE
  5
18E31
  8
0
 10
401.00000112789343
 20
114.1999999254942
 30
0.0
 11
401.00000112789343
 21
123.79999992549411
 31
0.0
  0
LINE
  5
18E32
  8
0
 10
403.60000112789328
 20
127.1999999254942
 30
0.0
 11
407.40000112789329
 21
127.1999999254942
 31
0.0
  0
LINE
  5
18E33
  8
0
 10
403.60000112789328
 20
125.1999999254942
 30
0.0
 11
407.40000112789329
 21
125.1999999254942
 31
0.0
  0
LINE
  5
18E34
  8
0
 10
393.10000112789339
 20
125.1999999254942
 30
0.0
 11
396.9000011278934
 21
125.1999999254942
 31
0.0
  0
LINE
  5
18E35
  8
0
 10
393.10000112789339
 20
127.1999999254942
 30
0.0
 11
396.9000011278934
 21
127.1999999254942
 31
0.0
  0
LINE
  5
18E37
  8
0
 10
382.60000112789339
 20
125.1999999254942
 30
0.0
 11
386.4000011278934
 21
125.1999999254942
 31
0.0
  0
LINE
  5
18E39
  8
0
 10
382.60000112789339
 20
127.1999999254942
 30
0.0
 11
386.4000011278934
 21
127.1999999254942
 31
0.0
  0
LINE
  5
18E3A
  8
0
 10
398.00000112789343
 20
160.42709992545869
 30
0.0
 11
392.00000112789343
 21
160.42709992545869
 31
0.0
  0
LINE
  5
18E40
  8
0
 10
399.04181697130991
 20
159.11387455265299
 30
0.0
 11
385.05774272057158
 21
159.11387455265299
 31
0.0
  0
POLYLINE
  5
18E41
  8
0
 66
     1
 10
0.0
 20
0.0
 30
0.0
 70
   128
  0
VERTEX
  5
1AADE
  8
0
 10
385.05774272057158
 20
159.11387455265299
 30
0.0
  0
VERTEX
  5
1AADF
  8
0
 10
385.05931688234341
 20
158.84987309866631
 30
0.0
  0
VERTEX
  5
1AAE0
  8
0
 10
385.05984041414962
 20
158.585147862458
 30
0.0
  0
SEQEND
  5
1AAE1
  8
0
  0
POLYLINE
  5
18E42
  8
0
 66
     1
 10
0.0
 20
0.0
 30
0.0
 70
   128
  0
VERTEX
  5
1AAE2
  8
0
 10
399.02408796538532
 20
158.585147862452
 30
0.0
  0
VERTEX
  5
1AAE3
  8
0
 10
399.02847261163549
 20
158.8495112075525
 30
0.0
  0
VERTEX
  5
1AAE4
  8
0
 10
399.04181697130991
 20
159.11387455265299
 30
0.0
  0
SEQEND
  5
1AAE5
  8
0
  0
LINE
  5
18E43
  8
0
 10
399.02408796538532
 20
142.9170999254942
 30
0.0
 11
399.02408796538532
 21
158.585147862452
 31
0.0
  0
LINE
  5
18E45
  8
0
 10
385.05984041414962
 20
158.585147862458
 30
0.0
 11
385.05984041414962
 21
142.9170999254942
 31
0.0
  0
POLYLINE
  5
18E46
  8
0
 66
     1
 10
0.0
 20
0.0
 30
0.0
 70
   128
  0
VERTEX
  5
1AAE6
  8
0
 10
399.02408796538532
 20
142.9170999254942
 30
0.0
  0
VERTEX
  5
1AAE7
  8
0
 10
399.02022188037461
 20
142.8195547644861
 30
0.0
  0
VERTEX
  5
1AAE8
  8
0
 10
399.00877219682121
 20
142.72575820931161
 30
0.0
  0
VERTEX
  5
1AAE9
  8
0
 10
398.99017891964291
 20
142.63931480898441
 30
0.0
  0
VERTEX
  5
1AAEA
  8
0
 10
398.96515657805452
 20
142.56354653490089
 30
0.0
  0
VERTEX
  5
1AAEB
  8
0
 10
398.93466676661058
 20
142.50136511934289
 30
0.0
  0
VERTEX
  5
1AAEC
  8
0
 10
398.89988119166622
 20
142.45516015923849
 30
0.0
  0
VERTEX
  5
1AAED
  8
0
 10
398.8621366433581
 20
142.42670728529259
 30
0.0
  0
VERTEX
  5
1AAEE
  8
0
 10
398.82288362351068
 20
142.4170999254942
 30
0.0
  0
SEQEND
  5
1AAEF
  8
0
  0
ARC
  5
18E47
  8
0
 10
385.5583489348632
 20
142.91560841926301
 30
0.0
 40
0.4985107519552451
 50
179.82857513238079
 51
269.82754315986671
  0
LINE
  5
18E4A
  8
0
 10
387.06582737668703
 20
160.4170999254942
 30
0.0
 11
402.9341748790996
 21
160.4170999254942
 31
0.0
  0
ARC
  5
18E4B
  8
0
 10
416.86947755157132
 20
289.3388502773073
 30
0.0
 40
131.4396050825313
 50
262.20472565413422
 51
263.8059645380344
  0
ARC
  5
18E4C
  8
0
 10
402.94611828331011
 20
158.81082878320871
 30
0.0
 40
0.2959710078135105
 50
209.17191297967781
 51
229.68599662769529
  0
LINE
  5
18E4E
  8
0
 10
402.7546320971714
 20
158.58514786247281
 30
0.0
 11
402.75463209717009
 21
142.9170999254942
 31
0.0
  0
ARC
  5
18E50
  8
0
 10
403.76124161619492
 20
142.7942295613511
 30
0.0
 40
1.01408079075392
 50
173.0406990308656
 51
201.83241633209011
  0
POLYLINE
  5
18E54
  8
0
 66
     1
 10
0.0
 20
0.0
 30
0.0
 70
   128
  0
VERTEX
  5
1AAF0
  8
0
 10
405.45304015399489
 20
157.9727274288075
 30
0.0
  0
VERTEX
  5
1AAF1
  8
0
 10
404.10516293764567
 20
158.2846782538995
 30
0.0
  0
VERTEX
  5
1AAF2
  8
0
 10
402.7546320971714
 20
158.58514786247281
 30
0.0
  0
SEQEND
  5
1AAF3
  8
0
  0
ARC
  5
18E56
  8
0
 10
405.17377033946951
 20
156.77957355541389
 30
0.0
 40
1.2254010751175011
 50
65.721689807434089
 51
76.826488897319393
  0
LINE
  5
18E57
  8
0
 10
405.6776176535339
 20
142.9170999254942
 30
0.0
 11
405.6776176535339
 21
157.89659892621319
 31
0.0
  0
ARC
  5
18E58
  8
0
 10
406.68422717255891
 20
142.79422956135119
 30
0.0
 40
1.0140807907540861
 50
173.0406990308706
 51
201.83241633208939
  0
ARC
  5
18E5A
  8
0
 10
404.89765000895119
 20
153.62428988643089
 30
0.0
 40
4.3429222947229134
 50
51.155964090866163
 51
79.653822496077041
  0
LINE
  5
18E64
  8
0
 10
408.33021081434089
 20
157.00680160251841
 30
0.0
 11
407.62154217798638
 21
157.00680160251841
 31
0.0
  0
POLYLINE
  5
18E69
  8
0
 66
     1
 10
0.0
 20
0.0
 30
0.0
 70
   128
  0
VERTEX
  5
1AAF4
  8
0
 10
407.93925627935522
 20
158.70038445037429
 30
0.0
  0
VERTEX
  5
1AAF5
  8
0
 10
407.87939933899531
 20
158.73990233888509
 30
0.0
  0
SEQEND
  5
1AAF6
  8
0
  0
ARC
  5
18E6C
  8
0
 10
384.1102678509281
 20
142.8707761158131
 30
0.0
 40
0.4574182596278133
 50
174.18755881253071
 51
262.66612818286438
  0
ARC
  5
18E6E
  8
0
 10
383.3425824824302
 20
158.80220100829641
 30
0.0
 40
0.3805819111104411
 50
325.22751708894208
 51
339.1209735306345
  0
ARC
  5
18E6F
  8
0
 10
383.47742666557713
 20
161.62731607393641
 30
0.0
 40
2.9689707163568531
 50
274.26395014826829
 51
302.15946004564671
  0
LINE
  5
18E71
  8
0
 10
383.65520129656761
 20
142.9170999254942
 30
0.0
 11
383.65520129656761
 21
158.58514786247309
 31
0.0
  0
POLYLINE
  5
18E72
  8
0
 66
     1
 10
0.0
 20
0.0
 30
0.0
 70
   128
  0
VERTEX
  5
1AAF7
  8
0
 10
383.65520129656761
 20
158.58514786247309
 30
0.0
  0
VERTEX
  5
1AAF8
  8
0
 10
382.82601557326029
 20
158.2847003516093
 30
0.0
  0
VERTEX
  5
1AAF9
  8
0
 10
381.99833987268062
 20
157.9727274288075
 30
0.0
  0
SEQEND
  5
1AAFA
  8
0
  0
ARC
  5
18E77
  8
0
 10
382.21037559497688
 20
157.42571098086381
 30
0.0
 40
0.5866737950945394
 50
111.18743702312889
 51
126.6170367130696
  0
LINE
  5
18E78
  8
0
 10
381.9471527329722
 20
142.4170999254942
 30
0.0
 11
408.05284952281448
 21
142.4170999254942
 31
0.0
  0
LINE
  5
18E79
  8
0
 10
382.50000112789343
 20
130.19999992549421
 30
0.0
 11
407.50000112789331
 21
130.19999992549421
 31
0.0
  0
LINE
  5
18E7A
  8
0
 10
407.00000112789331
 20
129.69999992549421
 30
0.0
 11
383.00000112789343
 21
129.69999992549421
 31
0.0
  0
ARC
  5
18E7B
  8
0
 10
397.4684330477466
 20
138.1917972178872
 30
0.0
 40
1.1894372978978951
 50
34.30697353749396
 51
74.64759629640433
  0
ARC
  5
18E7C
  8
0
 10
397.16938049689259
 20
137.27289340902351
 30
0.0
 40
2.1551982063382269
 50
73.448620331469414
 51
90.472267052028471
  0
ARC
  5
18E7D
  8
0
 10
397.08154344670731
 20
138.26683232524371
 30
0.0
 40
1.16329845776642
 50
86.546624330150124
 51
113.7849963840234
  0
POLYLINE
  5
18E7E
  8
0
 66
     1
 10
0.0
 20
0.0
 30
0.0
 70
   128
  0
VERTEX
  5
1AAFB
  8
0
 10
396.56977766394692
 20
138.86264186715781
 30
0.0
  0
VERTEX
  5
1AAFC
  8
0
 10
396.4669688323072
 20
139.09389205504661
 30
0.0
  0
VERTEX
  5
1AAFD
  8
0
 10
396.48212619711398
 20
139.21494482654739
 30
0.0
  0
VERTEX
  5
1AAFE
  8
0
 10
396.61237856080788
 20
139.33132638895691
 30
0.0
  0
SEQEND
  5
1AAFF
  8
0
  0
ARC
  5
18E7F
  8
0
 10
397.49049759876982
 20
139.51037980542881
 30
0.0
 40
1.125739594691356
 50
215.12686363458101
 51
258.08715685013101
  0
ARC
  5
18E80
  8
0
 10
397.84603902450601
 20
140.87395251270871
 30
0.0
 40
2.5342071079501038
 50
256.58551141110343
 51
270.82568301013299
  0
ARC
  5
18E81
  8
0
 10
397.95937210244722
 20
139.75376685081349
 30
0.0
 40
1.415843552803397
 50
266.88998856360269
 51
288.12951895655812
  0
POLYLINE
  5
18E82
  8
0
 66
     1
 10
0.0
 20
0.0
 30
0.0
 70
   128
  0
VERTEX
  5
1AB00
  8
0
 10
398.45094358322939
 20
138.86219570632201
 30
0.0
  0
VERTEX
  5
1AB01
  8
0
 10
398.54752414422768
 20
138.65945682061741
 30
0.0
  0
VERTEX
  5
1AB02
  8
0
 10
398.55021267390782
 20
138.56148615281049
 30
0.0
  0
VERTEX
  5
1AB03
  8
0
 10
398.49672253873212
 20
138.46758929759821
 30
0.0
  0
VERTEX
  5
1AB04
  8
0
 10
398.39993461461961
 20
138.40821208088281
 30
0.0
  0
SEQEND
  5
1AB05
  8
0
  0
LINE
  5
18E83
  8
0
 10
394.36035413939572
 20
138.7891721379255
 30
0.0
 11
394.36035413939572
 21
138.9192898483123
 31
0.0
  0
POLYLINE
  5
18E84
  8
0
 66
     1
 10
0.0
 20
0.0
 30
0.0
 70
   128
  0
VERTEX
  5
1AB06
  8
0
 10
395.3855783546424
 20
138.79368833120051
 30
0.0
  0
VERTEX
  5
1AB07
  8
0
 10
395.25658125459881
 20
138.79512567487311
 30
0.0
  0
VERTEX
  5
1AB08
  8
0
 10
394.36035413939572
 20
138.7891721379255
 30
0.0
  0
SEQEND
  5
1AB09
  8
0
  0
LINE
  5
18E85
  8
0
 10
395.3855783546424
 20
138.4701115703327
 30
0.0
 11
395.3855783546424
 21
138.79368833120051
 31
0.0
  0
POLYLINE
  5
18E86
  8
0
 66
     1
 10
0.0
 20
0.0
 30
0.0
 70
   128
  0
VERTEX
  5
1AB0A
  8
0
 10
394.02963665060639
 20
138.4574495248302
 30
0.0
  0
VERTEX
  5
1AB0B
  8
0
 10
395.21522138388019
 20
138.47174877201479
 30
0.0
  0
VERTEX
  5
1AB0C
  8
0
 10
395.3855783546424
 20
138.4701115703327
 30
0.0
  0
SEQEND
  5
1AB0D
  8
0
  0
LINE
  5
18E87
  8
0
 10
394.02963665060639
 20
138.327538915216
 30
0.0
 11
394.02963665060639
 21
138.4574495248302
 31
0.0
  0
POLYLINE
  5
18E88
  8
0
 66
     1
 10
0.0
 20
0.0
 30
0.0
 70
   128
  0
VERTEX
  5
1AB0E
  8
0
 10
395.89174427392481
 20
138.32980298404539
 30
0.0
  0
VERTEX
  5
1AB0F
  8
0
 10
395.652508751548
 20
138.3355216252354
 30
0.0
  0
VERTEX
  5
1AB10
  8
0
 10
394.02963665060639
 20
138.327538915216
 30
0.0
  0
SEQEND
  5
1AB11
  8
0
  0
LINE
  5
18E89
  8
0
 10
395.89174427392481
 20
139.40755459220409
 30
0.0
 11
395.89174427392481
 21
138.32980298404539
 31
0.0
  0
POLYLINE
  5
18E8A
  8
0
 66
     1
 10
0.0
 20
0.0
 30
0.0
 70
   128
  0
VERTEX
  5
1AB12
  8
0
 10
395.3855783546424
 20
139.42094773447661
 30
0.0
  0
VERTEX
  5
1AB13
  8
0
 10
395.82632078841141
 20
139.40987899513209
 30
0.0
  0
VERTEX
  5
1AB14
  8
0
 10
395.89174427392481
 20
139.40755459220409
 30
0.0
  0
SEQEND
  5
1AB15
  8
0
  0
LINE
  5
18E8B
  8
0
 10
395.3855783546424
 20
138.92396538444891
 30
0.0
 11
395.3855783546424
 21
139.42094773447661
 31
0.0
  0
POLYLINE
  5
18E8C
  8
0
 66
     1
 10
0.0
 20
0.0
 30
0.0
 70
   128
  0
VERTEX
  5
1AB16
  8
0
 10
394.36035413939572
 20
138.9192898483123
 30
0.0
  0
VERTEX
  5
1AB17
  8
0
 10
395.25578443427122
 20
138.9254608604615
 30
0.0
  0
VERTEX
  5
1AB18
  8
0
 10
395.3855783546424
 20
138.92396538444891
 30
0.0
  0
SEQEND
  5
1AB19
  8
0
  0
LINE
  5
18E8D
  8
0
 10
391.80451120896441
 20
138.78615026150891
 30
0.0
 11
391.89475784573568
 21
138.92032437058049
 31
0.0
  0
LINE
  5
18E8E
  8
0
 10
392.79498206098242
 20
138.7911993229674
 30
0.0
 11
391.80451120896441
 21
138.78615026150891
 31
0.0
  0
LINE
  5
18E8F
  8
0
 10
392.57917488609451
 20
138.47069566579449
 30
0.0
 11
392.79498206098242
 21
138.7911993229674
 31
0.0
  0
LINE
  5
18E90
  8
0
 10
391.26919730761921
 20
138.4572987815223
 30
0.0
 11
392.57917488609451
 21
138.47069566579449
 31
0.0
  0
LINE
  5
18E91
  8
0
 10
391.17895067084783
 20
138.32333920651021
 30
0.0
 11
391.26919730761921
 21
138.4572987815223
 31
0.0
  0
LINE
  5
18E92
  8
0
 10
392.99285201613941
 20
138.32611484920619
 30
0.0
 11
391.17895067084783
 21
138.32333920651021
 31
0.0
  0
LINE
  5
18E93
  8
0
 10
393.72379372017519
 20
139.40974746954501
 30
0.0
 11
392.99285201613941
 21
138.32611484920619
 31
0.0
  0
LINE
  5
18E94
  8
0
 10
393.21986995335908
 20
139.42340421350539
 30
0.0
 11
393.72379372017519
 21
139.40974746954501
 31
0.0
  0
LINE
  5
18E95
  8
0
 10
392.8852286977538
 20
138.92555571765959
 30
0.0
 11
393.21986995335908
 21
139.42340421350539
 31
0.0
  0
LINE
  5
18E96
  8
0
 10
391.89475784573568
 20
138.92032437058049
 30
0.0
 11
392.8852286977538
 21
138.92555571765959
 31
0.0
  0
LINE
  5
18E98
  8
0
 10
383.50725640046301
 20
138.35331005870921
 30
0.0
 11
384.65129824960718
 21
138.79007433982869
 31
0.0
  0
LINE
  5
18E99
  8
0
 10
384.65129824960718
 20
138.79007433982869
 30
0.0
 11
388.28754645661201
 21
138.79007433982869
 31
0.0
  0
LINE
  5
18E9A
  8
0
 10
388.28754645661201
 20
138.79007433982869
 30
0.0
 11
387.3549149962314
 21
138.35331005870921
 31
0.0
  0
POLYLINE
  5
18E9B
  8
0
 66
     1
 10
0.0
 20
0.0
 30
0.0
 70
   128
  0
VERTEX
  5
1AB1A
  8
0
 10
387.3549149962314
 20
138.35331005870921
 30
0.0
  0
VERTEX
  5
1AB1B
  8
0
 10
389.62340666442208
 20
138.90222383889099
 30
0.0
  0
VERTEX
  5
1AB1C
  8
0
 10
391.9218198379624
 20
139.33602969122799
 30
0.0
  0
SEQEND
  5
1AB1D
  8
0
  0
LINE
  5
18E9C
  8
0
 10
391.9218198379624
 20
139.33602969122799
 30
0.0
 11
386.00000112789343
 21
139.33602969122799
 31
0.0
  0
ARC
  5
18EB5
  8
0
 10
397.80760082852481
 20
139.66727709481529
 30
0.0
 40
1.1974926476509899
 50
254.37839398693711
 51
269.4025380475826
  0
ARC
  5
18EB8
  8
0
 10
397.72866864874049
 20
139.25954945061599
 30
0.0
 40
0.7842986163796361
 50
209.36085664997989
 51
251.91005668321009
  0
POLYLINE
  5
18EB9
  8
0
 66
     1
 10
0.0
 20
0.0
 30
0.0
 70
   128
  0
VERTEX
  5
1AB1E
  8
0
 10
396.99242340385729
 20
139.24682542660241
 30
0.0
  0
VERTEX
  5
1AB1F
  8
0
 10
396.93886503836927
 20
139.19725453638179
 30
0.0
  0
VERTEX
  5
1AB20
  8
0
 10
396.94970009588491
 20
139.04737754014931
 30
0.0
  0
VERTEX
  5
1AB21
  8
0
 10
397.04511398681689
 20
138.87500121720771
 30
0.0
  0
SEQEND
  5
1AB22
  8
0
  0
ARC
  5
18EBA
  8
0
 10
397.2220718530595
 20
138.71034932448649
 30
0.0
 40
0.5835623517350462
 50
88.056490486786188
 51
113.1742353771135
  0
ARC
  5
18EBB
  8
0
 10
397.22407376969778
 20
138.1815572463702
 30
0.0
 40
1.1121610137954681
 50
73.252204435935155
 51
89.083510770679965
  0
ARC
  5
18EBC
  8
0
 10
397.26304509679221
 20
138.48434764657389
 30
0.0
 40
0.8125200804374571
 50
28.720067807131191
 51
69.728856086191101
  0
POLYLINE
  5
18EBD
  8
0
 66
     1
 10
0.0
 20
0.0
 30
0.0
 70
   128
  0
VERTEX
  5
1AB23
  8
0
 10
398.03726645318449
 20
138.5137685802745
 30
0.0
  0
VERTEX
  5
1AB24
  8
0
 10
398.08623382991948
 20
138.55813631654061
 30
0.0
  0
VERTEX
  5
1AB25
  8
0
 10
398.07258990206338
 20
138.70046143659729
 30
0.0
  0
VERTEX
  5
1AB26
  8
0
 10
397.97560726035942
 20
138.8747884796926
 30
0.0
  0
SEQEND
  5
1AB27
  8
0
  0
ARC
  5
18EBE
  8
0
 10
397.81158394657939
 20
139.0685674368097
 30
0.0
 40
0.598944375547819
 50
268.42426410876459
 51
292.13563505609528
  0
LINE
  5
18ECE
  8
0
 10
388.00000112789343
 20
124.6999999254942
 30
0.0
 11
402.00000112789331
 21
124.6999999254942
 31
0.0
  0
LINE
  5
18ECF
  8
0
 10
401.50000112789331
 20
124.1999999254942
 30
0.0
 11
388.50000112789343
 21
124.1999999254942
 31
0.0
  0
LINE
  5
18ED1
  8
0
 10
389.00000112789343
 20
114.1999999254942
 30
0.0
 11
401.00000112789343
 21
114.1999999254942
 31
0.0
  0
LINE
  5
18ED2
  8
0
 10
400.46410274303111
 20
112.1999999254942
 30
0.0
 11
389.53589951275558
 21
112.1999999254942
 31
0.0
  0
ARC
  5
18ED3
  8
0
 10
395.00000112789343
 20
117.79999992549411
 30
0.0
 40
2.4749999999999521
 50
237.40627958031621
 51
302.5937204196839
  0
LINE
  5
18ED4
  8
0
 10
396.3332302904908
 20
115.71478410932551
 30
0.0
 11
396.3332302904908
 21
115.68517132723851
 31
0.0
  0
ARC
  5
18ED5
  8
0
 10
395.00000112789343
 20
117.79999992549421
 30
0.0
 40
2.5000000000000129
 50
302.22813035657299
 51
57.771869643426918
  0
LINE
  5
18ED6
  8
0
 10
396.3332302904908
 20
119.9148285237498
 30
0.0
 11
396.3332302904908
 21
119.8852157416628
 31
0.0
  0
ARC
  5
18ED7
  8
0
 10
395.00000112789343
 20
117.7999999254943
 30
0.0
 40
2.4749999999999281
 50
57.406279580316017
 51
122.5937204196839
  0
LINE
  5
18ED8
  8
0
 10
393.66677196529599
 20
119.8852157416628
 30
0.0
 11
393.66677196529599
 21
119.9148285237498
 31
0.0
  0
ARC
  5
18ED9
  8
0
 10
395.00000112789343
 20
117.79999992549421
 30
0.0
 40
2.500000000000028
 50
122.228130356573
 51
237.7718696434269
  0
LINE
  5
18EDA
  8
0
 10
393.66677196529599
 20
115.68517132723851
 30
0.0
 11
393.66677196529599
 21
115.71478410932551
 31
0.0
  0
ARC
  5
18EDF
  8
0
 10
407.82215747447827
 20
157.53973541162051
 30
0.0
 40
0.736299287674247
 50
313.63084330451642
 51
352.9244372908168
  0
ARC
  5
18EE4
  8
0
 10
386.25727172496897
 20
157.08463598739621
 30
0.0
 40
3.0085673207115611
 50
103.4460593661492
 51
113.1619317850755
  0
ARC
  5
18EE5
  8
0
 10
382.79741675593948
 20
158.17041725370771
 30
0.0
 40
0.82316774246075
 50
116.1201442303777
 51
119.74450646558461
  0
ARC
  5
18EE6
  8
0
 10
382.52237738408411
 20
158.1594105446496
 30
0.0
 40
0.7121959243522016
 50
130.45158196177459
 51
133.77000616478
  0
ARC
  5
18EE8
  8
0
 10
381.95607916191852
 20
157.39368264522059
 30
0.0
 40
0.5119281954782515
 50
100.766655263359
 51
173.7922530977647
  0
LINE
  5
18EE9
  8
0
 10
407.50000112789331
 20
137.71203010219139
 30
0.0
 11
382.50000112789343
 21
137.71203010219139
 31
0.0
  0
LINE
  5
18EEB
  8
0
 10
382.82899105623051
 20
138.1818764125843
 30
0.0
 11
407.17101119955618
 21
138.1818764125843
 31
0.0
  0
LINE
  5
18EEC
  8
0
 10
403.26319307056309
 20
139.60420589246371
 30
0.0
 11
386.73680918522371
 21
139.60420589246371
 31
0.0
  0
LINE
  5
18EEE
  8
0
 10
387.00000112789343
 20
139.980082940778
 30
0.0
 11
403.00000112789331
 21
139.980082940778
 31
0.0
  0
LINE
  5
18EF1
  8
1
 10
395.00000112789343
 20
165.4270999254588
 30
0.0
 11
395.00000112789343
 21
107.1999999254942
 31
0.0
  0
LINE
  5
18EF2
  8
0
 10
341.10000122853859
 20
127.2000000558793
 30
0.0
 11
341.10000122853859
 21
125.1999999608844
 31
0.0
  0
LINE
  5
18EF3
  8
0
 10
344.90000129261358
 20
125.1999999608844
 30
0.0
 11
344.90000129261358
 21
127.2000000558793
 31
0.0
  0
LINE
  5
18EF4
  8
0
 10
344.00000095882763
 20
127.2000000558793
 30
0.0
 11
344.00000095882763
 21
129.69999999999999
 31
0.0
  0
LINE
  5
18EF5
  8
0
 10
342.00000063100208
 20
129.69999999999999
 30
0.0
 11
342.00000063100208
 21
127.2000000558793
 31
0.0
  0
LINE
  5
18EF6
  8
0
 10
330.60000090443839
 20
127.2000000558793
 30
0.0
 11
330.60000090443839
 21
125.1999999608844
 31
0.0
  0
LINE
  5
18EF7
  8
0
 10
334.40000096851338
 20
125.1999999608844
 30
0.0
 11
334.40000096851338
 21
127.2000000558793
 31
0.0
  0
LINE
  5
18EF8
  8
0
 10
333.50000098397328
 20
127.2000000558793
 30
0.0
 11
333.50000098397328
 21
129.69999999999999
 31
0.0
  0
LINE
  5
18EF9
  8
0
 10
331.50000088897838
 20
129.69999999999999
 30
0.0
 11
331.50000088897838
 21
127.2000000558793
 31
0.0
  0
LINE
  5
18EFA
  8
0
 10
320.10000058033808
 20
127.2000000558793
 30
0.0
 11
320.10000058033808
 21
125.1999999608844
 31
0.0
  0
LINE
  5
18EFB
  8
0
 10
323.90000064441313
 20
125.1999999608844
 30
0.0
 11
323.90000064441313
 21
127.2000000558793
 31
0.0
  0
LINE
  5
18EFC
  8
0
 10
323.00000124194969
 20
127.2000000558793
 30
0.0
 11
323.00000124194969
 21
129.69999999999999
 31
0.0
  0
LINE
  5
18EFD
  8
0
 10
321.00000091412409
 20
129.69999999999999
 30
0.0
 11
321.00000091412409
 21
127.2000000558793
 31
0.0
  0
LINE
  5
18EFE
  8
0
 10
329.50000091039891
 20
160.4271014899015
 30
0.0
 11
329.50000091039891
 21
160.4170990854501
 31
0.0
  0
LINE
  5
18EFF
  8
0
 10
335.50000096255292
 20
160.4170990854501
 30
0.0
 11
335.50000096255292
 21
160.4271014899015
 31
0.0
  0
ARC
  5
18F01
  8
0
 10
337.71816370954491
 20
117.7999998658895
 30
0.0
 40
2.5000000000000071
 50
287.36101610611922
 51
72.62943031361813
  0
ARC
  5
18F02
  8
0
 10
329.89091954994149
 20
117.7999998658895
 30
0.0
 40
2.4999999999999969
 50
98.456447648509936
 51
261.25405376302689
  0
LINE
  5
18F03
  8
0
 10
341.75881974914421
 20
160.0798001259565
 30
0.0
 11
340.56358457126959
 21
160.40006333291529
 31
0.0
  0
LINE
  5
18F04
  8
0
 10
324.43641730168213
 20
160.40006333291529
 30
0.0
 11
323.24118212380762
 21
160.0798001259565
 31
0.0
  0
ARC
  5
18F05
  8
0
 10
324.43369805844162
 20
157.8659485949556
 30
0.0
 40
0.9594093937224307
 50
161.11629148606639
 51
182.71313684344719
  0
ARC
  5
18F06
  8
0
 10
323.97536411485783
 20
142.9170998658895
 30
0.0
 40
0.5
 50
180.0
 51
270.0
  0
LINE
  5
18F07
  8
0
 10
323.4753641165172
 20
157.82053449451919
 30
0.0
 11
323.4753641165172
 21
142.9170990109443
 31
0.0
  0
ARC
  5
18F08
  8
0
 10
341.50000093647589
 20
159.11387449304831
 30
0.0
 40
0.9999999999999957
 50
0.0
 51
74.999999999998764
  0
LINE
  5
18F09
  8
0
 10
342.50000071295852
 20
142.9170990109443
 30
0.0
 11
342.50000071295852
 21
159.1138733297586
 31
0.0
  0
ARC
  5
18F0A
  8
0
 10
342.00000093647589
 20
142.9170998658895
 30
0.0
 40
0.5
 50
270.0
 51
0.0
  0
ARC
  5
18F0B
  8
0
 10
324.49258088339678
 20
157.9420144669586
 30
0.0
 40
0.9946784722343492
 50
148.4247929030231
 51
166.36712748014099
  0
ARC
  5
18F0C
  8
0
 10
324.5658271852696
 20
159.9170998658895
 30
0.0
 40
0.5000000000000116
 50
90.0
 51
105.00000000000119
  0
ARC
  5
18F0D
  8
0
 10
340.43417468768217
 20
159.9170998658895
 30
0.0
 40
0.5000000000000116
 50
74.999999999998764
 51
90.0
  0
POLYLINE
  5
18F0E
  8
0
 66
     1
 10
0.0
 20
0.0
 30
0.0
 70
   128
  0
VERTEX
  5
1AB28
  8
0
 10
323.87626226312011
 20
158.87095280152201
 30
0.0
  0
VERTEX
  5
1AB29
  8
0
 10
323.82389389493812
 20
158.7844123810529
 30
0.0
  0
VERTEX
  5
1AB2A
  8
0
 10
323.645160985676
 20
158.4628453224897
 30
0.0
  0
SEQEND
  5
1AB2B
  8
0
  0
ARC
  5
18F0F
  8
0
 10
323.50000093647589
 20
159.11387449304831
 30
0.0
 40
1.0000000000000031
 50
105.00000000000119
 51
180.0
  0
ARC
  5
18F10
  8
0
 10
323.00000093647589
 20
142.9170998658895
 30
0.0
 40
0.5000000000000036
 50
180.0
 51
270.0
  0
LINE
  5
18F11
  8
0
 10
322.5000011599933
 20
159.1138733297586
 30
0.0
 11
322.5000011599933
 21
142.9170990109443
 31
0.0
  0
LINE
  5
18F12
  8
0
 10
320.00000075021143
 20
137.71203027367591
 30
0.0
 11
320.00000075021143
 21
130.2000000819564
 31
0.0
  0
LINE
  5
18F13
  8
0
 10
345.0000011227404
 20
130.2000000819564
 30
0.0
 11
345.0000011227404
 21
137.71203027367591
 31
0.0
  0
ARC
  5
18F14
  8
0
 10
320.50000093647589
 20
137.7120300425868
 30
0.0
 40
0.5
 50
110.0000000000034
 51
180.0
  0
ARC
  5
18F15
  8
0
 10
344.50000093647589
 20
137.7120300425868
 30
0.0
 40
0.5
 50
0.0
 51
69.999999999996533
  0
LINE
  5
18F16
  8
0
 10
320.00000075021143
 20
130.2000000819564
 30
0.0
 11
320.50000083216781
 21
129.69999999999999
 31
0.0
  0
LINE
  5
18F17
  8
0
 10
344.50000104078401
 20
129.69999999999999
 30
0.0
 11
345.0000011227404
 21
130.2000000819564
 31
0.0
  0
LINE
  5
18F1B
  8
0
 10
324.23680879690988
 20
139.60420579910269
 30
0.0
 11
320.32899044969429
 21
138.18187599331139
 31
0.0
  0
ARC
  5
18F1E
  8
0
 10
340.90000093647598
 20
139.98008288117339
 30
0.0
 40
0.3999999999999986
 50
180.0
 51
249.99999999999659
  0
ARC
  5
18F1F
  8
0
 10
324.10000093647591
 20
139.98008288117339
 30
0.0
 40
0.4000000000000022
 50
290.00000000000341
 51
0.0
  0
LINE
  5
18F20
  8
0
 10
324.50000055649627
 20
142.41709986031049
 30
0.0
 11
324.50000055649627
 21
139.9800820022821
 31
0.0
  0
LINE
  5
18F21
  8
0
 10
340.5000013164555
 20
139.9800820022821
 30
0.0
 11
340.5000013164555
 21
142.41709986031049
 31
0.0
  0
LINE
  5
18F22
  8
0
 10
325.50000072040899
 20
124.699999878928
 30
0.0
 11
326.00000080236538
 21
124.199999913387
 31
0.0
  0
LINE
  5
18F23
  8
0
 10
339.00000107058628
 20
124.199999913387
 30
0.0
 11
339.50000115254272
 21
124.699999878928
 31
0.0
  0
LINE
  5
18F24
  8
0
 10
325.50000072040899
 20
129.69999999999999
 30
0.0
 11
325.50000072040899
 21
124.699999878928
 31
0.0
  0
LINE
  5
18F25
  8
0
 10
339.50000115254272
 20
124.699999878928
 30
0.0
 11
339.50000115254272
 21
129.69999999999999
 31
0.0
  0
ARC
  5
18F26
  8
0
 10
338.90000093647598
 20
123.7999998658895
 30
0.0
 40
0.4000000000000199
 50
90.0
 51
180.0
  0
ARC
  5
18F27
  8
0
 10
326.10000093647591
 20
123.7999998658895
 30
0.0
 40
0.4000000000000199
 50
0.0
 51
90.0
  0
LINE
  5
18F28
  8
0
 10
326.50000088432182
 20
123.79999989438799
 30
0.0
 11
326.50000088432182
 21
114.2000002533197
 31
0.0
  0
LINE
  5
18F29
  8
0
 10
338.50000098863001
 20
120.2749815850614
 30
0.0
 11
338.50000098863001
 21
123.79999989438799
 31
0.0
  0
LINE
  5
18F2A
  8
0
 10
338.50000098863001
 20
114.2000002533197
 30
0.0
 11
338.50000098863001
 21
115.3249997392296
 31
0.0
  0
LINE
  5
18F2B
  8
0
 10
326.50000088432182
 20
114.2000002533197
 30
0.0
 11
327.03589926057811
 21
112.1999999254942
 31
0.0
  0
LINE
  5
18F2C
  8
0
 10
337.96410261237372
 20
112.1999999254942
 30
0.0
 11
338.50000098863001
 21
114.2000002533197
 31
0.0
  0
LINE
  5
18F2E
  8
0
 10
341.10000122853859
 20
127.2000000558793
 30
0.0
 11
344.90000129261358
 21
127.2000000558793
 31
0.0
  0
LINE
  5
18F2F
  8
0
 10
341.10000122853859
 20
125.1999999608844
 30
0.0
 11
344.90000129261358
 21
125.1999999608844
 31
0.0
  0
LINE
  5
18F30
  8
0
 10
330.60000090443839
 20
125.1999999608844
 30
0.0
 11
334.40000096851338
 21
125.1999999608844
 31
0.0
  0
LINE
  5
18F31
  8
0
 10
330.60000090443839
 20
127.2000000558793
 30
0.0
 11
334.40000096851338
 21
127.2000000558793
 31
0.0
  0
LINE
  5
18F33
  8
0
 10
320.10000058033808
 20
125.1999999608844
 30
0.0
 11
323.90000064441313
 21
125.1999999608844
 31
0.0
  0
LINE
  5
18F35
  8
0
 10
320.10000058033808
 20
127.2000000558793
 30
0.0
 11
323.90000064441313
 21
127.2000000558793
 31
0.0
  0
LINE
  5
18F36
  8
0
 10
335.50000096255292
 20
160.4271014899015
 30
0.0
 11
329.50000091039891
 21
160.4271014899015
 31
0.0
  0
ARC
  5
18F3B
  8
0
 10
331.11789020847971
 20
146.8279537451792
 30
0.0
 40
11.56774076175591
 50
106.8919521701477
 51
118.3656120663225
  0
LINE
  5
18F3E
  8
0
 10
327.75667727508892
 20
157.89659747183319
 30
0.0
 11
327.75667727508892
 21
142.9170990109443
 31
0.0
  0
POLYLINE
  5
18F41
  8
0
 66
     1
 10
0.0
 20
0.0
 30
0.0
 70
   128
  0
VERTEX
  5
1AB2C
  8
0
 10
327.75667727508892
 20
142.9170990109443
 30
0.0
  0
VERTEX
  5
1AB2D
  8
0
 10
327.75082856932028
 20
142.81955414712431
 30
0.0
  0
VERTEX
  5
1AB2E
  8
0
 10
327.73350736641629
 20
142.72575878798961
 30
0.0
  0
VERTEX
  5
1AB2F
  8
0
 10
327.70537956201781
 20
142.63931528925889
 30
0.0
  0
VERTEX
  5
1AB30
  8
0
 10
327.66752595597262
 20
142.5635466098785
 30
0.0
  0
VERTEX
  5
1AB31
  8
0
 10
327.62140127414222
 20
142.50136592686169
 30
0.0
  0
VERTEX
  5
1AB32
  8
0
 10
327.56877782338609
 20
142.45515928864481
 30
0.0
  0
VERTEX
  5
1AB33
  8
0
 10
327.51167797067512
 20
142.4267073839903
 30
0.0
  0
VERTEX
  5
1AB34
  8
0
 10
327.45229637765641
 20
142.41709986031049
 30
0.0
  0
SEQEND
  5
1AB35
  8
0
  0
LINE
  5
18F45
  8
0
 10
325.62210083523138
 20
157.00680070817469
 30
0.0
 11
324.39465120950092
 21
157.00680070817469
 31
0.0
  0
LINE
  5
18F49
  8
0
 10
330.09564758793761
 20
158.5851466029882
 30
0.0
 11
330.14813809239621
 21
158.66656282246109
 31
0.0
  0
LINE
  5
18F4A
  8
0
 10
330.09564758793761
 20
158.5851466029882
 30
0.0
 11
327.93638388210292
 21
157.97272750437261
 31
0.0
  0
LINE
  5
18F4C
  8
0
 10
330.09564758793761
 20
142.9170990109443
 30
0.0
 11
330.09564758793761
 21
158.5851466029882
 31
0.0
  0
LINE
  5
18F4E
  8
0
 10
327.93638388210292
 20
157.97272750437261
 30
0.0
 11
327.75667727508892
 21
157.89659747183319
 31
0.0
  0
POLYLINE
  5
18F4F
  8
0
 66
     1
 10
0.0
 20
0.0
 30
0.0
 70
   128
  0
VERTEX
  5
1AB36
  8
0
 10
330.09564758793761
 20
142.9170990109443
 30
0.0
  0
VERTEX
  5
1AB37
  8
0
 10
330.08979911499972
 20
142.81955414712431
 30
0.0
  0
VERTEX
  5
1AB38
  8
0
 10
330.07247791209568
 20
142.72575878798961
 30
0.0
  0
VERTEX
  5
1AB39
  8
0
 10
330.04435010769708
 20
142.63931528925889
 30
0.0
  0
VERTEX
  5
1AB3A
  8
0
 10
330.0064965016519
 20
142.5635466098785
 30
0.0
  0
VERTEX
  5
1AB3B
  8
0
 10
329.96037181982149
 20
142.50136592686169
 30
0.0
  0
VERTEX
  5
1AB3C
  8
0
 10
329.90774836906542
 20
142.45515928864481
 30
0.0
  0
VERTEX
  5
1AB3D
  8
0
 10
329.8506487491851
 20
142.4267073839903
 30
0.0
  0
VERTEX
  5
1AB3E
  8
0
 10
329.79126692333568
 20
142.41709986031049
 30
0.0
  0
SEQEND
  5
1AB3F
  8
0
  0
ARC
  5
18F56
  8
0
 10
385.03137861691209
 20
-248.224683592003
 30
0.0
 40
410.57600575190469
 50
97.199926949377925
 51
97.681937142987394
  0
LINE
  5
18F57
  8
0
 10
333.57307953809698
 20
159.1138733297586
 30
0.0
 11
333.5923402202626
 21
158.5851466029882
 31
0.0
  0
LINE
  5
18F59
  8
0
 10
333.5923402202626
 20
158.5851466029882
 30
0.0
 11
333.5923402202626
 21
142.9170990109443
 31
0.0
  0
ARC
  5
18F5B
  8
0
 10
332.40704784634602
 20
142.7935910037732
 30
0.0
 40
1.191709796678885
 50
341.58332432534729
 51
5.9487783151108973
  0
LINE
  5
18F60
  8
0
 10
324.56582736739273
 20
160.4170990854501
 30
0.0
 11
340.4341745055591
 21
160.4170990854501
 31
0.0
  0
LINE
  5
18F66
  8
0
 10
342.00000063100208
 20
142.41709986031049
 30
0.0
 11
323.00000124194969
 21
142.41709986031049
 31
0.0
  0
LINE
  5
18F67
  8
0
 10
320.00000075021143
 20
130.2000000819564
 30
0.0
 11
345.0000011227404
 21
130.2000000819564
 31
0.0
  0
LINE
  5
18F68
  8
0
 10
344.50000104078401
 20
129.69999999999999
 30
0.0
 11
320.50000083216781
 21
129.69999999999999
 31
0.0
  0
POLYLINE
  5
18F69
  8
0
 66
     1
 10
0.0
 20
0.0
 30
0.0
 70
   128
  0
VERTEX
  5
1AB40
  8
0
 10
329.65382350192721
 20
139.3448324620723
 30
0.0
  0
VERTEX
  5
1AB41
  8
0
 10
329.735105145288
 20
139.22505506575101
 30
0.0
  0
VERTEX
  5
1AB42
  8
0
 10
329.65417763733609
 20
139.0214530497789
 30
0.0
  0
VERTEX
  5
1AB43
  8
0
 10
329.50472015471507
 20
138.85732048451899
 30
0.0
  0
SEQEND
  5
1AB44
  8
0
  0
ARC
  5
18F6A
  8
0
 10
329.26466723930878
 20
138.57307777475509
 30
0.0
 40
0.8643193241685931
 50
63.24053599419674
 51
94.230411427581387
  0
ARC
  5
18F6B
  8
0
 10
329.18488303926142
 20
137.20279204420859
 30
0.0
 40
2.2323077084293521
 50
89.588676433531674
 51
106.49005524867761
  0
ARC
  5
18F6C
  8
0
 10
329.08307266742821
 20
137.41417605053539
 30
0.0
 40
2.0010730595211381
 50
105.41278772208381
 51
133.66426979607351
  0
POLYLINE
  5
18F6D
  8
0
 66
     1
 10
0.0
 20
0.0
 30
0.0
 70
   128
  0
VERTEX
  5
1AB45
  8
0
 10
327.56806117066492
 20
138.4026869878173
 30
0.0
  0
VERTEX
  5
1AB46
  8
0
 10
327.48139694848408
 20
138.52011838257309
 30
0.0
  0
VERTEX
  5
1AB47
  8
0
 10
327.56791774698843
 20
138.71817716658111
 30
0.0
  0
VERTEX
  5
1AB48
  8
0
 10
327.701468938527
 20
138.86174799203869
 30
0.0
  0
SEQEND
  5
1AB49
  8
0
  0
ARC
  5
18F6E
  8
0
 10
327.97199504626428
 20
139.48783723821921
 30
0.0
 40
1.1578918955602631
 50
249.58283429807719
 51
273.42428607549527
  0
ARC
  5
18F6F
  8
0
 10
328.07446526859673
 20
140.9099493050559
 30
0.0
 40
2.5781518545459332
 50
269.25971341617532
 51
283.20374686451578
  0
ARC
  5
18F70
  8
0
 10
328.24082312778609
 20
140.17980351883489
 30
0.0
 40
1.8293160117194931
 50
283.35458506241781
 51
313.70237283591229
  0
LINE
  5
18F71
  8
0
 10
326.03852030405147
 20
138.3213033646345
 30
0.0
 11
325.55870011964191
 21
138.3323795840144
 31
0.0
  0
LINE
  5
18F72
  8
0
 10
327.88269080736978
 20
139.41692800521849
 30
0.0
 11
326.03852030405147
 21
138.3213033646345
 31
0.0
  0
LINE
  5
18F73
  8
0
 10
327.45443981656177
 20
139.43110459744929
 30
0.0
 11
327.88269080736978
 21
139.41692800521849
 31
0.0
  0
LINE
  5
18F74
  8
0
 10
326.27258169048781
 20
138.72673881500961
 30
0.0
 11
327.45443981656177
 21
139.43110459744929
 31
0.0
  0
LINE
  5
18F75
  8
0
 10
326.85242172845949
 20
139.43032787442201
 30
0.0
 11
326.27258169048781
 21
138.72673881500961
 31
0.0
  0
LINE
  5
18F76
  8
0
 10
326.38717534535868
 20
139.41343740820881
 30
0.0
 11
326.85242172845949
 21
139.43032787442201
 31
0.0
  0
LINE
  5
18F77
  8
0
 10
324.54300437637909
 20
138.31873663961881
 30
0.0
 11
326.38717534535868
 21
139.41343740820881
 31
0.0
  0
LINE
  5
18F78
  8
0
 10
324.97125583284839
 20
138.3306883022189
 30
0.0
 11
324.54300437637909
 21
138.31873663961881
 31
0.0
  0
LINE
  5
18F79
  8
0
 10
326.18056282916422
 20
139.05138761997219
 30
0.0
 11
324.97125583284839
 21
138.3306883022189
 31
0.0
  0
LINE
  5
18F7A
  8
0
 10
325.55870011964191
 20
138.3323795840144
 30
0.0
 11
326.18056282916422
 21
139.05138761997219
 31
0.0
  0
LINE
  5
18F81
  8
0
 10
342.51326088377579
 20
138.7861497446894
 30
0.0
 11
342.15507701554651
 21
138.9203244566917
 31
0.0
  0
LINE
  5
18F82
  8
0
 10
342.76269980290277
 20
138.79119937568899
 30
0.0
 11
342.51326088377579
 21
138.7861497446894
 31
0.0
  0
LINE
  5
18F83
  8
0
 10
343.61696009108181
 20
138.470695887506
 30
0.0
 11
342.76269980290277
 21
138.79119937568899
 31
0.0
  0
LINE
  5
18F84
  8
0
 10
343.28736410060282
 20
138.4572988122701
 30
0.0
 11
343.61696009108181
 21
138.470695887506
 31
0.0
  0
LINE
  5
18F85
  8
0
 10
343.64554796883209
 20
138.32333923578261
 30
0.0
 11
343.28736410060282
 21
138.4572988122701
 31
0.0
  0
LINE
  5
18F86
  8
0
 10
344.10238590606798
 20
138.32611457705491
 30
0.0
 11
343.64554796883209
 21
138.32333923578261
 31
0.0
  0
LINE
  5
18F87
  8
0
 10
341.20440435179819
 20
139.40974750816821
 30
0.0
 11
344.10238590606798
 21
138.32611457705491
 31
0.0
  0
LINE
  5
18F88
  8
0
 10
341.07716147371877
 20
139.42340442240231
 30
0.0
 11
341.20440435179819
 21
139.40974750816821
 31
0.0
  0
LINE
  5
18F89
  8
0
 10
342.40451593467338
 20
138.92555476427069
 30
0.0
 11
341.07716147371877
 21
139.42340442240231
 31
0.0
  0
LINE
  5
18F8A
  8
0
 10
342.15507701554651
 20
138.9203244566917
 30
0.0
 11
342.40451593467338
 21
138.92555476427069
 31
0.0
  0
POLYLINE
  5
18F8B
  8
0
 66
     1
 10
0.0
 20
0.0
 30
0.0
 70
   128
  0
VERTEX
  5
1AB4A
  8
0
 10
330.93716738329579
 20
139.3360296010971
 30
0.0
  0
VERTEX
  5
1AB4B
  8
0
 10
332.82222294763972
 20
138.90352526009079
 30
0.0
  0
VERTEX
  5
1AB4C
  8
0
 10
334.69244673432161
 20
138.35331012755631
 30
0.0
  0
SEQEND
  5
1AB4D
  8
0
  0
LINE
  5
18F8C
  8
0
 10
334.69244673432161
 20
138.35331012755631
 30
0.0
 11
334.2760496172433
 21
138.79007433801891
 31
0.0
  0
LINE
  5
18F8D
  8
0
 10
334.2760496172433
 20
138.79007433801891
 30
0.0
 11
340.57421654978151
 21
138.79007433801891
 31
0.0
  0
LINE
  5
18F8E
  8
0
 10
340.57421654978151
 20
138.79007433801891
 30
0.0
 11
341.35678735145677
 21
138.35331012755631
 31
0.0
  0
POLYLINE
  5
18F8F
  8
0
 66
     1
 10
0.0
 20
0.0
 30
0.0
 70
   128
  0
VERTEX
  5
1AB4E
  8
0
 10
341.35678735145677
 20
138.35331012755631
 30
0.0
  0
VERTEX
  5
1AB4F
  8
0
 10
341.15831971683849
 20
138.9022232711315
 30
0.0
  0
VERTEX
  5
1AB50
  8
0
 10
340.95723413446302
 20
139.3360296010971
 30
0.0
  0
SEQEND
  5
1AB51
  8
0
  0
LINE
  5
18F90
  8
0
 10
340.95723413446302
 20
139.3360296010971
 30
0.0
 11
330.93716738329579
 21
139.3360296010971
 31
0.0
  0
ARC
  5
18F9F
  8
0
 10
328.14657877432478
 20
139.7857279867512
 30
0.0
 40
1.3220647527151499
 50
271.45588216488898
 51
284.83616986318532
  0
ARC
  5
18FA2
  8
0
 10
328.15978938707332
 20
138.91578185203011
 30
0.0
 40
0.4521513379401454
 50
244.07615024728341
 51
272.583309231491
  0
POLYLINE
  5
18FA3
  8
0
 66
     1
 10
0.0
 20
0.0
 30
0.0
 70
   128
  0
VERTEX
  5
1AB52
  8
0
 10
328.16054996618379
 20
138.873471480608
 30
0.0
  0
VERTEX
  5
1AB53
  8
0
 10
327.99127044671519
 20
138.69052526801821
 30
0.0
  0
VERTEX
  5
1AB54
  8
0
 10
327.937427894709
 20
138.59792107045649
 30
0.0
  0
VERTEX
  5
1AB55
  8
0
 10
327.93628655889381
 20
138.53519090712069
 30
0.0
  0
VERTEX
  5
1AB56
  8
0
 10
327.9621195844685
 20
138.50912784487011
 30
0.0
  0
SEQEND
  5
1AB57
  8
0
  0
ARC
  5
18FA4
  8
0
 10
329.19587463927178
 20
137.907035858407
 30
0.0
 40
1.416296222745665
 50
108.8181974310408
 51
136.97101259799271
  0
ARC
  5
18FA5
  8
0
 10
329.07027896670297
 20
138.09059212496811
 30
0.0
 40
1.203518951290993
 50
90.826125699875874
 51
105.97618139993661
  0
ARC
  5
18FA6
  8
0
 10
329.07027544002801
 20
138.8867541272601
 30
0.0
 40
0.4076012310967255
 50
61.850997669298373
 51
92.439447500408008
  0
POLYLINE
  5
18FA7
  8
0
 66
     1
 10
0.0
 20
0.0
 30
0.0
 70
   128
  0
VERTEX
  5
1AB58
  8
0
 10
329.04563959271962
 20
138.8712288558483
 30
0.0
  0
VERTEX
  5
1AB59
  8
0
 10
329.22029726722587
 20
139.05775227844711
 30
0.0
  0
VERTEX
  5
1AB5A
  8
0
 10
329.27952239805211
 20
139.1528514891863
 30
0.0
  0
VERTEX
  5
1AB5B
  8
0
 10
329.28735784770299
 20
139.21689854264261
 30
0.0
  0
VERTEX
  5
1AB5C
  8
0
 10
329.26256790341188
 20
139.24614579677581
 30
0.0
  0
SEQEND
  5
1AB5D
  8
0
  0
ARC
  5
18FA8
  8
0
 10
328.05635388909332
 20
139.78285691452109
 30
0.0
 40
1.345270203624183
 50
288.5847714671998
 51
317.33939201188008
  0
LINE
  5
18FB9
  8
0
 10
325.50000072040899
 20
124.699999878928
 30
0.0
 11
339.50000115254272
 21
124.699999878928
 31
0.0
  0
LINE
  5
18FBA
  8
0
 10
339.00000107058628
 20
124.199999913387
 30
0.0
 11
326.00000080236538
 21
124.199999913387
 31
0.0
  0
ARC
  5
18FBB
  8
0
 10
329.57500101582463
 20
117.24470406179189
 30
0.0
 40
1.916710867118999
 50
232.9586365431831
 51
307.04136345681678
  0
LINE
  5
18FBC
  8
0
 10
330.72961120450248
 20
115.714783848077
 30
0.0
 11
330.72961120450248
 21
115.6851710498333
 31
0.0
  0
ARC
  5
18FBD
  8
0
 10
329.44731580887168
 20
117.79999972581859
 30
0.0
 40
2.4732128518236891
 50
301.22991444299959
 51
58.77008555700035
  0
LINE
  5
18FBE
  8
0
 10
330.72961120450248
 20
119.9148284018039
 30
0.0
 11
330.72961120450248
 21
119.8852156035602
 31
0.0
  0
ARC
  5
18FBF
  8
0
 10
329.57500101582451
 20
118.36277007740701
 30
0.0
 40
1.910749870575118
 50
52.823618745443568
 51
127.1763812545537
  0
LINE
  5
18FC0
  8
0
 10
328.42039082714672
 20
119.8852156035602
 30
0.0
 11
328.42039082714672
 21
119.9148284018039
 31
0.0
  0
ARC
  5
18FC1
  8
0
 10
329.49259035245171
 20
118.5882571632601
 30
0.0
 40
1.705697239546293
 50
128.9468324451318
 51
148.61073817964601
  0
ARC
  5
18FC2
  8
0
 10
329.60832033952391
 20
117.0934410652507
 30
0.0
 40
1.842390013732238
 50
212.47925899009519
 51
229.85109080312131
  0
LINE
  5
18FC3
  8
0
 10
328.42039082714672
 20
115.6851710498333
 30
0.0
 11
328.42039082714672
 21
115.714783848077
 31
0.0
  0
ARC
  5
18FC4
  8
0
 10
346.50547607762098
 20
118.62949260967009
 30
0.0
 40
8.6606757548847124
 50
199.66652753086379
 51
202.42981246307821
  0
ARC
  5
18FC5
  8
0
 10
346.41804918969308
 20
117.0039991186709
 30
0.0
 40
8.5670773084987069
 50
157.55425301930151
 51
160.3476206190293
  0
LINE
  5
18FC6
  8
0
 10
338.35000077777852
 20
119.8852156035602
 30
0.0
 11
338.35000077777852
 21
119.9148284018039
 31
0.0
  0
ARC
  5
18FC7
  8
0
 10
343.91427929031153
 20
117.79999972581859
 30
0.0
 40
5.9526209096334659
 50
159.18958439311521
 51
200.81041560688669
  0
LINE
  5
18FC8
  8
0
 10
338.35000077777852
 20
115.6851710498333
 30
0.0
 11
338.35000077777852
 21
115.714783848077
 31
0.0
  0
LINE
  5
18FC9
  8
0
 10
326.50000088432182
 20
114.2000002533197
 30
0.0
 11
338.50000098863001
 21
114.2000002533197
 31
0.0
  0
LINE
  5
18FCA
  8
0
 10
337.96410261237372
 20
112.1999999254942
 30
0.0
 11
327.03589926057811
 21
112.1999999254942
 31
0.0
  0
ARC
  5
18FD6
  8
0
 10
325.63637478848409
 20
159.33572720501911
 30
0.0
 40
2.639275672283349
 50
215.03621926975509
 51
241.9346109687896
  0
LINE
  5
18FD9
  8
0
 10
342.50000071295852
 20
159.1138733297586
 30
0.0
 11
333.57307953809698
 21
159.1138733297586
 31
0.0
  0
ARC
  5
18FDE
  8
0
 10
323.09025781370872
 20
157.8631194753907
 30
0.0
 40
1.278096634748539
 50
52.049499903270402
 51
78.127165121667048
  0
LINE
  5
18FE0
  8
0
 10
323.35321371027578
 20
159.1138733297586
 30
0.0
 11
322.5000011599933
 21
159.1138733297586
 31
0.0
  0
LINE
  5
18FE2
  8
0
 10
345.0000011227404
 20
137.71203027367591
 30
0.0
 11
320.00000075021143
 21
137.71203027367591
 31
0.0
  0
LINE
  5
18FE3
  8
0
 10
320.32899044969429
 20
138.18187599331139
 30
0.0
 11
344.67101142325748
 21
138.18187599331139
 31
0.0
  0
LINE
  5
18FE4
  8
0
 10
340.76319307604177
 20
139.60420579910269
 30
0.0
 11
324.23680879690988
 21
139.60420579910269
 31
0.0
  0
LINE
  5
18FE5
  8
0
 10
324.50000055649627
 20
139.9800820022821
 30
0.0
 11
340.5000013164555
 21
139.9800820022821
 31
0.0
  0
LINE
  5
18FE7
  8
1
 10
332.50000093647589
 20
165.4270999254588
 30
0.0
 11
332.50000093647589
 21
107.1999999254941
 31
0.0
  0
CIRCLE
  5
18FEB
  8
0
 10
395.0000011227404
 20
214.49999987530799
 30
0.0
 40
3.0000000000000209
  0
LINE
  5
18FEC
  8
0
 10
395.0000011227404
 20
215.65470041368729
 30
0.0
 11
394.0000011227404
 21
215.0773501444977
 31
0.0
  0
LINE
  5
18FED
  8
0
 10
394.0000011227404
 20
215.0773501444977
 30
0.0
 11
394.0000011227404
 21
213.9226496061184
 31
0.0
  0
LINE
  5
18FEE
  8
0
 10
394.0000011227404
 20
213.9226496061184
 30
0.0
 11
395.0000011227404
 21
213.3452993369288
 31
0.0
  0
LINE
  5
18FEF
  8
0
 10
395.0000011227404
 20
213.3452993369288
 30
0.0
 11
396.0000011227404
 21
213.9226496061184
 31
0.0
  0
LINE
  5
18FF0
  8
0
 10
396.0000011227404
 20
213.9226496061184
 30
0.0
 11
396.0000011227404
 21
215.0773501444977
 31
0.0
  0
LINE
  5
18FF1
  8
0
 10
396.0000011227404
 20
215.0773501444977
 30
0.0
 11
395.0000011227404
 21
215.65470041368729
 31
0.0
  0
CIRCLE
  5
18FFB
  8
0
 10
395.0000011227404
 20
214.49999987530799
 30
0.0
 40
3.203553390593294
  0
ARC
  5
19004
  8
0
 10
387.16969105008968
 20
222.45111559955089
 30
0.0
 40
0.6758430099373298
 50
77.817267687414812
 51
83.570686786620342
  0
ARC
  5
19009
  8
0
 10
388.16912603501697
 20
229.96251243902529
 30
0.0
 40
6.9041460294490626
 50
262.87115516282751
 51
293.82651986745452
  0
ARC
  5
1900A
  8
0
 10
402.83031119539169
 20
206.54888415107129
 30
0.0
 40
0.6758430099435423
 50
257.81726768746438
 51
263.57068678662171
  0
LINE
  5
1900D
  8
0
 10
405.67761764838087
 20
205.4924733309422
 30
0.0
 11
402.75463209201843
 21
205.87729167984921
 31
0.0
  0
ARC
  5
1900E
  8
0
 10
401.830876210464
 20
199.03748731159001
 30
0.0
 40
6.9041460294497741
 50
82.871155162829695
 51
113.82651986745419
  0
ARC
  5
19012
  8
0
 10
411.80636735332331
 20
216.31554480120161
 30
0.0
 40
6.9041460296627806
 50
186.17348013303879
 51
217.1288448366798
  0
ARC
  5
19013
  8
0
 10
405.79469850976818
 20
211.68913153222411
 30
0.0
 40
0.6840081610058909
 50
36.46368147632824
 51
42.148364049666128
  0
ARC
  5
19017
  8
0
 10
384.20530373568511
 20
217.31086821836959
 30
0.0
 40
0.6840081609706135
 50
216.46368147619111
 51
222.1483640498156
  0
LINE
  5
19018
  8
0
 10
383.65520129141458
 20
216.90435319394609
 30
0.0
 11
381.86044604723668
 21
219.2433237661985
 31
0.0
  0
ARC
  5
1901A
  8
0
 10
378.19363489215749
 20
212.68445494941449
 30
0.0
 40
6.9041460296627193
 50
6.1734801330383942
 51
37.12884483667839
  0
ARC
  5
1901C
  8
0
 10
395.0000011227404
 20
214.49999987530791
 30
0.0
 40
10.000000000000069
 50
6.1601488314038093
 51
113.839851168599
  0
ARC
  5
1901D
  8
0
 10
395.0000011227404
 20
214.49999987530799
 30
0.0
 40
10.000000000000069
 50
186.16014883140329
 51
293.8398511685993
  0
ARC
  5
19028
  8
0
 10
395.00000112274688
 20
214.4999998753041
 30
0.0
 40
15.00000000000758
 50
147.29207719661409
 51
152.70792280338719
  0
LINE
  5
1902C
  8
0
 10
384.32238459709981
 20
223.50752641967381
 30
0.0
 11
387.24537015346232
 21
223.12270807076681
 31
0.0
  0
LINE
  5
1902F
  8
0
 10
406.3448009540661
 20
212.09564655667
 30
0.0
 11
408.13955619824412
 21
209.75667598441751
 31
0.0
  0
ARC
  5
19035
  8
0
 10
395.00000112273671
 20
214.49999987531041
 30
0.0
 40
15.000000000004469
 50
327.29207719661417
 51
332.70792280338748
  0
ARC
  5
19038
  8
0
 10
384.06133221265958
 20
221.52463669692639
 30
0.0
 40
1.9999999999998059
 50
82.499999999997144
 51
147.29207719661369
  0
ARC
  5
19039
  8
0
 10
383.44715272781912
 20
220.460846624216
 30
0.0
 40
2.000000000000004
 50
152.70792280338779
 51
217.50000000000199
  0
ARC
  5
1903A
  8
0
 10
406.5528495176618
 20
208.53915312640001
 30
0.0
 40
1.9999999999998399
 50
332.7079228033864
 51
37.500000000004299
  0
ARC
  5
1903B
  8
0
 10
405.93867003282111
 20
207.4753630536899
 30
0.0
 40
2.0000000000000369
 50
262.50000000000301
 51
327.2920771966123
  0
LINE
  5
1903C
  8
0
 10
398.36121634960131
 20
205.081813627483
 30
0.0
 11
398.45094357807648
 21
204.79334896100431
 31
0.0
  0
LINE
  5
1903D
  8
0
 10
396.5697776587939
 20
204.31969425248411
 30
0.0
 11
396.52113304381447
 21
204.61636908097481
 31
0.0
  0
ARC
  5
1903E
  8
0
 10
398.31385926294757
 20
204.58994386701809
 30
0.0
 40
1.764895321570894
 50
188.8080691656177
 51
233.2597027746622
  0
ARC
  5
1903F
  8
0
 10
397.63808780394191
 20
203.9521955824116
 30
0.0
 40
0.8645354535035263
 50
243.92757333171841
 51
286.4259721942671
  0
ARC
  5
19040
  8
0
 10
397.7143231014233
 20
203.9430360851963
 30
0.0
 40
0.8371688791009893
 50
281.59291897511349
 51
324.98126009937209
  0
ARC
  5
19041
  8
0
 10
396.91522761315838
 20
204.1858795362121
 30
0.0
 40
1.6514970865737959
 50
334.0278119974202
 51
21.58182193815507
  0
LINE
  5
19042
  8
0
 10
394.3603541342427
 20
204.01701784532511
 30
0.0
 11
394.3603541342427
 21
204.37520170182731
 31
0.0
  0
LINE
  5
19043
  8
0
 10
395.38557834948938
 20
204.01701784532511
 30
0.0
 11
394.3603541342427
 21
204.01701784532511
 31
0.0
  0
LINE
  5
19044
  8
0
 10
395.38557834948938
 20
203.12744385429369
 30
0.0
 11
395.38557834948938
 21
204.01701784532511
 31
0.0
  0
LINE
  5
19045
  8
0
 10
394.02963664545348
 20
203.12744385429369
 30
0.0
 11
395.38557834948938
 21
203.12744385429369
 31
0.0
  0
LINE
  5
19046
  8
0
 10
394.02963664545348
 20
202.76925999779149
 30
0.0
 11
394.02963664545348
 21
203.12744385429369
 31
0.0
  0
LINE
  5
19047
  8
0
 10
395.89174426877179
 20
202.76925999779149
 30
0.0
 11
394.02963664545348
 21
202.76925999779149
 31
0.0
  0
LINE
  5
19048
  8
0
 10
395.89174426877179
 20
204.53983952712551
 30
0.0
 11
395.89174426877179
 21
202.76925999779149
 31
0.0
  0
LINE
  5
19049
  8
0
 10
395.38557834948938
 20
204.37520170182731
 30
0.0
 11
395.38557834948938
 21
204.50743613009149
 31
0.0
  0
LINE
  5
1904A
  8
0
 10
394.3603541342427
 20
204.37520170182731
 30
0.0
 11
395.38557834948938
 21
204.37520170182731
 31
0.0
  0
LINE
  5
1904B
  8
0
 10
391.8045112038115
 20
204.48674026302871
 30
0.0
 11
391.89475784058283
 21
204.84492411953099
 31
0.0
  0
LINE
  5
1904C
  8
0
 10
392.79498205582951
 20
204.2373008011453
 30
0.0
 11
391.8045112038115
 21
204.48674026302871
 31
0.0
  0
LINE
  5
1904D
  8
0
 10
392.57917488094159
 20
203.38304071145919
 30
0.0
 11
392.79498205582951
 21
204.2373008011453
 31
0.0
  0
LINE
  5
1904E
  8
0
 10
391.26919730246618
 20
203.71263712401529
 30
0.0
 11
392.57917488094159
 21
203.38304071145919
 31
0.0
  0
LINE
  5
1904F
  8
0
 10
391.17895066569491
 20
203.35445326751301
 30
0.0
 11
391.26919730246618
 21
203.71263712401529
 31
0.0
  0
LINE
  5
19050
  8
0
 10
392.99285201098638
 20
202.89761470249061
 30
0.0
 11
391.17895066569491
 21
203.35445326751301
 31
0.0
  0
LINE
  5
19051
  8
0
 10
393.42835787418409
 20
204.6242752183895
 30
0.0
 11
392.99285201098638
 21
202.89761470249061
 31
0.0
  0
LINE
  5
19052
  8
0
 10
392.88522869260078
 20
204.5954846576476
 30
0.0
 11
392.91648433226618
 21
204.7194601262035
 31
0.0
  0
LINE
  5
19053
  8
0
 10
391.89475784058283
 20
204.84492411953099
 30
0.0
 11
392.88522869260078
 21
204.5954846576476
 31
0.0
  0
LINE
  5
19054
  8
0
 10
384.90515129215072
 20
214.30395487578991
 30
0.0
 11
383.50725639531009
 21
212.30755406523181
 31
0.0
  0
LINE
  5
19055
  8
0
 10
383.50725639531009
 20
212.30755406523181
 30
0.0
 11
384.65129824445421
 21
212.7239512450752
 31
0.0
  0
ARC
  5
19056
  8
0
 10
395.00000112274091
 20
214.4999998753083
 30
0.0
 40
10.50000000000054
 50
189.7382559518793
 51
230.26174404812139
  0
LINE
  5
19057
  8
0
 10
388.28754645145909
 20
206.4257846016115
 30
0.0
 11
387.35491499107837
 21
205.64321388718179
 31
0.0
  0
LINE
  5
19058
  8
0
 10
387.35491499107837
 20
205.64321388718179
 30
0.0
 11
389.94784865532478
 21
205.870066188078
 31
0.0
  0
ARC
  5
19059
  8
0
 10
397.70427644855619
 20
203.8881954360761
 30
0.0
 40
0.4291225666606656
 50
239.29152781780761
 51
282.22094133479447
  0
ARC
  5
1905A
  8
0
 10
398.42866872097721
 20
204.5357679986426
 30
0.0
 40
1.386928466193128
 50
183.99717934824369
 51
227.13263426408091
  0
LINE
  5
1905B
  8
0
 10
396.99139022420741
 20
204.70028715265329
 30
0.0
 11
397.04511398166392
 21
204.43908887131821
 31
0.0
  0
LINE
  5
1905C
  8
0
 10
397.9756072552064
 20
204.6733938040536
 30
0.0
 11
397.89849398797861
 21
204.92927685611221
 31
0.0
  0
ARC
  5
1905D
  8
0
 10
396.57079503809899
 20
204.07862576670911
 30
0.0
 40
1.5255315085507519
 50
344.0049612120755
 51
22.946780510455682
  0
ARC
  5
1905E
  8
0
 10
397.66439902394831
 20
203.88534429316769
 30
0.0
 40
0.4365749895052664
 50
287.42217532877839
 51
328.65760367267637
  0
ARC
  5
1905F
  8
0
 10
395.0000011227404
 20
214.49999987530799
 30
0.0
 40
12.49999999999998
 50
344.58079291724113
 51
135.41920708275839
  0
ARC
  5
19060
  8
0
 10
395.0000011227404
 20
214.49999987530799
 30
0.0
 40
12.499999999999959
 50
164.5807929172407
 51
315.41920708275848
  0
ARC
  5
19067
  8
0
 10
395.00000112274017
 20
67.718162773069253
 30
0.0
 40
2.500000000000282
 50
241.44330115045449
 51
298.55669884954841
  0
ARC
  5
19068
  8
0
 10
395.00000112274029
 20
67.718162773068926
 30
0.0
 40
2.499999999999988
 50
5.5443094622692541
 51
174.4556791517011
  0
ARC
  5
1906A
  8
0
 10
390.48093960018059
 20
59.890918613465601
 30
0.0
 40
2.4999999999996381
 50
1.443301150443985
 51
58.556698849558529
  0
ARC
  5
1906B
  8
0
 10
390.48093960018002
 20
59.890918613465452
 30
0.0
 40
2.4999999999998281
 50
125.54430946226761
 51
294.45567328500402
  0
ARC
  5
1906D
  8
0
 10
399.51906264530038
 20
59.890918613465317
 30
0.0
 40
2.5000000000000591
 50
121.4433011504467
 51
178.556698849551
  0
ARC
  5
1906E
  8
0
 10
399.51906264530032
 20
59.890918613465367
 30
0.0
 40
2.500000000000032
 50
245.54430946227311
 51
54.455667418303577
  0
CIRCLE
  5
1906F
  8
0
 10
395.00000112274029
 20
51.999999999999922
 30
0.0
 40
1.900000000000019
  0
LINE
  5
19070
  8
0
 10
394.22750112274031
 20
52.446003082948891
 30
0.0
 11
394.22750112274031
 21
51.55399691705091
 31
0.0
  0
LINE
  5
19071
  8
0
 10
394.22750112274031
 20
51.55399691705091
 30
0.0
 11
395.00000112274017
 21
51.107993834101933
 31
0.0
  0
LINE
  5
19072
  8
0
 10
395.00000112274017
 20
51.107993834101933
 30
0.0
 11
395.77250112274021
 21
51.55399691705091
 31
0.0
  0
LINE
  5
19073
  8
0
 10
395.77250112274021
 20
51.55399691705091
 30
0.0
 11
395.77250112274021
 21
52.446003082948891
 31
0.0
  0
LINE
  5
19074
  8
0
 10
395.77250112274021
 20
52.446003082948891
 30
0.0
 11
395.00000112274029
 21
52.892006165897882
 31
0.0
  0
LINE
  5
19075
  8
0
 10
395.00000112274029
 20
52.892006165897882
 30
0.0
 11
394.22750112274031
 21
52.446003082948891
 31
0.0
  0
CIRCLE
  5
19076
  8
0
 10
405.50000112274017
 20
62.499999999999837
 30
0.0
 40
1.8999999999999979
  0
LINE
  5
19077
  8
0
 10
405.05399803979122
 20
61.72749999999985
 30
0.0
 11
405.94600420568918
 21
61.727499999999829
 31
0.0
  0
LINE
  5
19078
  8
0
 10
405.94600420568918
 20
61.727499999999829
 30
0.0
 11
406.39200728863818
 21
62.499999999999829
 31
0.0
  0
LINE
  5
19079
  8
0
 10
406.39200728863818
 20
62.499999999999829
 30
0.0
 11
405.94600420568918
 21
63.272499999999837
 31
0.0
  0
LINE
  5
1907A
  8
0
 10
405.94600420568918
 20
63.272499999999837
 30
0.0
 11
405.05399803979122
 21
63.272499999999852
 31
0.0
  0
LINE
  5
1907B
  8
0
 10
405.05399803979122
 20
63.272499999999852
 30
0.0
 11
404.60799495684222
 21
62.499999999999851
 31
0.0
  0
LINE
  5
1907C
  8
0
 10
404.60799495684222
 20
62.499999999999851
 30
0.0
 11
405.05399803979122
 21
61.72749999999985
 31
0.0
  0
CIRCLE
  5
1907D
  8
0
 10
395.00000112274029
 20
72.999999999999844
 30
0.0
 40
1.899999999999991
  0
LINE
  5
1907E
  8
0
 10
395.77250112274032
 20
72.553996917050881
 30
0.0
 11
395.77250112274032
 21
73.446003082948849
 31
0.0
  0
LINE
  5
1907F
  8
0
 10
395.77250112274032
 20
73.446003082948849
 30
0.0
 11
395.00000112274029
 21
73.892006165897826
 31
0.0
  0
LINE
  5
19080
  8
0
 10
395.00000112274029
 20
73.892006165897826
 30
0.0
 11
394.22750112274031
 21
73.446003082948835
 31
0.0
  0
LINE
  5
19081
  8
0
 10
394.22750112274031
 20
73.446003082948835
 30
0.0
 11
394.22750112274031
 21
72.553996917050867
 31
0.0
  0
LINE
  5
19082
  8
0
 10
394.22750112274031
 20
72.553996917050867
 30
0.0
 11
395.00000112274029
 21
72.107993834101876
 31
0.0
  0
LINE
  5
19083
  8
0
 10
395.00000112274029
 20
72.107993834101876
 30
0.0
 11
395.77250112274032
 21
72.553996917050881
 31
0.0
  0
CIRCLE
  5
19084
  8
0
 10
384.50000112274029
 20
62.5
 30
0.0
 40
1.8999999999999979
  0
LINE
  5
19085
  8
0
 10
384.94600420568929
 20
63.27249999999998
 30
0.0
 11
384.05399803979128
 21
63.272499999999987
 31
0.0
  0
LINE
  5
19086
  8
0
 10
384.05399803979128
 20
63.272499999999987
 30
0.0
 11
383.60799495684239
 21
62.5
 31
0.0
  0
LINE
  5
19087
  8
0
 10
383.60799495684239
 20
62.5
 30
0.0
 11
384.05399803979128
 21
61.727499999999992
 31
0.0
  0
LINE
  5
19088
  8
0
 10
384.05399803979128
 20
61.727499999999992
 30
0.0
 11
384.94600420568929
 21
61.727499999999992
 31
0.0
  0
LINE
  5
19089
  8
0
 10
384.94600420568929
 20
61.727499999999992
 30
0.0
 11
385.3920072886383
 21
62.499999999999972
 31
0.0
  0
LINE
  5
1908A
  8
0
 10
385.3920072886383
 20
62.499999999999972
 30
0.0
 11
384.94600420568929
 21
63.27249999999998
 31
0.0
  0
ARC
  5
19091
  8
0
 10
384.06133221265941
 20
55.4753631783815
 30
0.0
 40
1.999999999999772
 50
212.70792280338381
 51
277.50000000000279
  0
LINE
  5
19094
  8
0
 10
386.09673379119369
 20
53.726070958628767
 30
0.0
 11
384.3223845970997
 21
53.492473455634091
 31
0.0
  0
ARC
  5
19096
  8
0
 10
395.00000112273938
 20
62.499999999999098
 30
0.0
 40
14.999999999998909
 50
207.29207719661159
 51
212.70792280338611
  0
ARC
  5
19097
  8
0
 10
383.44715272781917
 20
56.539153251091903
 30
0.0
 40
2.0000000000001208
 50
142.50000000000199
 51
207.2920771966117
  0
LINE
  5
19099
  8
0
 10
381.86044604723662
 20
57.756676109109328
 30
0.0
 11
382.94992201613758
 21
59.176508834881851
 31
0.0
  0
LINE
  5
1909B
  8
0
 10
408.13955619824389
 20
67.243323890890423
 30
0.0
 11
407.05008022934288
 21
65.823491165117971
 31
0.0
  0
ARC
  5
1909D
  8
0
 10
406.55284951766129
 20
68.460846748907841
 30
0.0
 40
2.0000000000000502
 50
322.50000000000188
 51
27.292077196611739
  0
LINE
  5
1909E
  8
0
 10
403.90326845428689
 20
71.273929041370977
 30
0.0
 11
405.67761764838087
 21
71.507526544365646
 31
0.0
  0
ARC
  5
190A0
  8
0
 10
405.93867003282111
 20
69.524636821618145
 30
0.0
 40
1.999999999999881
 50
32.707922803385692
 51
97.500000000000867
  0
ARC
  5
190A2
  8
0
 10
395.00000112275342
 20
62.500000000006892
 30
0.0
 40
14.99999999998521
 50
27.29207719661057
 51
32.707922803391831
  0
CIRCLE
  5
190A3
  8
0
 10
395.00000112274029
 20
62.499999999999893
 30
0.0
 40
0.700000000000003
  0
CIRCLE
  5
190A4
  8
0
 10
395.00000112274029
 20
62.499999999999893
 30
0.0
 40
0.8999999999999985
  0
CIRCLE
  5
190A5
  8
0
 10
395.00000112274029
 20
62.499999999999893
 30
0.0
 40
2.3221482653371051
  0
ARC
  5
190A6
  8
0
 10
395.0000011227404
 20
62.499999999999879
 30
0.0
 40
2.9999999999999498
 50
346.75861234080702
 51
73.241387659197713
  0
ARC
  5
190A7
  8
0
 10
395.00000112274029
 20
62.500000000000028
 30
0.0
 40
3.0000000000000862
 50
226.75861234081219
 51
313.24138765918917
  0
ARC
  5
190A8
  8
0
 10
395.00000112274029
 20
62.499999999999893
 30
0.0
 40
3.000000000000008
 50
106.7586123408031
 51
193.2413876591929
  0
CIRCLE
  5
190A9
  8
0
 10
395.00000112274029
 20
62.499999999999893
 30
0.0
 40
6.0
  0
CIRCLE
  5
190AA
  8
0
 10
395.00000112274029
 20
62.499999999999893
 30
0.0
 40
5.4641016151377491
  0
CIRCLE
  5
190AB
  8
0
 10
395.00000112274029
 20
62.499999999999893
 30
0.0
 40
3.25
  0
ARC
  5
190AC
  8
0
 10
395.00000112274017
 20
62.499999999999893
 30
0.0
 40
7.000000000000079
 50
346.68309430381368
 51
73.316905696185103
  0
ARC
  5
190AD
  8
0
 10
395.00000112274029
 20
62.499999999999893
 30
0.0
 40
7.0000000000000062
 50
226.6830943038139
 51
313.3169056961861
  0
ARC
  5
190AE
  8
0
 10
395.00000112274029
 20
62.499999999999893
 30
0.0
 40
7.0000000000000071
 50
106.6830943038144
 51
193.31690569618701
  0
ARC
  5
190AF
  8
0
 10
395.0000011227404
 20
62.499999999999851
 30
0.0
 40
6.5000000000000711
 50
111.2373453315026
 51
188.76265466849591
  0
ARC
  5
190B0
  8
0
 10
395.00000112274029
 20
62.499999999999893
 30
0.0
 40
6.5000000000000044
 50
231.23734533150329
 51
308.76265466849668
  0
ARC
  5
190B1
  8
0
 10
395.00000112274029
 20
62.499999999999893
 30
0.0
 40
6.5
 50
351.23734533150542
 51
68.762654668498143
  0
CIRCLE
  5
190B2
  8
0
 10
395.00000112274029
 20
62.499999999999893
 30
0.0
 40
12.5
  0
CIRCLE
  5
190C1
  8
0
 10
125.000000372529
 20
214.49999987530799
 30
0.0
 40
3.000000000000028
  0
LINE
  5
190C2
  8
0
 10
126.000000372529
 20
215.07735014449759
 30
0.0
 11
125.000000372529
 21
215.65470041368721
 31
0.0
  0
LINE
  5
190C3
  8
0
 10
125.000000372529
 20
215.65470041368721
 30
0.0
 11
124.000000372529
 21
215.07735014449759
 31
0.0
  0
LINE
  5
190C4
  8
0
 10
124.000000372529
 20
215.07735014449759
 30
0.0
 11
124.000000372529
 21
213.92264960611831
 31
0.0
  0
LINE
  5
190C5
  8
0
 10
124.000000372529
 20
213.92264960611831
 30
0.0
 11
125.000000372529
 21
213.34529933692869
 31
0.0
  0
LINE
  5
190C6
  8
0
 10
125.000000372529
 20
213.34529933692869
 30
0.0
 11
126.000000372529
 21
213.92264960611831
 31
0.0
  0
LINE
  5
190C7
  8
0
 10
126.000000372529
 20
213.92264960611831
 30
0.0
 11
126.000000372529
 21
215.07735014449759
 31
0.0
  0
CIRCLE
  5
190D1
  8
0
 10
125.000000372529
 20
214.49999987530799
 30
0.0
 40
3.2035533905932989
  0
ARC
  5
190DA
  8
0
 10
127.97071354184691
 20
225.2568051798616
 30
0.0
 40
0.6758430099167737
 50
17.817267687308309
 51
23.570686786689091
  0
LINE
  5
190DD
  8
0
 10
127.46193892239189
 20
228.2508503105642
 30
0.0
 11
128.59016923457739
 21
225.5270613894057
 31
0.0
  0
ARC
  5
190DF
  8
0
 10
134.97549151518231
 20
228.14696751321341
 30
0.0
 40
6.9041460294491044
 50
202.87115516283089
 51
233.82651986745219
  0
ARC
  5
190E8
  8
0
 10
134.975491515356
 20
200.85303223726521
 30
0.0
 40
6.9041460296624741
 50
126.1734801330409
 51
157.12884483667861
  0
ARC
  5
190E9
  8
0
 10
127.9630656742478
 20
203.7460835404309
 30
0.0
 40
0.6840081609962581
 50
336.4636814763021
 51
342.14836404971919
  0
ARC
  5
190F2
  8
0
 10
125.000000372529
 20
214.49999987530799
 30
0.0
 40
9.9999999999999751
 50
126.16014883140549
 51
233.8398511686016
  0
ARC
  5
190F3
  8
0
 10
125.0000003725291
 20
214.49999987530799
 30
0.0
 40
9.9999999999999591
 50
306.16014883140542
 51
53.839851168594599
  0
ARC
  5
190FE
  8
0
 10
125.000000372529
 20
214.49999987530589
 30
0.0
 40
15.00000000000208
 50
87.29207719661234
 51
92.707922803387646
  0
LINE
  5
19105
  8
0
 10
128.5901692345779
 20
203.4729383612115
 30
0.0
 11
127.46193892239189
 21
200.74914944005181
 31
0.0
  0
ARC
  5
1910B
  8
0
 10
125.000000372529
 20
214.49999987531109
 30
0.0
 40
15.000000000003091
 50
267.29207719661258
 51
272.70792280338759
  0
LINE
  5
1910D
  8
0
 10
122.5380618226659
 20
200.74914944005181
 30
0.0
 11
121.4098315104804
 21
203.4729383612102
 31
0.0
  0
ARC
  5
1910E
  8
0
 10
125.61417985736971
 20
227.48548344583429
 30
0.0
 40
1.9999999999997169
 50
22.499999999993321
 51
87.292077196619346
  0
ARC
  5
1910F
  8
0
 10
124.3858208876883
 20
227.48548344583421
 30
0.0
 40
1.9999999999997651
 50
92.707922803382644
 51
157.5000000000058
  0
ARC
  5
19110
  8
0
 10
125.614179857369
 20
201.5145163047824
 30
0.0
 40
2.000000000000528
 50
272.70792280339629
 51
337.49999999999329
  0
ARC
  5
19111
  8
0
 10
124.38582088768879
 20
201.5145163047824
 30
0.0
 40
2.000000000000461
 50
202.50000000000651
 51
267.29207719660599
  0
POLYLINE
  5
19112
  8
0
 66
     1
 10
0.0
 20
0.0
 30
0.0
 70
   128
  0
VERTEX
  5
1AB5E
  8
0
 10
115.4257666985319
 20
217.3868752719435
 30
0.0
  0
VERTEX
  5
1AB5F
  8
0
 10
115.3403054141033
 20
217.41399532400251
 30
0.0
  0
VERTEX
  5
1AB60
  8
0
 10
115.1292092415319
 20
217.4952805453128
 30
0.0
  0
SEQEND
  5
1AB61
  8
0
  0
LINE
  5
19113
  8
0
 10
115.88257247023149
 20
219.2985316663891
 30
0.0
 11
116.1510909902031
 21
219.1579825656348
 31
0.0
  0
ARC
  5
19114
  8
0
 10
115.0472757259966
 20
217.71437277230379
 30
0.0
 40
1.790888062565321
 50
62.19817434727446
 51
106.45170243234359
  0
ARC
  5
19115
  8
0
 10
114.938803312107
 20
218.6542894910566
 30
0.0
 40
0.8739091777871229
 50
117.1452848570558
 51
159.60449312737549
  0
ARC
  5
19116
  8
0
 10
114.8769293196127
 20
218.6016214166853
 30
0.0
 40
0.8372786181824066
 50
154.74491056067541
 51
198.4495498972023
  0
ARC
  5
19117
  8
0
 10
115.6100189749381
 20
219.16486683073711
 30
0.0
 40
1.7374396001630861
 50
208.4693862380125
 51
253.93458552809429
  0
LINE
  5
19118
  8
0
 10
115.140754629585
 20
220.96148029013199
 30
0.0
 11
115.510149248419
 21
221.44130091793471
 31
0.0
  0
LINE
  5
19119
  8
0
 10
116.5620434579682
 20
219.86664529940819
 30
0.0
 11
115.140754629585
 21
220.96148029013199
 31
0.0
  0
LINE
  5
1911A
  8
0
 10
116.33086979289909
 20
220.7274191000713
 30
0.0
 11
116.86512957873769
 21
220.31582975317761
 31
0.0
  0
LINE
  5
1911B
  8
0
 10
117.0205073671081
 20
220.52724562908631
 30
0.0
 11
116.33086979289909
 21
220.7274191000713
 31
0.0
  0
LINE
  5
1911C
  8
0
 10
116.29322099729799
 20
222.45699598519931
 30
0.0
 11
117.7211796236524
 21
221.35702317304609
 31
0.0
  0
LINE
  5
1911D
  8
0
 10
115.96306404662531
 20
222.02874486412301
 30
0.0
 11
116.29322099729799
 21
222.45699598519931
 31
0.0
  0
LINE
  5
1911E
  8
0
 10
117.36034343604651
 20
220.952568502828
 30
0.0
 11
115.96306404662531
 21
222.02874486412301
 31
0.0
  0
LINE
  5
1911F
  8
0
 10
115.510149248419
 20
221.44130091793471
 30
0.0
 11
117.3070608084245
 21
220.88894977830739
 31
0.0
  0
LINE
  5
19120
  8
0
 10
121.1789499154835
 20
203.35445326751301
 30
0.0
 11
121.2831362174179
 21
203.7679628758118
 31
0.0
  0
LINE
  5
19121
  8
0
 10
121.4915170886065
 20
203.27573193064791
 30
0.0
 11
121.1789499154835
 21
203.35445326751301
 31
0.0
  0
LINE
  5
19122
  8
0
 10
115.0001823327049
 20
214.43967433834899
 30
0.0
 11
113.5072556450985
 21
212.30755406523181
 31
0.0
  0
LINE
  5
19123
  8
0
 10
113.5072556450985
 20
212.30755406523181
 30
0.0
 11
114.6512974942428
 21
212.7239512450752
 31
0.0
  0
ARC
  5
19124
  8
0
 10
125.000000372529
 20
214.49999987530799
 30
0.0
 40
10.50000000000006
 50
189.73825595187751
 51
230.26174404812221
  0
LINE
  5
19125
  8
0
 10
118.28754570124759
 20
206.42578460161141
 30
0.0
 11
117.3549142408669
 21
205.6432138871817
 31
0.0
  0
LINE
  5
19126
  8
0
 10
117.3549142408669
 20
205.6432138871817
 30
0.0
 11
119.7827955073665
 21
205.85562597438741
 31
0.0
  0
ARC
  5
19127
  8
0
 10
114.845201583945
 20
218.64066051920199
 30
0.0
 40
0.4294786680233804
 50
112.3480866876854
 51
155.34307598953521
  0
ARC
  5
19128
  8
0
 10
114.9350224582153
 20
217.66055600294899
 30
0.0
 40
1.40039152855164
 50
57.334124214620203
 51
100.4135258024762
  0
LINE
  5
19129
  8
0
 10
115.93598883425609
 20
218.72417965771029
 30
0.0
 11
115.690868434357
 21
218.83945094890029
 31
0.0
  0
LINE
  5
1912A
  8
0
 10
115.3209132774065
 20
217.9543612628016
 30
0.0
 11
115.5813610310317
 21
217.8599452550425
 31
0.0
  0
ARC
  5
1912B
  8
0
 10
115.6799207257088
 20
219.43999355556539
 30
0.0
 40
1.5283944704293679
 50
217.2484078291547
 51
256.4147505283284
  0
ARC
  5
1912C
  8
0
 10
114.8649924357811
 20
218.67855802227109
 30
0.0
 40
0.4337614911721591
 50
160.99229326411131
 51
202.1666000529201
  0
ARC
  5
1912D
  8
0
 10
125.000000372529
 20
214.49999987530799
 30
0.0
 40
12.500000000000011
 50
284.5807929172409
 51
75.419207082759343
  0
ARC
  5
1912E
  8
0
 10
125.000000372529
 20
214.49999987530799
 30
0.0
 40
12.49999999999997
 50
104.5807929172415
 51
255.41920708275831
  0
LINE
  5
19133
  8
0
 10
123.1000003725289
 20
127.2
 30
0.0
 11
123.1000003725289
 21
125.2
 31
0.0
  0
LINE
  5
19134
  8
0
 10
126.90000037252899
 20
125.2
 30
0.0
 11
126.90000037252899
 21
127.2
 31
0.0
  0
LINE
  5
19135
  8
0
 10
126.000000372529
 20
127.2
 30
0.0
 11
126.000000372529
 21
129.69999999999999
 31
0.0
  0
LINE
  5
19136
  8
0
 10
124.000000372529
 20
129.69999999999999
 30
0.0
 11
124.000000372529
 21
127.2
 31
0.0
  0
LINE
  5
19137
  8
0
 10
112.6000003725289
 20
127.2
 30
0.0
 11
112.6000003725289
 21
125.2
 31
0.0
  0
LINE
  5
19138
  8
0
 10
116.40000037252899
 20
125.2
 30
0.0
 11
116.40000037252899
 21
127.2
 31
0.0
  0
LINE
  5
19139
  8
0
 10
115.500000372529
 20
127.2
 30
0.0
 11
115.500000372529
 21
129.69999999999999
 31
0.0
  0
LINE
  5
1913A
  8
0
 10
113.500000372529
 20
129.69999999999999
 30
0.0
 11
113.500000372529
 21
127.2
 31
0.0
  0
LINE
  5
1913B
  8
0
 10
133.60000037252891
 20
127.2
 30
0.0
 11
133.60000037252891
 21
125.2
 31
0.0
  0
LINE
  5
1913C
  8
0
 10
137.40000037252889
 20
125.2
 30
0.0
 11
137.40000037252889
 21
127.2
 31
0.0
  0
LINE
  5
1913D
  8
0
 10
136.50000037252889
 20
127.2
 30
0.0
 11
136.50000037252889
 21
129.69999999999999
 31
0.0
  0
LINE
  5
1913E
  8
0
 10
134.50000037252889
 20
129.69999999999999
 30
0.0
 11
134.50000037252889
 21
127.2
 31
0.0
  0
LINE
  5
1913F
  8
0
 10
122.000000372529
 20
164.70999999996451
 30
0.0
 11
122.000000372529
 21
164.69999999999999
 31
0.0
  0
LINE
  5
19140
  8
0
 10
128.000000372529
 20
164.69999999999999
 30
0.0
 11
128.000000372529
 21
164.70999999996451
 31
0.0
  0
LINE
  5
19141
  8
0
 10
134.2588194176314
 20
164.36270045344779
 30
0.0
 11
133.06358364628659
 21
164.68296291314451
 31
0.0
  0
LINE
  5
19142
  8
0
 10
116.9364170987714
 20
164.68296291314451
 30
0.0
 11
115.7411813274265
 21
164.36270045344779
 31
0.0
  0
ARC
  5
19143
  8
0
 10
134.00000037252909
 20
163.39677462715881
 30
0.0
 40
0.9999999999999715
 50
359.99999999999841
 51
75.000000000008271
  0
ARC
  5
19144
  8
0
 10
116.0000003725288
 20
163.39677462715869
 30
0.0
 40
0.99999999999999
 50
104.9999999999921
 51
180.0
  0
LINE
  5
19145
  8
0
 10
115.0000003725289
 20
163.39677462715869
 30
0.0
 11
115.0000003725289
 21
147.19999999999999
 31
0.0
  0
LINE
  5
19146
  8
0
 10
135.000000372529
 20
147.19999999999999
 30
0.0
 11
135.000000372529
 21
163.39677462715869
 31
0.0
  0
ARC
  5
19147
  8
0
 10
117.0658266213226
 20
164.19999999999999
 30
0.0
 40
0.5
 50
90.0
 51
105.00000000000119
  0
ARC
  5
19148
  8
0
 10
132.9341741237352
 20
164.1999999999999
 30
0.0
 40
0.5000000000000849
 50
74.999999999994643
 51
89.999999999993491
  0
ARC
  5
19149
  8
0
 10
134.500000372529
 20
147.1999999999999
 30
0.0
 40
0.4999999999999716
 50
269.99999999999682
 51
0.0000000000032569
  0
ARC
  5
1914A
  8
0
 10
115.5000003725289
 20
147.19999999999999
 30
0.0
 40
0.5
 50
180.0
 51
270.0
  0
ARC
  5
1914B
  8
0
 10
113.0000003725289
 20
137.7120301766972
 30
0.0
 40
0.5
 50
109.9999999999965
 51
179.9999999999992
  0
ARC
  5
1914C
  8
0
 10
137.000000372529
 20
137.7120301766972
 30
0.0
 40
0.5
 50
0.0
 51
69.999999999996533
  0
LINE
  5
1914D
  8
0
 10
112.5000003725289
 20
137.7120301766972
 30
0.0
 11
112.5000003725289
 21
130.19999999999999
 31
0.0
  0
LINE
  5
1914E
  8
0
 10
137.500000372529
 20
130.19999999999999
 30
0.0
 11
137.500000372529
 21
137.7120301766972
 31
0.0
  0
LINE
  5
1914F
  8
0
 10
112.5000003725289
 20
130.19999999999999
 30
0.0
 11
113.000000372529
 21
129.69999999999999
 31
0.0
  0
LINE
  5
19150
  8
0
 10
137.00000037252889
 20
129.69999999999999
 30
0.0
 11
137.500000372529
 21
130.19999999999999
 31
0.0
  0
LINE
  5
19151
  8
0
 10
137.17101044419169
 20
138.18187648709011
 30
0.0
 11
133.26319231519869
 21
139.60420596696949
 31
0.0
  0
ARC
  5
19158
  8
0
 10
133.40000037252889
 20
139.98008301528381
 30
0.0
 40
0.3999999999999844
 50
180.0
 51
250.0000000000035
  0
ARC
  5
19159
  8
0
 10
116.6000003725289
 20
139.98008301528381
 30
0.0
 40
0.3999999999999941
 50
290.00000000000341
 51
0.0
  0
LINE
  5
1915A
  8
0
 10
117.0000003725289
 20
146.69999999999999
 30
0.0
 11
117.0000003725289
 21
139.98008301528381
 31
0.0
  0
LINE
  5
1915B
  8
0
 10
133.000000372529
 20
139.98008301528381
 30
0.0
 11
133.000000372529
 21
146.69999999999999
 31
0.0
  0
LINE
  5
1915C
  8
0
 10
118.0000003725289
 20
124.7
 30
0.0
 11
118.5000003725289
 21
124.2
 31
0.0
  0
LINE
  5
1915D
  8
0
 10
131.500000372529
 20
124.2
 30
0.0
 11
132.000000372529
 21
124.7
 31
0.0
  0
LINE
  5
1915E
  8
0
 10
118.0000003725289
 20
129.69999999999999
 30
0.0
 11
118.0000003725289
 21
124.7
 31
0.0
  0
LINE
  5
1915F
  8
0
 10
132.000000372529
 20
124.7
 30
0.0
 11
132.000000372529
 21
129.69999999999999
 31
0.0
  0
ARC
  5
19160
  8
0
 10
131.40000037252901
 20
123.7999999999999
 30
0.0
 40
0.4000000000000057
 50
90.0
 51
179.9999999999992
  0
ARC
  5
19161
  8
0
 10
118.6000003725289
 20
123.7999999999999
 30
0.0
 40
0.4000000000000057
 50
0.0
 51
90.0
  0
LINE
  5
19162
  8
0
 10
119.0000003725289
 20
114.2
 30
0.0
 11
119.53589875739119
 21
112.2
 31
0.0
  0
LINE
  5
19163
  8
0
 10
130.46410198766671
 20
112.2
 30
0.0
 11
131.000000372529
 21
114.2
 31
0.0
  0
LINE
  5
19164
  8
0
 10
119.0000003725289
 20
123.7999999999999
 30
0.0
 11
119.0000003725289
 21
114.2
 31
0.0
  0
LINE
  5
19165
  8
0
 10
131.000000372529
 20
114.2
 30
0.0
 11
131.000000372529
 21
123.7999999999999
 31
0.0
  0
LINE
  5
19166
  8
0
 10
123.1000003725289
 20
127.2
 30
0.0
 11
126.90000037252899
 21
127.2
 31
0.0
  0
LINE
  5
19167
  8
0
 10
123.1000003725289
 20
125.2
 30
0.0
 11
126.90000037252899
 21
125.2
 31
0.0
  0
LINE
  5
19169
  8
0
 10
112.6000003725289
 20
127.2
 30
0.0
 11
116.40000037252899
 21
127.2
 31
0.0
  0
LINE
  5
1916B
  8
0
 10
112.6000003725289
 20
125.2
 30
0.0
 11
116.40000037252899
 21
125.2
 31
0.0
  0
LINE
  5
1916C
  8
0
 10
133.60000037252891
 20
125.2
 30
0.0
 11
137.40000037252889
 21
125.2
 31
0.0
  0
LINE
  5
1916D
  8
0
 10
133.60000037252891
 20
127.2
 30
0.0
 11
137.40000037252889
 21
127.2
 31
0.0
  0
LINE
  5
1916E
  8
0
 10
128.000000372529
 20
164.70999999996451
 30
0.0
 11
122.0000003725289
 21
164.70999999996451
 31
0.0
  0
ARC
  5
1916F
  8
0
 10
108.03698844848221
 20
198.2824777897265
 30
0.0
 40
40.996997187030267
 50
295.53409796739021
 51
298.28215654951651
  0
LINE
  5
19176
  8
0
 10
125.70866900888331
 20
161.2897016770242
 30
0.0
 11
124.2913317361746
 21
161.2897016770242
 31
0.0
  0
ARC
  5
19177
  8
0
 10
141.5108723468017
 20
197.39157449127379
 30
0.0
 40
39.998222454720278
 50
241.68352645497569
 51
244.50021902811881
  0
LINE
  5
1917F
  8
0
 10
127.46193892239189
 20
162.17949900071901
 30
0.0
 11
127.46193892239189
 21
147.19999999999999
 31
0.0
  0
LINE
  5
19182
  8
0
 10
122.5380618226659
 20
147.19999999999999
 30
0.0
 11
122.5380618226659
 21
162.17949900071901
 31
0.0
  0
ARC
  5
19184
  8
0
 10
126.9801850726637
 20
147.1816941738241
 30
0.0
 40
0.4821015193918918
 50
272.35548564453057
 51
2.1760951536743551
  0
ARC
  5
19186
  8
0
 10
123.0198156723943
 20
147.18169417382421
 30
0.0
 40
0.4821015193919611
 50
177.82390484633109
 51
267.64451435546118
  0
LINE
  5
19187
  8
0
 10
127.5486226016402
 20
162.25562750331329
 30
0.0
 11
127.46193892239189
 21
162.17949900071901
 31
0.0
  0
POLYLINE
  5
19189
  8
0
 66
     1
 10
0.0
 20
0.0
 30
0.0
 70
   128
  0
VERTEX
  5
1AB62
  8
0
 10
122.5380618226659
 20
162.17949900071901
 30
0.0
  0
VERTEX
  5
1AB63
  8
0
 10
122.53220269819209
 20
162.18623554434851
 30
0.0
  0
VERTEX
  5
1AB64
  8
0
 10
122.4513781434177
 20
162.25562750331329
 30
0.0
  0
SEQEND
  5
1AB65
  8
0
  0
ARC
  5
1918B
  8
0
 10
128.10841538484959
 20
147.18169417382421
 30
0.0
 40
0.4821015193919576
 50
272.35548564453057
 51
2.1760951536662452
  0
LINE
  5
1918E
  8
0
 10
128.5901692345779
 20
147.19999999999999
 30
0.0
 11
128.5901692345779
 21
162.8680479369788
 31
0.0
  0
POLYLINE
  5
1918F
  8
0
 66
     1
 10
0.0
 20
0.0
 30
0.0
 70
   128
  0
VERTEX
  5
1AB66
  8
0
 10
128.5901692345779
 20
162.8680479369788
 30
0.0
  0
VERTEX
  5
1AB67
  8
0
 10
128.0689212981242
 20
162.56760042611509
 30
0.0
  0
VERTEX
  5
1AB68
  8
0
 10
127.5486226016402
 20
162.25562750331329
 30
0.0
  0
SEQEND
  5
1AB69
  8
0
  0
ARC
  5
19190
  8
0
 10
121.8915853602084
 20
147.18169417382421
 30
0.0
 40
0.4821015193920026
 50
177.8239048463347
 51
267.64451435545982
  0
LINE
  5
19193
  8
0
 10
121.4098315104804
 20
162.8680479369786
 30
0.0
 11
121.40983151048
 21
147.19999999999999
 31
0.0
  0
POLYLINE
  5
19194
  8
0
 66
     1
 10
0.0
 20
0.0
 30
0.0
 70
   128
  0
VERTEX
  5
1AB6A
  8
0
 10
122.4513781434177
 20
162.25562750331329
 30
0.0
  0
VERTEX
  5
1AB6B
  8
0
 10
121.9311169572893
 20
162.56757832840529
 30
0.0
  0
VERTEX
  5
1AB6C
  8
0
 10
121.4098315104804
 20
162.8680479369786
 30
0.0
  0
SEQEND
  5
1AB6D
  8
0
  0
ARC
  5
19196
  8
0
 10
128.28291307091999
 20
163.00275360676369
 30
0.0
 40
0.335487656372032
 50
336.32664034440211
 51
350.8601620999562
  0
POLYLINE
  5
19198
  8
0
 66
     1
 10
0.0
 20
0.0
 30
0.0
 70
   128
  0
VERTEX
  5
1AB6E
  8
0
 10
121.3858595031203
 20
162.9494632107982
 30
0.0
  0
VERTEX
  5
1AB6F
  8
0
 10
121.3957220325842
 20
162.9066718159778
 30
0.0
  0
VERTEX
  5
1AB70
  8
0
 10
121.4098315104804
 20
162.8680479369786
 30
0.0
  0
SEQEND
  5
1AB71
  8
0
  0
POLYLINE
  5
1919B
  8
0
 66
     1
 10
0.0
 20
0.0
 30
0.0
 70
   128
  0
VERTEX
  5
1AB72
  8
0
 10
119.0839264962771
 20
162.86804793695779
 30
0.0
  0
VERTEX
  5
1AB73
  8
0
 10
119.0877890459772
 20
163.13241128205831
 30
0.0
  0
VERTEX
  5
1AB74
  8
0
 10
119.0995578086238
 20
163.39677462715869
 30
0.0
  0
SEQEND
  5
1AB75
  8
0
  0
ARC
  5
1919C
  8
0
 10
115.9354255268002
 20
141.15769888611371
 30
0.0
 40
22.463041265884229
 50
75.957587832479319
 51
81.902416386122695
  0
LINE
  5
1919F
  8
0
 10
119.0839264962771
 20
147.19999999999999
 30
0.0
 11
119.0839264962771
 21
162.86804793695779
 31
0.0
  0
POLYLINE
  5
191A1
  8
0
 66
     1
 10
0.0
 20
0.0
 30
0.0
 70
   128
  0
VERTEX
  5
1AB76
  8
0
 10
130.6202705549681
 20
146.69999999999999
 30
0.0
  0
VERTEX
  5
1AB77
  8
0
 10
130.6779789928475
 20
146.70960735979841
 30
0.0
  0
VERTEX
  5
1AB78
  8
0
 10
130.73346972782261
 20
146.73806023374431
 30
0.0
  0
VERTEX
  5
1AB79
  8
0
 10
130.7846102820676
 20
146.78426519384871
 30
0.0
  0
VERTEX
  5
1AB7A
  8
0
 10
130.82943535276311
 20
146.84644660940671
 30
0.0
  0
VERTEX
  5
1AB7B
  8
0
 10
130.8662223375801
 20
146.9222148834902
 30
0.0
  0
VERTEX
  5
1AB7C
  8
0
 10
130.89355753332279
 20
147.0086582838174
 30
0.0
  0
VERTEX
  5
1AB7D
  8
0
 10
130.9103904637484
 20
147.10245483899189
 30
0.0
  0
VERTEX
  5
1AB7E
  8
0
 10
130.9160742487806
 20
147.19999999999999
 30
0.0
  0
SEQEND
  5
1AB7F
  8
0
  0
LINE
  5
191A4
  8
0
 10
130.9160742487806
 20
162.8680479369788
 30
0.0
 11
130.9160742487806
 21
147.19999999999999
 31
0.0
  0
ARC
  5
191A5
  8
0
 10
134.06457521835381
 20
141.15769888562059
 30
0.0
 40
22.463041266385929
 50
98.097583613943115
 51
104.0424121674538
  0
POLYLINE
  5
191A6
  8
0
 66
     1
 10
0.0
 20
0.0
 30
0.0
 70
   128
  0
VERTEX
  5
1AB80
  8
0
 10
130.9004429364343
 20
163.39677462715869
 30
0.0
  0
VERTEX
  5
1AB81
  8
0
 10
130.91220105565591
 20
163.1327731731796
 30
0.0
  0
VERTEX
  5
1AB82
  8
0
 10
130.9160742487806
 20
162.8680479369788
 30
0.0
  0
SEQEND
  5
1AB83
  8
0
  0
POLYLINE
  5
191A7
  8
0
 66
     1
 10
0.0
 20
0.0
 30
0.0
 70
   128
  0
VERTEX
  5
1AB84
  8
0
 10
119.0839264962771
 20
147.19999999999999
 30
0.0
  0
VERTEX
  5
1AB85
  8
0
 10
119.0896102813095
 20
147.10245483899189
 30
0.0
  0
VERTEX
  5
1AB86
  8
0
 10
119.1064432117351
 20
147.0086582838174
 30
0.0
  0
VERTEX
  5
1AB87
  8
0
 10
119.13377840747781
 20
146.9222148834902
 30
0.0
  0
VERTEX
  5
1AB88
  8
0
 10
119.170565392295
 20
146.84644660940671
 30
0.0
  0
VERTEX
  5
1AB89
  8
0
 10
119.2153904629902
 20
146.78426519384871
 30
0.0
  0
VERTEX
  5
1AB8A
  8
0
 10
119.26653101723529
 20
146.73806023374431
 30
0.0
  0
VERTEX
  5
1AB8B
  8
0
 10
119.3220217522104
 20
146.70960735979841
 30
0.0
  0
VERTEX
  5
1AB8C
  8
0
 10
119.3797301900898
 20
146.69999999999999
 30
0.0
  0
SEQEND
  5
1AB8D
  8
0
  0
LINE
  5
191AB
  8
0
 10
117.0658266213226
 20
164.69999999999999
 30
0.0
 11
132.93417411450531
 21
164.69999999999999
 31
0.0
  0
LINE
  5
191AD
  8
0
 10
134.500000372529
 20
146.69999999999999
 30
0.0
 11
115.500000372529
 21
146.69999999999999
 31
0.0
  0
LINE
  5
191AE
  8
0
 10
112.5000003725289
 20
130.19999999999999
 30
0.0
 11
137.500000372529
 21
130.19999999999999
 31
0.0
  0
LINE
  5
191AF
  8
0
 10
137.00000037252889
 20
129.69999999999999
 30
0.0
 11
113.000000372529
 21
129.69999999999999
 31
0.0
  0
ARC
  5
191B0
  8
0
 10
127.4684322923822
 20
138.19179729239301
 30
0.0
 40
1.1894372978978289
 50
34.306973537494393
 51
74.64759629640433
  0
ARC
  5
191B1
  8
0
 10
127.169379741528
 20
137.27289348352861
 30
0.0
 40
2.1551982063389632
 50
73.448620331476207
 51
90.472267052021934
  0
ARC
  5
191B2
  8
0
 10
127.081542691343
 20
138.26683239974889
 30
0.0
 40
1.1632984577670109
 50
86.546624330154771
 51
113.78499638401649
  0
POLYLINE
  5
191B3
  8
0
 66
     1
 10
0.0
 20
0.0
 30
0.0
 70
   128
  0
VERTEX
  5
1AB8E
  8
0
 10
126.5697769085825
 20
138.86264194166361
 30
0.0
  0
VERTEX
  5
1AB8F
  8
0
 10
126.46696807694271
 20
139.09389212955239
 30
0.0
  0
VERTEX
  5
1AB90
  8
0
 10
126.4821254417495
 20
139.2149449010532
 30
0.0
  0
VERTEX
  5
1AB91
  8
0
 10
126.6123778054434
 20
139.33132646346269
 30
0.0
  0
SEQEND
  5
1AB92
  8
0
  0
ARC
  5
191B4
  8
0
 10
127.4904968434055
 20
139.5103798799347
 30
0.0
 40
1.1257395946914639
 50
215.1268636345805
 51
258.08715685012282
  0
ARC
  5
191B5
  8
0
 10
127.8460382691416
 20
140.87395258721489
 30
0.0
 40
2.5342071079505222
 50
256.58551141111008
 51
270.82568301013958
  0
ARC
  5
191B6
  8
0
 10
127.95937134708289
 20
139.75376692531921
 30
0.0
 40
1.41584355280328
 50
266.88998856360269
 51
288.12951895656482
  0
POLYLINE
  5
191B7
  8
0
 66
     1
 10
0.0
 20
0.0
 30
0.0
 70
   128
  0
VERTEX
  5
1AB93
  8
0
 10
128.45094282786499
 20
138.86219578082779
 30
0.0
  0
VERTEX
  5
1AB94
  8
0
 10
128.54752338886331
 20
138.65945689512321
 30
0.0
  0
VERTEX
  5
1AB95
  8
0
 10
128.55021191854331
 20
138.56148622731629
 30
0.0
  0
VERTEX
  5
1AB96
  8
0
 10
128.4967217833676
 20
138.46758937210399
 30
0.0
  0
VERTEX
  5
1AB97
  8
0
 10
128.3999338592551
 20
138.40821215538861
 30
0.0
  0
SEQEND
  5
1AB98
  8
0
  0
LINE
  5
191B8
  8
0
 10
124.3603533840313
 20
138.78917221243131
 30
0.0
 11
124.3603533840313
 21
138.91928992281811
 31
0.0
  0
POLYLINE
  5
191B9
  8
0
 66
     1
 10
0.0
 20
0.0
 30
0.0
 70
   128
  0
VERTEX
  5
1AB99
  8
0
 10
125.38557759927789
 20
138.79368840570629
 30
0.0
  0
VERTEX
  5
1AB9A
  8
0
 10
125.2565804992343
 20
138.79512574937891
 30
0.0
  0
VERTEX
  5
1AB9B
  8
0
 10
124.3603533840313
 20
138.78917221243131
 30
0.0
  0
SEQEND
  5
1AB9C
  8
0
  0
LINE
  5
191BA
  8
0
 10
125.38557759927789
 20
138.47011164483851
 30
0.0
 11
125.38557759927789
 21
138.79368840570629
 31
0.0
  0
POLYLINE
  5
191BB
  8
0
 66
     1
 10
0.0
 20
0.0
 30
0.0
 70
   128
  0
VERTEX
  5
1AB9D
  8
0
 10
124.02963589524209
 20
138.457449599336
 30
0.0
  0
VERTEX
  5
1AB9E
  8
0
 10
125.21522062851579
 20
138.4717488465206
 30
0.0
  0
VERTEX
  5
1AB9F
  8
0
 10
125.38557759927789
 20
138.47011164483851
 30
0.0
  0
SEQEND
  5
1ABA0
  8
0
  0
LINE
  5
191BC
  8
0
 10
124.02963589524209
 20
138.3275389897218
 30
0.0
 11
124.02963589524209
 21
138.457449599336
 31
0.0
  0
POLYLINE
  5
191BD
  8
0
 66
     1
 10
0.0
 20
0.0
 30
0.0
 70
   128
  0
VERTEX
  5
1ABA1
  8
0
 10
125.8917435185603
 20
138.32980305855119
 30
0.0
  0
VERTEX
  5
1ABA2
  8
0
 10
125.6525079961836
 20
138.33552169974121
 30
0.0
  0
VERTEX
  5
1ABA3
  8
0
 10
124.02963589524209
 20
138.3275389897218
 30
0.0
  0
SEQEND
  5
1ABA4
  8
0
  0
LINE
  5
191BE
  8
0
 10
125.8917435185603
 20
139.40755466670981
 30
0.0
 11
125.8917435185603
 21
138.32980305855119
 31
0.0
  0
POLYLINE
  5
191BF
  8
0
 66
     1
 10
0.0
 20
0.0
 30
0.0
 70
   128
  0
VERTEX
  5
1ABA5
  8
0
 10
125.38557759927789
 20
139.42094780898231
 30
0.0
  0
VERTEX
  5
1ABA6
  8
0
 10
125.8263200330471
 20
139.4098790696379
 30
0.0
  0
VERTEX
  5
1ABA7
  8
0
 10
125.8917435185603
 20
139.40755466670981
 30
0.0
  0
SEQEND
  5
1ABA8
  8
0
  0
LINE
  5
191C0
  8
0
 10
125.38557759927789
 20
138.92396545895471
 30
0.0
 11
125.38557759927789
 21
139.42094780898231
 31
0.0
  0
POLYLINE
  5
191C1
  8
0
 66
     1
 10
0.0
 20
0.0
 30
0.0
 70
   128
  0
VERTEX
  5
1ABA9
  8
0
 10
124.3603533840313
 20
138.91928992281811
 30
0.0
  0
VERTEX
  5
1ABAA
  8
0
 10
125.2557836789067
 20
138.9254609349673
 30
0.0
  0
VERTEX
  5
1ABAB
  8
0
 10
125.38557759927789
 20
138.92396545895471
 30
0.0
  0
SEQEND
  5
1ABAC
  8
0
  0
LINE
  5
191C2
  8
0
 10
121.8045104536001
 20
138.7861503360146
 30
0.0
 11
121.8947570903713
 21
138.92032444508629
 31
0.0
  0
LINE
  5
191C3
  8
0
 10
122.7949813056179
 20
138.79119939747321
 30
0.0
 11
121.8045104536001
 21
138.7861503360146
 31
0.0
  0
LINE
  5
191C4
  8
0
 10
122.57917413073
 20
138.4706957403003
 30
0.0
 11
122.7949813056179
 21
138.79119939747321
 31
0.0
  0
LINE
  5
191C5
  8
0
 10
121.2691965522548
 20
138.4572988560281
 30
0.0
 11
122.57917413073
 21
138.4706957403003
 31
0.0
  0
LINE
  5
191C6
  8
0
 10
121.1789499154835
 20
138.32333928101599
 30
0.0
 11
121.2691965522548
 21
138.4572988560281
 31
0.0
  0
LINE
  5
191C7
  8
0
 10
122.9928512607749
 20
138.326114923712
 30
0.0
 11
121.1789499154835
 21
138.32333928101599
 31
0.0
  0
LINE
  5
191C8
  8
0
 10
123.7237929648108
 20
139.40974754405079
 30
0.0
 11
122.9928512607749
 21
138.326114923712
 31
0.0
  0
LINE
  5
191C9
  8
0
 10
123.2198691979947
 20
139.4234042880112
 30
0.0
 11
123.7237929648108
 21
139.40974754405079
 31
0.0
  0
LINE
  5
191CA
  8
0
 10
122.88522794238931
 20
138.92555579216551
 30
0.0
 11
123.2198691979947
 21
139.4234042880112
 31
0.0
  0
LINE
  5
191CB
  8
0
 10
121.8947570903713
 20
138.92032444508629
 30
0.0
 11
122.88522794238931
 21
138.92555579216551
 31
0.0
  0
LINE
  5
191CD
  8
0
 10
113.5072556450985
 20
138.35331013321499
 30
0.0
 11
114.6512974942428
 21
138.79007441433441
 31
0.0
  0
LINE
  5
191CE
  8
0
 10
114.6512974942428
 20
138.79007441433441
 30
0.0
 11
118.28754570124759
 21
138.79007441433441
 31
0.0
  0
LINE
  5
191CF
  8
0
 10
118.28754570124759
 20
138.79007441433441
 30
0.0
 11
117.3549142408669
 21
138.35331013321499
 31
0.0
  0
POLYLINE
  5
191D0
  8
0
 66
     1
 10
0.0
 20
0.0
 30
0.0
 70
   128
  0
VERTEX
  5
1ABAD
  8
0
 10
117.3549142408669
 20
138.35331013321499
 30
0.0
  0
VERTEX
  5
1ABAE
  8
0
 10
119.62340590905769
 20
138.9022239133968
 30
0.0
  0
VERTEX
  5
1ABAF
  8
0
 10
121.92181908259791
 20
139.3360297657338
 30
0.0
  0
SEQEND
  5
1ABB0
  8
0
  0
LINE
  5
191D1
  8
0
 10
121.92181908259791
 20
139.3360297657338
 30
0.0
 11
116.0000003725289
 21
139.3360297657338
 31
0.0
  0
ARC
  5
191EA
  8
0
 10
127.8076000731602
 20
139.6672771693201
 30
0.0
 40
1.1974926476498939
 50
254.37839398693029
 51
269.40253804758919
  0
ARC
  5
191EB
  8
0
 10
127.7286678933761
 20
139.2595495251218
 30
0.0
 40
0.7842986163796747
 50
209.36085664998041
 51
251.91005668321009
  0
POLYLINE
  5
191EC
  8
0
 66
     1
 10
0.0
 20
0.0
 30
0.0
 70
   128
  0
VERTEX
  5
1ABB1
  8
0
 10
126.99242264849281
 20
139.24682550110819
 30
0.0
  0
VERTEX
  5
1ABB2
  8
0
 10
126.9388642830049
 20
139.1972546108876
 30
0.0
  0
VERTEX
  5
1ABB3
  8
0
 10
126.9496993405205
 20
139.04737761465509
 30
0.0
  0
VERTEX
  5
1ABB4
  8
0
 10
127.0451132314524
 20
138.87500129171349
 30
0.0
  0
SEQEND
  5
1ABB5
  8
0
  0
ARC
  5
191ED
  8
0
 10
127.22207109769499
 20
138.71034939899241
 30
0.0
 40
0.5835623517348857
 50
88.056490486779666
 51
113.1742353771136
  0
ARC
  5
191EE
  8
0
 10
127.2240730143334
 20
138.18155732087601
 30
0.0
 40
1.1121610137954381
 50
73.252204435941906
 51
89.083510770679965
  0
ARC
  5
191EF
  8
0
 10
127.2630443414276
 20
138.4843477210795
 30
0.0
 40
0.8125200804376797
 50
28.720067807133429
 51
69.72885608618418
  0
POLYLINE
  5
191F0
  8
0
 66
     1
 10
0.0
 20
0.0
 30
0.0
 70
   128
  0
VERTEX
  5
1ABB6
  8
0
 10
128.0372656978202
 20
138.51376865478031
 30
0.0
  0
VERTEX
  5
1ABB7
  8
0
 10
128.086233074555
 20
138.55813639104639
 30
0.0
  0
VERTEX
  5
1ABB8
  8
0
 10
128.0725891466991
 20
138.7004615111031
 30
0.0
  0
VERTEX
  5
1ABB9
  8
0
 10
127.9756065049951
 20
138.8747885541984
 30
0.0
  0
SEQEND
  5
1ABBA
  8
0
  0
ARC
  5
191F1
  8
0
 10
127.81158319121501
 20
139.0685675113148
 30
0.0
 40
0.59894437554706
 50
268.42426410874509
 51
292.13563505610938
  0
LINE
  5
19203
  8
0
 10
118.000000372529
 20
124.7
 30
0.0
 11
132.000000372529
 21
124.7
 31
0.0
  0
LINE
  5
19204
  8
0
 10
131.500000372529
 20
124.2
 30
0.0
 11
118.5000003725289
 21
124.2
 31
0.0
  0
LINE
  5
19206
  8
0
 10
119.0000003725289
 20
114.2
 30
0.0
 11
131.000000372529
 21
114.2
 31
0.0
  0
LINE
  5
19207
  8
0
 10
130.46410198766671
 20
112.2
 30
0.0
 11
119.53589875739119
 21
112.2
 31
0.0
  0
LINE
  5
19213
  8
0
 10
135.000000372529
 20
163.39677462715869
 30
0.0
 11
130.9004429364343
 21
163.39677462715869
 31
0.0
  0
LINE
  5
19214
  8
0
 10
119.0995578086238
 20
163.39677462715869
 30
0.0
 11
115.0000003725289
 21
163.39677462715869
 31
0.0
  0
LINE
  5
19217
  8
0
 10
137.500000372529
 20
137.7120301766972
 30
0.0
 11
112.5000003725289
 21
137.7120301766972
 31
0.0
  0
LINE
  5
19219
  8
0
 10
112.8289903008661
 20
138.18187648709011
 30
0.0
 11
137.17101044419169
 21
138.18187648709011
 31
0.0
  0
LINE
  5
1921A
  8
0
 10
133.26319231519869
 20
139.60420596696949
 30
0.0
 11
116.7368084298592
 21
139.60420596696949
 31
0.0
  0
LINE
  5
1921C
  8
0
 10
117.0000003725289
 20
139.98008301528381
 30
0.0
 11
133.000000372529
 21
139.98008301528381
 31
0.0
  0
LINE
  5
1921F
  8
0
 10
175.10000055879351
 20
127.2
 30
0.0
 11
175.10000055879351
 21
125.2
 31
0.0
  0
LINE
  5
19220
  8
0
 10
178.90000055879361
 20
125.2
 30
0.0
 11
178.90000055879361
 21
127.2
 31
0.0
  0
LINE
  5
19221
  8
0
 10
178.0000005587936
 20
127.2
 30
0.0
 11
178.0000005587936
 21
129.6999999999999
 31
0.0
  0
LINE
  5
19222
  8
0
 10
176.0000005587936
 20
129.6999999999999
 30
0.0
 11
176.0000005587936
 21
127.2
 31
0.0
  0
LINE
  5
19223
  8
0
 10
196.10000055879351
 20
127.2
 30
0.0
 11
196.10000055879351
 21
125.2
 31
0.0
  0
LINE
  5
19224
  8
0
 10
199.90000055879349
 20
125.2
 30
0.0
 11
199.90000055879349
 21
127.2
 31
0.0
  0
LINE
  5
19225
  8
0
 10
199.00000055879349
 20
127.2
 30
0.0
 11
199.00000055879349
 21
129.6999999999999
 31
0.0
  0
LINE
  5
19226
  8
0
 10
197.00000055879349
 20
129.6999999999999
 30
0.0
 11
197.00000055879349
 21
127.2
 31
0.0
  0
LINE
  5
19227
  8
0
 10
185.6000005587936
 20
127.2
 30
0.0
 11
185.6000005587936
 21
125.2
 31
0.0
  0
LINE
  5
19228
  8
0
 10
189.40000055879361
 20
125.2
 30
0.0
 11
189.40000055879361
 21
127.2
 31
0.0
  0
LINE
  5
19229
  8
0
 10
188.5000005587936
 20
127.2
 30
0.0
 11
188.5000005587936
 21
129.6999999999999
 31
0.0
  0
LINE
  5
1922A
  8
0
 10
186.5000005587936
 20
129.6999999999999
 30
0.0
 11
186.5000005587936
 21
127.2
 31
0.0
  0
LINE
  5
1922B
  8
0
 10
184.50000055879349
 20
164.70999999996451
 30
0.0
 11
184.50000055879349
 21
164.69999999999999
 31
0.0
  0
LINE
  5
1922C
  8
0
 10
190.50000055879349
 20
164.69999999999999
 30
0.0
 11
190.50000055879349
 21
164.70999999996451
 31
0.0
  0
ARC
  5
1922E
  8
0
 10
189.2000005587935
 20
117.7999999999999
 30
0.0
 40
2.499999999999976
 50
286.14142258694079
 51
73.816311002114574
  0
ARC
  5
1922F
  8
0
 10
184.1000005587934
 20
117.8
 30
0.0
 40
2.499999999999984
 50
151.0013264512815
 51
208.9986735487181
  0
LINE
  5
19230
  8
0
 10
201.0176386489986
 20
163.22155332960239
 30
0.0
 11
195.56358383255119
 21
164.68296291314451
 31
0.0
  0
LINE
  5
19231
  8
0
 10
179.43641728503599
 20
164.68296291314451
 30
0.0
 11
173.9823624685886
 21
163.22155332960239
 31
0.0
  0
ARC
  5
19232
  8
0
 10
179.56582680758731
 20
164.19999999999999
 30
0.0
 40
0.5
 50
90.0
 51
105.00000000000119
  0
ARC
  5
19233
  8
0
 10
195.43417430999989
 20
164.19999999999999
 30
0.0
 40
0.5
 50
75.000000000005542
 51
90.0
  0
ARC
  5
19234
  8
0
 10
200.50000055879349
 20
161.2897016770242
 30
0.0
 40
2.0000000000000049
 50
0.0
 51
74.999999999998792
  0
ARC
  5
19235
  8
0
 10
174.5000005587936
 20
161.2897016770242
 30
0.0
 40
2.000000000000028
 50
105.00000000000119
 51
179.9999999999992
  0
LINE
  5
19236
  8
0
 10
202.50000055879349
 20
147.19999999999999
 30
0.0
 11
202.50000055879349
 21
161.2897016770242
 31
0.0
  0
ARC
  5
19237
  8
0
 10
202.00000055879349
 20
147.19999999999999
 30
0.0
 40
0.5
 50
270.0
 51
0.0
  0
ARC
  5
19238
  8
0
 10
173.00000055879349
 20
147.19999999999999
 30
0.0
 40
0.5
 50
179.9999999999992
 51
270.0
  0
LINE
  5
19239
  8
0
 10
172.50000055879349
 20
161.2897016770242
 30
0.0
 11
172.50000055879349
 21
147.19999999999999
 31
0.0
  0
LINE
  5
1923A
  8
0
 10
175.0000005587936
 20
137.7120301766972
 30
0.0
 11
175.0000005587936
 21
130.19999999999999
 31
0.0
  0
LINE
  5
1923B
  8
0
 10
200.00000055879349
 20
130.19999999999999
 30
0.0
 11
200.00000055879349
 21
137.7120301766972
 31
0.0
  0
ARC
  5
1923C
  8
0
 10
175.5000005587936
 20
137.7120301766972
 30
0.0
 40
0.5000000000000084
 50
110.0000000000035
 51
179.9999999999992
  0
ARC
  5
1923D
  8
0
 10
199.50000055879349
 20
137.7120301766972
 30
0.0
 40
0.5000000000000276
 50
0.0
 51
69.999999999989569
  0
LINE
  5
1923E
  8
0
 10
175.0000005587936
 20
130.19999999999999
 30
0.0
 11
175.5000005587936
 21
129.69999999999999
 31
0.0
  0
LINE
  5
1923F
  8
0
 10
199.50000055879349
 20
129.69999999999999
 30
0.0
 11
200.00000055879349
 21
130.19999999999999
 31
0.0
  0
LINE
  5
19240
  8
0
 10
199.67101063045641
 20
138.18187648709011
 30
0.0
 11
195.76319250146329
 21
139.60420596696949
 31
0.0
  0
ARC
  5
19244
  8
0
 10
195.90000055879349
 20
139.98008301528381
 30
0.0
 40
0.4000000000000341
 50
179.9999999999992
 51
250.0000000000035
  0
ARC
  5
19245
  8
0
 10
179.10000055879351
 20
139.98008301528381
 30
0.0
 40
0.3999999999999746
 50
289.99999999999659
 51
0.0
  0
LINE
  5
19246
  8
0
 10
179.50000055879349
 20
146.69999999999999
 30
0.0
 11
179.50000055879349
 21
139.98008301528381
 31
0.0
  0
LINE
  5
19247
  8
0
 10
195.50000055879349
 20
139.98008301528381
 30
0.0
 11
195.50000055879349
 21
146.69999999999999
 31
0.0
  0
LINE
  5
19248
  8
0
 10
180.50000055879349
 20
129.69999999999999
 30
0.0
 11
180.50000055879349
 21
124.7
 31
0.0
  0
LINE
  5
19249
  8
0
 10
194.50000055879349
 20
124.7
 30
0.0
 11
194.50000055879349
 21
129.69999999999999
 31
0.0
  0
LINE
  5
1924A
  8
0
 10
180.50000055879349
 20
124.7
 30
0.0
 11
181.0000005587936
 21
124.2
 31
0.0
  0
LINE
  5
1924B
  8
0
 10
194.00000055879349
 20
124.2
 30
0.0
 11
194.50000055879349
 21
124.7
 31
0.0
  0
ARC
  5
1924C
  8
0
 10
193.90000055879349
 20
123.7999999999999
 30
0.0
 40
0.4000000000000341
 50
90.0
 51
179.9999999999992
  0
ARC
  5
1924D
  8
0
 10
181.10000055879351
 20
123.7999999999999
 30
0.0
 40
0.4000000000000057
 50
0.0
 51
90.0
  0
LINE
  5
1924E
  8
0
 10
181.50000055879349
 20
115.325
 30
0.0
 11
181.50000055879349
 21
114.2
 31
0.0
  0
LINE
  5
1924F
  8
0
 10
181.50000055879349
 20
123.7999999999999
 30
0.0
 11
181.50000055879349
 21
120.2750035938973
 31
0.0
  0
LINE
  5
19250
  8
0
 10
193.50000055879349
 20
114.2
 30
0.0
 11
193.50000055879349
 21
123.7999999999999
 31
0.0
  0
LINE
  5
19251
  8
0
 10
181.50000055879349
 20
114.2
 30
0.0
 11
182.03589894365581
 21
112.2
 31
0.0
  0
LINE
  5
19252
  8
0
 10
192.96410217393131
 20
112.2
 30
0.0
 11
193.50000055879349
 21
114.2
 31
0.0
  0
LINE
  5
19258
  8
0
 10
175.10000055879351
 20
127.2
 30
0.0
 11
178.90000055879361
 21
127.2
 31
0.0
  0
LINE
  5
1925A
  8
0
 10
175.10000055879351
 20
125.2
 30
0.0
 11
178.90000055879361
 21
125.2
 31
0.0
  0
LINE
  5
1925B
  8
0
 10
196.10000055879351
 20
127.2
 30
0.0
 11
199.90000055879349
 21
127.2
 31
0.0
  0
LINE
  5
1925C
  8
0
 10
196.10000055879351
 20
125.2
 30
0.0
 11
199.90000055879349
 21
125.2
 31
0.0
  0
LINE
  5
1925D
  8
0
 10
185.6000005587936
 20
127.2
 30
0.0
 11
189.40000055879361
 21
127.2
 31
0.0
  0
LINE
  5
1925E
  8
0
 10
185.6000005587936
 20
125.2
 30
0.0
 11
189.40000055879361
 21
125.2
 31
0.0
  0
LINE
  5
1925F
  8
0
 10
190.50000055879349
 20
164.70999999996451
 30
0.0
 11
184.50000055879349
 21
164.70999999996451
 31
0.0
  0
LINE
  5
19261
  8
0
 10
195.57370959182509
 20
163.39677462715869
 30
0.0
 11
179.426291525762
 21
163.39677462715869
 31
0.0
  0
POLYLINE
  5
19264
  8
0
 66
     1
 10
0.0
 20
0.0
 30
0.0
 70
   128
  0
VERTEX
  5
1ABBB
  8
0
 10
179.426291525762
 20
163.39677462715869
 30
0.0
  0
VERTEX
  5
1ABBC
  8
0
 10
179.43489776450531
 20
163.1327731731796
 30
0.0
  0
VERTEX
  5
1ABBD
  8
0
 10
179.43773847605701
 20
162.8680479369788
 30
0.0
  0
SEQEND
  5
1ABBE
  8
0
  0
POLYLINE
  5
19265
  8
0
 66
     1
 10
0.0
 20
0.0
 30
0.0
 70
   128
  0
VERTEX
  5
1ABBF
  8
0
 10
195.56226264153011
 20
162.86804793695779
 30
0.0
  0
VERTEX
  5
1ABC0
  8
0
 10
195.5650955508068
 20
163.13241128205831
 30
0.0
  0
VERTEX
  5
1ABC1
  8
0
 10
195.57370959182509
 20
163.39677462715869
 30
0.0
  0
SEQEND
  5
1ABC2
  8
0
  0
LINE
  5
19266
  8
0
 10
195.56226264153011
 20
147.19999999999999
 30
0.0
 11
195.56226264153011
 21
162.86804793695779
 31
0.0
  0
LINE
  5
19268
  8
0
 10
179.43773847605701
 20
162.8680479369788
 30
0.0
 11
179.43773847605701
 21
147.19999999999999
 31
0.0
  0
ARC
  5
1926A
  8
0
 10
179.89511663904159
 20
147.15625008736339
 30
0.0
 40
0.4594658190016204
 50
174.53607065936529
 51
263.2172697157427
  0
ARC
  5
1926B
  8
0
 10
195.10488447854561
 20
147.15625008736339
 30
0.0
 40
0.4594658190016553
 50
276.78273028426389
 51
5.4639293406306297
  0
LINE
  5
1926E
  8
0
 10
179.56582680758731
 20
164.69999999999999
 30
0.0
 11
195.43417430999989
 21
164.69999999999999
 31
0.0
  0
ARC
  5
1926F
  8
0
 10
202.05013332309309
 20
195.67939427889581
 30
0.0
 40
32.925849965120896
 50
258.65611143214932
 51
263.74650394149069
  0
ARC
  5
19270
  8
0
 10
198.74139240093371
 20
163.10055076393789
 30
0.0
 40
0.3162199457068669
 50
208.5413328571602
 51
227.32890955412631
  0
ARC
  5
19272
  8
0
 10
176.2572960632325
 20
163.1015739296229
 30
0.0
 40
0.3178620529338717
 50
312.72005579881892
 51
331.40970179043302
  0
ARC
  5
19273
  8
0
 10
172.9498677942747
 20
195.67939428031511
 30
0.0
 40
32.925849966555553
 50
276.25349605862732
 51
281.34388856773791
  0
POLYLINE
  5
19276
  8
0
 66
     1
 10
0.0
 20
0.0
 30
0.0
 70
   128
  0
VERTEX
  5
1ABC3
  8
0
 10
198.52706207289009
 20
147.19999999999999
 30
0.0
  0
VERTEX
  5
1ABC4
  8
0
 10
198.52338549546641
 20
147.10245483899189
 30
0.0
  0
VERTEX
  5
1ABC5
  8
0
 10
198.51249705200431
 20
147.0086582838174
 30
0.0
  0
VERTEX
  5
1ABC6
  8
0
 10
198.4948151792791
 20
146.9222148834902
 30
0.0
  0
VERTEX
  5
1ABC7
  8
0
 10
198.4710193817441
 20
146.84644660940671
 30
0.0
  0
VERTEX
  5
1ABC8
  8
0
 10
198.44202411855349
 20
146.78426519384871
 30
0.0
  0
VERTEX
  5
1ABC9
  8
0
 10
198.40894366141089
 20
146.73806023374431
 30
0.0
  0
VERTEX
  5
1ABCA
  8
0
 10
198.3730492737327
 20
146.70960735979841
 30
0.0
  0
VERTEX
  5
1ABCB
  8
0
 10
198.33572035670761
 20
146.69999999999999
 30
0.0
  0
SEQEND
  5
1ABCC
  8
0
  0
LINE
  5
19278
  8
0
 10
198.52706207289131
 20
162.8680479369786
 30
0.0
 11
198.52706207289009
 21
147.19999999999999
 31
0.0
  0
POLYLINE
  5
19279
  8
0
 66
     1
 10
0.0
 20
0.0
 30
0.0
 70
   128
  0
VERTEX
  5
1ABCD
  8
0
 10
176.66428076087959
 20
146.69999999999999
 30
0.0
  0
VERTEX
  5
1ABCE
  8
0
 10
176.62695184385441
 20
146.70960735979841
 30
0.0
  0
VERTEX
  5
1ABCF
  8
0
 10
176.5910574561762
 20
146.73806023374431
 30
0.0
  0
VERTEX
  5
1ABD0
  8
0
 10
176.55797699903371
 20
146.78426519384871
 30
0.0
  0
VERTEX
  5
1ABD1
  8
0
 10
176.52898173584299
 20
146.84644660940671
 30
0.0
  0
VERTEX
  5
1ABD2
  8
0
 10
176.50518593830799
 20
146.9222148834902
 30
0.0
  0
VERTEX
  5
1ABD3
  8
0
 10
176.4875040655829
 20
147.0086582838174
 30
0.0
  0
VERTEX
  5
1ABD4
  8
0
 10
176.47661562212059
 20
147.10245483899189
 30
0.0
  0
VERTEX
  5
1ABD5
  8
0
 10
176.472939044697
 20
147.19999999999999
 30
0.0
  0
SEQEND
  5
1ABD6
  8
0
  0
LINE
  5
1927C
  8
0
 10
176.472939044697
 20
147.19999999999999
 30
0.0
 11
176.472939044697
 21
162.8680479369788
 31
0.0
  0
POLYLINE
  5
19280
  8
0
 66
     1
 10
0.0
 20
0.0
 30
0.0
 70
   128
  0
VERTEX
  5
1ABD7
  8
0
 10
201.04157807997251
 20
162.25562750331329
 30
0.0
  0
VERTEX
  5
1ABD8
  8
0
 10
199.7855564684449
 20
162.56757832840529
 30
0.0
  0
VERTEX
  5
1ABD9
  8
0
 10
198.52706207289131
 20
162.8680479369786
 30
0.0
  0
SEQEND
  5
1ABDA
  8
0
  0
POLYLINE
  5
19281
  8
0
 66
     1
 10
0.0
 20
0.0
 30
0.0
 70
   128
  0
VERTEX
  5
1ABDB
  8
0
 10
176.472939044697
 20
162.8680479369788
 30
0.0
  0
VERTEX
  5
1ABDC
  8
0
 10
175.21453520715161
 20
162.56760042611509
 30
0.0
  0
VERTEX
  5
1ABDD
  8
0
 10
173.95842303761469
 20
162.25562750331329
 30
0.0
  0
SEQEND
  5
1ABDE
  8
0
  0
ARC
  5
19284
  8
0
 10
200.77556421458871
 20
161.1986666438641
 30
0.0
 40
1.089921848108373
 50
64.146334474578083
 51
75.873301853227545
  0
LINE
  5
19285
  8
0
 10
201.25085099404981
 20
147.19999999999999
 30
0.0
 11
201.25085099404981
 21
162.17949900071901
 31
0.0
  0
POLYLINE
  5
19286
  8
0
 66
     1
 10
0.0
 20
0.0
 30
0.0
 70
   128
  0
VERTEX
  5
1ABDF
  8
0
 10
201.05950927786731
 20
146.69999999999999
 30
0.0
  0
VERTEX
  5
1ABE0
  8
0
 10
201.09683819489251
 20
146.70960735979841
 30
0.0
  0
VERTEX
  5
1ABE1
  8
0
 10
201.13273258257061
 20
146.73806023374431
 30
0.0
  0
VERTEX
  5
1ABE2
  8
0
 10
201.1658130397131
 20
146.78426519384871
 30
0.0
  0
VERTEX
  5
1ABE3
  8
0
 10
201.19480830290391
 20
146.84644660940671
 30
0.0
  0
VERTEX
  5
1ABE4
  8
0
 10
201.2186041004388
 20
146.9222148834902
 30
0.0
  0
VERTEX
  5
1ABE5
  8
0
 10
201.236285973164
 20
147.0086582838174
 30
0.0
  0
VERTEX
  5
1ABE6
  8
0
 10
201.24717441662611
 20
147.10245483899189
 30
0.0
  0
VERTEX
  5
1ABE7
  8
0
 10
201.25085099404981
 20
147.19999999999999
 30
0.0
  0
SEQEND
  5
1ABE8
  8
0
  0
LINE
  5
19289
  8
0
 10
173.74915012353731
 20
162.17949900071901
 30
0.0
 11
173.74915012353731
 21
147.19999999999999
 31
0.0
  0
POLYLINE
  5
1928A
  8
0
 66
     1
 10
0.0
 20
0.0
 30
0.0
 70
   128
  0
VERTEX
  5
1ABE9
  8
0
 10
173.95842303761469
 20
162.25562750331329
 30
0.0
  0
VERTEX
  5
1ABEA
  8
0
 10
173.85257537319021
 20
162.22318692723371
 30
0.0
  0
VERTEX
  5
1ABEB
  8
0
 10
173.74915012353731
 20
162.17949900071901
 30
0.0
  0
SEQEND
  5
1ABEC
  8
0
  0
POLYLINE
  5
1928B
  8
0
 66
     1
 10
0.0
 20
0.0
 30
0.0
 70
   128
  0
VERTEX
  5
1ABED
  8
0
 10
173.74915012353731
 20
147.19999999999999
 30
0.0
  0
VERTEX
  5
1ABEE
  8
0
 10
173.75282670096101
 20
147.10245483899189
 30
0.0
  0
VERTEX
  5
1ABEF
  8
0
 10
173.7637151444232
 20
147.0086582838174
 30
0.0
  0
VERTEX
  5
1ABF0
  8
0
 10
173.78139701714841
 20
146.9222148834902
 30
0.0
  0
VERTEX
  5
1ABF1
  8
0
 10
173.80519281468329
 20
146.84644660940671
 30
0.0
  0
VERTEX
  5
1ABF2
  8
0
 10
173.83418807787399
 20
146.78426519384871
 30
0.0
  0
VERTEX
  5
1ABF3
  8
0
 10
173.86726853501659
 20
146.73806023374431
 30
0.0
  0
VERTEX
  5
1ABF4
  8
0
 10
173.90316292269469
 20
146.70960735979841
 30
0.0
  0
VERTEX
  5
1ABF5
  8
0
 10
173.9404918397199
 20
146.69999999999999
 30
0.0
  0
SEQEND
  5
1ABF6
  8
0
  0
POLYLINE
  5
19291
  8
0
 66
     1
 10
0.0
 20
0.0
 30
0.0
 70
   128
  0
VERTEX
  5
1ABF7
  8
0
 10
202.48325083247741
 20
161.2897016770242
 30
0.0
  0
VERTEX
  5
1ABF8
  8
0
 10
202.482841034275
 20
161.2937050766264
 30
0.0
  0
VERTEX
  5
1ABF9
  8
0
 10
202.48208713416409
 20
161.3003300947239
 30
0.0
  0
VERTEX
  5
1ABFA
  8
0
 10
202.4809854753972
 20
161.30880191270299
 30
0.0
  0
VERTEX
  5
1ABFB
  8
0
 10
202.47861645408381
 20
161.3240319810713
 30
0.0
  0
VERTEX
  5
1ABFC
  8
0
 10
202.4730940759849
 20
161.35143782216471
 30
0.0
  0
VERTEX
  5
1ABFD
  8
0
 10
202.45900722895689
 20
161.40090788594819
 30
0.0
  0
VERTEX
  5
1ABFE
  8
0
 10
202.4194410467029
 20
161.49114535414631
 30
0.0
  0
VERTEX
  5
1ABFF
  8
0
 10
202.29240252998079
 20
161.66218431550311
 30
0.0
  0
VERTEX
  5
1AC00
  8
0
 10
202.2602341419902
 20
161.69436799491729
 30
0.0
  0
VERTEX
  5
1AC01
  8
0
 10
202.0733863105194
 20
161.84217886755459
 30
0.0
  0
VERTEX
  5
1AC02
  8
0
 10
201.82673224896999
 20
161.9802743031573
 30
0.0
  0
VERTEX
  5
1AC03
  8
0
 10
201.56126007114091
 20
162.08845833647979
 30
0.0
  0
VERTEX
  5
1AC04
  8
0
 10
201.25085099404981
 20
162.17949900071901
 30
0.0
  0
SEQEND
  5
1AC05
  8
0
  0
POLYLINE
  5
1929B
  8
0
 66
     1
 10
0.0
 20
0.0
 30
0.0
 70
   128
  0
VERTEX
  5
1AC06
  8
0
 10
173.74915012353731
 20
162.17949900071901
 30
0.0
  0
VERTEX
  5
1AC07
  8
0
 10
173.44761835662251
 20
162.09153842516881
 30
0.0
  0
VERTEX
  5
1AC08
  8
0
 10
173.1732688686171
 20
161.9802743031573
 30
0.0
  0
VERTEX
  5
1AC09
  8
0
 10
172.9329416371983
 20
161.84636129307279
 30
0.0
  0
VERTEX
  5
1AC0A
  8
0
 10
172.73976697559701
 20
161.69436799491729
 30
0.0
  0
VERTEX
  5
1AC0B
  8
0
 10
172.70759858760641
 20
161.66218431550311
 30
0.0
  0
VERTEX
  5
1AC0C
  8
0
 10
172.58056007088419
 20
161.49114535414631
 30
0.0
  0
VERTEX
  5
1AC0D
  8
0
 10
172.54099388863031
 20
161.40090788594819
 30
0.0
  0
VERTEX
  5
1AC0E
  8
0
 10
172.5269070416021
 20
161.35143782216471
 30
0.0
  0
VERTEX
  5
1AC0F
  8
0
 10
172.52138466350331
 20
161.3240319810713
 30
0.0
  0
VERTEX
  5
1AC10
  8
0
 10
172.51901564218991
 20
161.30880191270299
 30
0.0
  0
VERTEX
  5
1AC11
  8
0
 10
172.51791398342311
 20
161.3003300947239
 30
0.0
  0
VERTEX
  5
1AC12
  8
0
 10
172.51716008331221
 20
161.2937050766264
 30
0.0
  0
VERTEX
  5
1AC13
  8
0
 10
172.51675028510959
 20
161.2897016770242
 30
0.0
  0
SEQEND
  5
1AC14
  8
0
  0
LINE
  5
1929E
  8
0
 10
202.00000055879349
 20
146.69999999999999
 30
0.0
 11
173.00000055879349
 21
146.69999999999999
 31
0.0
  0
LINE
  5
1929F
  8
0
 10
175.0000005587936
 20
130.19999999999999
 30
0.0
 11
200.00000055879349
 21
130.19999999999999
 31
0.0
  0
LINE
  5
192A0
  8
0
 10
199.50000055879349
 20
129.69999999999999
 30
0.0
 11
175.5000005587936
 21
129.69999999999999
 31
0.0
  0
ARC
  5
192A1
  8
0
 10
173.9145689823778
 20
149.9088009368441
 30
0.0
 40
11.707793340237099
 50
289.34764073673563
 51
295.46896473170449
  0
POLYLINE
  5
192A2
  8
0
 66
     1
 10
0.0
 20
0.0
 30
0.0
 70
   128
  0
VERTEX
  5
1AC15
  8
0
 10
179.02148865794271
 20
139.42801847744229
 30
0.0
  0
VERTEX
  5
1AC16
  8
0
 10
179.04929069579251
 20
139.42283428006871
 30
0.0
  0
VERTEX
  5
1AC17
  8
0
 10
179.02858404203391
 20
139.38788056426111
 30
0.0
  0
VERTEX
  5
1AC18
  8
0
 10
178.94917924090251
 20
139.33879031989301
 30
0.0
  0
SEQEND
  5
1AC19
  8
0
  0
ARC
  5
192A3
  8
0
 10
179.28925470207579
 20
137.5198464178722
 30
0.0
 40
1.926867733736471
 50
97.987925749261805
 51
109.9288788184241
  0
ARC
  5
192A4
  8
0
 10
188.36164580143429
 20
110.0071410851827
 30
0.0
 40
30.89602901011239
 50
108.3547986047184
 51
110.94003108708471
  0
ARC
  5
192A5
  8
0
 10
183.829933592819
 20
120.77920271880571
 30
0.0
 40
19.219624905183011
 50
109.7994388370999
 51
113.4690873546386
  0
POLYLINE
  5
192A6
  8
0
 66
     1
 10
0.0
 20
0.0
 30
0.0
 70
   128
  0
VERTEX
  5
1AC1A
  8
0
 10
176.12294605704579
 20
138.34000861875211
 30
0.0
  0
VERTEX
  5
1AC1B
  8
0
 10
176.09408094497289
 20
138.34358033738911
 30
0.0
  0
VERTEX
  5
1AC1C
  8
0
 10
176.11035146591041
 20
138.37293249025549
 30
0.0
  0
VERTEX
  5
1AC1D
  8
0
 10
176.17563664000551
 20
138.40888563297301
 30
0.0
  0
SEQEND
  5
1AC1E
  8
0
  0
ARC
  5
192A7
  8
0
 10
175.97618245459569
 20
139.9509623166648
 30
0.0
 40
1.617625226009662
 50
275.20547913318848
 51
287.50075815657289
  0
ARC
  5
192A8
  8
0
 10
171.6501165213478
 20
154.69195762334721
 30
0.0
 40
16.98000804464338
 50
286.46457442691047
 51
291.21029716135058
  0
LINE
  5
192AB
  8
0
 10
175.76926068127699
 20
138.32980305855119
 30
0.0
 11
175.76926068127699
 21
138.34212173279391
 31
0.0
  0
POLYLINE
  5
192AC
  8
0
 66
     1
 10
0.0
 20
0.0
 30
0.0
 70
   128
  0
VERTEX
  5
1AC1F
  8
0
 10
178.74179431356399
 20
139.40755466670981
 30
0.0
  0
VERTEX
  5
1AC20
  8
0
 10
177.28990068791941
 20
138.88144258757799
 30
0.0
  0
VERTEX
  5
1AC21
  8
0
 10
176.2048686254434
 20
138.48787774867861
 30
0.0
  0
VERTEX
  5
1AC22
  8
0
 10
175.76926068127699
 20
138.32980305855119
 30
0.0
  0
SEQEND
  5
1AC23
  8
0
  0
LINE
  5
192AD
  8
0
 10
178.74179431356399
 20
139.42403549530161
 30
0.0
 11
178.74179431356399
 21
139.40755466670981
 31
0.0
  0
LINE
  5
192AF
  8
0
 10
180.50000055879349
 20
124.7
 30
0.0
 11
194.50000055879349
 21
124.7
 31
0.0
  0
LINE
  5
192B0
  8
0
 10
194.00000055879349
 20
124.2
 30
0.0
 11
181.0000005587936
 21
124.2
 31
0.0
  0
ARC
  5
192B1
  8
0
 10
190.42500055879361
 20
117.220408442338
 30
0.0
 40
1.897374345721955
 50
232.51666951006871
 51
307.48333048993271
  0
LINE
  5
192B2
  8
0
 10
191.5796108826691
 20
115.7147841838313
 30
0.0
 11
191.5796108826691
 21
115.6851714017443
 31
0.0
  0
ARC
  5
192B3
  8
0
 10
189.38920721935531
 20
117.8
 30
0.0
 40
3.0447279366568818
 50
316.00568036866042
 51
43.99431963133987
  0
LINE
  5
192B4
  8
0
 10
191.5796108826691
 20
119.9148285982556
 30
0.0
 11
191.5796108826691
 21
119.8852158161686
 31
0.0
  0
ARC
  5
192B5
  8
0
 10
190.42500055879361
 20
118.37366112822311
 30
0.0
 40
1.9020837454355499
 50
52.625377587207517
 51
127.3746224127938
  0
LINE
  5
192B6
  8
0
 10
189.27039023491801
 20
119.8852158161686
 30
0.0
 11
189.27039023491801
 21
119.9148285982556
 31
0.0
  0
ARC
  5
192B7
  8
0
 10
190.55447491501769
 20
117.8
 30
0.0
 40
2.474140955092615
 50
121.2653470207873
 51
238.73465297921271
  0
LINE
  5
192B8
  8
0
 10
189.27039023491801
 20
115.6851714017443
 30
0.0
 11
189.27039023491801
 21
115.7147841838313
 31
0.0
  0
POLYLINE
  5
192B9
  8
0
 66
     1
 10
0.0
 20
0.0
 30
0.0
 70
   128
  0
VERTEX
  5
1AC24
  8
0
 10
181.50000055879349
 20
115.325
 30
0.0
  0
VERTEX
  5
1AC25
  8
0
 10
181.5127581724519
 20
115.35608993766
 30
0.0
  0
VERTEX
  5
1AC26
  8
0
 10
181.55119516853051
 20
115.4518282492069
 30
0.0
  0
VERTEX
  5
1AC27
  8
0
 10
181.65000055879349
 20
115.7147841838313
 30
0.0
  0
SEQEND
  5
1AC28
  8
0
  0
LINE
  5
192BA
  8
0
 10
181.65000055879349
 20
115.7147841838313
 30
0.0
 11
181.65000055879349
 21
115.6851714017443
 31
0.0
  0
ARC
  5
192BB
  8
0
 10
176.08056937609371
 20
117.8
 30
0.0
 40
5.957437678971532
 50
339.20719116253719
 51
20.79280883746296
  0
LINE
  5
192BC
  8
0
 10
181.65000055879349
 20
119.9148285982556
 30
0.0
 11
181.65000055879349
 21
119.8852158161686
 31
0.0
  0
POLYLINE
  5
192BD
  8
0
 66
     1
 10
0.0
 20
0.0
 30
0.0
 70
   128
  0
VERTEX
  5
1AC29
  8
0
 10
181.65000055879349
 20
119.8852158161686
 30
0.0
  0
VERTEX
  5
1AC2A
  8
0
 10
181.63454382346919
 20
119.9281935330136
 30
0.0
  0
VERTEX
  5
1AC2B
  8
0
 10
181.56555678718641
 20
120.11154664204869
 30
0.0
  0
VERTEX
  5
1AC2C
  8
0
 10
181.51790504452279
 20
120.2312736871561
 30
0.0
  0
VERTEX
  5
1AC2D
  8
0
 10
181.5003616067973
 20
120.2741246036346
 30
0.0
  0
VERTEX
  5
1AC2E
  8
0
 10
181.5000005587936
 20
120.2750035938972
 30
0.0
  0
SEQEND
  5
1AC2F
  8
0
  0
LINE
  5
192BE
  8
0
 10
181.50000055879349
 20
114.2
 30
0.0
 11
193.50000055879349
 21
114.2
 31
0.0
  0
LINE
  5
192BF
  8
0
 10
192.96410217393131
 20
112.2
 30
0.0
 11
182.03589894365581
 21
112.2
 31
0.0
  0
POLYLINE
  5
192CC
  8
0
 66
     1
 10
0.0
 20
0.0
 30
0.0
 70
   128
  0
VERTEX
  5
1AC30
  8
0
 10
176.51924650547639
 20
138.51401859515221
 30
0.0
  0
VERTEX
  5
1AC31
  8
0
 10
176.4806591096231
 20
138.49306448952041
 30
0.0
  0
VERTEX
  5
1AC32
  8
0
 10
176.45802592138821
 20
138.47279785960961
 30
0.0
  0
VERTEX
  5
1AC33
  8
0
 10
176.46879807498311
 20
138.46984962664379
 30
0.0
  0
SEQEND
  5
1AC34
  8
0
  0
ARC
  5
192CD
  8
0
 10
182.10629108814621
 20
125.6297604336096
 30
0.0
 40
14.04347448254952
 50
109.41083634116291
 51
113.4431654396714
  0
ARC
  5
192CE
  8
0
 10
185.74640456519211
 20
117.41510975117291
 30
0.0
 40
23.011701971249039
 50
108.4278736243168
 51
111.161864038025
  0
ARC
  5
192CF
  8
0
 10
178.85766846246699
 20
138.08477596938121
 30
0.0
 40
1.22432629787201
 50
99.134437424932415
 51
108.35314040638821
  0
POLYLINE
  5
192D0
  8
0
 66
     1
 10
0.0
 20
0.0
 30
0.0
 70
   128
  0
VERTEX
  5
1AC35
  8
0
 10
178.61117475659751
 20
139.24654318742679
 30
0.0
  0
VERTEX
  5
1AC36
  8
0
 10
178.65048468895799
 20
139.26918013366239
 30
0.0
  0
VERTEX
  5
1AC37
  8
0
 10
178.67309876722641
 20
139.28985301501649
 30
0.0
  0
VERTEX
  5
1AC38
  8
0
 10
178.66330480144049
 20
139.29357605663029
 30
0.0
  0
SEQEND
  5
1AC39
  8
0
  0
ARC
  5
192D1
  8
0
 10
173.7131749024966
 20
150.2334431094942
 30
0.0
 40
12.02922992000304
 50
289.22122014355188
 51
294.02748623704622
  0
ARC
  5
192D2
  8
0
 10
171.25017558610961
 20
155.32821553888681
 30
0.0
 40
17.662757445997929
 50
287.82951479246628
 51
291.3250722543163
  0
ARC
  5
192D3
  8
0
 10
176.2766399072685
 20
139.72941737809691
 30
0.0
 40
1.274141154629282
 50
278.67409487113059
 51
287.42827083509792
  0
LINE
  5
192E3
  8
0
 10
202.50000055879349
 20
161.2897016770242
 30
0.0
 11
202.48325083247741
 21
161.2897016770242
 31
0.0
  0
LINE
  5
192E4
  8
0
 10
172.51675028510959
 20
161.2897016770242
 30
0.0
 11
172.50000055879349
 21
161.2897016770242
 31
0.0
  0
LINE
  5
192E7
  8
0
 10
200.00000055879349
 20
137.7120301766972
 30
0.0
 11
175.0000005587936
 21
137.7120301766972
 31
0.0
  0
LINE
  5
192E8
  8
0
 10
175.32899048713071
 20
138.18187648709011
 30
0.0
 11
199.67101063045641
 21
138.18187648709011
 31
0.0
  0
LINE
  5
192E9
  8
0
 10
195.76319250146329
 20
139.60420596696949
 30
0.0
 11
179.2368086161238
 21
139.60420596696949
 31
0.0
  0
LINE
  5
192EA
  8
0
 10
179.50000055879349
 20
139.98008301528381
 30
0.0
 11
195.50000055879349
 21
139.98008301528381
 31
0.0
  0
LINE
  5
192EC
  8
0
 10
71.100000478327274
 20
127.20000013038511
 30
0.0
 11
71.100000478327274
 21
125.2000000353902
 31
0.0
  0
LINE
  5
192ED
  8
0
 10
74.900000542402253
 20
125.2000000353902
 30
0.0
 11
74.900000542402253
 21
127.20000013038511
 31
0.0
  0
LINE
  5
192EE
  8
0
 10
74.000000208616257
 20
127.20000013038511
 30
0.0
 11
74.000000208616257
 21
129.70000007450579
 31
0.0
  0
LINE
  5
192EF
  8
0
 10
71.99999988079071
 20
129.70000007450579
 30
0.0
 11
71.99999988079071
 21
127.20000013038511
 31
0.0
  0
LINE
  5
192F0
  8
0
 10
60.600000154227011
 20
127.20000013038511
 30
0.0
 11
60.600000154227011
 21
125.2000000353902
 31
0.0
  0
LINE
  5
192F1
  8
0
 10
64.400000218302011
 20
125.2000000353902
 30
0.0
 11
64.400000218302011
 21
127.20000013038511
 31
0.0
  0
LINE
  5
192F2
  8
0
 10
63.500000233761959
 20
127.20000013038511
 30
0.0
 11
63.500000233761959
 21
129.70000007450579
 31
0.0
  0
LINE
  5
192F3
  8
0
 10
61.500000138767057
 20
129.70000007450579
 30
0.0
 11
61.500000138767057
 21
127.20000013038511
 31
0.0
  0
LINE
  5
192F4
  8
0
 10
50.099999830126762
 20
127.20000013038511
 30
0.0
 11
50.099999830126762
 21
125.2000000353902
 31
0.0
  0
LINE
  5
192F5
  8
0
 10
53.899999894201748
 20
125.2000000353902
 30
0.0
 11
53.899999894201748
 21
127.20000013038511
 31
0.0
  0
LINE
  5
192F6
  8
0
 10
53.000000491738312
 20
127.20000013038511
 30
0.0
 11
53.000000491738312
 21
129.70000007450579
 31
0.0
  0
LINE
  5
192F7
  8
0
 10
51.000000163912773
 20
129.70000007450579
 30
0.0
 11
51.000000163912773
 21
127.20000013038511
 31
0.0
  0
LINE
  5
192F8
  8
0
 10
59.500000160187483
 20
164.7100007653236
 30
0.0
 11
59.500000160187483
 21
164.6999983608722
 31
0.0
  0
LINE
  5
192F9
  8
0
 10
65.500000212341547
 20
164.6999983608722
 30
0.0
 11
65.500000212341547
 21
164.7100007653236
 31
0.0
  0
ARC
  5
192FB
  8
0
 10
65.900000186264492
 20
117.7999999403953
 30
0.0
 40
2.5
 50
330.99331338975452
 51
29.006684607452051
  0
ARC
  5
192FC
  8
0
 10
60.800000186264583
 20
117.7999999403953
 30
0.0
 40
2.5000000000000089
 50
106.3431173436766
 51
253.68612330638189
  0
LINE
  5
192FD
  8
0
 10
76.017637923359871
 20
163.22155357599249
 30
0.0
 11
70.563583821058273
 21
164.68296260833739
 31
0.0
  0
LINE
  5
192FE
  8
0
 10
54.436416551470749
 20
164.68296260833739
 30
0.0
 11
48.982362449169152
 21
163.22155357599249
 31
0.0
  0
ARC
  5
192FF
  8
0
 10
54.56582643505817
 20
164.19999994039529
 30
0.0
 40
0.5
 50
90.0
 51
105.00000000000119
  0
ARC
  5
19300
  8
0
 10
70.43417393747086
 20
164.19999994039529
 30
0.0
 40
0.5
 50
74.999999999998792
 51
90.0
  0
ARC
  5
19301
  8
0
 10
75.500000186264515
 20
161.28970161741961
 30
0.0
 40
2.0
 50
0.0
 51
74.999999999998792
  0
ARC
  5
19302
  8
0
 10
49.500000186264508
 20
161.28970161741961
 30
0.0
 40
2.0
 50
105.00000000000119
 51
180.0
  0
ARC
  5
19303
  8
0
 10
77.000000186264515
 20
147.19999994039529
 30
0.0
 40
0.5
 50
270.00000000000648
 51
0.0
  0
LINE
  5
19304
  8
0
 10
47.500000521540642
 20
161.28969998359679
 30
0.0
 11
47.500000521540642
 21
147.2000001490116
 31
0.0
  0
ARC
  5
19305
  8
0
 10
48.000000186264522
 20
147.19999994039529
 30
0.0
 40
0.5
 50
180.0
 51
270.0
  0
LINE
  5
19306
  8
0
 10
77.499999850988374
 20
147.2000001490116
 30
0.0
 11
77.499999850988374
 21
161.28969998359679
 31
0.0
  0
LINE
  5
19307
  8
0
 10
50.0
 20
137.71203034818171
 30
0.0
 11
50.0
 21
130.20000015646221
 31
0.0
  0
LINE
  5
19308
  8
0
 10
75.000000372529016
 20
130.20000015646221
 30
0.0
 11
75.000000372529016
 21
137.71203034818171
 31
0.0
  0
ARC
  5
19309
  8
0
 10
50.500000186264522
 20
137.71203011709261
 30
0.0
 40
0.5
 50
110.0000000000034
 51
180.0
  0
ARC
  5
1930A
  8
0
 10
74.500000186264515
 20
137.71203011709261
 30
0.0
 40
0.5
 50
0.0
 51
69.999999999996533
  0
LINE
  5
1930B
  8
0
 10
50.0
 20
130.20000015646221
 30
0.0
 11
50.500000081956379
 21
129.70000007450579
 31
0.0
  0
LINE
  5
1930C
  8
0
 10
74.500000290572643
 20
129.70000007450579
 30
0.0
 11
75.000000372529016
 21
130.20000015646221
 31
0.0
  0
LINE
  5
19310
  8
0
 10
54.23680804669857
 20
139.60420587360849
 30
0.0
 11
50.328989699482911
 21
138.1818760678172
 31
0.0
  0
ARC
  5
19313
  8
0
 10
70.900000186264492
 20
139.98008295567919
 30
0.0
 40
0.3999999999999844
 50
180.0
 51
250.0000000000035
  0
ARC
  5
19314
  8
0
 10
54.100000186264538
 20
139.98008295567919
 30
0.0
 40
0.3999999999999844
 50
289.99999999999659
 51
0.0
  0
LINE
  5
19315
  8
0
 10
54.499999806284897
 20
146.69999913573261
 30
0.0
 11
54.499999806284897
 21
139.98008207678791
 31
0.0
  0
LINE
  5
19316
  8
0
 10
70.500000566244125
 20
139.98008207678791
 30
0.0
 11
70.500000566244125
 21
146.69999913573261
 31
0.0
  0
LINE
  5
19317
  8
0
 10
55.499999970197671
 20
129.70000007450579
 30
0.0
 11
55.499999970197671
 21
124.6999999534338
 31
0.0
  0
LINE
  5
19318
  8
0
 10
69.500000402331352
 20
124.6999999534338
 30
0.0
 11
69.500000402331352
 21
129.70000007450579
 31
0.0
  0
LINE
  5
19319
  8
0
 10
55.499999970197671
 20
124.6999999534338
 30
0.0
 11
56.000000052154057
 21
124.1999999878928
 31
0.0
  0
LINE
  5
1931A
  8
0
 10
69.000000320374966
 20
124.1999999878928
 30
0.0
 11
69.500000402331352
 21
124.6999999534338
 31
0.0
  0
ARC
  5
1931B
  8
0
 10
68.900000186264492
 20
123.7999999403953
 30
0.0
 40
0.4000000000000199
 50
90.0
 51
180.0
  0
ARC
  5
1931C
  8
0
 10
56.100000186264538
 20
123.7999999403953
 30
0.0
 40
0.4000000000000199
 50
0.0
 51
90.0
  0
LINE
  5
1931D
  8
0
 10
56.500000134110451
 20
123.7999999688938
 30
0.0
 11
56.500000134110451
 21
114.20000032782551
 31
0.0
  0
LINE
  5
1931E
  8
0
 10
68.500000238418565
 20
120.2749823487742
 30
0.0
 11
68.500000238418565
 21
123.7999999688938
 31
0.0
  0
LINE
  5
1931F
  8
0
 10
68.500000238418565
 20
114.20000032782551
 30
0.0
 11
68.500000238418565
 21
115.3249998137354
 31
0.0
  0
LINE
  5
19320
  8
0
 10
56.500000134110451
 20
114.20000032782551
 30
0.0
 11
57.035898510366671
 21
112.2
 31
0.0
  0
LINE
  5
19321
  8
0
 10
67.964101862162352
 20
112.2
 30
0.0
 11
68.500000238418565
 21
114.20000032782551
 31
0.0
  0
LINE
  5
19323
  8
0
 10
71.100000478327274
 20
127.20000013038511
 30
0.0
 11
74.900000542402253
 21
127.20000013038511
 31
0.0
  0
LINE
  5
19324
  8
0
 10
71.100000478327274
 20
125.2000000353902
 30
0.0
 11
74.900000542402253
 21
125.2000000353902
 31
0.0
  0
LINE
  5
19325
  8
0
 10
60.600000154227011
 20
125.2000000353902
 30
0.0
 11
64.400000218302011
 21
125.2000000353902
 31
0.0
  0
LINE
  5
19326
  8
0
 10
60.600000154227011
 20
127.20000013038511
 30
0.0
 11
64.400000218302011
 21
127.20000013038511
 31
0.0
  0
LINE
  5
19328
  8
0
 10
50.099999830126762
 20
127.20000013038511
 30
0.0
 11
53.899999894201748
 21
127.20000013038511
 31
0.0
  0
LINE
  5
1932A
  8
0
 10
50.099999830126762
 20
125.2000000353902
 30
0.0
 11
53.899999894201748
 21
125.2000000353902
 31
0.0
  0
LINE
  5
1932B
  8
0
 10
65.500000212341547
 20
164.7100007653236
 30
0.0
 11
59.500000160187483
 21
164.7100007653236
 31
0.0
  0
LINE
  5
1932D
  8
0
 10
54.42629121243953
 20
163.396776330471
 30
0.0
 11
54.437738098204129
 21
162.8680496037006
 31
0.0
  0
LINE
  5
1932E
  8
0
 10
70.573709160089493
 20
163.396776330471
 30
0.0
 11
54.42629121243953
 21
163.396776330471
 31
0.0
  0
LINE
  5
1932F
  8
0
 10
70.562262274324894
 20
162.8680496037006
 30
0.0
 11
70.573709160089493
 21
163.396776330471
 31
0.0
  0
LINE
  5
19330
  8
0
 10
70.562262274324894
 20
147.2000001490116
 30
0.0
 11
70.562262274324894
 21
162.8680496037006
 31
0.0
  0
LINE
  5
19332
  8
0
 10
54.437738098204129
 20
162.8680496037006
 30
0.0
 11
54.437738098204129
 21
147.2000001490116
 31
0.0
  0
ARC
  5
19333
  8
0
 10
70.104882273890993
 20
147.15625080329221
 30
0.0
 40
0.4594675941214898
 50
276.78292297326863
 51
5.4638371494430471
  0
ARC
  5
19335
  8
0
 10
54.895118098638022
 20
147.15625080329221
 30
0.0
 40
0.4594675941214898
 50
174.53616285055699
 51
263.21707702673802
  0
LINE
  5
1933C
  8
0
 10
54.565826617181301
 20
164.6999983608722
 30
0.0
 11
70.434173755347715
 21
164.6999983608722
 31
0.0
  0
ARC
  5
1933D
  8
0
 10
77.050106438961166
 20
195.6790178637863
 30
0.0
 40
32.925474030438522
 50
258.65602713988102
 51
263.74647830991609
  0
LINE
  5
1933E
  8
0
 10
73.463601246476173
 20
162.94946209788321
 30
0.0
 11
73.527061566710472
 21
162.8680496037006
 31
0.0
  0
LINE
  5
19340
  8
0
 10
51.472938805818551
 20
162.8680496037006
 30
0.0
 11
51.536399126052849
 21
162.94946209788321
 31
0.0
  0
ARC
  5
19341
  8
0
 10
47.949893933567857
 20
195.6790178637863
 30
0.0
 40
32.925474030438522
 50
276.25352169008391
 51
281.34397286011898
  0
LINE
  5
19343
  8
0
 10
73.527061566710472
 20
162.8680496037006
 30
0.0
 11
73.527061566710472
 21
147.2000001490116
 31
0.0
  0
POLYLINE
  5
19345
  8
0
 66
     1
 10
0.0
 20
0.0
 30
0.0
 70
   128
  0
VERTEX
  5
1AC3A
  8
0
 10
73.335720412433133
 20
146.69999913573261
 30
0.0
  0
VERTEX
  5
1AC3B
  8
0
 10
73.37304875254631
 20
146.70960665941229
 30
0.0
  0
VERTEX
  5
1AC3C
  8
0
 10
73.408942855894566
 20
146.738060426712
 30
0.0
  0
VERTEX
  5
1AC3D
  8
0
 10
73.442023433744893
 20
146.78426520228379
 30
0.0
  0
VERTEX
  5
1AC3E
  8
0
 10
73.471019230782986
 20
146.8464458853006
 30
0.0
  0
VERTEX
  5
1AC3F
  8
0
 10
73.494814522564411
 20
146.92221456468101
 30
0.0
  0
VERTEX
  5
1AC40
  8
0
 10
73.512496612966061
 20
147.0086580634117
 30
0.0
  0
VERTEX
  5
1AC41
  8
0
 10
73.52338470518589
 20
147.1024552851915
 30
0.0
  0
VERTEX
  5
1AC42
  8
0
 10
73.527061566710472
 20
147.2000001490116
 30
0.0
  0
SEQEND
  5
1AC43
  8
0
  0
LINE
  5
19348
  8
0
 10
51.472938805818551
 20
147.2000001490116
 30
0.0
 11
51.472938805818551
 21
162.8680496037006
 31
0.0
  0
POLYLINE
  5
19349
  8
0
 66
     1
 10
0.0
 20
0.0
 30
0.0
 70
   128
  0
VERTEX
  5
1AC44
  8
0
 10
51.472938805818551
 20
147.2000001490116
 30
0.0
  0
VERTEX
  5
1AC45
  8
0
 10
51.476615667343133
 20
147.1024552851915
 30
0.0
  0
VERTEX
  5
1AC46
  8
0
 10
51.487503759562962
 20
147.0086580634117
 30
0.0
  0
VERTEX
  5
1AC47
  8
0
 10
51.505185849964612
 20
146.92221456468101
 30
0.0
  0
VERTEX
  5
1AC48
  8
0
 10
51.528981141746037
 20
146.8464458853006
 30
0.0
  0
VERTEX
  5
1AC49
  8
0
 10
51.557976938784122
 20
146.78426520228379
 30
0.0
  0
VERTEX
  5
1AC4A
  8
0
 10
51.591057516634457
 20
146.738060426712
 30
0.0
  0
VERTEX
  5
1AC4B
  8
0
 10
51.626951619982712
 20
146.70960665941229
 30
0.0
  0
VERTEX
  5
1AC4C
  8
0
 10
51.664279960095882
 20
146.69999913573261
 30
0.0
  0
SEQEND
  5
1AC4D
  8
0
  0
LINE
  5
1934E
  8
0
 10
76.041577570140362
 20
162.2556267797946
 30
0.0
 11
73.527061566710472
 21
162.8680496037006
 31
0.0
  0
LINE
  5
1934F
  8
0
 10
51.472938805818551
 20
162.8680496037006
 30
0.0
 11
48.958422802388661
 21
162.2556267797946
 31
0.0
  0
LINE
  5
19352
  8
0
 10
48.74914996325969
 20
162.17950047254561
 30
0.0
 11
48.74914996325969
 21
147.2000001490116
 31
0.0
  0
LINE
  5
19353
  8
0
 10
48.958422802388661
 20
162.2556267797946
 30
0.0
 11
48.74914996325969
 21
162.17950047254561
 31
0.0
  0
POLYLINE
  5
19355
  8
0
 66
     1
 10
0.0
 20
0.0
 30
0.0
 70
   128
  0
VERTEX
  5
1AC4E
  8
0
 10
76.250850409269333
 20
162.17950047254561
 30
0.0
  0
VERTEX
  5
1AC4F
  8
0
 10
76.236705482006073
 20
162.1862357974052
 30
0.0
  0
VERTEX
  5
1AC50
  8
0
 10
76.041577570140362
 20
162.2556267797946
 30
0.0
  0
SEQEND
  5
1AC51
  8
0
  0
LINE
  5
19356
  8
0
 10
76.250850409269333
 20
147.2000001490116
 30
0.0
 11
76.250850409269333
 21
162.17950047254561
 31
0.0
  0
POLYLINE
  5
19357
  8
0
 66
     1
 10
0.0
 20
0.0
 30
0.0
 70
   128
  0
VERTEX
  5
1AC52
  8
0
 10
76.059509254991994
 20
146.69999913573261
 30
0.0
  0
VERTEX
  5
1AC53
  8
0
 10
76.096837595105171
 20
146.70960665941229
 30
0.0
  0
VERTEX
  5
1AC54
  8
0
 10
76.132732629776001
 20
146.738060426712
 30
0.0
  0
VERTEX
  5
1AC55
  8
0
 10
76.165812276303754
 20
146.78426520228379
 30
0.0
  0
VERTEX
  5
1AC56
  8
0
 10
76.194808073341846
 20
146.8464458853006
 30
0.0
  0
VERTEX
  5
1AC57
  8
0
 10
76.218603365123272
 20
146.92221456468101
 30
0.0
  0
VERTEX
  5
1AC58
  8
0
 10
76.236285455524921
 20
147.0086580634117
 30
0.0
  0
VERTEX
  5
1AC59
  8
0
 10
76.247174479067326
 20
147.1024552851915
 30
0.0
  0
VERTEX
  5
1AC5A
  8
0
 10
76.250850409269333
 20
147.2000001490116
 30
0.0
  0
SEQEND
  5
1AC5B
  8
0
  0
POLYLINE
  5
19359
  8
0
 66
     1
 10
0.0
 20
0.0
 30
0.0
 70
   128
  0
VERTEX
  5
1AC5C
  8
0
 10
48.74914996325969
 20
147.2000001490116
 30
0.0
  0
VERTEX
  5
1AC5D
  8
0
 10
48.752825893461697
 20
147.1024552851915
 30
0.0
  0
VERTEX
  5
1AC5E
  8
0
 10
48.763714917004101
 20
147.0086580634117
 30
0.0
  0
VERTEX
  5
1AC5F
  8
0
 10
48.781397007405751
 20
146.92221456468101
 30
0.0
  0
VERTEX
  5
1AC60
  8
0
 10
48.805192299187183
 20
146.8464458853006
 30
0.0
  0
VERTEX
  5
1AC61
  8
0
 10
48.834188096225262
 20
146.78426520228379
 30
0.0
  0
VERTEX
  5
1AC62
  8
0
 10
48.867267742753022
 20
146.738060426712
 30
0.0
  0
VERTEX
  5
1AC63
  8
0
 10
48.903162777423852
 20
146.70960665941229
 30
0.0
  0
VERTEX
  5
1AC64
  8
0
 10
48.940491117537022
 20
146.69999913573261
 30
0.0
  0
SEQEND
  5
1AC65
  8
0
  0
POLYLINE
  5
19363
  8
0
 66
     1
 10
0.0
 20
0.0
 30
0.0
 70
   128
  0
VERTEX
  5
1AC66
  8
0
 10
48.74914996325969
 20
162.17950047254561
 30
0.0
  0
VERTEX
  5
1AC67
  8
0
 10
48.443305492401123
 20
162.08992959260939
 30
0.0
  0
VERTEX
  5
1AC68
  8
0
 10
48.173268511891358
 20
161.98027567267411
 30
0.0
  0
VERTEX
  5
1AC69
  8
0
 10
47.929936274886131
 20
161.84423179626461
 30
0.0
  0
VERTEX
  5
1AC6A
  8
0
 10
47.739766724407673
 20
161.69436709284781
 30
0.0
  0
VERTEX
  5
1AC6B
  8
0
 10
47.707597911357873
 20
161.6621843099594
 30
0.0
  0
VERTEX
  5
1AC6C
  8
0
 10
47.580559924244881
 20
161.49114505648609
 30
0.0
  0
VERTEX
  5
1AC6D
  8
0
 10
47.54099361598491
 20
161.40090734958639
 30
0.0
  0
VERTEX
  5
1AC6E
  8
0
 10
47.526906430721283
 20
161.3514392197132
 30
0.0
  0
VERTEX
  5
1AC6F
  8
0
 10
47.521384619176381
 20
161.32403225898739
 30
0.0
  0
VERTEX
  5
1AC70
  8
0
 10
47.519015334546559
 20
161.3088032722473
 30
0.0
  0
VERTEX
  5
1AC71
  8
0
 10
47.517913579940789
 20
161.3003282368183
 30
0.0
  0
VERTEX
  5
1AC72
  8
0
 10
47.517160139977932
 20
161.29370467066761
 30
0.0
  0
VERTEX
  5
1AC73
  8
0
 10
47.516750358045101
 20
161.28969998359679
 30
0.0
  0
SEQEND
  5
1AC74
  8
0
  0
POLYLINE
  5
19368
  8
0
 66
     1
 10
0.0
 20
0.0
 30
0.0
 70
   128
  0
VERTEX
  5
1AC75
  8
0
 10
77.483250014483914
 20
161.28969998359679
 30
0.0
  0
VERTEX
  5
1AC76
  8
0
 10
77.482840232551084
 20
161.29370467066761
 30
0.0
  0
VERTEX
  5
1AC77
  8
0
 10
77.482086792588234
 20
161.3003282368183
 30
0.0
  0
VERTEX
  5
1AC78
  8
0
 10
77.480985037982464
 20
161.3088032722473
 30
0.0
  0
VERTEX
  5
1AC79
  8
0
 10
77.478615753352642
 20
161.32403225898739
 30
0.0
  0
VERTEX
  5
1AC7A
  8
0
 10
77.473093941807747
 20
161.3514392197132
 30
0.0
  0
VERTEX
  5
1AC7B
  8
0
 10
77.459006756544113
 20
161.40090734958639
 30
0.0
  0
VERTEX
  5
1AC7C
  8
0
 10
77.419440448284135
 20
161.49114505648609
 30
0.0
  0
VERTEX
  5
1AC7D
  8
0
 10
77.29240246117115
 20
161.6621843099594
 30
0.0
  0
VERTEX
  5
1AC7E
  8
0
 10
77.260233648121357
 20
161.69436709284781
 30
0.0
  0
VERTEX
  5
1AC7F
  8
0
 10
77.070064097642884
 20
161.84423179626461
 30
0.0
  0
VERTEX
  5
1AC80
  8
0
 10
76.826731860637665
 20
161.98027567267411
 30
0.0
  0
VERTEX
  5
1AC81
  8
0
 10
76.556694880127907
 20
162.08992959260939
 30
0.0
  0
VERTEX
  5
1AC82
  8
0
 10
76.250850409269333
 20
162.17950047254561
 30
0.0
  0
SEQEND
  5
1AC83
  8
0
  0
LINE
  5
1936C
  8
0
 10
76.999999769032001
 20
146.69999913573261
 30
0.0
 11
48.000000603497021
 21
146.69999913573261
 31
0.0
  0
LINE
  5
1936D
  8
0
 10
50.0
 20
130.20000015646221
 30
0.0
 11
75.000000372529016
 21
130.20000015646221
 31
0.0
  0
LINE
  5
1936E
  8
0
 10
74.500000290572643
 20
129.70000007450579
 30
0.0
 11
50.500000081956379
 21
129.70000007450579
 31
0.0
  0
POLYLINE
  5
1936F
  8
0
 66
     1
 10
0.0
 20
0.0
 30
0.0
 70
   128
  0
VERTEX
  5
1AC84
  8
0
 10
59.653822751715772
 20
139.34483253657811
 30
0.0
  0
VERTEX
  5
1AC85
  8
0
 10
59.735104395076632
 20
139.22505514025681
 30
0.0
  0
VERTEX
  5
1AC86
  8
0
 10
59.65417688712477
 20
139.0214531242847
 30
0.0
  0
VERTEX
  5
1AC87
  8
0
 10
59.504719404503703
 20
138.8573205590248
 30
0.0
  0
SEQEND
  5
1AC88
  8
0
  0
ARC
  5
19370
  8
0
 10
59.264666489097408
 20
138.5730778492609
 30
0.0
 40
0.8643193241685931
 50
63.240535994196733
 51
94.230411427581387
  0
ARC
  5
19371
  8
0
 10
59.184882289050051
 20
137.2027921187144
 30
0.0
 40
2.232307708429353
 50
89.588676433531674
 51
106.49005524867761
  0
ARC
  5
19372
  8
0
 10
59.083071917216792
 20
137.41417612504119
 30
0.0
 40
2.0010730595211328
 50
105.41278772208381
 51
133.6642697960736
  0
POLYLINE
  5
19373
  8
0
 66
     1
 10
0.0
 20
0.0
 30
0.0
 70
   128
  0
VERTEX
  5
1AC89
  8
0
 10
57.568060420453541
 20
138.40268706232311
 30
0.0
  0
VERTEX
  5
1AC8A
  8
0
 10
57.481396198272698
 20
138.52011845707889
 30
0.0
  0
VERTEX
  5
1AC8B
  8
0
 10
57.567916996777051
 20
138.71817724108689
 30
0.0
  0
VERTEX
  5
1AC8C
  8
0
 10
57.701468188315623
 20
138.86174806654449
 30
0.0
  0
SEQEND
  5
1AC8D
  8
0
  0
ARC
  5
19374
  8
0
 10
57.971994296053033
 20
139.48783731272499
 30
0.0
 40
1.1578918955602739
 50
249.58283429807719
 51
273.42428607549527
  0
ARC
  5
19375
  8
0
 10
58.074464518385412
 20
140.90994937956179
 30
0.0
 40
2.5781518545459341
 50
269.25971341617532
 51
283.20374686450918
  0
ARC
  5
19376
  8
0
 10
58.240822377574652
 20
140.17980359334069
 30
0.0
 40
1.8293160117195011
 50
283.35458506241781
 51
313.70237283591229
  0
LINE
  5
19377
  8
0
 10
56.03851955384016
 20
138.32130343914031
 30
0.0
 11
55.558699369430542
 21
138.33237965852021
 31
0.0
  0
LINE
  5
19378
  8
0
 10
57.88269005715847
 20
139.4169280797243
 30
0.0
 11
56.03851955384016
 21
138.32130343914031
 31
0.0
  0
LINE
  5
19379
  8
0
 10
57.45443906635046
 20
139.4311046719551
 30
0.0
 11
57.88269005715847
 21
139.4169280797243
 31
0.0
  0
LINE
  5
1937A
  8
0
 10
56.272580940276377
 20
138.72673888951539
 30
0.0
 11
57.45443906635046
 21
139.4311046719551
 31
0.0
  0
LINE
  5
1937B
  8
0
 10
56.852420978248112
 20
139.43032794892781
 30
0.0
 11
56.272580940276377
 21
138.72673888951539
 31
0.0
  0
LINE
  5
1937C
  8
0
 10
56.387174595147371
 20
139.41343748271461
 30
0.0
 11
56.852420978248112
 21
139.43032794892781
 31
0.0
  0
LINE
  5
1937D
  8
0
 10
54.543003626167767
 20
138.31873671412461
 30
0.0
 11
56.387174595147371
 21
139.41343748271461
 31
0.0
  0
LINE
  5
1937E
  8
0
 10
54.971255082637072
 20
138.33068837672471
 30
0.0
 11
54.543003626167767
 21
138.31873671412461
 31
0.0
  0
LINE
  5
1937F
  8
0
 10
56.180562078952782
 20
139.051387694478
 30
0.0
 11
54.971255082637072
 21
138.33068837672471
 31
0.0
  0
LINE
  5
19380
  8
0
 10
55.558699369430542
 20
138.33237965852021
 30
0.0
 11
56.180562078952782
 21
139.051387694478
 31
0.0
  0
LINE
  5
19387
  8
0
 10
72.513260133564472
 20
138.7861498191952
 30
0.0
 11
72.155076265335083
 21
138.92032453119751
 31
0.0
  0
LINE
  5
19388
  8
0
 10
72.762699052691445
 20
138.7911994501948
 30
0.0
 11
72.513260133564472
 21
138.7861498191952
 31
0.0
  0
LINE
  5
19389
  8
0
 10
73.61695934087038
 20
138.4706959620118
 30
0.0
 11
72.762699052691445
 21
138.7911994501948
 31
0.0
  0
LINE
  5
1938A
  8
0
 10
73.287363350391374
 20
138.4572988867759
 30
0.0
 11
73.61695934087038
 21
138.4706959620118
 31
0.0
  0
LINE
  5
1938B
  8
0
 10
73.645547218620763
 20
138.32333931028839
 30
0.0
 11
73.287363350391374
 21
138.4572988867759
 31
0.0
  0
LINE
  5
1938C
  8
0
 10
74.102385155856595
 20
138.32611465156069
 30
0.0
 11
73.645547218620763
 21
138.32333931028839
 31
0.0
  0
LINE
  5
1938D
  8
0
 10
71.204403601586804
 20
139.40974758267399
 30
0.0
 11
74.102385155856595
 21
138.32611465156069
 31
0.0
  0
LINE
  5
1938E
  8
0
 10
71.077160723507404
 20
139.42340449690809
 30
0.0
 11
71.204403601586804
 21
139.40974758267399
 31
0.0
  0
LINE
  5
1938F
  8
0
 10
72.40451518446207
 20
138.92555483877649
 30
0.0
 11
71.077160723507404
 21
139.42340449690809
 31
0.0
  0
LINE
  5
19390
  8
0
 10
72.155076265335083
 20
138.92032453119751
 30
0.0
 11
72.40451518446207
 21
138.92555483877649
 31
0.0
  0
POLYLINE
  5
19391
  8
0
 66
     1
 10
0.0
 20
0.0
 30
0.0
 70
   128
  0
VERTEX
  5
1AC8E
  8
0
 10
60.937166633084409
 20
139.3360296756029
 30
0.0
  0
VERTEX
  5
1AC8F
  8
0
 10
62.822222197428339
 20
138.90352533459659
 30
0.0
  0
VERTEX
  5
1AC90
  8
0
 10
64.692445984110236
 20
138.35331020206209
 30
0.0
  0
SEQEND
  5
1AC91
  8
0
  0
LINE
  5
19392
  8
0
 10
64.692445984110236
 20
138.35331020206209
 30
0.0
 11
64.276048867031932
 21
138.79007441252469
 31
0.0
  0
LINE
  5
19393
  8
0
 10
64.276048867031932
 20
138.79007441252469
 30
0.0
 11
70.574215799570084
 21
138.79007441252469
 31
0.0
  0
LINE
  5
19394
  8
0
 10
70.574215799570084
 20
138.79007441252469
 30
0.0
 11
71.356786601245403
 21
138.35331020206209
 31
0.0
  0
POLYLINE
  5
19395
  8
0
 66
     1
 10
0.0
 20
0.0
 30
0.0
 70
   128
  0
VERTEX
  5
1AC92
  8
0
 10
71.356786601245403
 20
138.35331020206209
 30
0.0
  0
VERTEX
  5
1AC93
  8
0
 10
71.158318966627121
 20
138.90222334563731
 30
0.0
  0
VERTEX
  5
1AC94
  8
0
 10
70.957233384251595
 20
139.3360296756029
 30
0.0
  0
SEQEND
  5
1AC95
  8
0
  0
LINE
  5
19396
  8
0
 10
70.957233384251595
 20
139.3360296756029
 30
0.0
 11
60.937166633084409
 21
139.3360296756029
 31
0.0
  0
ARC
  5
193A5
  8
0
 10
58.14657802411341
 20
139.785728061257
 30
0.0
 40
1.3220647527151499
 50
271.45588216488898
 51
284.83616986318532
  0
ARC
  5
193A8
  8
0
 10
58.15978863686189
 20
138.91578192653591
 30
0.0
 40
0.4521513379401516
 50
244.07615024728329
 51
272.583309231491
  0
POLYLINE
  5
193A9
  8
0
 66
     1
 10
0.0
 20
0.0
 30
0.0
 70
   128
  0
VERTEX
  5
1AC96
  8
0
 10
58.160549215972416
 20
138.87347155511381
 30
0.0
  0
VERTEX
  5
1AC97
  8
0
 10
57.991269696503871
 20
138.69052534252401
 30
0.0
  0
VERTEX
  5
1AC98
  8
0
 10
57.937427144497633
 20
138.5979211449623
 30
0.0
  0
VERTEX
  5
1AC99
  8
0
 10
57.936285808682442
 20
138.5351909816265
 30
0.0
  0
VERTEX
  5
1AC9A
  8
0
 10
57.962118834257119
 20
138.50912791937591
 30
0.0
  0
SEQEND
  5
1AC9B
  8
0
  0
ARC
  5
193AA
  8
0
 10
59.195873889060408
 20
137.90703593291281
 30
0.0
 40
1.4162962227456659
 50
108.8181974310408
 51
136.9710125979926
  0
ARC
  5
193AB
  8
0
 10
59.070278216491602
 20
138.09059219947389
 30
0.0
 40
1.2035189512909941
 50
90.826125699875874
 51
105.97618139993671
  0
ARC
  5
193AC
  8
0
 10
59.070274689816642
 20
138.88675420176591
 30
0.0
 40
0.4076012310967306
 50
61.850997669298351
 51
92.439447500408008
  0
POLYLINE
  5
193AD
  8
0
 66
     1
 10
0.0
 20
0.0
 30
0.0
 70
   128
  0
VERTEX
  5
1AC9C
  8
0
 10
59.04563884250819
 20
138.87122893035411
 30
0.0
  0
VERTEX
  5
1AC9D
  8
0
 10
59.220296517014503
 20
139.05775235295289
 30
0.0
  0
VERTEX
  5
1AC9E
  8
0
 10
59.279521647840731
 20
139.15285156369211
 30
0.0
  0
VERTEX
  5
1AC9F
  8
0
 10
59.287357097491622
 20
139.21689861714839
 30
0.0
  0
VERTEX
  5
1ACA0
  8
0
 10
59.2625671532005
 20
139.24614587128161
 30
0.0
  0
SEQEND
  5
1ACA1
  8
0
  0
ARC
  5
193AE
  8
0
 10
58.056353138881832
 20
139.7828569890269
 30
0.0
 40
1.345270203624183
 50
288.5847714671998
 51
317.33939201188008
  0
LINE
  5
193BF
  8
0
 10
55.499999970197671
 20
124.6999999534338
 30
0.0
 11
69.500000402331352
 21
124.6999999534338
 31
0.0
  0
LINE
  5
193C0
  8
0
 10
69.000000320374966
 20
124.1999999878928
 30
0.0
 11
56.000000052154057
 21
124.1999999878928
 31
0.0
  0
ARC
  5
193C1
  8
0
 10
59.575000265613198
 20
117.2447041362977
 30
0.0
 40
1.9167108671189921
 50
232.95863654318271
 51
307.04136345681712
  0
LINE
  5
193C2
  8
0
 10
60.729610454291098
 20
115.7147839225828
 30
0.0
 11
60.729610454291098
 21
115.68517112433911
 31
0.0
  0
ARC
  5
193C3
  8
0
 10
59.447315058660372
 20
117.7999998003244
 30
0.0
 40
2.4732128518236669
 50
301.22991444299959
 51
58.770085557007519
  0
LINE
  5
193C4
  8
0
 10
60.729610454291098
 20
119.91482847630969
 30
0.0
 11
60.729610454291098
 21
119.885215678066
 31
0.0
  0
ARC
  5
193C5
  8
0
 10
59.575000265613191
 20
118.35115167621591
 30
0.0
 40
1.920020064887666
 50
53.033125743250842
 51
126.9668742567488
  0
LINE
  5
193C6
  8
0
 10
58.420390076935291
 20
119.885215678066
 30
0.0
 11
58.420390076935291
 21
119.91482847630969
 31
0.0
  0
ARC
  5
193C7
  8
0
 10
60.619008587441499
 20
117.7999998003244
 30
0.0
 40
3.0506431589929401
 50
136.1128454730005
 51
223.88715452699941
  0
LINE
  5
193C8
  8
0
 10
58.420390076935291
 20
115.68517112433911
 30
0.0
 11
58.420390076935291
 21
115.7147839225828
 31
0.0
  0
POLYLINE
  5
193C9
  8
0
 66
     1
 10
0.0
 20
0.0
 30
0.0
 70
   128
  0
VERTEX
  5
1ACA2
  8
0
 10
68.350000027567134
 20
115.7147839225828
 30
0.0
  0
VERTEX
  5
1ACA3
  8
0
 10
68.423696048557744
 20
115.5161877654492
 30
0.0
  0
VERTEX
  5
1ACA4
  8
0
 10
68.473932985216365
 20
115.38887969478959
 30
0.0
  0
VERTEX
  5
1ACA5
  8
0
 10
68.498560413718224
 20
115.3284922733903
 30
0.0
  0
VERTEX
  5
1ACA6
  8
0
 10
68.500000238418565
 20
115.3249998137354
 30
0.0
  0
SEQEND
  5
1ACA7
  8
0
  0
ARC
  5
193CA
  8
0
 10
76.435420375031526
 20
116.9973194542257
 30
0.0
 40
8.5856838280280261
 50
157.5573122628154
 51
160.344629296367
  0
LINE
  5
193CB
  8
0
 10
68.350000027567134
 20
119.885215678066
 30
0.0
 11
68.350000027567134
 21
119.91482847630969
 31
0.0
  0
ARC
  5
193CC
  8
0
 10
73.914278540100099
 20
117.7999998003244
 30
0.0
 40
5.9526209096334597
 50
159.1895843931151
 51
200.8104156068855
  0
LINE
  5
193CD
  8
0
 10
68.350000027567134
 20
115.68517112433911
 30
0.0
 11
68.350000027567134
 21
115.7147839225828
 31
0.0
  0
LINE
  5
193CE
  8
0
 10
56.500000134110451
 20
114.20000032782551
 30
0.0
 11
68.500000238418565
 21
114.20000032782551
 31
0.0
  0
LINE
  5
193CF
  8
0
 10
67.964101862162352
 20
112.2
 30
0.0
 11
57.035898510366671
 21
112.2
 31
0.0
  0
LINE
  5
193DB
  8
0
 10
77.499999850988374
 20
161.28969998359679
 30
0.0
 11
77.483250014483914
 21
161.28969998359679
 31
0.0
  0
LINE
  5
193DC
  8
0
 10
47.516750358045101
 20
161.28969998359679
 30
0.0
 11
47.500000521540642
 21
161.28969998359679
 31
0.0
  0
LINE
  5
193DF
  8
0
 10
75.000000372529016
 20
137.71203034818171
 30
0.0
 11
50.0
 21
137.71203034818171
 31
0.0
  0
LINE
  5
193E0
  8
0
 10
50.328989699482911
 20
138.1818760678172
 30
0.0
 11
74.671010673046112
 21
138.1818760678172
 31
0.0
  0
LINE
  5
193E1
  8
0
 10
70.763192325830445
 20
139.60420587360849
 30
0.0
 11
54.23680804669857
 21
139.60420587360849
 31
0.0
  0
LINE
  5
193E2
  8
0
 10
54.499999806284897
 20
139.98008207678791
 30
0.0
 11
70.500000566244125
 21
139.98008207678791
 31
0.0
  0
LINE
  5
193E4
  8
1
 10
62.500000186264508
 20
169.7100007653236
 30
0.0
 11
62.500000186264508
 21
107.2
 31
0.0
  0
ARC
  5
193E6
  8
0
 10
127.94448674539601
 20
60.799999999999983
 30
0.0
 40
2.50000000000002
 50
85.234467302460345
 51
214.7655326975412
  0
ARC
  5
193E7
  8
0
 10
125.000000372529
 20
65.899999999999977
 30
0.0
 40
2.49999999999998
 50
205.23446730246189
 51
334.76553269753907
  0
ARC
  5
193E8
  8
0
 10
122.0555139996617
 20
60.800000000000011
 30
0.0
 40
2.5000000000000471
 50
325.2344673024603
 51
94.765532697537722
  0
CIRCLE
  5
193E9
  8
0
 10
125.000000372529
 20
72.999999999999957
 30
0.0
 40
1.900000000000005
  0
LINE
  5
193EA
  8
0
 10
125.7725003725289
 20
72.553996917050981
 30
0.0
 11
125.7725003725289
 21
73.446003082948963
 31
0.0
  0
LINE
  5
193EB
  8
0
 10
125.7725003725289
 20
73.446003082948963
 30
0.0
 11
125.000000372529
 21
73.892006165897939
 31
0.0
  0
LINE
  5
193EC
  8
0
 10
125.000000372529
 20
73.892006165897939
 30
0.0
 11
124.22750037252899
 21
73.446003082948963
 31
0.0
  0
LINE
  5
193ED
  8
0
 10
124.22750037252899
 20
73.446003082948963
 30
0.0
 11
124.22750037252899
 21
72.553996917050981
 31
0.0
  0
LINE
  5
193EE
  8
0
 10
124.22750037252899
 20
72.553996917050981
 30
0.0
 11
125.000000372529
 21
72.107993834102004
 31
0.0
  0
LINE
  5
193EF
  8
0
 10
125.000000372529
 20
72.107993834102004
 30
0.0
 11
125.7725003725289
 21
72.553996917050981
 31
0.0
  0
CIRCLE
  5
193F0
  8
0
 10
114.500000372529
 20
62.500000000000099
 30
0.0
 40
1.900000000000019
  0
LINE
  5
193F1
  8
0
 10
114.94600345547791
 20
63.272500000000122
 30
0.0
 11
114.05399728958
 21
63.272500000000122
 31
0.0
  0
LINE
  5
193F2
  8
0
 10
114.05399728958
 20
63.272500000000122
 30
0.0
 11
113.60799420663101
 21
62.500000000000107
 31
0.0
  0
LINE
  5
193F3
  8
0
 10
113.60799420663101
 20
62.500000000000107
 30
0.0
 11
114.05399728958
 21
61.727500000000113
 31
0.0
  0
LINE
  5
193F4
  8
0
 10
114.05399728958
 20
61.727500000000113
 30
0.0
 11
114.94600345547791
 21
61.727500000000113
 31
0.0
  0
LINE
  5
193F5
  8
0
 10
114.94600345547791
 20
61.727500000000113
 30
0.0
 11
115.392006538427
 21
62.500000000000099
 31
0.0
  0
LINE
  5
193F6
  8
0
 10
115.392006538427
 20
62.500000000000099
 30
0.0
 11
114.94600345547791
 21
63.272500000000122
 31
0.0
  0
CIRCLE
  5
193F7
  8
0
 10
125.0000003725289
 20
52.000000000000021
 30
0.0
 40
1.900000000000005
  0
LINE
  5
193F8
  8
0
 10
124.22750037252879
 20
52.446003082948998
 30
0.0
 11
124.22750037252879
 21
51.553996917051052
 31
0.0
  0
LINE
  5
193F9
  8
0
 10
124.22750037252879
 20
51.553996917051052
 30
0.0
 11
125.0000003725289
 21
51.107993834102061
 31
0.0
  0
LINE
  5
193FA
  8
0
 10
125.0000003725289
 20
51.107993834102061
 30
0.0
 11
125.7725003725288
 21
51.55399691705103
 31
0.0
  0
LINE
  5
193FB
  8
0
 10
125.7725003725288
 20
51.55399691705103
 30
0.0
 11
125.7725003725288
 21
52.446003082948998
 31
0.0
  0
LINE
  5
193FC
  8
0
 10
125.7725003725288
 20
52.446003082948998
 30
0.0
 11
125.0000003725289
 21
52.89200616589801
 31
0.0
  0
LINE
  5
193FD
  8
0
 10
125.0000003725289
 20
52.89200616589801
 30
0.0
 11
124.22750037252879
 21
52.446003082948998
 31
0.0
  0
CIRCLE
  5
193FE
  8
0
 10
135.50000037252889
 20
62.499999999999972
 30
0.0
 40
1.900000000000019
  0
LINE
  5
193FF
  8
0
 10
135.05399728957991
 20
61.727499999999971
 30
0.0
 11
135.94600345547789
 21
61.727499999999971
 31
0.0
  0
LINE
  5
19400
  8
0
 10
135.94600345547789
 20
61.727499999999971
 30
0.0
 11
136.3920065384269
 21
62.499999999999957
 31
0.0
  0
LINE
  5
19401
  8
0
 10
136.3920065384269
 20
62.499999999999957
 30
0.0
 11
135.94600345547789
 21
63.272499999999958
 31
0.0
  0
LINE
  5
19402
  8
0
 10
135.94600345547789
 20
63.272499999999958
 30
0.0
 11
135.05399728957991
 21
63.272499999999958
 31
0.0
  0
LINE
  5
19403
  8
0
 10
135.05399728957991
 20
63.272499999999958
 30
0.0
 11
134.60799420663099
 21
62.499999999999972
 31
0.0
  0
LINE
  5
19404
  8
0
 10
134.60799420663099
 20
62.499999999999972
 30
0.0
 11
135.05399728957991
 21
61.727499999999971
 31
0.0
  0
ARC
  5
19408
  8
0
 10
125.000000372529
 20
62.500000000002302
 30
0.0
 40
15.000000000002309
 50
267.29207719661252
 51
272.70792280338759
  0
ARC
  5
19409
  8
0
 10
125.61417985736939
 20
49.51451642947395
 30
0.0
 40
1.9999999999999809
 50
272.7079228033885
 51
337.49999999999949
  0
ARC
  5
19410
  8
0
 10
124.3858208876885
 20
49.514516429473957
 30
0.0
 40
2.0000000000000031
 50
202.50000000000139
 51
267.2920771966119
  0
LINE
  5
19412
  8
0
 10
122.5380618226659
 20
48.749149564743789
 30
0.0
 11
121.85318859747279
 21
50.402579793511023
 31
0.0
  0
LINE
  5
19413
  8
0
 10
128.14681214758491
 20
50.402579793510959
 30
0.0
 11
127.46193892239189
 21
48.749149564743789
 31
0.0
  0
LINE
  5
19415
  8
0
 10
127.46193892239189
 20
76.250850435256211
 30
0.0
 11
128.146812147585
 21
74.597420206489019
 31
0.0
  0
LINE
  5
19416
  8
0
 10
121.85318859747289
 20
74.597420206488991
 30
0.0
 11
122.5380618226659
 21
76.250850435256211
 31
0.0
  0
ARC
  5
19419
  8
0
 10
125.61417985736939
 20
75.485483570526014
 30
0.0
 40
2.0000000000000031
 50
22.500000000001378
 51
87.29207719661197
  0
ARC
  5
1941A
  8
0
 10
124.3858208876885
 20
75.485483570526057
 30
0.0
 40
1.99999999999999
 50
92.707922803389692
 51
157.4999999999996
  0
ARC
  5
1941C
  8
0
 10
125.000000372529
 20
62.499999999997478
 30
0.0
 40
15.00000000000253
 50
87.292077196612411
 51
92.707922803387575
  0
CIRCLE
  5
1941D
  8
0
 10
125.000000372529
 20
62.5
 30
0.0
 40
0.700000000000003
  0
CIRCLE
  5
1941E
  8
0
 10
125.000000372529
 20
62.5
 30
0.0
 40
0.9000000000000056
  0
ARC
  5
19420
  8
0
 10
125.000000372529
 20
62.500000000000007
 30
0.0
 40
2.322148265337066
 50
17.330510171078771
 51
42.66948982892589
  0
ARC
  5
19421
  8
0
 10
125.0000003725287
 20
62.500000000000149
 30
0.0
 40
2.3221482653368168
 50
137.330510171073
 51
162.66948982892271
  0
ARC
  5
19423
  8
0
 10
125.0000003725288
 20
62.499999999999893
 30
0.0
 40
3.000000000000234
 50
15.45489110184036
 51
44.54510889815873
  0
ARC
  5
19424
  8
0
 10
125.000000372529
 20
62.5
 30
0.0
 40
2.9999999999999991
 50
255.45489110184371
 51
284.54510889816288
  0
ARC
  5
19425
  8
0
 10
125.000000372529
 20
62.500000000000028
 30
0.0
 40
2.9999999999999738
 50
135.45489110183999
 51
164.54510889816029
  0
CIRCLE
  5
19426
  8
0
 10
125.000000372529
 20
62.5
 30
0.0
 40
6.0
  0
CIRCLE
  5
19427
  8
0
 10
125.000000372529
 20
62.5
 30
0.0
 40
5.4641016151377491
  0
CIRCLE
  5
19428
  8
0
 10
125.000000372529
 20
62.5
 30
0.0
 40
3.25
  0
CIRCLE
  5
1942A
  8
0
 10
125.000000372529
 20
62.5
 30
0.0
 40
7.0
  0
CIRCLE
  5
1942B
  8
0
 10
125.000000372529
 20
62.5
 30
0.0
 40
6.5
  0
CIRCLE
  5
1942C
  8
0
 10
125.000000372529
 20
62.5
 30
0.0
 40
12.5
  0
ARC
  5
194CB
  8
0
 10
122.0369350707674
 20
225.253916210201
 30
0.0
 40
0.6840081609506504
 50
156.46368147609621
 51
162.14836404988961
  0
LINE
  5
194CC
  8
0
 10
121.40983151048
 20
225.52706138940439
 30
0.0
 11
122.5380618226659
 21
228.2508503105642
 31
0.0
  0
ARC
  5
194CD
  8
0
 10
115.02450922970181
 20
228.1469675133508
 30
0.0
 40
6.9041460296625994
 50
306.17348013304081
 51
337.12884483667852
  0
ARC
  5
194E2
  8
0
 10
122.0369350708138
 20
203.74608354043249
 30
0.0
 40
0.6840081610001147
 50
197.85163595031719
 51
203.53631852370171
  0
ARC
  5
194E3
  8
0
 10
115.0245092297021
 20
200.8530322372653
 30
0.0
 40
6.9041460296623249
 50
22.871155163321671
 51
53.826519866960041
  0
ARC
  5
195EB
  8
0
 10
125.000000372529
 20
62.5
 30
0.0
 40
2.322148265337121
 50
257.33051017107402
 51
282.66948982891881
  0
LINE
  5
1960B
  8
1
 10
125.000000372529
 20
80.5
 30
0.0
 11
125.000000372529
 21
44.499999999999972
 31
0.0
  0
LINE
  5
1960C
  8
1
 10
143.000000372529
 20
62.499999999999972
 30
0.0
 11
107.000000372529
 21
62.5
 31
0.0
  0
LINE
  5
1960D
  8
1
 10
395.00000112274029
 20
80.499999999999915
 30
0.0
 11
395.00000112274029
 21
44.499999999999851
 31
0.0
  0
LINE
  5
1960E
  8
1
 10
413.0000011227404
 20
62.499999999999922
 30
0.0
 11
377.00000112274029
 21
62.499999999999972
 31
0.0
  0
CIRCLE
  5
19668
  8
0
 10
125.000000372529
 20
214.49999987530799
 30
0.0
 40
7.9341737512063162
  0
CIRCLE
  5
19669
  8
0
 10
395.0000011227404
 20
214.49999987530799
 30
0.0
 40
7.9341737512063171
  0
LINE
  5
19687
  8
0
 10
112.8289903008662
 20
138.1818764870894
 30
0.0
 11
116.7368084298592
 21
139.604205966969
 31
0.0
  0
ARC
  5
19688
  8
0
 10
120.7174284132826
 20
123.0982307844022
 30
0.0
 40
16.87317508015715
 50
110.67755286129361
 51
115.2973285001717
  0
ARC
  5
196BB
  8
0
 10
125.000000372529
 20
117.80081567009699
 30
0.0
 40
2.4756872503795342
 50
237.4164484105487
 51
302.58355158945142
  0
LINE
  5
196BC
  8
0
 10
126.33322953512631
 20
115.7147841838313
 30
0.0
 11
126.33322953512631
 21
115.6851714017443
 31
0.0
  0
ARC
  5
196BD
  8
0
 10
124.9997663550691
 20
117.8
 30
0.0
 40
2.5001248073982572
 50
302.23266710157998
 51
57.767332898419987
  0
LINE
  5
196BE
  8
0
 10
126.33322953512631
 20
119.9148285982556
 30
0.0
 11
126.33322953512631
 21
119.8852158161686
 31
0.0
  0
ARC
  5
196BF
  8
0
 10
125.000000372529
 20
117.79766387929379
 30
0.0
 40
2.4769685280902878
 50
57.435388564004143
 51
122.564611435996
  0
LINE
  5
196C0
  8
0
 10
123.6667712099316
 20
119.8852158161686
 30
0.0
 11
123.6667712099316
 21
119.9148285982556
 31
0.0
  0
ARC
  5
196C1
  8
0
 10
125.0002343899888
 20
117.8
 30
0.0
 40
2.5001248073982718
 50
122.23266710158001
 51
237.76733289841999
  0
LINE
  5
196C2
  8
0
 10
123.6667712099316
 20
115.6851714017443
 30
0.0
 11
123.6667712099316
 21
115.7147841838313
 31
0.0
  0
LINE
  5
196D1
  8
3
 10
115.3000000707802
 20
128.40000000000001
 30
0.0
 11
115.3000000707802
 21
129.69999999999999
 31
0.0
  0
LINE
  5
196D2
  8
3
 10
115.50000070035451
 20
128.05358874803181
 30
0.0
 11
115.3000000707802
 21
128.40000000000001
 31
0.0
  0
LINE
  5
196D3
  8
0
 10
113.500000372529
 20
128.40000000000001
 30
0.0
 11
115.50000070035451
 21
128.40000000000001
 31
0.0
  0
LINE
  5
196D4
  8
3
 10
113.70000007078031
 20
128.40000000000001
 30
0.0
 11
113.70000007078031
 21
129.69999999999999
 31
0.0
  0
LINE
  5
196D5
  8
3
 10
113.4999994412064
 20
128.05358874803181
 30
0.0
 11
113.70000007078031
 21
128.40000000000001
 31
0.0
  0
LINE
  5
196D6
  8
1
 10
114.5000000707805
 20
123.1999999050051
 30
0.0
 11
114.5000000707806
 21
131.69999999999999
 31
0.0
  0
LINE
  5
196DF
  8
3
 10
125.8000003725287
 20
128.40000000000001
 30
0.0
 11
125.8000003725287
 21
129.69999999999999
 31
0.0
  0
LINE
  5
196E0
  8
3
 10
126.00000100210301
 20
128.05358874803181
 30
0.0
 11
125.8000003725287
 21
128.40000000000001
 31
0.0
  0
LINE
  5
196E1
  8
0
 10
124.0000006742775
 20
128.40000000000001
 30
0.0
 11
126.00000100210301
 21
128.40000000000001
 31
0.0
  0
LINE
  5
196E2
  8
3
 10
124.20000037252881
 20
128.40000000000001
 30
0.0
 11
124.20000037252881
 21
129.69999999999999
 31
0.0
  0
LINE
  5
196E3
  8
3
 10
123.9999997429549
 20
128.05358874803181
 30
0.0
 11
124.20000037252881
 21
128.40000000000001
 31
0.0
  0
LINE
  5
196E4
  8
3
 10
136.30000037252859
 20
128.40000000000001
 30
0.0
 11
136.30000037252859
 21
129.69999999999999
 31
0.0
  0
LINE
  5
196E5
  8
3
 10
136.50000100210289
 20
128.05358874803181
 30
0.0
 11
136.30000037252859
 21
128.40000000000001
 31
0.0
  0
LINE
  5
196E6
  8
0
 10
134.5000006742774
 20
128.40000000000001
 30
0.0
 11
136.50000100210289
 21
128.40000000000001
 31
0.0
  0
LINE
  5
196E7
  8
3
 10
134.70000037252859
 20
128.40000000000001
 30
0.0
 11
134.70000037252871
 21
129.69999999999999
 31
0.0
  0
LINE
  5
196E8
  8
3
 10
134.4999997429548
 20
128.05358874803181
 30
0.0
 11
134.70000037252859
 21
128.40000000000001
 31
0.0
  0
LINE
  5
196E9
  8
1
 10
135.5000000707804
 20
123.1999999050051
 30
0.0
 11
135.50000007078049
 21
131.69999999999999
 31
0.0
  0
LINE
  5
1972F
  8
3
 10
177.8000002570449
 20
128.40000000000001
 30
0.0
 11
177.8000002570449
 21
129.69999999999999
 31
0.0
  0
LINE
  5
19730
  8
3
 10
178.0000008866192
 20
128.05358874803181
 30
0.0
 11
177.8000002570449
 21
128.40000000000001
 31
0.0
  0
LINE
  5
19731
  8
0
 10
176.0000005587936
 20
128.40000000000001
 30
0.0
 11
178.0000008866192
 21
128.40000000000001
 31
0.0
  0
LINE
  5
19732
  8
3
 10
176.20000025704491
 20
128.40000000000001
 30
0.0
 11
176.20000025704499
 21
129.69999999999999
 31
0.0
  0
LINE
  5
19733
  8
3
 10
175.99999962747111
 20
128.05358874803181
 30
0.0
 11
176.20000025704491
 21
128.40000000000001
 31
0.0
  0
LINE
  5
19734
  8
1
 10
177.00000025704509
 20
123.1999999050051
 30
0.0
 11
177.0000002570452
 21
131.69999999999999
 31
0.0
  0
LINE
  5
19735
  8
3
 10
198.80000025704479
 20
128.40000000000001
 30
0.0
 11
198.80000025704479
 21
129.69999999999999
 31
0.0
  0
LINE
  5
19736
  8
3
 10
199.00000088661909
 20
128.05358874803181
 30
0.0
 11
198.80000025704479
 21
128.40000000000001
 31
0.0
  0
LINE
  5
19737
  8
0
 10
197.0000005587936
 20
128.40000000000001
 30
0.0
 11
199.00000088661909
 21
128.40000000000001
 31
0.0
  0
LINE
  5
19738
  8
3
 10
197.20000025704491
 20
128.40000000000001
 30
0.0
 11
197.20000025704491
 21
129.69999999999999
 31
0.0
  0
LINE
  5
19739
  8
3
 10
196.999999627471
 20
128.05358874803181
 30
0.0
 11
197.20000025704491
 21
128.40000000000001
 31
0.0
  0
LINE
  5
1973A
  8
1
 10
198.00000025704509
 20
123.1999999050051
 30
0.0
 11
198.0000002570452
 21
131.69999999999999
 31
0.0
  0
LINE
  5
1973B
  8
3
 10
188.30000025704479
 20
128.40000000000001
 30
0.0
 11
188.30000025704479
 21
129.69999999999999
 31
0.0
  0
LINE
  5
1973C
  8
3
 10
188.5000008866192
 20
128.05358874803181
 30
0.0
 11
188.30000025704479
 21
128.40000000000001
 31
0.0
  0
LINE
  5
1973D
  8
0
 10
186.5000005587936
 20
128.40000000000001
 30
0.0
 11
188.5000008866192
 21
128.40000000000001
 31
0.0
  0
LINE
  5
1973E
  8
3
 10
186.70000025704491
 20
128.40000000000001
 30
0.0
 11
186.70000025704491
 21
129.69999999999999
 31
0.0
  0
LINE
  5
1973F
  8
3
 10
186.499999627471
 20
128.05358874803181
 30
0.0
 11
186.70000025704491
 21
128.40000000000001
 31
0.0
  0
LINE
  5
1975E
  8
0
 10
175.76926068127699
 20
138.32980305855111
 30
0.0
 11
175.76926068127699
 21
138.33552169974109
 31
0.0
  0
POLYLINE
  5
1975F
  8
0
 66
     1
 10
0.0
 20
0.0
 30
0.0
 70
   128
  0
VERTEX
  5
1ACA8
  8
0
 10
178.74179431356399
 20
139.40755466670981
 30
0.0
  0
VERTEX
  5
1ACA9
  8
0
 10
177.28990068791941
 20
138.88144258757791
 30
0.0
  0
VERTEX
  5
1ACAA
  8
0
 10
176.2048686254434
 20
138.4878777486785
 30
0.0
  0
VERTEX
  5
1ACAB
  8
0
 10
175.76926068127699
 20
138.32980305855111
 30
0.0
  0
SEQEND
  5
1ACAC
  8
0
  0
LINE
  5
19760
  8
0
 10
178.74179431356399
 20
139.42403549530161
 30
0.0
 11
178.74179431356399
 21
139.40755466670981
 31
0.0
  0
LINE
  5
19765
  8
0
 10
175.32899048713071
 20
138.18187648709011
 30
0.0
 11
179.23680861612371
 21
139.60420596696949
 31
0.0
  0
LINE
  5
19790
  8
3
 10
52.799999862163943
 20
128.40000013038511
 30
0.0
 11
52.799999862163929
 21
129.70000013038509
 31
0.0
  0
LINE
  5
19791
  8
3
 10
53.000000491738277
 20
128.053588878417
 30
0.0
 11
52.799999862163943
 21
128.40000013038511
 31
0.0
  0
LINE
  5
19792
  8
0
 10
51.00000016391273
 20
128.40000013038511
 30
0.0
 11
53.000000491738277
 21
128.40000013038511
 31
0.0
  0
LINE
  5
19793
  8
3
 10
51.199999862164027
 20
128.40000013038511
 30
0.0
 11
51.199999862164063
 21
129.70000013038509
 31
0.0
  0
LINE
  5
19794
  8
3
 10
50.999999232590163
 20
128.053588878417
 30
0.0
 11
51.199999862164027
 21
128.40000013038511
 31
0.0
  0
LINE
  5
19795
  8
1
 10
51.999999862164223
 20
123.2000000353902
 30
0.0
 11
51.999999862164323
 21
132.20000013038509
 31
0.0
  0
LINE
  5
19796
  8
3
 10
73.800000510364455
 20
128.40000013038511
 30
0.0
 11
73.800000510364441
 21
129.70000013038509
 31
0.0
  0
LINE
  5
19797
  8
3
 10
74.000001139938789
 20
128.053588878417
 30
0.0
 11
73.800000510364455
 21
128.40000013038511
 31
0.0
  0
LINE
  5
19798
  8
0
 10
72.000000812113242
 20
128.40000013038511
 30
0.0
 11
74.000001139938789
 21
128.40000013038511
 31
0.0
  0
LINE
  5
19799
  8
3
 10
72.200000510364546
 20
128.40000013038511
 30
0.0
 11
72.200000510364575
 21
129.70000013038509
 31
0.0
  0
LINE
  5
1979A
  8
3
 10
71.999999880790668
 20
128.053588878417
 30
0.0
 11
72.200000510364546
 21
128.40000013038511
 31
0.0
  0
LINE
  5
1979B
  8
1
 10
73.000000510364728
 20
123.2000000353902
 30
0.0
 11
73.000000510364828
 21
132.20000013038509
 31
0.0
  0
LINE
  5
1979C
  8
3
 10
63.300000186264199
 20
128.40000013038511
 30
0.0
 11
63.300000186264178
 21
129.70000013038509
 31
0.0
  0
LINE
  5
1979D
  8
3
 10
63.500000815838533
 20
128.053588878417
 30
0.0
 11
63.300000186264199
 21
128.40000013038511
 31
0.0
  0
LINE
  5
1979E
  8
0
 10
61.500000488012986
 20
128.40000013038511
 30
0.0
 11
63.500000815838533
 21
128.40000013038511
 31
0.0
  0
LINE
  5
1979F
  8
3
 10
61.70000018626429
 20
128.40000013038511
 30
0.0
 11
61.700000186264312
 21
129.70000013038509
 31
0.0
  0
LINE
  5
197A0
  8
3
 10
61.499999556690412
 20
128.053588878417
 30
0.0
 11
61.70000018626429
 21
128.40000013038511
 31
0.0
  0
LINE
  5
197CC
  8
0
 10
70.763192325830445
 20
139.60420587360849
 30
0.0
 11
74.671010673046112
 21
138.1818760678172
 31
0.0
  0
LINE
  5
19863
  8
3
 10
385.3000011278931
 20
128.3999999254942
 30
0.0
 11
385.3000011278931
 21
129.69999992549421
 31
0.0
  0
LINE
  5
19864
  8
3
 10
385.50000175746737
 20
128.05358867352601
 30
0.0
 11
385.3000011278931
 21
128.3999999254942
 31
0.0
  0
LINE
  5
19865
  8
0
 10
383.50000142964188
 20
128.3999999254942
 30
0.0
 11
385.50000175746737
 21
128.3999999254942
 31
0.0
  0
LINE
  5
19866
  8
3
 10
383.70000112789319
 20
128.3999999254942
 30
0.0
 11
383.70000112789319
 21
129.69999992549421
 31
0.0
  0
LINE
  5
19867
  8
3
 10
383.50000049831931
 20
128.05358867352601
 30
0.0
 11
383.70000112789319
 21
128.3999999254942
 31
0.0
  0
LINE
  5
19868
  8
1
 10
384.50000112789343
 20
123.19999983049929
 30
0.0
 11
384.50000112789348
 21
131.69999992549421
 31
0.0
  0
LINE
  5
19869
  8
3
 10
406.30000112789298
 20
128.3999999254942
 30
0.0
 11
406.30000112789298
 21
129.69999992549421
 31
0.0
  0
LINE
  5
1986A
  8
3
 10
406.50000175746732
 20
128.05358867352601
 30
0.0
 11
406.30000112789298
 21
128.3999999254942
 31
0.0
  0
LINE
  5
1986B
  8
0
 10
404.50000142964183
 20
128.3999999254942
 30
0.0
 11
406.50000175746732
 21
128.3999999254942
 31
0.0
  0
LINE
  5
1986C
  8
3
 10
404.70000112789307
 20
128.3999999254942
 30
0.0
 11
404.70000112789307
 21
129.69999992549421
 31
0.0
  0
LINE
  5
1986D
  8
3
 10
404.5000004983192
 20
128.05358867352601
 30
0.0
 11
404.70000112789307
 21
128.3999999254942
 31
0.0
  0
LINE
  5
1986E
  8
1
 10
405.50000112789331
 20
123.19999983049929
 30
0.0
 11
405.50000112789331
 21
131.69999992549421
 31
0.0
  0
LINE
  5
1986F
  8
3
 10
395.80000112789298
 20
128.3999999254942
 30
0.0
 11
395.80000112789298
 21
129.69999992549421
 31
0.0
  0
LINE
  5
19870
  8
3
 10
396.00000175746737
 20
128.05358867352601
 30
0.0
 11
395.80000112789298
 21
128.3999999254942
 31
0.0
  0
LINE
  5
19871
  8
0
 10
394.00000142964183
 20
128.3999999254942
 30
0.0
 11
396.00000175746737
 21
128.3999999254942
 31
0.0
  0
LINE
  5
19872
  8
3
 10
394.20000112789307
 20
128.3999999254942
 30
0.0
 11
394.20000112789307
 21
129.69999992549421
 31
0.0
  0
LINE
  5
19873
  8
3
 10
394.0000004983192
 20
128.05358867352601
 30
0.0
 11
394.20000112789307
 21
128.3999999254942
 31
0.0
  0
LINE
  5
198A5
  8
0
 10
382.82899105623051
 20
138.1818764125843
 30
0.0
 11
386.73680918522359
 21
139.60420589246371
 31
0.0
  0
ARC
  5
198A6
  8
0
 10
390.71742916864707
 20
123.098230709896
 30
0.0
 40
16.87317508015764
 50
110.6775528611076
 51
115.2973285001717
  0
LINE
  5
19AEF
  8
0
 10
445.32899123734188
 20
138.1818764125843
 30
0.0
 11
449.23680936633502
 21
139.60420589246371
 31
0.0
  0
LINE
  5
19AF8
  8
3
 10
447.80000130900459
 20
128.3999999254942
 30
0.0
 11
447.80000130900459
 21
129.69999992549421
 31
0.0
  0
LINE
  5
19AF9
  8
3
 10
448.00000193857892
 20
128.05358867352601
 30
0.0
 11
447.80000130900459
 21
128.3999999254942
 31
0.0
  0
LINE
  5
19AFA
  8
0
 10
446.00000161075332
 20
128.3999999254942
 30
0.0
 11
448.00000193857892
 21
128.3999999254942
 31
0.0
  0
LINE
  5
19AFB
  8
3
 10
446.20000130900468
 20
128.3999999254942
 30
0.0
 11
446.20000130900468
 21
129.69999992549421
 31
0.0
  0
LINE
  5
19AFC
  8
3
 10
446.0000006794308
 20
128.05358867352601
 30
0.0
 11
446.20000130900468
 21
128.3999999254942
 31
0.0
  0
LINE
  5
19AFD
  8
1
 10
447.0000013090048
 20
123.19999983049929
 30
0.0
 11
447.00000130900492
 21
131.69999992549421
 31
0.0
  0
LINE
  5
19AFE
  8
3
 10
468.80000130900447
 20
128.3999999254942
 30
0.0
 11
468.80000130900447
 21
129.69999992549421
 31
0.0
  0
LINE
  5
19AFF
  8
3
 10
469.00000193857881
 20
128.05358867352601
 30
0.0
 11
468.80000130900447
 21
128.3999999254942
 31
0.0
  0
LINE
  5
19B00
  8
0
 10
467.00000161075332
 20
128.3999999254942
 30
0.0
 11
469.00000193857881
 21
128.3999999254942
 31
0.0
  0
LINE
  5
19B01
  8
3
 10
467.20000130900462
 20
128.3999999254942
 30
0.0
 11
467.20000130900462
 21
129.69999992549421
 31
0.0
  0
LINE
  5
19B02
  8
3
 10
467.00000067943068
 20
128.05358867352601
 30
0.0
 11
467.20000130900462
 21
128.3999999254942
 31
0.0
  0
LINE
  5
19B03
  8
1
 10
468.00000130900469
 20
123.19999983049929
 30
0.0
 11
468.00000130900492
 21
131.69999992549421
 31
0.0
  0
LINE
  5
19B04
  8
3
 10
458.30000130900447
 20
128.3999999254942
 30
0.0
 11
458.30000130900447
 21
129.69999992549421
 31
0.0
  0
LINE
  5
19B05
  8
3
 10
458.50000193857881
 20
128.05358867352601
 30
0.0
 11
458.30000130900447
 21
128.3999999254942
 31
0.0
  0
LINE
  5
19B06
  8
0
 10
456.50000161075332
 20
128.3999999254942
 30
0.0
 11
458.50000193857881
 21
128.3999999254942
 31
0.0
  0
LINE
  5
19B07
  8
3
 10
456.70000130900462
 20
128.3999999254942
 30
0.0
 11
456.70000130900462
 21
129.69999992549421
 31
0.0
  0
LINE
  5
19B08
  8
3
 10
456.50000067943068
 20
128.05358867352601
 30
0.0
 11
456.70000130900462
 21
128.3999999254942
 31
0.0
  0
LINE
  5
19B5F
  8
3
 10
322.8000006123753
 20
128.4000000558793
 30
0.0
 11
322.8000006123753
 21
129.70000005587929
 31
0.0
  0
LINE
  5
19B60
  8
3
 10
323.00000124194958
 20
128.0535888039112
 30
0.0
 11
322.8000006123753
 21
128.4000000558793
 31
0.0
  0
LINE
  5
19B61
  8
0
 10
321.00000091412409
 20
128.4000000558793
 30
0.0
 11
323.00000124194958
 21
128.4000000558793
 31
0.0
  0
LINE
  5
19B62
  8
3
 10
321.20000061237539
 20
128.4000000558793
 30
0.0
 11
321.20000061237539
 21
129.70000005587929
 31
0.0
  0
LINE
  5
19B63
  8
3
 10
320.99999998280151
 20
128.0535888039112
 30
0.0
 11
321.20000061237539
 21
128.4000000558793
 31
0.0
  0
LINE
  5
19B64
  8
1
 10
322.00000061237557
 20
123.1999999608844
 30
0.0
 11
322.00000061237569
 21
131.69999999999999
 31
0.0
  0
LINE
  5
19B65
  8
3
 10
343.80000126057581
 20
128.4000000558793
 30
0.0
 11
343.80000126057581
 21
129.70000005587929
 31
0.0
  0
LINE
  5
19B66
  8
3
 10
344.0000018901502
 20
128.0535888039112
 30
0.0
 11
343.80000126057581
 21
128.4000000558793
 31
0.0
  0
LINE
  5
19B67
  8
0
 10
342.0000015623246
 20
128.4000000558793
 30
0.0
 11
344.0000018901502
 21
128.4000000558793
 31
0.0
  0
LINE
  5
19B68
  8
3
 10
342.2000012605759
 20
128.4000000558793
 30
0.0
 11
342.2000012605759
 21
129.70000005587929
 31
0.0
  0
LINE
  5
19B69
  8
3
 10
342.00000063100202
 20
128.0535888039112
 30
0.0
 11
342.2000012605759
 21
128.4000000558793
 31
0.0
  0
LINE
  5
19B6A
  8
1
 10
343.00000126057608
 20
123.1999999608844
 30
0.0
 11
343.00000126057631
 21
131.69999999999999
 31
0.0
  0
LINE
  5
19B6B
  8
3
 10
333.30000093647561
 20
128.4000000558793
 30
0.0
 11
333.30000093647561
 21
129.70000005587929
 31
0.0
  0
LINE
  5
19B6C
  8
3
 10
333.50000156604989
 20
128.0535888039112
 30
0.0
 11
333.30000093647561
 21
128.4000000558793
 31
0.0
  0
LINE
  5
19B6D
  8
0
 10
331.5000012382244
 20
128.4000000558793
 30
0.0
 11
333.50000156604989
 21
128.4000000558793
 31
0.0
  0
LINE
  5
19B6E
  8
3
 10
331.7000009364757
 20
128.4000000558793
 30
0.0
 11
331.7000009364757
 21
129.70000005587929
 31
0.0
  0
LINE
  5
19B6F
  8
3
 10
331.50000030690182
 20
128.0535888039112
 30
0.0
 11
331.7000009364757
 21
128.4000000558793
 31
0.0
  0
LINE
  5
19B93
  8
0
 10
340.76319307604177
 20
139.60420579910269
 30
0.0
 11
344.67101142325748
 21
138.18187599331139
 31
0.0
  0
CIRCLE
  5
1A6EA
  8
0
 10
247.49999953532259
 20
-41.594764855300546
 30
0.0
 40
1.200000000000045
  0
CIRCLE
  5
1A6EB
  8
0
 10
247.4999995353223
 20
-52.094764855300433
 30
0.0
 40
7.0
  0
CIRCLE
  5
1A6EC
  8
0
 10
236.9999995353223
 20
-52.094764855300433
 30
0.0
 40
1.199999999999988
  0
CIRCLE
  5
1A6ED
  8
0
 10
257.99999953532227
 20
-52.094764855300433
 30
0.0
 40
1.199999999999988
  0
CIRCLE
  5
1A6EE
  8
0
 10
247.4999995353223
 20
-62.59476485530049
 30
0.0
 40
1.199999999999988
  0
LINE
  5
1A6EF
  8
1
 10
247.4999995353237
 20
-67.09476485530044
 30
0.0
 11
247.4999995353225
 21
-37.094764855300433
 31
0.0
  0
LINE
  5
1A6F0
  8
1
 10
261.49999953532239
 20
-52.094764855300539
 30
0.0
 11
233.49999953532239
 21
-52.094764855300539
 31
0.0
  0
CIRCLE
  5
1A6F1
  8
1
 10
247.4999995353231
 20
-52.094764855300539
 30
0.0
 40
10.5
  0
CIRCLE
  5
1A6F2
  8
2
 10
236.9999995353231
 20
-52.094764855300539
 30
0.0
 40
2.2000000000000002
  0
CIRCLE
  5
1A6F3
  8
2
 10
247.4999995353227
 20
-41.594764855300546
 30
0.0
 40
2.2000000000000002
  0
CIRCLE
  5
1A6F4
  8
2
 10
257.99999953532313
 20
-52.094764855300539
 30
0.0
 40
2.2000000000000002
  0
CIRCLE
  5
1A6F5
  8
2
 10
247.49999953532361
 20
-62.594764855300539
 30
0.0
 40
2.2000000000000002
  0
CIRCLE
  5
1A6F6
  8
0
 10
402.49999861145147
 20
-52.094764855300497
 30
0.0
 40
13.00000000000006
  0
CIRCLE
  5
1A6F7
  8
0
 10
402.49999861145147
 20
-41.59476485530061
 30
0.0
 40
1.1999999999999309
  0
CIRCLE
  5
1A6F8
  8
0
 10
402.49999861145147
 20
-52.094764855300497
 30
0.0
 40
7.0
  0
CIRCLE
  5
1A6F9
  8
0
 10
412.99999861145159
 20
-52.094764855300497
 30
0.0
 40
1.199999999999988
  0
CIRCLE
  5
1A6FA
  8
0
 10
391.99999861145159
 20
-52.094764855300497
 30
0.0
 40
1.199999999999988
  0
CIRCLE
  5
1A6FB
  8
0
 10
402.49999861145147
 20
-62.594764855300546
 30
0.0
 40
1.199999999999988
  0
LINE
  5
1A6FC
  8
1
 10
402.49999861145221
 20
-68.09476485530061
 30
0.0
 11
402.49999861145091
 21
-36.094764855300497
 31
0.0
  0
LINE
  5
1A6FD
  8
1
 10
418.49999861145147
 20
-52.094764855300497
 30
0.0
 11
386.49999861145159
 21
-52.09476485530061
 31
0.0
  0
CIRCLE
  5
1A6FE
  8
1
 10
402.49999861145147
 20
-52.09476485530061
 30
0.0
 40
10.5
  0
CIRCLE
  5
1A6FF
  8
2
 10
402.49999861145119
 20
-41.59476485530061
 30
0.0
 40
2.2000000000000002
  0
CIRCLE
  5
1A700
  8
2
 10
412.99999861145159
 20
-52.094764855300497
 30
0.0
 40
2.2000000000000002
  0
CIRCLE
  5
1A701
  8
2
 10
391.9999986114517
 20
-52.094764855300497
 30
0.0
 40
2.2000000000000002
  0
CIRCLE
  5
1A702
  8
2
 10
402.4999986114517
 20
-62.594764855300546
 30
0.0
 40
2.2000000000000002
  0
LINE
  5
1A704
  8
1
 10
177.49999976766131
 20
-117.8732704456429
 30
0.0
 11
177.49999976766131
 21
-55.573270612442791
 31
0.0
  0
LINE
  5
1A709
  8
0
 10
165.09999976766119
 20
-97.87327044564293
 30
0.0
 11
165.09999976766119
 21
-99.873270445642916
 31
0.0
  0
LINE
  5
1A70A
  8
0
 10
168.8999997676612
 20
-99.873270445642916
 30
0.0
 11
168.8999997676612
 21
-97.87327044564293
 31
0.0
  0
LINE
  5
1A70B
  8
0
 10
167.99999976766131
 20
-97.87327044564293
 30
0.0
 11
167.99999976766131
 21
-95.373270445642959
 31
0.0
  0
LINE
  5
1A70C
  8
0
 10
165.99999976766131
 20
-95.373270445642959
 30
0.0
 11
165.99999976766131
 21
-97.87327044564293
 31
0.0
  0
LINE
  5
1A70D
  8
0
 10
186.09999976766119
 20
-97.87327044564293
 30
0.0
 11
186.09999976766119
 21
-99.873270445642916
 31
0.0
  0
LINE
  5
1A70E
  8
0
 10
189.89999976766109
 20
-99.873270445642916
 30
0.0
 11
189.89999976766109
 21
-97.87327044564293
 31
0.0
  0
LINE
  5
1A70F
  8
0
 10
188.99999976766111
 20
-97.87327044564293
 30
0.0
 11
188.99999976766111
 21
-95.373270445642959
 31
0.0
  0
LINE
  5
1A710
  8
0
 10
186.99999976766111
 20
-95.373270445642959
 30
0.0
 11
186.99999976766111
 21
-97.87327044564293
 31
0.0
  0
LINE
  5
1A711
  8
0
 10
174.49999976766131
 20
-60.363270445678438
 30
0.0
 11
174.49999976766131
 21
-60.373270445642959
 31
0.0
  0
LINE
  5
1A712
  8
0
 10
180.49999976766131
 20
-60.373270445642959
 30
0.0
 11
180.49999976766131
 21
-60.363270445678438
 31
0.0
  0
LINE
  5
1A713
  8
0
 10
186.75881881276371
 20
-60.710569992195069
 30
0.0
 11
185.56358304141881
 21
-60.390307532498412
 31
0.0
  0
LINE
  5
1A714
  8
0
 10
169.43641649390369
 20
-60.390307532498412
 30
0.0
 11
168.24118072255871
 21
-60.710569992195069
 31
0.0
  0
ARC
  5
1A715
  8
0
 10
186.49999976766139
 20
-61.676495818484142
 30
0.0
 40
0.9999999999999715
 50
359.99999999999841
 51
75.00000000000891
  0
ARC
  5
1A716
  8
0
 10
168.49999976766111
 20
-61.67649581848417
 30
0.0
 40
0.99999999999999
 50
104.9999999999911
 51
180.0
  0
LINE
  5
1A717
  8
0
 10
167.49999976766111
 20
-61.67649581848417
 30
0.0
 11
167.49999976766111
 21
-77.873270445642959
 31
0.0
  0
LINE
  5
1A718
  8
0
 10
187.49999976766131
 20
-77.873270445642959
 30
0.0
 11
187.49999976766131
 21
-61.67649581848417
 31
0.0
  0
ARC
  5
1A719
  8
0
 10
169.56582601645491
 20
-60.873270445642959
 30
0.0
 40
0.5
 50
90.0
 51
105.00000000000119
  0
ARC
  5
1A71A
  8
0
 10
185.43417351886751
 20
-60.873270445643037
 30
0.0
 40
0.5000000000000849
 50
74.99999999999541
 51
89.999999999993491
  0
ARC
  5
1A71B
  8
0
 10
186.99999976766131
 20
-77.873270445642987
 30
0.0
 40
0.4999999999999716
 50
269.99999999999682
 51
0.0000000000032569
  0
ARC
  5
1A71C
  8
0
 10
167.99999976766119
 20
-77.873270445642959
 30
0.0
 40
0.5
 50
180.0
 51
270.0
  0
ARC
  5
1A71D
  8
0
 10
165.49999976766111
 20
-87.361240268945721
 30
0.0
 40
0.5
 50
109.9999999999965
 51
179.99999999999841
  0
ARC
  5
1A71E
  8
0
 10
189.49999976766119
 20
-87.361240268945721
 30
0.0
 40
0.5
 50
0.0
 51
69.999999999996504
  0
LINE
  5
1A71F
  8
0
 10
164.99999976766111
 20
-87.361240268945721
 30
0.0
 11
164.99999976766111
 21
-94.873270445642945
 31
0.0
  0
LINE
  5
1A720
  8
0
 10
189.99999976766131
 20
-94.873270445642945
 30
0.0
 11
189.99999976766131
 21
-87.361240268945721
 31
0.0
  0
LINE
  5
1A721
  8
0
 10
164.99999976766111
 20
-94.873270445642945
 30
0.0
 11
165.49999976766119
 21
-95.373270445642959
 31
0.0
  0
LINE
  5
1A722
  8
0
 10
189.49999976766111
 20
-95.373270445642959
 30
0.0
 11
189.99999976766131
 21
-94.873270445642945
 31
0.0
  0
LINE
  5
1A723
  8
0
 10
189.671009839324
 20
-86.891393958552783
 30
0.0
 11
185.76319171033089
 21
-85.469064478673431
 31
0.0
  0
ARC
  5
1A724
  8
0
 10
185.89999976766109
 20
-85.09318743035908
 30
0.0
 40
0.3999999999999844
 50
180.0
 51
250.0000000000035
  0
ARC
  5
1A725
  8
0
 10
169.09999976766119
 20
-85.09318743035908
 30
0.0
 40
0.3999999999999941
 50
290.00000000000341
 51
0.0
  0
LINE
  5
1A726
  8
0
 10
169.49999976766111
 20
-78.373270445642959
 30
0.0
 11
169.49999976766111
 21
-85.09318743035908
 31
0.0
  0
LINE
  5
1A728
  8
0
 10
185.49999976766119
 20
-85.09318743035908
 30
0.0
 11
185.49999976766119
 21
-78.373270445642959
 31
0.0
  0
LINE
  5
1A729
  8
0
 10
170.49999976766111
 20
-100.3732704456429
 30
0.0
 11
170.99999976766111
 21
-100.8732704456429
 31
0.0
  0
LINE
  5
1A72B
  8
0
 10
183.99999976766131
 20
-100.8732704456429
 30
0.0
 11
184.49999976766131
 21
-100.3732704456429
 31
0.0
  0
ARC
  5
1A72E
  8
0
 10
183.8999997676612
 20
-101.27327044564289
 30
0.0
 40
0.4000000000000057
 50
90.0
 51
179.99999999999841
  0
ARC
  5
1A72F
  8
0
 10
171.09999976766119
 20
-101.27327044564289
 30
0.0
 40
0.4000000000000057
 50
0.0
 51
90.0
  0
LINE
  5
1A730
  8
0
 10
171.49999976766111
 20
-110.8732704456429
 30
0.0
 11
172.03589815252349
 21
-112.8732704456429
 31
0.0
  0
LINE
  5
1A731
  8
0
 10
182.9641013827989
 20
-112.8732704456429
 30
0.0
 11
183.49999976766131
 21
-110.8732704456429
 31
0.0
  0
LINE
  5
1A732
  8
0
 10
171.49999976766111
 20
-101.27327044564289
 30
0.0
 11
171.49999976766111
 21
-110.8732704456429
 31
0.0
  0
LINE
  5
1A733
  8
0
 10
183.49999976766131
 20
-110.8732704456429
 30
0.0
 11
183.49999976766131
 21
-101.27327044564289
 31
0.0
  0
LINE
  5
1A735
  8
0
 10
165.09999976766119
 20
-99.873270445642916
 30
0.0
 11
168.8999997676612
 21
-99.873270445642916
 31
0.0
  0
LINE
  5
1A736
  8
0
 10
186.09999976766119
 20
-99.873270445642916
 30
0.0
 11
189.89999976766109
 21
-99.873270445642916
 31
0.0
  0
LINE
  5
1A738
  8
0
 10
180.49999976766131
 20
-60.363270445678438
 30
0.0
 11
174.49999976766111
 21
-60.363270445678438
 31
0.0
  0
ARC
  5
1A739
  8
0
 10
160.5369878436145
 20
-26.790792655916452
 30
0.0
 40
40.996997187030267
 50
295.53409796739021
 51
298.28215654951651
  0
LINE
  5
1A73A
  8
0
 10
178.20866840401561
 20
-63.783568768618693
 30
0.0
 11
176.7913311313068
 21
-63.783568768618693
 31
0.0
  0
LINE
  5
1A73B
  8
0
 10
175.03806121779809
 20
-77.873270445642959
 30
0.0
 11
175.03806121779809
 21
-62.893771444923907
 31
0.0
  0
ARC
  5
1A73C
  8
0
 10
194.01087174193401
 20
-27.681695954369111
 30
0.0
 40
39.998222454720278
 50
241.68352645497569
 51
244.50021902811861
  0
LINE
  5
1A73D
  8
0
 10
179.96193831752419
 20
-62.893771444923907
 30
0.0
 11
179.96193831752419
 21
-77.873270445642959
 31
0.0
  0
ARC
  5
1A73E
  8
0
 10
179.48018446779599
 20
-77.891576271818849
 30
0.0
 40
0.4821015193918918
 50
272.35548564453057
 51
2.1760951536751652
  0
ARC
  5
1A73F
  8
0
 10
174.3915847553406
 20
-77.891576271818764
 30
0.0
 40
0.4821015193920026
 50
177.8239048463345
 51
267.64451435545959
  0
ARC
  5
1A740
  8
0
 10
175.51981506752639
 20
-77.891576271818764
 30
0.0
 40
0.4821015193919611
 50
177.82390484633129
 51
267.64451435545959
  0
LINE
  5
1A741
  8
0
 10
180.0486219967724
 20
-62.817642942329599
 30
0.0
 11
179.96193831752419
 21
-62.893771444923907
 31
0.0
  0
POLYLINE
  5
1A742
  8
0
 66
     1
 10
0.0
 20
0.0
 30
0.0
 70
   128
  0
VERTEX
  5
1ACAD
  8
0
 10
175.03806121779809
 20
-62.893771444923907
 30
0.0
  0
VERTEX
  5
1ACAE
  8
0
 10
175.0322020933244
 20
-62.887034901294442
 30
0.0
  0
VERTEX
  5
1ACAF
  8
0
 10
174.95137753854999
 20
-62.817642942329599
 30
0.0
  0
SEQEND
  5
1ACB0
  8
0
  0
ARC
  5
1A743
  8
0
 10
180.6084147799819
 20
-77.891576271818735
 30
0.0
 40
0.4821015193919576
 50
272.35548564453057
 51
2.1760951536670521
  0
LINE
  5
1A744
  8
0
 10
181.09016862971021
 20
-77.873270445642959
 30
0.0
 11
181.09016862971021
 21
-62.205222508664122
 31
0.0
  0
POLYLINE
  5
1A745
  8
0
 66
     1
 10
0.0
 20
0.0
 30
0.0
 70
   128
  0
VERTEX
  5
1ACB1
  8
0
 10
181.09016862971021
 20
-62.205222508664122
 30
0.0
  0
VERTEX
  5
1ACB2
  8
0
 10
180.56892069325639
 20
-62.50567001952777
 30
0.0
  0
VERTEX
  5
1ACB3
  8
0
 10
180.0486219967724
 20
-62.817642942329599
 30
0.0
  0
SEQEND
  5
1ACB4
  8
0
  0
LINE
  5
1A746
  8
0
 10
173.90983090561269
 20
-62.205222508664349
 30
0.0
 11
173.90983090561221
 21
-77.873270445642959
 31
0.0
  0
POLYLINE
  5
1A747
  8
0
 66
     1
 10
0.0
 20
0.0
 30
0.0
 70
   128
  0
VERTEX
  5
1ACB5
  8
0
 10
174.95137753854999
 20
-62.817642942329599
 30
0.0
  0
VERTEX
  5
1ACB6
  8
0
 10
174.4311163524215
 20
-62.505692117237629
 30
0.0
  0
VERTEX
  5
1ACB7
  8
0
 10
173.90983090561269
 20
-62.205222508664349
 30
0.0
  0
SEQEND
  5
1ACB8
  8
0
  0
POLYLINE
  5
1A748
  8
0
 66
     1
 10
0.0
 20
0.0
 30
0.0
 70
   128
  0
VERTEX
  5
1ACB9
  8
0
 10
183.12026995010029
 20
-78.373270445642959
 30
0.0
  0
VERTEX
  5
1ACBA
  8
0
 10
183.17797838797981
 20
-78.363663085844564
 30
0.0
  0
VERTEX
  5
1ACBB
  8
0
 10
183.2334691229548
 20
-78.335210211898584
 30
0.0
  0
VERTEX
  5
1ACBC
  8
0
 10
183.28460967719991
 20
-78.289005251794194
 30
0.0
  0
VERTEX
  5
1ACBD
  8
0
 10
183.32943474789531
 20
-78.226823836236235
 30
0.0
  0
VERTEX
  5
1ACBE
  8
0
 10
183.36622173271229
 20
-78.151055562152749
 30
0.0
  0
VERTEX
  5
1ACBF
  8
0
 10
183.39355692845501
 20
-78.064612161825494
 30
0.0
  0
VERTEX
  5
1ACC0
  8
0
 10
183.41038985888059
 20
-77.970815606651001
 30
0.0
  0
VERTEX
  5
1ACC1
  8
0
 10
183.41607364391291
 20
-77.873270445642959
 30
0.0
  0
SEQEND
  5
1ACC2
  8
0
  0
ARC
  5
1A749
  8
0
 10
180.78291246605221
 20
-62.0705168388792
 30
0.0
 40
0.335487656372032
 50
336.32664034440103
 51
350.8601620999562
  0
POLYLINE
  5
1A74A
  8
0
 66
     1
 10
0.0
 20
0.0
 30
0.0
 70
   128
  0
VERTEX
  5
1ACC3
  8
0
 10
173.88585889825251
 20
-62.123807234844712
 30
0.0
  0
VERTEX
  5
1ACC4
  8
0
 10
173.89572142771641
 20
-62.166598629665152
 30
0.0
  0
VERTEX
  5
1ACC5
  8
0
 10
173.90983090561269
 20
-62.205222508664349
 30
0.0
  0
SEQEND
  5
1ACC6
  8
0
  0
POLYLINE
  5
1A74B
  8
0
 66
     1
 10
0.0
 20
0.0
 30
0.0
 70
   128
  0
VERTEX
  5
1ACC7
  8
0
 10
171.58392589140939
 20
-62.205222508685161
 30
0.0
  0
VERTEX
  5
1ACC8
  8
0
 10
171.5877884411095
 20
-61.940859163584662
 30
0.0
  0
VERTEX
  5
1ACC9
  8
0
 10
171.59955720375601
 20
-61.67649581848417
 30
0.0
  0
SEQEND
  5
1ACCA
  8
0
  0
ARC
  5
1A74C
  8
0
 10
168.43542492193251
 20
-83.915571559529241
 30
0.0
 40
22.463041265884229
 50
75.957587832479035
 51
81.902416386122653
  0
LINE
  5
1A74D
  8
0
 10
171.58392589140939
 20
-77.873270445642959
 30
0.0
 11
171.58392589140939
 21
-62.205222508685161
 31
0.0
  0
LINE
  5
1A74E
  8
0
 10
183.41607364391291
 20
-62.205222508664122
 30
0.0
 11
183.41607364391291
 21
-77.873270445642959
 31
0.0
  0
ARC
  5
1A74F
  8
0
 10
186.56457461348609
 20
-83.915571560022329
 30
0.0
 40
22.463041266385929
 50
98.097583613943144
 51
104.0424121674538
  0
POLYLINE
  5
1A750
  8
0
 66
     1
 10
0.0
 20
0.0
 30
0.0
 70
   128
  0
VERTEX
  5
1ACCB
  8
0
 10
183.4004423315665
 20
-61.67649581848417
 30
0.0
  0
VERTEX
  5
1ACCC
  8
0
 10
183.41220045078819
 20
-61.94049727246334
 30
0.0
  0
VERTEX
  5
1ACCD
  8
0
 10
183.41607364391291
 20
-62.205222508664122
 30
0.0
  0
SEQEND
  5
1ACCE
  8
0
  0
POLYLINE
  5
1A751
  8
0
 66
     1
 10
0.0
 20
0.0
 30
0.0
 70
   128
  0
VERTEX
  5
1ACCF
  8
0
 10
171.58392589140939
 20
-77.873270445642959
 30
0.0
  0
VERTEX
  5
1ACD0
  8
0
 10
171.5896096764418
 20
-77.970815606651001
 30
0.0
  0
VERTEX
  5
1ACD1
  8
0
 10
171.6064426068674
 20
-78.064612161825494
 30
0.0
  0
VERTEX
  5
1ACD2
  8
0
 10
171.6337778026101
 20
-78.151055562152749
 30
0.0
  0
VERTEX
  5
1ACD3
  8
0
 10
171.6705647874272
 20
-78.226823836236235
 30
0.0
  0
VERTEX
  5
1ACD4
  8
0
 10
171.71538985812251
 20
-78.289005251794194
 30
0.0
  0
VERTEX
  5
1ACD5
  8
0
 10
171.76653041236759
 20
-78.335210211898584
 30
0.0
  0
VERTEX
  5
1ACD6
  8
0
 10
171.82202114734261
 20
-78.363663085844564
 30
0.0
  0
VERTEX
  5
1ACD7
  8
0
 10
171.87972958522209
 20
-78.373270445642959
 30
0.0
  0
SEQEND
  5
1ACD8
  8
0
  0
LINE
  5
1A752
  8
0
 10
169.56582601645491
 20
-60.373270445642959
 30
0.0
 11
185.43417350963759
 21
-60.373270445642959
 31
0.0
  0
LINE
  5
1A753
  8
0
 10
186.99999976766131
 20
-78.373270445642959
 30
0.0
 11
167.99999976766131
 21
-78.373270445642959
 31
0.0
  0
LINE
  5
1A754
  8
0
 10
164.99999976766111
 20
-94.873270445642945
 30
0.0
 11
189.99999976766131
 21
-94.873270445642945
 31
0.0
  0
ARC
  5
1A756
  8
0
 10
179.9684316875144
 20
-86.881473153249885
 30
0.0
 40
1.1894372978978289
 50
34.306973537495452
 51
74.64759629640433
  0
ARC
  5
1A757
  8
0
 10
179.66937913666021
 20
-87.800376962114356
 30
0.0
 40
2.1551982063389632
 50
73.448620331476207
 51
90.472267052021948
  0
ARC
  5
1A758
  8
0
 10
179.58154208647531
 20
-86.806438045894055
 30
0.0
 40
1.1632984577670109
 50
86.546624330153364
 51
113.7849963840162
  0
POLYLINE
  5
1A759
  8
0
 66
     1
 10
0.0
 20
0.0
 30
0.0
 70
   128
  0
VERTEX
  5
1ACD9
  8
0
 10
179.0697763037148
 20
-86.210628503979308
 30
0.0
  0
VERTEX
  5
1ACDA
  8
0
 10
178.966967472075
 20
-85.979378316090575
 30
0.0
  0
VERTEX
  5
1ACDB
  8
0
 10
178.98212483688181
 20
-85.858325544589718
 30
0.0
  0
VERTEX
  5
1ACDC
  8
0
 10
179.11237720057571
 20
-85.741943982180246
 30
0.0
  0
SEQEND
  5
1ACDD
  8
0
  0
ARC
  5
1A75A
  8
0
 10
179.99049623853779
 20
-85.562890565708273
 30
0.0
 40
1.1257395946914639
 50
215.12686363457851
 51
258.0871568501243
  0
ARC
  5
1A75B
  8
0
 10
180.34603766427389
 20
-84.199317858428046
 30
0.0
 40
2.5342071079505222
 50
256.58551141111008
 51
270.82568301013958
  0
ARC
  5
1A75C
  8
0
 10
180.4593707422151
 20
-85.319503520323735
 30
0.0
 40
1.41584355280328
 50
266.88998856360269
 51
288.12951895656488
  0
POLYLINE
  5
1A75D
  8
0
 66
     1
 10
0.0
 20
0.0
 30
0.0
 70
   128
  0
VERTEX
  5
1ACDE
  8
0
 10
180.95094222299721
 20
-86.211074664815087
 30
0.0
  0
VERTEX
  5
1ACDF
  8
0
 10
181.0475227839955
 20
-86.413813550519706
 30
0.0
  0
VERTEX
  5
1ACE0
  8
0
 10
181.05021131367559
 20
-86.511784218326625
 30
0.0
  0
VERTEX
  5
1ACE1
  8
0
 10
180.99672117849991
 20
-86.60568107353896
 30
0.0
  0
VERTEX
  5
1ACE2
  8
0
 10
180.89993325438741
 20
-86.665058290254365
 30
0.0
  0
SEQEND
  5
1ACE3
  8
0
  0
LINE
  5
1A75E
  8
0
 10
176.86035277916361
 20
-86.284098233211637
 30
0.0
 11
176.86035277916361
 21
-86.153980522824767
 31
0.0
  0
POLYLINE
  5
1A75F
  8
0
 66
     1
 10
0.0
 20
0.0
 30
0.0
 70
   128
  0
VERTEX
  5
1ACE4
  8
0
 10
177.88557699441009
 20
-86.279582039936656
 30
0.0
  0
VERTEX
  5
1ACE5
  8
0
 10
177.75657989436661
 20
-86.278144696263993
 30
0.0
  0
VERTEX
  5
1ACE6
  8
0
 10
176.86035277916361
 20
-86.284098233211637
 30
0.0
  0
SEQEND
  5
1ACE7
  8
0
  0
LINE
  5
1A760
  8
0
 10
177.88557699441009
 20
-86.603158800804465
 30
0.0
 11
177.88557699441009
 21
-86.279582039936656
 31
0.0
  0
POLYLINE
  5
1A761
  8
0
 66
     1
 10
0.0
 20
0.0
 30
0.0
 70
   128
  0
VERTEX
  5
1ACE8
  8
0
 10
176.5296352903743
 20
-86.615820846306917
 30
0.0
  0
VERTEX
  5
1ACE9
  8
0
 10
177.71522002364799
 20
-86.601521599122336
 30
0.0
  0
VERTEX
  5
1ACEA
  8
0
 10
177.88557699441009
 20
-86.603158800804465
 30
0.0
  0
SEQEND
  5
1ACEB
  8
0
  0
LINE
  5
1A762
  8
0
 10
176.5296352903743
 20
-86.745731455921145
 30
0.0
 11
176.5296352903743
 21
-86.615820846306917
 31
0.0
  0
POLYLINE
  5
1A763
  8
0
 66
     1
 10
0.0
 20
0.0
 30
0.0
 70
   128
  0
VERTEX
  5
1ACEC
  8
0
 10
178.39174291369261
 20
-86.743467387091698
 30
0.0
  0
VERTEX
  5
1ACED
  8
0
 10
178.15250739131591
 20
-86.73774874590174
 30
0.0
  0
VERTEX
  5
1ACEE
  8
0
 10
176.5296352903743
 20
-86.745731455921145
 30
0.0
  0
SEQEND
  5
1ACEF
  8
0
  0
LINE
  5
1A764
  8
0
 10
178.39174291369261
 20
-85.665715778933077
 30
0.0
 11
178.39174291369261
 21
-86.743467387091698
 31
0.0
  0
POLYLINE
  5
1A765
  8
0
 66
     1
 10
0.0
 20
0.0
 30
0.0
 70
   128
  0
VERTEX
  5
1ACF0
  8
0
 10
177.88557699441009
 20
-85.652322636660585
 30
0.0
  0
VERTEX
  5
1ACF1
  8
0
 10
178.32631942817929
 20
-85.663391376005066
 30
0.0
  0
VERTEX
  5
1ACF2
  8
0
 10
178.39174291369261
 20
-85.665715778933077
 30
0.0
  0
SEQEND
  5
1ACF3
  8
0
  0
LINE
  5
1A766
  8
0
 10
177.88557699441009
 20
-86.149304986688264
 30
0.0
 11
177.88557699441009
 21
-85.652322636660585
 31
0.0
  0
POLYLINE
  5
1A767
  8
0
 66
     1
 10
0.0
 20
0.0
 30
0.0
 70
   128
  0
VERTEX
  5
1ACF4
  8
0
 10
176.86035277916361
 20
-86.153980522824767
 30
0.0
  0
VERTEX
  5
1ACF5
  8
0
 10
177.7557830740389
 20
-86.147809510675629
 30
0.0
  0
VERTEX
  5
1ACF6
  8
0
 10
177.88557699441009
 20
-86.149304986688264
 30
0.0
  0
SEQEND
  5
1ACF7
  8
0
  0
LINE
  5
1A768
  8
0
 10
174.30450984873229
 20
-86.28712010962829
 30
0.0
 11
174.39475648550351
 21
-86.152946000556597
 31
0.0
  0
LINE
  5
1A769
  8
0
 10
175.29498070075019
 20
-86.282071048169698
 30
0.0
 11
174.30450984873229
 21
-86.28712010962829
 31
0.0
  0
LINE
  5
1A76A
  8
0
 10
175.0791735258623
 20
-86.602574705342604
 30
0.0
 11
175.29498070075019
 21
-86.282071048169698
 31
0.0
  0
LINE
  5
1A76B
  8
0
 10
173.769195947387
 20
-86.615971589614844
 30
0.0
 11
175.0791735258623
 21
-86.602574705342604
 31
0.0
  0
LINE
  5
1A76C
  8
0
 10
173.67894931061571
 20
-86.749931164626958
 30
0.0
 11
173.769195947387
 21
-86.615971589614844
 31
0.0
  0
LINE
  5
1A76D
  8
0
 10
175.4928506559072
 20
-86.747155521930907
 30
0.0
 11
173.67894931061571
 21
-86.749931164626958
 31
0.0
  0
LINE
  5
1A76E
  8
0
 10
176.2237923599431
 20
-85.663522901592103
 30
0.0
 11
175.4928506559072
 21
-86.747155521930907
 31
0.0
  0
LINE
  5
1A76F
  8
0
 10
175.7198685931269
 20
-85.649866157631664
 30
0.0
 11
176.2237923599431
 21
-85.663522901592103
 31
0.0
  0
LINE
  5
1A770
  8
0
 10
175.38522733752151
 20
-86.147714653477465
 30
0.0
 11
175.7198685931269
 21
-85.649866157631664
 31
0.0
  0
LINE
  5
1A771
  8
0
 10
174.39475648550351
 20
-86.152946000556597
 30
0.0
 11
175.38522733752151
 21
-86.147714653477465
 31
0.0
  0
ARC
  5
1A772
  8
0
 10
173.21742780841481
 20
-101.9750396612406
 30
0.0
 40
16.87317508015715
 50
110.6775528612943
 51
115.2973285001716
  0
LINE
  5
1A773
  8
0
 10
166.0072550402308
 20
-86.719960312427929
 30
0.0
 11
167.15129688937509
 21
-86.283196031308464
 31
0.0
  0
LINE
  5
1A774
  8
0
 10
167.15129688937509
 20
-86.283196031308464
 30
0.0
 11
170.7875450963798
 21
-86.283196031308464
 31
0.0
  0
LINE
  5
1A775
  8
0
 10
170.7875450963798
 20
-86.283196031308464
 30
0.0
 11
169.8549136359992
 21
-86.719960312427929
 31
0.0
  0
POLYLINE
  5
1A776
  8
0
 66
     1
 10
0.0
 20
0.0
 30
0.0
 70
   128
  0
VERTEX
  5
1ACF8
  8
0
 10
180.5372650929524
 20
-86.559501790862612
 30
0.0
  0
VERTEX
  5
1ACF9
  8
0
 10
180.5862324696873
 20
-86.515134054596558
 30
0.0
  0
VERTEX
  5
1ACFA
  8
0
 10
180.57258854183129
 20
-86.372808934539805
 30
0.0
  0
VERTEX
  5
1ACFB
  8
0
 10
180.47560590012731
 20
-86.198481891444544
 30
0.0
  0
SEQEND
  5
1ACFC
  8
0
  0
POLYLINE
  5
1A777
  8
0
 66
     1
 10
0.0
 20
0.0
 30
0.0
 70
   128
  0
VERTEX
  5
1ACFD
  8
0
 10
169.8549136359992
 20
-86.719960312427929
 30
0.0
  0
VERTEX
  5
1ACFE
  8
0
 10
172.12340530418999
 20
-86.171046532246123
 30
0.0
  0
VERTEX
  5
1ACFF
  8
0
 10
174.4218184777302
 20
-85.737240679909121
 30
0.0
  0
SEQEND
  5
1AD00
  8
0
  0
LINE
  5
1A778
  8
0
 10
174.4218184777302
 20
-85.737240679909121
 30
0.0
 11
168.49999976766111
 21
-85.737240679909121
 31
0.0
  0
ARC
  5
1A779
  8
0
 10
180.30759946829241
 20
-85.405993276322874
 30
0.0
 40
1.1974926476498939
 50
254.37839398693029
 51
269.40253804758919
  0
ARC
  5
1A77A
  8
0
 10
180.2286672885084
 20
-85.813720920521106
 30
0.0
 40
0.7842986163796747
 50
209.3608566499793
 51
251.91005668321009
  0
POLYLINE
  5
1A77B
  8
0
 66
     1
 10
0.0
 20
0.0
 30
0.0
 70
   128
  0
VERTEX
  5
1AD01
  8
0
 10
179.492422043625
 20
-85.826444944534728
 30
0.0
  0
VERTEX
  5
1AD02
  8
0
 10
179.43886367813721
 20
-85.876015834755322
 30
0.0
  0
VERTEX
  5
1AD03
  8
0
 10
179.4496987356527
 20
-86.025892830987857
 30
0.0
  0
VERTEX
  5
1AD04
  8
0
 10
179.54511262658471
 20
-86.198269153929459
 30
0.0
  0
SEQEND
  5
1AD05
  8
0
  0
ARC
  5
1A77C
  8
0
 10
179.72207049282721
 20
-86.362921046650499
 30
0.0
 40
0.5835623517348857
 50
88.056490486779666
 51
113.1742353771135
  0
ARC
  5
1A77D
  8
0
 10
179.72407240946561
 20
-86.891713124766909
 30
0.0
 40
1.1121610137954381
 50
73.25220443594192
 51
89.083510770679965
  0
ARC
  5
1A77E
  8
0
 10
179.76304373655989
 20
-86.588922724563403
 30
0.0
 40
0.8125200804376797
 50
28.720067807131919
 51
69.728856086184152
  0
LINE
  5
1A77F
  8
0
 10
170.49999976766131
 20
-100.3732704456429
 30
0.0
 11
184.49999976766131
 21
-100.3732704456429
 31
0.0
  0
ARC
  5
1A780
  8
0
 10
180.3115825863473
 20
-86.004702934328179
 30
0.0
 40
0.59894437554706
 50
268.42426410874509
 51
292.13563505610932
  0
LINE
  5
1A782
  8
0
 10
185.76319171033089
 20
-85.469064478673431
 30
0.0
 11
169.2368078249915
 21
-85.469064478673431
 31
0.0
  0
LINE
  5
1A783
  8
0
 10
169.49999976766111
 20
-85.09318743035908
 30
0.0
 11
185.49999976766119
 21
-85.09318743035908
 31
0.0
  0
LINE
  5
1A784
  8
0
 10
171.49999976766111
 20
-110.8732704456429
 30
0.0
 11
183.49999976766131
 21
-110.8732704456429
 31
0.0
  0
LINE
  5
1A785
  8
0
 10
182.9641013827989
 20
-112.8732704456429
 30
0.0
 11
172.03589815252349
 21
-112.8732704456429
 31
0.0
  0
LINE
  5
1A786
  8
0
 10
187.49999976766131
 20
-61.67649581848417
 30
0.0
 11
183.4004423315665
 21
-61.67649581848417
 31
0.0
  0
LINE
  5
1A787
  8
0
 10
171.59955720375601
 20
-61.67649581848417
 30
0.0
 11
167.49999976766111
 21
-61.67649581848417
 31
0.0
  0
LINE
  5
1A788
  8
0
 10
189.99999976766131
 20
-87.361240268945721
 30
0.0
 11
164.99999976766111
 21
-87.361240268945721
 31
0.0
  0
LINE
  5
1A789
  8
0
 10
177.49999976766131
 20
-86.891393958552783
 30
0.0
 11
189.671009839324
 21
-86.891393958552783
 31
0.0
  0
LINE
  5
1A78A
  8
0
 10
165.32898969599839
 20
-86.891393958552783
 30
0.0
 11
177.49999976766131
 21
-86.891393958552783
 31
0.0
  0
LINE
  5
1A78C
  8
0
 10
165.3289896959985
 20
-86.891393958553522
 30
0.0
 11
169.2368078249915
 21
-85.469064478673943
 31
0.0
  0
ARC
  5
1A78D
  8
0
 10
177.49999976766131
 20
-107.2724547755459
 30
0.0
 40
2.4756872503795342
 50
237.41644841054841
 51
302.58355158945147
  0
LINE
  5
1A78E
  8
0
 10
178.83322893025851
 20
-109.35848626181161
 30
0.0
 11
178.83322893025851
 21
-109.38809904389861
 31
0.0
  0
ARC
  5
1A78F
  8
0
 10
177.49976575020139
 20
-107.27327044564289
 30
0.0
 40
2.5001248073982572
 50
302.23266710157981
 51
57.767332898420193
  0
LINE
  5
1A790
  8
0
 10
178.83322893025851
 20
-105.15844184738729
 30
0.0
 11
178.83322893025851
 21
-105.18805462947429
 31
0.0
  0
ARC
  5
1A791
  8
0
 10
177.49999976766131
 20
-107.2756065663491
 30
0.0
 40
2.4769685280902878
 50
57.435388564004093
 51
122.5646114359959
  0
LINE
  5
1A792
  8
0
 10
176.1667706050639
 20
-105.18805462947429
 30
0.0
 11
176.1667706050639
 21
-105.15844184738729
 31
0.0
  0
ARC
  5
1A793
  8
0
 10
177.500233785121
 20
-107.27327044564289
 30
0.0
 40
2.5001248073982718
 50
122.23266710157981
 51
237.76733289842019
  0
LINE
  5
1A794
  8
0
 10
176.1667706050639
 20
-109.38809904389861
 30
0.0
 11
176.1667706050639
 21
-109.35848626181161
 31
0.0
  0
LINE
  5
1A795
  8
3
 10
167.79999946591249
 20
-96.673270445642913
 30
0.0
 11
167.79999946591249
 21
-95.373270445642959
 31
0.0
  0
LINE
  5
1A796
  8
3
 10
168.0000000954868
 20
-97.019681697611091
 30
0.0
 11
167.79999946591249
 21
-96.673270445642913
 31
0.0
  0
LINE
  5
1A797
  8
0
 10
165.99999976766131
 20
-96.673270445642913
 30
0.0
 11
168.0000000954868
 21
-96.673270445642913
 31
0.0
  0
LINE
  5
1A798
  8
3
 10
166.19999946591261
 20
-96.673270445642913
 30
0.0
 11
166.19999946591261
 21
-95.373270445642959
 31
0.0
  0
LINE
  5
1A799
  8
3
 10
165.9999988363387
 20
-97.019681697611091
 30
0.0
 11
166.19999946591261
 21
-96.673270445642913
 31
0.0
  0
LINE
  5
1A79A
  8
1
 10
166.99999946591279
 20
-101.8732705406378
 30
0.0
 11
166.99999946591279
 21
-93.37327044564293
 31
0.0
  0
LINE
  5
1A7A0
  8
3
 10
188.79999976766081
 20
-96.673270445642913
 30
0.0
 11
188.79999976766081
 21
-95.373270445642959
 31
0.0
  0
LINE
  5
1A7A1
  8
3
 10
189.0000003972352
 20
-97.019681697611091
 30
0.0
 11
188.79999976766081
 21
-96.673270445642913
 31
0.0
  0
LINE
  5
1A7A2
  8
0
 10
187.00000006940971
 20
-96.673270445642913
 30
0.0
 11
189.0000003972352
 21
-96.673270445642913
 31
0.0
  0
LINE
  5
1A7A3
  8
3
 10
187.19999976766101
 20
-96.673270445642913
 30
0.0
 11
187.19999976766101
 21
-95.373270445642959
 31
0.0
  0
LINE
  5
1A7A4
  8
3
 10
186.99999913808711
 20
-97.019681697611091
 30
0.0
 11
187.19999976766101
 21
-96.673270445642913
 31
0.0
  0
LINE
  5
1A7A5
  8
1
 10
187.99999946591259
 20
-101.8732705406378
 30
0.0
 11
187.99999946591279
 21
-93.37327044564293
 31
0.0
  0
LINE
  5
1A7C6
  8
0
 10
170.49999976766111
 20
-95.373270445643016
 30
0.0
 11
170.49999976766111
 21
-100.873270445643
 31
0.0
  0
LINE
  5
1A7C7
  8
0
 10
184.49999976766111
 20
-100.873270445643
 30
0.0
 11
184.49999976766111
 21
-95.373270445643016
 31
0.0
  0
LINE
  5
1A7C8
  8
0
 10
185.79999976766109
 20
-97.873270445643016
 30
0.0
 11
185.79999976766109
 21
-101.073270445643
 31
0.0
  0
LINE
  5
1A7C9
  8
0
 10
190.19999976766121
 20
-101.073270445643
 30
0.0
 11
190.19999976766121
 21
-97.873270445643016
 31
0.0
  0
LINE
  5
1A7CA
  8
0
 10
185.79999976766109
 20
-101.073270445643
 30
0.0
 11
190.19999976766121
 21
-101.073270445643
 31
0.0
  0
LINE
  5
1A7CB
  8
0
 10
186.49999976766111
 20
-95.373270445642959
 30
0.0
 11
186.79999976766109
 21
-95.67327044564297
 31
0.0
  0
LINE
  5
1A7CC
  8
0
 10
186.79999976766109
 20
-95.67327044564297
 30
0.0
 11
186.79999976766109
 21
-97.873270445643016
 31
0.0
  0
LINE
  5
1A7CD
  8
0
 10
185.79999976766109
 20
-101.073270445643
 30
0.0
 11
185.49999976766111
 21
-101.3732704456429
 31
0.0
  0
LINE
  5
1A7CE
  8
0
 10
184.49999976766111
 20
-100.873270445643
 30
0.0
 11
184.99999976766111
 21
-101.3732704456429
 31
0.0
  0
LINE
  5
1A7CF
  8
0
 10
165.79999976766109
 20
-95.67327044564297
 30
0.0
 11
165.79999976766109
 21
-97.873270445643016
 31
0.0
  0
LINE
  5
1A7D0
  8
0
 10
165.79999976766109
 20
-95.67327044564297
 30
0.0
 11
165.99999976766111
 21
-95.67327044564297
 31
0.0
  0
LINE
  5
1A7D1
  8
0
 10
167.99999976766119
 20
-95.67327044564297
 30
0.0
 11
168.19999976766121
 21
-95.67327044564297
 31
0.0
  0
LINE
  5
1A7D2
  8
0
 10
168.19999976766121
 20
-97.873270445643016
 30
0.0
 11
168.19999976766121
 21
-95.67327044564297
 31
0.0
  0
LINE
  5
1A7D3
  8
0
 10
164.79999976766109
 20
-97.873270445643016
 30
0.0
 11
164.79999976766109
 21
-101.073270445643
 31
0.0
  0
LINE
  5
1A7D4
  8
0
 10
169.19999976766121
 20
-101.073270445643
 30
0.0
 11
169.19999976766121
 21
-97.873270445643016
 31
0.0
  0
LINE
  5
1A7D5
  8
0
 10
164.79999976766109
 20
-101.073270445643
 30
0.0
 11
169.19999976766121
 21
-101.073270445643
 31
0.0
  0
LINE
  5
1A7D6
  8
0
 10
168.19999976766121
 20
-95.67327044564297
 30
0.0
 11
168.49999976766111
 21
-95.373270445642959
 31
0.0
  0
LINE
  5
1A7D7
  8
0
 10
165.49999976766111
 20
-95.373270445642959
 30
0.0
 11
165.79999976766109
 21
-95.67327044564297
 31
0.0
  0
LINE
  5
1A7D8
  8
0
 10
189.19999976766121
 20
-95.67327044564297
 30
0.0
 11
189.49999976766111
 21
-95.373270445642959
 31
0.0
  0
LINE
  5
1A7D9
  8
0
 10
190.49999976766111
 20
-101.3732704456429
 30
0.0
 11
190.19999976766121
 21
-101.073270445643
 31
0.0
  0
LINE
  5
1A7DA
  8
0
 10
189.19999976766121
 20
-97.873270445643016
 30
0.0
 11
189.19999976766121
 21
-95.67327044564297
 31
0.0
  0
LINE
  5
1A7DB
  8
0
 10
190.19999976766121
 20
-97.873270445643016
 30
0.0
 11
185.79999976766109
 21
-97.873270445642106
 31
0.0
  0
LINE
  5
1A7DC
  8
0
 10
183.49999976766111
 20
-101.3732704456429
 30
0.0
 11
207.49999976766119
 21
-101.3732704456429
 31
0.0
  0
LINE
  5
1A7DD
  8
0
 10
169.99999976766111
 20
-101.3732704456429
 30
0.0
 11
170.49999976766111
 21
-100.873270445643
 31
0.0
  0
LINE
  5
1A7DE
  8
0
 10
186.79999976766109
 20
-95.67327044564297
 30
0.0
 11
186.99999976766111
 21
-95.67327044564297
 31
0.0
  0
LINE
  5
1A7DF
  8
0
 10
188.99999976766111
 20
-95.67327044564297
 30
0.0
 11
189.19999976766121
 21
-95.67327044564297
 31
0.0
  0
LINE
  5
1A7E0
  8
0
 10
164.79999976766109
 20
-101.073270445643
 30
0.0
 11
164.49999976766111
 21
-101.373270445643
 31
0.0
  0
LINE
  5
1A7E1
  8
0
 10
207.49999976766131
 20
-95.373270445642959
 30
0.0
 11
147.49999976766111
 21
-95.373270445642959
 31
0.0
  0
LINE
  5
1A7E2
  8
0
 10
147.49999976766111
 20
-101.3732704456429
 30
0.0
 11
171.499999767661
 21
-101.3732704456431
 31
0.0
  0
LINE
  5
1A7E3
  8
0
 10
169.49999976766111
 20
-101.3732704456429
 30
0.0
 11
169.19999976766121
 21
-101.073270445643
 31
0.0
  0
LINE
  5
1A7E4
  8
0
 10
169.19999976766121
 20
-97.873270445643016
 30
0.0
 11
164.79999976766121
 21
-97.873270445643016
 31
0.0
  0
LINE
  5
1A7E5
  8
0
 10
184.49999976766111
 20
-100.873270445643
 30
0.0
 11
170.499999767661
 21
-100.873270445643
 31
0.0
  0
LINE
  5
1A7F4
  8
0
 10
185.49999976766119
 20
-95.373270445642959
 30
0.0
 11
184.49999976766131
 21
-96.373270445642959
 31
0.0
  0
LINE
  5
1A7F5
  8
0
 10
170.49999976766131
 20
-96.373270445642959
 30
0.0
 11
169.49999976766131
 21
-95.373270445642959
 31
0.0
  0
LINE
  5
1A7F7
  8
0
 10
255.79999953532311
 20
-101.0732704456429
 30
0.0
 11
255.4999995353229
 21
-101.3732704456429
 31
0.0
  0
LINE
  5
1A7F8
  8
0
 10
255.79999953532311
 20
-101.0732704456429
 30
0.0
 11
260.19999953532317
 21
-101.0732704456429
 31
0.0
  0
LINE
  5
1A7F9
  8
0
 10
260.4999995353229
 20
-101.3732704456429
 30
0.0
 11
260.19999953532317
 21
-101.0732704456429
 31
0.0
  0
LINE
  5
1A7FA
  8
0
 10
240.4999995353229
 20
-96.373270445642959
 30
0.0
 11
240.4999995353229
 21
-100.8732704456429
 31
0.0
  0
LINE
  5
1A7FB
  8
0
 10
254.4999995353229
 20
-96.373270445642959
 30
0.0
 11
240.4999995353229
 21
-96.373270445642959
 31
0.0
  0
LINE
  5
1A7FC
  8
0
 10
254.4999995353229
 20
-100.8732704456429
 30
0.0
 11
254.4999995353229
 21
-96.373270445642959
 31
0.0
  0
LINE
  5
1A7FD
  8
0
 10
240.4999995353229
 20
-100.8732704456429
 30
0.0
 11
254.4999995353229
 21
-100.8732704456429
 31
0.0
  0
LINE
  5
1A7FE
  8
0
 10
259.19999953532317
 20
-95.67327044564297
 30
0.0
 11
259.4999995353229
 21
-95.373270445642959
 31
0.0
  0
LINE
  5
1A7FF
  8
0
 10
256.79999953532308
 20
-95.67327044564297
 30
0.0
 11
259.19999953532317
 21
-95.67327044564297
 31
0.0
  0
LINE
  5
1A800
  8
0
 10
256.4999995353229
 20
-95.373270445642959
 30
0.0
 11
256.79999953532308
 21
-95.67327044564297
 31
0.0
  0
LINE
  5
1A801
  8
0
 10
256.79999953532308
 20
-95.67327044564297
 30
0.0
 11
256.79999953532308
 21
-97.873270445642959
 31
0.0
  0
LINE
  5
1A802
  8
0
 10
259.19999953532317
 20
-97.873270445642959
 30
0.0
 11
259.19999953532317
 21
-95.67327044564297
 31
0.0
  0
LINE
  5
1A803
  8
0
 10
255.79999953532311
 20
-97.873270445642959
 30
0.0
 11
255.79999953532311
 21
-101.0732704456429
 31
0.0
  0
LINE
  5
1A804
  8
0
 10
260.19999953532317
 20
-101.0732704456429
 30
0.0
 11
260.19999953532317
 21
-97.873270445642959
 31
0.0
  0
LINE
  5
1A805
  8
0
 10
234.79999953532311
 20
-101.0732704456429
 30
0.0
 11
234.4999995353229
 21
-101.3732704456429
 31
0.0
  0
LINE
  5
1A806
  8
0
 10
234.79999953532311
 20
-101.0732704456429
 30
0.0
 11
239.1999995353232
 21
-101.0732704456429
 31
0.0
  0
LINE
  5
1A807
  8
0
 10
239.4999995353229
 20
-101.3732704456429
 30
0.0
 11
239.1999995353232
 21
-101.0732704456429
 31
0.0
  0
LINE
  5
1A808
  8
0
 10
239.9999995353229
 20
-101.3732704456429
 30
0.0
 11
240.4999995353229
 21
-100.8732704456429
 31
0.0
  0
LINE
  5
1A809
  8
0
 10
254.4999995353229
 20
-100.8732704456429
 30
0.0
 11
254.9999995353229
 21
-101.3732704456429
 31
0.0
  0
LINE
  5
1A80A
  8
0
 10
238.1999995353232
 20
-95.67327044564297
 30
0.0
 11
238.4999995353229
 21
-95.373270445642959
 31
0.0
  0
LINE
  5
1A80B
  8
0
 10
235.79999953532311
 20
-95.67327044564297
 30
0.0
 11
238.1999995353232
 21
-95.67327044564297
 31
0.0
  0
LINE
  5
1A80C
  8
0
 10
235.4999995353229
 20
-95.373270445642959
 30
0.0
 11
235.79999953532311
 21
-95.67327044564297
 31
0.0
  0
LINE
  5
1A80D
  8
0
 10
235.79999953532311
 20
-95.67327044564297
 30
0.0
 11
235.79999953532311
 21
-97.873270445642959
 31
0.0
  0
LINE
  5
1A80E
  8
0
 10
238.1999995353232
 20
-97.873270445642959
 30
0.0
 11
238.1999995353232
 21
-95.67327044564297
 31
0.0
  0
LINE
  5
1A80F
  8
0
 10
234.79999953532311
 20
-97.873270445642959
 30
0.0
 11
234.79999953532311
 21
-101.0732704456429
 31
0.0
  0
LINE
  5
1A810
  8
0
 10
239.1999995353232
 20
-101.0732704456429
 30
0.0
 11
239.1999995353232
 21
-97.873270445642959
 31
0.0
  0
LINE
  5
1A811
  8
0
 10
255.4999995353229
 20
-95.373270445642959
 30
0.0
 11
254.4999995353229
 21
-96.373270445642959
 31
0.0
  0
LINE
  5
1A812
  8
0
 10
240.4999995353229
 20
-96.373270445642959
 30
0.0
 11
239.4999995353229
 21
-95.373270445642959
 31
0.0
  0
LINE
  5
1A813
  8
0
 10
239.1999995353232
 20
-97.873270445642959
 30
0.0
 11
234.7999995353232
 21
-97.873270445642959
 31
0.0
  0
LINE
  5
1A814
  8
0
 10
277.4999995353229
 20
-95.373270445642959
 30
0.0
 11
217.4999995353229
 21
-95.373270445642959
 31
0.0
  0
LINE
  5
1A815
  8
0
 10
217.4999995353229
 20
-101.3732704456429
 30
0.0
 11
277.49999953532301
 21
-101.3732704456429
 31
0.0
  0
LINE
  5
1A816
  8
0
 10
260.19999953532317
 20
-97.873270445642959
 30
0.0
 11
255.799999535323
 21
-97.873270445642959
 31
0.0
  0
LINE
  5
1A817
  8
1
 10
247.4999995353229
 20
-106.3732704456429
 30
0.0
 11
247.49999953532301
 21
-90.373270445642959
 31
0.0
  0
LINE
  5
1A818
  8
1
 10
236.9999995353229
 20
-103.3732704456429
 30
0.0
 11
236.99999953532279
 21
-93.373270445642945
 31
0.0
  0
LINE
  5
1A819
  8
1
 10
257.9999995353229
 20
-103.3732704456429
 30
0.0
 11
257.99999953532301
 21
-93.373270445642945
 31
0.0
  0
LINE
  5
1A81B
  8
1
 10
332.49999984726293
 20
-127.8732704456429
 30
0.0
 11
332.49999984726293
 21
-65.573270612442784
 31
0.0
  0
LINE
  5
1A820
  8
0
 10
320.09999984726278
 20
-107.8732704456429
 30
0.0
 11
320.09999984726278
 21
-109.8732704456429
 31
0.0
  0
LINE
  5
1A821
  8
0
 10
323.8999998472629
 20
-109.8732704456429
 30
0.0
 11
323.8999998472629
 21
-107.8732704456429
 31
0.0
  0
LINE
  5
1A822
  8
0
 10
322.99999984726293
 20
-107.8732704456429
 30
0.0
 11
322.99999984726293
 21
-105.3732704456429
 31
0.0
  0
LINE
  5
1A823
  8
0
 10
320.99999984726293
 20
-105.3732704456429
 30
0.0
 11
320.99999984726293
 21
-107.8732704456429
 31
0.0
  0
LINE
  5
1A824
  8
0
 10
341.09999984726278
 20
-107.8732704456429
 30
0.0
 11
341.09999984726278
 21
-109.8732704456429
 31
0.0
  0
LINE
  5
1A825
  8
0
 10
344.89999984726268
 20
-109.8732704456429
 30
0.0
 11
344.89999984726268
 21
-107.8732704456429
 31
0.0
  0
LINE
  5
1A826
  8
0
 10
343.9999998472627
 20
-107.8732704456429
 30
0.0
 11
343.9999998472627
 21
-105.3732704456429
 31
0.0
  0
LINE
  5
1A827
  8
0
 10
341.9999998472627
 20
-105.3732704456429
 30
0.0
 11
341.9999998472627
 21
-107.8732704456429
 31
0.0
  0
LINE
  5
1A828
  8
0
 10
329.49999984726293
 20
-70.363270445678438
 30
0.0
 11
329.49999984726293
 21
-70.373270445642959
 31
0.0
  0
LINE
  5
1A829
  8
0
 10
335.49999984726293
 20
-70.373270445642959
 30
0.0
 11
335.49999984726293
 21
-70.363270445678438
 31
0.0
  0
LINE
  5
1A82A
  8
0
 10
341.7588188923653
 20
-70.710569992195076
 30
0.0
 11
340.56358312102037
 21
-70.390307532498412
 31
0.0
  0
LINE
  5
1A82B
  8
0
 10
324.43641657350531
 20
-70.390307532498412
 30
0.0
 11
323.24118080216027
 21
-70.710569992195076
 31
0.0
  0
ARC
  5
1A82C
  8
0
 10
341.49999984726293
 20
-71.676495818484142
 30
0.0
 40
0.9999999999999715
 50
359.99999999999841
 51
75.000000000008896
  0
ARC
  5
1A82D
  8
0
 10
323.4999998472627
 20
-71.67649581848417
 30
0.0
 40
0.99999999999999
 50
104.9999999999911
 51
180.0
  0
LINE
  5
1A82E
  8
0
 10
322.49999984726281
 20
-71.67649581848417
 30
0.0
 11
322.49999984726281
 21
-87.873270445642959
 31
0.0
  0
LINE
  5
1A82F
  8
0
 10
342.49999984726293
 20
-87.873270445642959
 30
0.0
 11
342.49999984726293
 21
-71.67649581848417
 31
0.0
  0
ARC
  5
1A830
  8
0
 10
324.56582609605653
 20
-70.873270445642959
 30
0.0
 40
0.5
 50
90.0
 51
105.00000000000119
  0
ARC
  5
1A831
  8
0
 10
340.43417359846899
 20
-70.873270445643044
 30
0.0
 40
0.5000000000000849
 50
74.99999999999541
 51
89.999999999993491
  0
ARC
  5
1A832
  8
0
 10
341.99999984726293
 20
-87.873270445642973
 30
0.0
 40
0.4999999999999716
 50
269.99999999999682
 51
0.0000000000032569
  0
ARC
  5
1A833
  8
0
 10
322.9999998472627
 20
-87.873270445642959
 30
0.0
 40
0.5
 50
180.0
 51
270.0
  0
ARC
  5
1A834
  8
0
 10
320.49999984726281
 20
-97.361240268945721
 30
0.0
 40
0.5
 50
109.9999999999965
 51
179.99999999999841
  0
ARC
  5
1A835
  8
0
 10
344.49999984726293
 20
-97.361240268945721
 30
0.0
 40
0.5
 50
0.0
 51
69.999999999996461
  0
LINE
  5
1A836
  8
0
 10
319.99999984726281
 20
-97.361240268945721
 30
0.0
 11
319.99999984726281
 21
-104.8732704456429
 31
0.0
  0
LINE
  5
1A837
  8
0
 10
344.99999984726293
 20
-104.8732704456429
 30
0.0
 11
344.99999984726293
 21
-97.361240268945721
 31
0.0
  0
LINE
  5
1A838
  8
0
 10
319.99999984726281
 20
-104.8732704456429
 30
0.0
 11
320.49999984726293
 21
-105.3732704456429
 31
0.0
  0
LINE
  5
1A839
  8
0
 10
344.49999984726281
 20
-105.3732704456429
 30
0.0
 11
344.99999984726293
 21
-104.8732704456429
 31
0.0
  0
LINE
  5
1A83A
  8
0
 10
344.67100991892562
 20
-96.891393958552783
 30
0.0
 11
340.76319178993248
 21
-95.469064478673431
 31
0.0
  0
ARC
  5
1A83B
  8
0
 10
340.89999984726268
 20
-95.09318743035908
 30
0.0
 40
0.3999999999999844
 50
180.0
 51
250.0000000000035
  0
ARC
  5
1A83C
  8
0
 10
324.09999984726278
 20
-95.09318743035908
 30
0.0
 40
0.4000000000000039
 50
290.00000000000688
 51
0.0
  0
LINE
  5
1A83D
  8
0
 10
324.49999984726281
 20
-88.373270445642945
 30
0.0
 11
324.49999984726281
 21
-95.09318743035908
 31
0.0
  0
LINE
  5
1A83F
  8
0
 10
340.49999984726293
 20
-95.09318743035908
 30
0.0
 11
340.49999984726293
 21
-88.373270445642945
 31
0.0
  0
LINE
  5
1A840
  8
0
 10
325.4999998472627
 20
-110.3732704456429
 30
0.0
 11
325.99999984726281
 21
-110.8732704456429
 31
0.0
  0
LINE
  5
1A842
  8
0
 10
338.99999984726293
 20
-110.8732704456429
 30
0.0
 11
339.49999984726293
 21
-110.3732704456429
 31
0.0
  0
ARC
  5
1A845
  8
0
 10
338.8999998472629
 20
-111.27327044564289
 30
0.0
 40
0.4000000000000057
 50
90.0
 51
179.99999999999841
  0
ARC
  5
1A846
  8
0
 10
326.09999984726278
 20
-111.27327044564289
 30
0.0
 40
0.4000000000000057
 50
0.0
 51
90.0
  0
LINE
  5
1A847
  8
0
 10
326.49999984726281
 20
-120.8732704456429
 30
0.0
 11
327.03589823212508
 21
-122.8732704456429
 31
0.0
  0
LINE
  5
1A848
  8
0
 10
337.96410146240049
 20
-122.8732704456429
 30
0.0
 11
338.49999984726293
 21
-120.8732704456429
 31
0.0
  0
LINE
  5
1A849
  8
0
 10
326.49999984726281
 20
-111.27327044564289
 30
0.0
 11
326.49999984726281
 21
-120.8732704456429
 31
0.0
  0
LINE
  5
1A84A
  8
0
 10
338.49999984726293
 20
-120.8732704456429
 30
0.0
 11
338.49999984726293
 21
-111.27327044564289
 31
0.0
  0
LINE
  5
1A84C
  8
0
 10
320.09999984726278
 20
-109.8732704456429
 30
0.0
 11
323.8999998472629
 21
-109.8732704456429
 31
0.0
  0
LINE
  5
1A84D
  8
0
 10
341.09999984726278
 20
-109.8732704456429
 30
0.0
 11
344.89999984726268
 21
-109.8732704456429
 31
0.0
  0
LINE
  5
1A84F
  8
0
 10
335.49999984726293
 20
-70.363270445678438
 30
0.0
 11
329.4999998472627
 21
-70.363270445678438
 31
0.0
  0
ARC
  5
1A850
  8
0
 10
315.53698792321609
 20
-36.790792655916448
 30
0.0
 40
40.996997187030267
 50
295.53409796739021
 51
298.28215654951651
  0
LINE
  5
1A851
  8
0
 10
333.2086684836172
 20
-73.783568768618693
 30
0.0
 11
331.79133121090842
 21
-73.783568768618693
 31
0.0
  0
LINE
  5
1A852
  8
0
 10
330.03806129739968
 20
-87.873270445642959
 30
0.0
 11
330.03806129739968
 21
-72.893771444923914
 31
0.0
  0
ARC
  5
1A853
  8
0
 10
349.0108718215356
 20
-37.681695954369111
 30
0.0
 40
39.998222454720278
 50
241.68352645497569
 51
244.50021902811869
  0
LINE
  5
1A854
  8
0
 10
334.96193839712578
 20
-72.893771444923914
 30
0.0
 11
334.96193839712578
 21
-87.873270445642959
 31
0.0
  0
ARC
  5
1A855
  8
0
 10
334.48018454739758
 20
-87.891576271818835
 30
0.0
 40
0.4821015193918918
 50
272.35548564453057
 51
2.1760951536751949
  0
ARC
  5
1A856
  8
0
 10
329.39158483494219
 20
-87.891576271818764
 30
0.0
 40
0.4821015193920026
 50
177.82390484633461
 51
267.64451435545959
  0
ARC
  5
1A857
  8
0
 10
330.51981514712821
 20
-87.891576271818764
 30
0.0
 40
0.4821015193919611
 50
177.82390484633129
 51
267.64451435545959
  0
LINE
  5
1A858
  8
0
 10
335.0486220763741
 20
-72.817642942329599
 30
0.0
 11
334.96193839712578
 21
-72.893771444923914
 31
0.0
  0
POLYLINE
  5
1A859
  8
0
 66
     1
 10
0.0
 20
0.0
 30
0.0
 70
   128
  0
VERTEX
  5
1AD06
  8
0
 10
330.03806129739968
 20
-72.893771444923914
 30
0.0
  0
VERTEX
  5
1AD07
  8
0
 10
330.03220217292602
 20
-72.887034901294442
 30
0.0
  0
VERTEX
  5
1AD08
  8
0
 10
329.95137761815158
 20
-72.817642942329599
 30
0.0
  0
SEQEND
  5
1AD09
  8
0
  0
ARC
  5
1A85A
  8
0
 10
335.60841485958349
 20
-87.891576271818735
 30
0.0
 40
0.4821015193919576
 50
272.35548564453057
 51
2.176095153666997
  0
LINE
  5
1A85B
  8
0
 10
336.0901687093118
 20
-87.873270445642959
 30
0.0
 11
336.0901687093118
 21
-72.205222508664122
 31
0.0
  0
POLYLINE
  5
1A85C
  8
0
 66
     1
 10
0.0
 20
0.0
 30
0.0
 70
   128
  0
VERTEX
  5
1AD0A
  8
0
 10
336.0901687093118
 20
-72.205222508664122
 30
0.0
  0
VERTEX
  5
1AD0B
  8
0
 10
335.56892077285812
 20
-72.50567001952777
 30
0.0
  0
VERTEX
  5
1AD0C
  8
0
 10
335.0486220763741
 20
-72.817642942329599
 30
0.0
  0
SEQEND
  5
1AD0D
  8
0
  0
LINE
  5
1A85D
  8
0
 10
328.90983098521428
 20
-72.205222508664349
 30
0.0
 11
328.90983098521377
 21
-87.873270445642959
 31
0.0
  0
POLYLINE
  5
1A85E
  8
0
 66
     1
 10
0.0
 20
0.0
 30
0.0
 70
   128
  0
VERTEX
  5
1AD0E
  8
0
 10
329.95137761815158
 20
-72.817642942329599
 30
0.0
  0
VERTEX
  5
1AD0F
  8
0
 10
329.4311164320232
 20
-72.505692117237629
 30
0.0
  0
VERTEX
  5
1AD10
  8
0
 10
328.90983098521428
 20
-72.205222508664349
 30
0.0
  0
SEQEND
  5
1AD11
  8
0
  0
POLYLINE
  5
1A85F
  8
0
 66
     1
 10
0.0
 20
0.0
 30
0.0
 70
   128
  0
VERTEX
  5
1AD12
  8
0
 10
338.12027002970189
 20
-88.373270445642945
 30
0.0
  0
VERTEX
  5
1AD13
  8
0
 10
338.1779784675814
 20
-88.363663085844564
 30
0.0
  0
VERTEX
  5
1AD14
  8
0
 10
338.23346920255642
 20
-88.335210211898584
 30
0.0
  0
VERTEX
  5
1AD15
  8
0
 10
338.2846097568015
 20
-88.289005251794194
 30
0.0
  0
VERTEX
  5
1AD16
  8
0
 10
338.32943482749693
 20
-88.226823836236235
 30
0.0
  0
VERTEX
  5
1AD17
  8
0
 10
338.36622181231388
 20
-88.151055562152749
 30
0.0
  0
VERTEX
  5
1AD18
  8
0
 10
338.39355700805658
 20
-88.064612161825494
 30
0.0
  0
VERTEX
  5
1AD19
  8
0
 10
338.41038993848218
 20
-87.970815606651001
 30
0.0
  0
VERTEX
  5
1AD1A
  8
0
 10
338.4160737235145
 20
-87.873270445642959
 30
0.0
  0
SEQEND
  5
1AD1B
  8
0
  0
ARC
  5
1A860
  8
0
 10
335.78291254565391
 20
-72.0705168388792
 30
0.0
 40
0.335487656372032
 50
336.32664034440103
 51
350.8601620999558
  0
POLYLINE
  5
1A861
  8
0
 66
     1
 10
0.0
 20
0.0
 30
0.0
 70
   128
  0
VERTEX
  5
1AD1C
  8
0
 10
328.88585897785413
 20
-72.123807234844705
 30
0.0
  0
VERTEX
  5
1AD1D
  8
0
 10
328.895721507318
 20
-72.166598629665145
 30
0.0
  0
VERTEX
  5
1AD1E
  8
0
 10
328.90983098521428
 20
-72.205222508664349
 30
0.0
  0
SEQEND
  5
1AD1F
  8
0
  0
POLYLINE
  5
1A862
  8
0
 66
     1
 10
0.0
 20
0.0
 30
0.0
 70
   128
  0
VERTEX
  5
1AD20
  8
0
 10
326.58392597101101
 20
-72.205222508685154
 30
0.0
  0
VERTEX
  5
1AD21
  8
0
 10
326.58778852071111
 20
-71.940859163584662
 30
0.0
  0
VERTEX
  5
1AD22
  8
0
 10
326.59955728335763
 20
-71.67649581848417
 30
0.0
  0
SEQEND
  5
1AD23
  8
0
  0
ARC
  5
1A863
  8
0
 10
323.4354250015341
 20
-93.915571559529241
 30
0.0
 40
22.463041265884229
 50
75.957587832479021
 51
81.902416386122653
  0
LINE
  5
1A864
  8
0
 10
326.58392597101101
 20
-87.873270445642959
 30
0.0
 11
326.58392597101101
 21
-72.205222508685154
 31
0.0
  0
LINE
  5
1A865
  8
0
 10
338.4160737235145
 20
-72.205222508664122
 30
0.0
 11
338.4160737235145
 21
-87.873270445642959
 31
0.0
  0
ARC
  5
1A866
  8
0
 10
341.56457469308771
 20
-93.915571560022329
 30
0.0
 40
22.463041266385929
 50
98.097583613943144
 51
104.0424121674538
  0
POLYLINE
  5
1A867
  8
0
 66
     1
 10
0.0
 20
0.0
 30
0.0
 70
   128
  0
VERTEX
  5
1AD24
  8
0
 10
338.40044241116811
 20
-71.67649581848417
 30
0.0
  0
VERTEX
  5
1AD25
  8
0
 10
338.41220053038978
 20
-71.940497272463347
 30
0.0
  0
VERTEX
  5
1AD26
  8
0
 10
338.4160737235145
 20
-72.205222508664122
 30
0.0
  0
SEQEND
  5
1AD27
  8
0
  0
POLYLINE
  5
1A868
  8
0
 66
     1
 10
0.0
 20
0.0
 30
0.0
 70
   128
  0
VERTEX
  5
1AD28
  8
0
 10
326.58392597101101
 20
-87.873270445642959
 30
0.0
  0
VERTEX
  5
1AD29
  8
0
 10
326.58960975604339
 20
-87.970815606651001
 30
0.0
  0
VERTEX
  5
1AD2A
  8
0
 10
326.60644268646899
 20
-88.064612161825494
 30
0.0
  0
VERTEX
  5
1AD2B
  8
0
 10
326.63377788221169
 20
-88.151055562152749
 30
0.0
  0
VERTEX
  5
1AD2C
  8
0
 10
326.67056486702882
 20
-88.226823836236235
 30
0.0
  0
VERTEX
  5
1AD2D
  8
0
 10
326.71538993772413
 20
-88.289005251794194
 30
0.0
  0
VERTEX
  5
1AD2E
  8
0
 10
326.76653049196921
 20
-88.335210211898584
 30
0.0
  0
VERTEX
  5
1AD2F
  8
0
 10
326.82202122694417
 20
-88.363663085844564
 30
0.0
  0
VERTEX
  5
1AD30
  8
0
 10
326.87972966482369
 20
-88.373270445642945
 30
0.0
  0
SEQEND
  5
1AD31
  8
0
  0
LINE
  5
1A869
  8
0
 10
324.56582609605653
 20
-70.373270445642959
 30
0.0
 11
340.43417358923921
 21
-70.373270445642959
 31
0.0
  0
LINE
  5
1A86A
  8
0
 10
341.99999984726293
 20
-88.373270445642945
 30
0.0
 11
322.99999984726293
 21
-88.373270445642945
 31
0.0
  0
LINE
  5
1A86B
  8
0
 10
319.99999984726281
 20
-104.8732704456429
 30
0.0
 11
344.99999984726293
 21
-104.8732704456429
 31
0.0
  0
ARC
  5
1A86D
  8
0
 10
334.96843176711599
 20
-96.881473153249885
 30
0.0
 40
1.1894372978978289
 50
34.306973537494393
 51
74.64759629640433
  0
ARC
  5
1A86E
  8
0
 10
334.66937921626192
 20
-97.800376962114356
 30
0.0
 40
2.1551982063389632
 50
73.448620331476207
 51
90.472267052021948
  0
ARC
  5
1A86F
  8
0
 10
334.58154216607687
 20
-96.806438045894055
 30
0.0
 40
1.1632984577670109
 50
86.546624330153364
 51
113.7849963840162
  0
POLYLINE
  5
1A870
  8
0
 66
     1
 10
0.0
 20
0.0
 30
0.0
 70
   128
  0
VERTEX
  5
1AD32
  8
0
 10
334.06977638331642
 20
-96.210628503979308
 30
0.0
  0
VERTEX
  5
1AD33
  8
0
 10
333.96696755167659
 20
-95.979378316090575
 30
0.0
  0
VERTEX
  5
1AD34
  8
0
 10
333.98212491648337
 20
-95.858325544589718
 30
0.0
  0
VERTEX
  5
1AD35
  8
0
 10
334.11237728017733
 20
-95.741943982180246
 30
0.0
  0
SEQEND
  5
1AD36
  8
0
  0
ARC
  5
1A871
  8
0
 10
334.99049631813932
 20
-95.562890565708273
 30
0.0
 40
1.1257395946914639
 50
215.12686363458059
 51
258.0871568501243
  0
ARC
  5
1A872
  8
0
 10
335.34603774387551
 20
-94.199317858428046
 30
0.0
 40
2.5342071079505222
 50
256.58551141111008
 51
270.82568301013958
  0
ARC
  5
1A873
  8
0
 10
335.45937082181672
 20
-95.319503520323735
 30
0.0
 40
1.41584355280328
 50
266.88998856360269
 51
288.12951895656499
  0
POLYLINE
  5
1A874
  8
0
 66
     1
 10
0.0
 20
0.0
 30
0.0
 70
   128
  0
VERTEX
  5
1AD37
  8
0
 10
335.95094230259878
 20
-96.211074664815115
 30
0.0
  0
VERTEX
  5
1AD38
  8
0
 10
336.04752286359712
 20
-96.413813550519706
 30
0.0
  0
VERTEX
  5
1AD39
  8
0
 10
336.05021139327721
 20
-96.511784218326625
 30
0.0
  0
VERTEX
  5
1AD3A
  8
0
 10
335.9967212581015
 20
-96.60568107353896
 30
0.0
  0
VERTEX
  5
1AD3B
  8
0
 10
335.899933333989
 20
-96.665058290254365
 30
0.0
  0
SEQEND
  5
1AD3C
  8
0
  0
LINE
  5
1A875
  8
0
 10
331.86035285876522
 20
-96.284098233211637
 30
0.0
 11
331.86035285876522
 21
-96.153980522824796
 31
0.0
  0
POLYLINE
  5
1A876
  8
0
 66
     1
 10
0.0
 20
0.0
 30
0.0
 70
   128
  0
VERTEX
  5
1AD3D
  8
0
 10
332.88557707401168
 20
-96.279582039936656
 30
0.0
  0
VERTEX
  5
1AD3E
  8
0
 10
332.7565799739682
 20
-96.278144696263993
 30
0.0
  0
VERTEX
  5
1AD3F
  8
0
 10
331.86035285876522
 20
-96.284098233211637
 30
0.0
  0
SEQEND
  5
1AD40
  8
0
  0
LINE
  5
1A877
  8
0
 10
332.88557707401168
 20
-96.603158800804465
 30
0.0
 11
332.88557707401168
 21
-96.279582039936656
 31
0.0
  0
POLYLINE
  5
1A878
  8
0
 66
     1
 10
0.0
 20
0.0
 30
0.0
 70
   128
  0
VERTEX
  5
1AD41
  8
0
 10
331.52963536997601
 20
-96.615820846306917
 30
0.0
  0
VERTEX
  5
1AD42
  8
0
 10
332.71522010324958
 20
-96.601521599122364
 30
0.0
  0
VERTEX
  5
1AD43
  8
0
 10
332.88557707401168
 20
-96.603158800804465
 30
0.0
  0
SEQEND
  5
1AD44
  8
0
  0
LINE
  5
1A879
  8
0
 10
331.52963536997601
 20
-96.745731455921145
 30
0.0
 11
331.52963536997601
 21
-96.615820846306917
 31
0.0
  0
POLYLINE
  5
1A87A
  8
0
 66
     1
 10
0.0
 20
0.0
 30
0.0
 70
   128
  0
VERTEX
  5
1AD45
  8
0
 10
333.3917429932942
 20
-96.743467387091698
 30
0.0
  0
VERTEX
  5
1AD46
  8
0
 10
333.1525074709175
 20
-96.73774874590174
 30
0.0
  0
VERTEX
  5
1AD47
  8
0
 10
331.52963536997601
 20
-96.745731455921145
 30
0.0
  0
SEQEND
  5
1AD48
  8
0
  0
LINE
  5
1A87B
  8
0
 10
333.3917429932942
 20
-95.665715778933077
 30
0.0
 11
333.3917429932942
 21
-96.743467387091698
 31
0.0
  0
POLYLINE
  5
1A87C
  8
0
 66
     1
 10
0.0
 20
0.0
 30
0.0
 70
   128
  0
VERTEX
  5
1AD49
  8
0
 10
332.88557707401168
 20
-95.652322636660585
 30
0.0
  0
VERTEX
  5
1AD4A
  8
0
 10
333.32631950778091
 20
-95.663391376005066
 30
0.0
  0
VERTEX
  5
1AD4B
  8
0
 10
333.3917429932942
 20
-95.665715778933077
 30
0.0
  0
SEQEND
  5
1AD4C
  8
0
  0
LINE
  5
1A87D
  8
0
 10
332.88557707401168
 20
-96.149304986688264
 30
0.0
 11
332.88557707401168
 21
-95.652322636660585
 31
0.0
  0
POLYLINE
  5
1A87E
  8
0
 66
     1
 10
0.0
 20
0.0
 30
0.0
 70
   128
  0
VERTEX
  5
1AD4D
  8
0
 10
331.86035285876522
 20
-96.153980522824796
 30
0.0
  0
VERTEX
  5
1AD4E
  8
0
 10
332.75578315364061
 20
-96.147809510675657
 30
0.0
  0
VERTEX
  5
1AD4F
  8
0
 10
332.88557707401168
 20
-96.149304986688264
 30
0.0
  0
SEQEND
  5
1AD50
  8
0
  0
LINE
  5
1A87F
  8
0
 10
329.30450992833391
 20
-96.28712010962829
 30
0.0
 11
329.39475656510513
 21
-96.152946000556597
 31
0.0
  0
LINE
  5
1A880
  8
0
 10
330.29498078035181
 20
-96.282071048169726
 30
0.0
 11
329.30450992833391
 21
-96.28712010962829
 31
0.0
  0
LINE
  5
1A881
  8
0
 10
330.07917360546389
 20
-96.602574705342604
 30
0.0
 11
330.29498078035181
 21
-96.282071048169726
 31
0.0
  0
LINE
  5
1A882
  8
0
 10
328.7691960269886
 20
-96.615971589614844
 30
0.0
 11
330.07917360546389
 21
-96.602574705342604
 31
0.0
  0
LINE
  5
1A883
  8
0
 10
328.67894939021733
 20
-96.749931164626958
 30
0.0
 11
328.7691960269886
 21
-96.615971589614844
 31
0.0
  0
LINE
  5
1A884
  8
0
 10
330.4928507355088
 20
-96.747155521930907
 30
0.0
 11
328.67894939021733
 21
-96.749931164626958
 31
0.0
  0
LINE
  5
1A885
  8
0
 10
331.2237924395447
 20
-95.663522901592103
 30
0.0
 11
330.4928507355088
 21
-96.747155521930907
 31
0.0
  0
LINE
  5
1A886
  8
0
 10
330.71986867272858
 20
-95.649866157631664
 30
0.0
 11
331.2237924395447
 21
-95.663522901592103
 31
0.0
  0
LINE
  5
1A887
  8
0
 10
330.38522741712308
 20
-96.147714653477465
 30
0.0
 11
330.71986867272858
 21
-95.649866157631664
 31
0.0
  0
LINE
  5
1A888
  8
0
 10
329.39475656510513
 20
-96.152946000556597
 30
0.0
 11
330.38522741712308
 21
-96.147714653477465
 31
0.0
  0
ARC
  5
1A889
  8
0
 10
328.21742788801652
 20
-111.9750396612406
 30
0.0
 40
16.87317508015715
 50
110.6775528612943
 51
115.2973285001717
  0
LINE
  5
1A88A
  8
0
 10
321.00725511983239
 20
-96.719960312427929
 30
0.0
 11
322.15129696897668
 21
-96.283196031308464
 31
0.0
  0
LINE
  5
1A88B
  8
0
 10
322.15129696897668
 20
-96.283196031308464
 30
0.0
 11
325.78754517598151
 21
-96.283196031308464
 31
0.0
  0
LINE
  5
1A88C
  8
0
 10
325.78754517598151
 20
-96.283196031308464
 30
0.0
 11
324.85491371560079
 21
-96.719960312427929
 31
0.0
  0
POLYLINE
  5
1A88D
  8
0
 66
     1
 10
0.0
 20
0.0
 30
0.0
 70
   128
  0
VERTEX
  5
1AD51
  8
0
 10
335.5372651725541
 20
-96.559501790862612
 30
0.0
  0
VERTEX
  5
1AD52
  8
0
 10
335.58623254928892
 20
-96.515134054596558
 30
0.0
  0
VERTEX
  5
1AD53
  8
0
 10
335.57258862143289
 20
-96.372808934539833
 30
0.0
  0
VERTEX
  5
1AD54
  8
0
 10
335.47560597972893
 20
-96.198481891444544
 30
0.0
  0
SEQEND
  5
1AD55
  8
0
  0
POLYLINE
  5
1A88E
  8
0
 66
     1
 10
0.0
 20
0.0
 30
0.0
 70
   128
  0
VERTEX
  5
1AD56
  8
0
 10
324.85491371560079
 20
-96.719960312427929
 30
0.0
  0
VERTEX
  5
1AD57
  8
0
 10
327.12340538379158
 20
-96.171046532246123
 30
0.0
  0
VERTEX
  5
1AD58
  8
0
 10
329.42181855733179
 20
-95.737240679909121
 30
0.0
  0
SEQEND
  5
1AD59
  8
0
  0
LINE
  5
1A88F
  8
0
 10
329.42181855733179
 20
-95.737240679909121
 30
0.0
 11
323.4999998472627
 21
-95.737240679909121
 31
0.0
  0
ARC
  5
1A890
  8
0
 10
335.30759954789397
 20
-95.405993276322874
 30
0.0
 40
1.1974926476498939
 50
254.37839398693029
 51
269.40253804758919
  0
ARC
  5
1A891
  8
0
 10
335.22866736811
 20
-95.813720920521106
 30
0.0
 40
0.7842986163796747
 50
209.36085664998009
 51
251.91005668321009
  0
POLYLINE
  5
1A892
  8
0
 66
     1
 10
0.0
 20
0.0
 30
0.0
 70
   128
  0
VERTEX
  5
1AD5A
  8
0
 10
334.49242212322667
 20
-95.826444944534728
 30
0.0
  0
VERTEX
  5
1AD5B
  8
0
 10
334.43886375773877
 20
-95.876015834755322
 30
0.0
  0
VERTEX
  5
1AD5C
  8
0
 10
334.44969881525441
 20
-96.025892830987871
 30
0.0
  0
VERTEX
  5
1AD5D
  8
0
 10
334.54511270618627
 20
-96.198269153929459
 30
0.0
  0
SEQEND
  5
1AD5E
  8
0
  0
ARC
  5
1A893
  8
0
 10
334.72207057242878
 20
-96.362921046650527
 30
0.0
 40
0.5835623517348857
 50
88.056490486779666
 51
113.1742353771135
  0
ARC
  5
1A894
  8
0
 10
334.72407248906723
 20
-96.891713124766909
 30
0.0
 40
1.1121610137954381
 50
73.252204435941906
 51
89.083510770679965
  0
ARC
  5
1A895
  8
0
 10
334.76304381616148
 20
-96.588922724563403
 30
0.0
 40
0.8125200804376797
 50
28.720067807132558
 51
69.72885608618418
  0
LINE
  5
1A896
  8
0
 10
325.49999984726293
 20
-110.3732704456429
 30
0.0
 11
339.49999984726293
 21
-110.3732704456429
 31
0.0
  0
ARC
  5
1A897
  8
0
 10
335.31158266594889
 20
-96.004702934328179
 30
0.0
 40
0.59894437554706
 50
268.42426410874509
 51
292.13563505610938
  0
LINE
  5
1A899
  8
0
 10
340.76319178993248
 20
-95.469064478673431
 30
0.0
 11
324.23680790459309
 21
-95.469064478673431
 31
0.0
  0
LINE
  5
1A89A
  8
0
 10
324.49999984726281
 20
-95.09318743035908
 30
0.0
 11
340.49999984726293
 21
-95.09318743035908
 31
0.0
  0
LINE
  5
1A89B
  8
0
 10
326.49999984726281
 20
-120.8732704456429
 30
0.0
 11
338.49999984726293
 21
-120.8732704456429
 31
0.0
  0
LINE
  5
1A89C
  8
0
 10
337.96410146240049
 20
-122.8732704456429
 30
0.0
 11
327.03589823212508
 21
-122.8732704456429
 31
0.0
  0
LINE
  5
1A89D
  8
0
 10
342.49999984726293
 20
-71.67649581848417
 30
0.0
 11
338.40044241116811
 21
-71.67649581848417
 31
0.0
  0
LINE
  5
1A89E
  8
0
 10
326.59955728335763
 20
-71.67649581848417
 30
0.0
 11
322.49999984726281
 21
-71.67649581848417
 31
0.0
  0
LINE
  5
1A89F
  8
0
 10
344.99999984726293
 20
-97.361240268945721
 30
0.0
 11
319.99999984726281
 21
-97.361240268945721
 31
0.0
  0
LINE
  5
1A8A0
  8
0
 10
332.49999984726293
 20
-96.891393958552783
 30
0.0
 11
344.67100991892562
 21
-96.891393958552783
 31
0.0
  0
LINE
  5
1A8A1
  8
0
 10
320.32898977560001
 20
-96.891393958552783
 30
0.0
 11
332.49999984726293
 21
-96.891393958552783
 31
0.0
  0
LINE
  5
1A8A2
  8
0
 10
320.32898977560012
 20
-96.891393958553522
 30
0.0
 11
324.23680790459309
 21
-95.469064478673943
 31
0.0
  0
ARC
  5
1A8A3
  8
0
 10
332.49999984726293
 20
-117.2724547755459
 30
0.0
 40
2.4756872503795342
 50
237.4164484105485
 51
302.58355158945147
  0
LINE
  5
1A8A4
  8
0
 10
333.83322900986008
 20
-119.35848626181161
 30
0.0
 11
333.83322900986008
 21
-119.38809904389861
 31
0.0
  0
ARC
  5
1A8A5
  8
0
 10
332.49976582980298
 20
-117.27327044564289
 30
0.0
 40
2.5001248073982572
 50
302.23266710157981
 51
57.767332898420243
  0
LINE
  5
1A8A6
  8
0
 10
333.83322900986008
 20
-115.15844184738729
 30
0.0
 11
333.83322900986008
 21
-115.18805462947429
 31
0.0
  0
ARC
  5
1A8A7
  8
0
 10
332.49999984726293
 20
-117.2756065663491
 30
0.0
 40
2.4769685280902878
 50
57.435388564004128
 51
122.5646114359959
  0
LINE
  5
1A8A8
  8
0
 10
331.16677068466549
 20
-115.18805462947429
 30
0.0
 11
331.16677068466549
 21
-115.15844184738729
 31
0.0
  0
ARC
  5
1A8A9
  8
0
 10
332.5002338647227
 20
-117.27327044564289
 30
0.0
 40
2.5001248073982718
 50
122.23266710157969
 51
237.76733289842031
  0
LINE
  5
1A8AA
  8
0
 10
331.16677068466549
 20
-119.38809904389861
 30
0.0
 11
331.16677068466549
 21
-119.35848626181161
 31
0.0
  0
LINE
  5
1A8AB
  8
3
 10
322.79999954551408
 20
-106.6732704456429
 30
0.0
 11
322.79999954551408
 21
-105.3732704456429
 31
0.0
  0
LINE
  5
1A8AC
  8
3
 10
323.00000017508842
 20
-107.01968169761101
 30
0.0
 11
322.79999954551408
 21
-106.6732704456429
 31
0.0
  0
LINE
  5
1A8AD
  8
0
 10
320.99999984726293
 20
-106.6732704456429
 30
0.0
 11
323.00000017508842
 21
-106.6732704456429
 31
0.0
  0
LINE
  5
1A8AE
  8
3
 10
321.19999954551417
 20
-106.6732704456429
 30
0.0
 11
321.19999954551417
 21
-105.3732704456429
 31
0.0
  0
LINE
  5
1A8AF
  8
3
 10
320.9999989159403
 20
-107.01968169761101
 30
0.0
 11
321.19999954551417
 21
-106.6732704456429
 31
0.0
  0
LINE
  5
1A8B0
  8
1
 10
321.99999954551441
 20
-111.8732705406378
 30
0.0
 11
321.99999954551441
 21
-103.3732704456429
 31
0.0
  0
LINE
  5
1A8B6
  8
3
 10
343.79999984726243
 20
-106.6732704456429
 30
0.0
 11
343.79999984726243
 21
-105.3732704456429
 31
0.0
  0
LINE
  5
1A8B7
  8
3
 10
344.0000004768367
 20
-107.01968169761101
 30
0.0
 11
343.79999984726243
 21
-106.6732704456429
 31
0.0
  0
LINE
  5
1A8B8
  8
0
 10
342.0000001490111
 20
-106.6732704456429
 30
0.0
 11
344.0000004768367
 21
-106.6732704456429
 31
0.0
  0
LINE
  5
1A8B9
  8
3
 10
342.19999984726252
 20
-106.6732704456429
 30
0.0
 11
342.19999984726257
 21
-105.3732704456429
 31
0.0
  0
LINE
  5
1A8BA
  8
3
 10
341.99999921768858
 20
-107.01968169761101
 30
0.0
 11
342.19999984726252
 21
-106.6732704456429
 31
0.0
  0
LINE
  5
1A8BB
  8
1
 10
342.99999954551441
 20
-111.8732705406378
 30
0.0
 11
342.99999954551441
 21
-103.3732704456429
 31
0.0
  0
LINE
  5
1A8BC
  8
0
 10
325.49999984726293
 20
-105.3732704456429
 30
0.0
 11
325.49999984726293
 21
-110.8732704456429
 31
0.0
  0
LINE
  5
1A8BD
  8
0
 10
339.49999984726293
 20
-110.8732704456429
 30
0.0
 11
339.49999984726293
 21
-105.3732704456429
 31
0.0
  0
LINE
  5
1A8BE
  8
0
 10
319.79999984726282
 20
-107.8732704456429
 30
0.0
 11
319.79999984726282
 21
-111.0732704456429
 31
0.0
  0
LINE
  5
1A8BF
  8
0
 10
324.19999984726269
 20
-111.0732704456429
 30
0.0
 11
324.19999984726269
 21
-107.8732704456429
 31
0.0
  0
LINE
  5
1A8C0
  8
0
 10
319.79999984726282
 20
-111.0732704456429
 30
0.0
 11
324.19999984726269
 21
-111.0732704456429
 31
0.0
  0
LINE
  5
1A8C1
  8
0
 10
345.99999984726293
 20
-95.373270445642959
 30
0.0
 11
345.49999984726293
 21
-95.873270445642945
 31
0.0
  0
LINE
  5
1A8C2
  8
0
 10
345.49999984726293
 20
-95.873270445642945
 30
0.0
 11
341.87373855699002
 21
-95.873270445642945
 31
0.0
  0
LINE
  5
1A8C3
  8
0
 10
323.12626113753549
 20
-95.873270445642945
 30
0.0
 11
319.49999984726293
 21
-95.873270445642945
 31
0.0
  0
LINE
  5
1A8C4
  8
0
 10
319.49999984726293
 20
-95.873270445642945
 30
0.0
 11
318.99999984726293
 21
-95.373270445642916
 31
0.0
  0
LINE
  5
1A8C5
  8
0
 10
302.49999984726293
 20
-95.373270445642731
 30
0.0
 11
324.38557558949151
 21
-95.373270445642959
 31
0.0
  0
LINE
  5
1A8C6
  8
0
 10
340.614424105034
 20
-95.373270445642959
 30
0.0
 11
362.49999984726293
 21
-95.373270445642959
 31
0.0
  0
LINE
  5
1A8C7
  8
0
 10
345.49999984726293
 20
-105.3732704456429
 30
0.0
 11
345.49999984726293
 21
-95.873270445642945
 31
0.0
  0
LINE
  5
1A8C8
  8
0
 10
319.49999984726293
 20
-95.873270445642945
 30
0.0
 11
319.49999984726293
 21
-105.3732704456429
 31
0.0
  0
LINE
  5
1A8C9
  8
0
 10
324.99999984726293
 20
-111.3732704456429
 30
0.0
 11
325.49999984726293
 21
-110.8732704456429
 31
0.0
  0
LINE
  5
1A8CA
  8
0
 10
339.49999984726293
 20
-110.8732704456429
 30
0.0
 11
339.99999984726293
 21
-111.3732704456429
 31
0.0
  0
LINE
  5
1A8CB
  8
0
 10
341.79999984726282
 20
-105.8732704456429
 30
0.0
 11
341.79999984726282
 21
-107.8732704456429
 31
0.0
  0
LINE
  5
1A8CC
  8
0
 10
344.19999984726269
 20
-105.8732704456429
 30
0.0
 11
343.99999984726293
 21
-105.8732704456429
 31
0.0
  0
LINE
  5
1A8CD
  8
0
 10
341.99999984726293
 20
-105.8732704456429
 30
0.0
 11
341.79999984726282
 21
-105.8732704456429
 31
0.0
  0
LINE
  5
1A8CE
  8
0
 10
344.19999984726269
 20
-107.8732704456429
 30
0.0
 11
344.19999984726269
 21
-105.8732704456429
 31
0.0
  0
LINE
  5
1A8CF
  8
0
 10
345.49999984726293
 20
-111.3732704456429
 30
0.0
 11
345.19999984726269
 21
-111.0732704456429
 31
0.0
  0
LINE
  5
1A8D0
  8
0
 10
345.19999984726269
 20
-111.0732704456429
 30
0.0
 11
345.19999984726269
 21
-107.8732704456429
 31
0.0
  0
LINE
  5
1A8D1
  8
0
 10
344.69999984726269
 20
-105.3732704456429
 30
0.0
 11
344.19999984726269
 21
-105.8732704456429
 31
0.0
  0
LINE
  5
1A8D2
  8
0
 10
345.19999984726269
 20
-107.8732704456429
 30
0.0
 11
340.79999984726282
 21
-107.87327044564211
 31
0.0
  0
LINE
  5
1A8D3
  8
0
 10
338.49999984726293
 20
-111.3732704456429
 30
0.0
 11
362.49999984726293
 21
-111.3732704456429
 31
0.0
  0
LINE
  5
1A8D4
  8
0
 10
319.79999984726282
 20
-111.0732704456429
 30
0.0
 11
319.49999984726293
 21
-111.3732704456429
 31
0.0
  0
LINE
  5
1A8D5
  8
0
 10
345.49999984726293
 20
-105.3732704456429
 30
0.0
 11
319.49999984726293
 21
-105.3732704456429
 31
0.0
  0
LINE
  5
1A8D6
  8
0
 10
320.79999984726282
 20
-105.8732704456429
 30
0.0
 11
320.29999984726282
 21
-105.3732704456429
 31
0.0
  0
LINE
  5
1A8D7
  8
0
 10
320.79999984726282
 20
-105.8732704456429
 30
0.0
 11
320.79999984726282
 21
-107.8732704456429
 31
0.0
  0
LINE
  5
1A8D8
  8
0
 10
302.49999984726293
 20
-111.3732704456429
 30
0.0
 11
326.49999984726293
 21
-111.3732704456429
 31
0.0
  0
LINE
  5
1A8D9
  8
0
 10
340.79999984726282
 20
-111.0732704456429
 30
0.0
 11
340.49999984726293
 21
-111.3732704456429
 31
0.0
  0
LINE
  5
1A8DA
  8
0
 10
340.79999984726282
 20
-111.0732704456429
 30
0.0
 11
345.19999984726269
 21
-111.0732704456429
 31
0.0
  0
LINE
  5
1A8DB
  8
0
 10
340.79999984726282
 20
-107.8732704456429
 30
0.0
 11
340.79999984726282
 21
-111.0732704456429
 31
0.0
  0
LINE
  5
1A8DC
  8
0
 10
324.49999984726293
 20
-111.3732704456429
 30
0.0
 11
324.19999984726269
 21
-111.0732704456429
 31
0.0
  0
LINE
  5
1A8DD
  8
0
 10
323.19999984726269
 20
-107.8732704456429
 30
0.0
 11
323.19999984726269
 21
-105.8732704456429
 31
0.0
  0
LINE
  5
1A8DE
  8
0
 10
323.69999984726269
 20
-105.3732704456429
 30
0.0
 11
323.19999984726269
 21
-105.8732704456429
 31
0.0
  0
LINE
  5
1A8DF
  8
0
 10
324.19999984726269
 20
-107.8732704456429
 30
0.0
 11
319.79999984726282
 21
-107.8732704456429
 31
0.0
  0
LINE
  5
1A8E0
  8
0
 10
323.19999984726269
 20
-105.8732704456429
 30
0.0
 11
322.99999984726293
 21
-105.8732704456429
 31
0.0
  0
LINE
  5
1A8E1
  8
0
 10
320.99999984726293
 20
-105.8732704456429
 30
0.0
 11
320.79999984726282
 21
-105.8732704456429
 31
0.0
  0
LINE
  5
1A8E2
  8
0
 10
341.79999984726282
 20
-105.8732704456429
 30
0.0
 11
341.29999984726282
 21
-105.3732704456429
 31
0.0
  0
LINE
  5
1A8E3
  8
0
 10
339.49999984726293
 20
-110.873270445643
 30
0.0
 11
325.49999984726293
 21
-110.8732704456429
 31
0.0
  0
LINE
  5
1A8E5
  8
0
 10
411.79999884378992
 20
-105.8732704456429
 30
0.0
 11
411.79999884378992
 21
-107.8732704456429
 31
0.0
  0
LINE
  5
1A8E6
  8
0
 10
414.19999884379001
 20
-105.8732704456429
 30
0.0
 11
411.79999884378992
 21
-105.8732704456429
 31
0.0
  0
LINE
  5
1A8E7
  8
0
 10
414.19999884379001
 20
-107.8732704456429
 30
0.0
 11
414.19999884379001
 21
-105.8732704456429
 31
0.0
  0
LINE
  5
1A8E8
  8
0
 10
390.79999884378992
 20
-105.8732704456429
 30
0.0
 11
390.79999884378992
 21
-107.8732704456429
 31
0.0
  0
LINE
  5
1A8E9
  8
0
 10
393.19999884379001
 20
-105.8732704456429
 30
0.0
 11
390.79999884378992
 21
-105.8732704456429
 31
0.0
  0
LINE
  5
1A8EA
  8
0
 10
393.19999884379001
 20
-107.8732704456429
 30
0.0
 11
393.19999884379001
 21
-105.8732704456429
 31
0.0
  0
LINE
  5
1A8EB
  8
0
 10
410.79999884378992
 20
-107.8732704456429
 30
0.0
 11
410.79999884378992
 21
-111.073270445643
 31
0.0
  0
LINE
  5
1A8EC
  8
0
 10
415.19999884379001
 20
-111.073270445643
 30
0.0
 11
415.19999884379001
 21
-107.8732704456429
 31
0.0
  0
LINE
  5
1A8ED
  8
0
 10
410.79999884378992
 20
-111.073270445643
 30
0.0
 11
415.19999884379001
 21
-111.073270445643
 31
0.0
  0
LINE
  5
1A8EE
  8
0
 10
395.49999884379002
 20
-106.3732704456429
 30
0.0
 11
395.49999884379002
 21
-110.8732704456429
 31
0.0
  0
LINE
  5
1A8EF
  8
0
 10
409.49999884379002
 20
-106.3732704456429
 30
0.0
 11
395.49999884379002
 21
-106.3732704456429
 31
0.0
  0
LINE
  5
1A8F0
  8
0
 10
409.49999884379002
 20
-110.8732704456429
 30
0.0
 11
409.49999884379002
 21
-106.3732704456429
 31
0.0
  0
LINE
  5
1A8F1
  8
0
 10
395.49999884379002
 20
-110.8732704456429
 30
0.0
 11
409.49999884379002
 21
-110.8732704456429
 31
0.0
  0
LINE
  5
1A8F2
  8
0
 10
393.69999884378979
 20
-105.3732704456429
 30
0.0
 11
393.19999884379001
 21
-105.8732704456429
 31
0.0
  0
LINE
  5
1A8F3
  8
0
 10
390.79999884378992
 20
-105.8732704456429
 30
0.0
 11
390.29999884378992
 21
-105.3732704456429
 31
0.0
  0
LINE
  5
1A8F4
  8
0
 10
414.69999884378967
 20
-105.3732704456429
 30
0.0
 11
414.19999884379001
 21
-105.8732704456429
 31
0.0
  0
LINE
  5
1A8F5
  8
0
 10
411.79999884378992
 20
-105.8732704456429
 30
0.0
 11
411.29999884378981
 21
-105.3732704456429
 31
0.0
  0
LINE
  5
1A8F6
  8
0
 10
410.79999884378992
 20
-111.073270445643
 30
0.0
 11
410.49999884378991
 21
-111.3732704456429
 31
0.0
  0
LINE
  5
1A8F7
  8
0
 10
415.49999884378991
 20
-111.3732704456429
 30
0.0
 11
415.19999884379001
 21
-111.073270445643
 31
0.0
  0
LINE
  5
1A8F8
  8
0
 10
394.99999884379002
 20
-111.3732704456429
 30
0.0
 11
395.49999884379002
 21
-110.8732704456429
 31
0.0
  0
LINE
  5
1A8F9
  8
0
 10
409.49999884379002
 20
-110.8732704456429
 30
0.0
 11
409.99999884378991
 21
-111.3732704456429
 31
0.0
  0
LINE
  5
1A8FA
  8
0
 10
389.79999884378992
 20
-107.8732704456429
 30
0.0
 11
389.79999884378992
 21
-111.073270445643
 31
0.0
  0
LINE
  5
1A8FB
  8
0
 10
394.19999884379001
 20
-111.073270445643
 30
0.0
 11
394.19999884379001
 21
-107.8732704456429
 31
0.0
  0
LINE
  5
1A8FC
  8
0
 10
389.79999884378992
 20
-111.073270445643
 30
0.0
 11
394.19999884379001
 21
-111.073270445643
 31
0.0
  0
LINE
  5
1A8FD
  8
0
 10
389.79999884378992
 20
-111.073270445643
 30
0.0
 11
389.49999884379002
 21
-111.3732704456429
 31
0.0
  0
LINE
  5
1A8FE
  8
0
 10
394.49999884379002
 20
-111.3732704456429
 30
0.0
 11
394.19999884379001
 21
-111.073270445643
 31
0.0
  0
LINE
  5
1A8FF
  8
0
 10
415.49999884378991
 20
-105.3732704456429
 30
0.0
 11
415.49999884378991
 21
-95.873270445643016
 31
0.0
  0
LINE
  5
1A900
  8
0
 10
389.49999884379002
 20
-95.873270445643016
 30
0.0
 11
389.49999884379002
 21
-105.3732704456429
 31
0.0
  0
LINE
  5
1A901
  8
0
 10
415.49999884378991
 20
-95.873270445643016
 30
0.0
 11
389.49999884379002
 21
-95.873270445643016
 31
0.0
  0
LINE
  5
1A902
  8
0
 10
410.49999884378991
 20
-105.3732704456429
 30
0.0
 11
409.49999884379002
 21
-106.3732704456429
 31
0.0
  0
LINE
  5
1A903
  8
0
 10
395.49999884379002
 20
-106.3732704456429
 30
0.0
 11
394.49999884379002
 21
-105.3732704456429
 31
0.0
  0
LINE
  5
1A904
  8
0
 10
415.99999884378991
 20
-95.373270445642959
 30
0.0
 11
415.49999884378991
 21
-95.873270445643016
 31
0.0
  0
LINE
  5
1A905
  8
0
 10
389.49999884379002
 20
-95.873270445643016
 30
0.0
 11
388.99999884379002
 21
-95.373270445642959
 31
0.0
  0
LINE
  5
1A906
  8
0
 10
415.19999884379001
 20
-107.8732704456429
 30
0.0
 11
410.79999884378992
 21
-107.8732704456429
 31
0.0
  0
LINE
  5
1A907
  8
0
 10
415.49999884378991
 20
-105.3732704456429
 30
0.0
 11
389.49999884379002
 21
-105.3732704456429
 31
0.0
  0
LINE
  5
1A908
  8
0
 10
394.19999884379001
 20
-107.8732704456429
 30
0.0
 11
389.79999884378992
 21
-107.8732704456429
 31
0.0
  0
LINE
  5
1A909
  8
0
 10
372.49999884379002
 20
-111.3732704456429
 30
0.0
 11
432.49999884378991
 21
-111.3732704456429
 31
0.0
  0
LINE
  5
1A90A
  8
0
 10
432.49999884378991
 20
-95.373270445642959
 30
0.0
 11
372.49999884379002
 21
-95.373270445642959
 31
0.0
  0
LINE
  5
1A90B
  8
1
 10
402.49999884379002
 20
-116.373270445643
 30
0.0
 11
402.4999988437898
 21
-90.373270445642959
 31
0.0
  0
LINE
  5
1A90C
  8
1
 10
391.99999884379002
 20
-113.3732704456429
 30
0.0
 11
391.9999988437898
 21
-103.3732704456429
 31
0.0
  0
LINE
  5
1A90D
  8
1
 10
412.99999884379002
 20
-113.3732704456429
 30
0.0
 11
412.99999884379002
 21
-103.3732704456429
 31
0.0
  0
LINE
  5
1A916
  8
0
 10
340.49999984726293
 20
-105.3732704456429
 30
0.0
 11
339.49999984726293
 21
-106.3732704456429
 31
0.0
  0
LINE
  5
1A917
  8
0
 10
325.49999984726293
 20
-106.3732704456429
 30
0.0
 11
324.49999984726293
 21
-105.3732704456429
 31
0.0
  0
CIRCLE
  5
1A9A9
  8
1
 10
125.000000372529
 20
62.499999999999993
 30
0.0
 40
10.49999999999997
  0
CIRCLE
  5
1A9AA
  8
1
 10
395.00000112274029
 20
62.499999999999893
 30
0.0
 40
10.5
  0
CIRCLE
  5
1A9CF
  8
0
 10
125.000000372529
 20
214.49999987530799
 30
0.0
 40
3.5571067811865471
  0
CIRCLE
  5
1A9D0
  8
0
 10
395.0000011227404
 20
214.49999987530799
 30
0.0
 40
3.5571067811865471
  0
ARC
  5
1A9DF
  8
0
 10
382.31551260675019
 20
142.8707761158131
 30
0.0
 40
0.4574182596277851
 50
174.18755881252611
 51
262.66612818286438
  0
LINE
  5
1A9E0
  8
0
 10
381.86044605238959
 20
157.89659892621319
 30
0.0
 11
381.86044605238959
 21
142.9170999254942
 31
0.0
  0
ENDSEC
  0
EOF
