  0
SECTION
  2
HEADER
  9
$ACADVER
  1
AC1009
  9
$INSBASE
 10
0.0
 20
0.0
 30
0.0
  9
$EXTMIN
 10
0.0
 20
-139.6732704456427996
 30
0.0
  9
$EXTMAX
 10
471.0000013038518887
 20
245.4999986683984048
 30
0.0
  9
$LIMMIN
 10
0.0
 20
0.0
  9
$LIMMAX
 10
187.5
 20
135.0
  9
$ORTHOMODE
 70
     1
  9
$REGENMODE
 70
     1
  9
$FILLMODE
 70
     1
  9
$QTEXTMODE
 70
     0
  9
$MIRRTEXT
 70
     0
  9
$DRAGMODE
 70
     2
  9
$LTSCALE
 40
5.0
  9
$OSMODE
 70
    37
  9
$ATTMODE
 70
     1
  9
$TEXTSIZE
 40
0.2
  9
$TRACEWID
 40
0.05
  9
$TEXTSTYLE
  7
STANDARD
  9
$CLAYER
  8
0
  9
$CELTYPE
  6
BYLAYER
  9
$CECOLOR
 62
   256
  9
$DIMSCALE
 40
1.0
  9
$DIMASZ
 40
3.0
  9
$DIMEXO
 40
2.0
  9
$DIMDLI
 40
0.3799999999999999
  9
$DIMRND
 40
0.0
  9
$DIMDLE
 40
0.0
  9
$DIMEXE
 40
2.0
  9
$DIMTP
 40
0.0
  9
$DIMTM
 40
0.0
  9
$DIMTXT
 40
3.0
  9
$DIMCEN
 40
0.0
  9
$DIMTSZ
 40
0.0
  9
$DIMTOL
 70
     0
  9
$DIMLIM
 70
     0
  9
$DIMTIH
 70
     0
  9
$DIMTOH
 70
     0
  9
$DIMSE1
 70
     0
  9
$DIMSE2
 70
     0
  9
$DIMTAD
 70
     1
  9
$DIMZIN
 70
     8
  9
$DIMBLK
  1

  9
$DIMASO
 70
     0
  9
$DIMSHO
 70
     0
  9
$DIMPOST
  1

  9
$DIMAPOST
  1

  9
$DIMALT
 70
     0
  9
$DIMALTD
 70
     2
  9
$DIMALTF
 40
25.3999999999999986
  9
$DIMLFAC
 40
1.0
  9
$DIMTOFL
 70
     1
  9
$DIMTVP
 40
1.6000000000000001
  9
$DIMTIX
 70
     1
  9
$DIMSOXD
 70
     0
  9
$DIMSAH
 70
     0
  9
$DIMBLK1
  1

  9
$DIMBLK2
  1

  9
$DIMSTYLE
  2
STANDARD
  9
$DIMCLRD
 70
   256
  9
$DIMCLRE
 70
   256
  9
$DIMCLRT
 70
   256
  9
$DIMTFAC
 40
1.0
  9
$DIMGAP
 40
1.1999999999999991
  9
$LUNITS
 70
     2
  9
$LUPREC
 70
     1
  9
$SKETCHINC
 40
0.1
  9
$FILLETRAD
 40
0.4
  9
$AUNITS
 70
     0
  9
$AUPREC
 70
     1
  9
$MENU
  1
E:\r13\win\SUPPORT\ACAD
  9
$ELEVATION
 40
0.0
  9
$PELEVATION
 40
0.0
  9
$THICKNESS
 40
0.0
  9
$LIMCHECK
 70
     0
  9
$BLIPMODE
 70
     0
  9
$CHAMFERA
 40
0.5
  9
$CHAMFERB
 40
0.5
  9
$SKPOLY
 70
     0
  9
$TDCREATE
 40
2451824.6906134258024395
  9
$TDUPDATE
 40
2460395.4565393519587815
  9
$TDINDWG
 40
2.8646927198999999
  9
$TDUSRTIMER
 40
2.8646925347000001
  9
$USRTIMER
 70
     1
  9
$ANGBASE
 50
0.0
  9
$ANGDIR
 70
     0
  9
$PDMODE
 70
     0
  9
$PDSIZE
 40
0.0
  9
$PLINEWID
 40
0.0
  9
$COORDS
 70
     1
  9
$SPLFRAME
 70
     0
  9
$SPLINETYPE
 70
     6
  9
$SPLINESEGS
 70
     8
  9
$ATTDIA
 70
     1
  9
$ATTREQ
 70
     1
  9
$HANDLING
 70
     1
  9
$HANDSEED
  5
21A5C
  9
$SURFTAB1
 70
     6
  9
$SURFTAB2
 70
     6
  9
$SURFTYPE
 70
     6
  9
$SURFU
 70
     6
  9
$SURFV
 70
     6
  9
$UCSNAME
  2

  9
$UCSORG
 10
0.0
 20
0.0
 30
0.0
  9
$UCSXDIR
 10
1.0
 20
0.0
 30
0.0
  9
$UCSYDIR
 10
0.0
 20
1.0
 30
0.0
  9
$PUCSNAME
  2

  9
$PUCSORG
 10
0.0
 20
0.0
 30
0.0
  9
$PUCSXDIR
 10
1.0
 20
0.0
 30
0.0
  9
$PUCSYDIR
 10
0.0
 20
1.0
 30
0.0
  9
$USERI1
 70
     0
  9
$USERI2
 70
     1
  9
$USERI3
 70
     0
  9
$USERI4
 70
     0
  9
$USERI5
 70
     0
  9
$USERR1
 40
0.0
  9
$USERR2
 40
0.0
  9
$USERR3
 40
0.0
  9
$USERR4
 40
0.0
  9
$USERR5
 40
0.0
  9
$WORLDVIEW
 70
     1
  9
$SHADEDGE
 70
     3
  9
$SHADEDIF
 70
    70
  9
$TILEMODE
 70
     1
  9
$MAXACTVP
 70
    16
  9
$PLIMCHECK
 70
     0
  9
$PEXTMIN
 10
1.0000000000000000E+20
 20
1.0000000000000000E+20
 30
1.0000000000000000E+20
  9
$PEXTMAX
 10
-1.0000000000000000E+20
 20
-1.0000000000000000E+20
 30
-1.0000000000000000E+20
  9
$PLIMMIN
 10
0.0
 20
0.0
  9
$PLIMMAX
 10
12.0
 20
9.0
  9
$UNITMODE
 70
     0
  9
$VISRETAIN
 70
     0
  9
$PLINEGEN
 70
     0
  9
$PSLTSCALE
 70
     0
  0
ENDSEC
  0
SECTION
  2
TABLES
  0
TABLE
  2
VPORT
 70
     1
  0
VPORT
  2
*ACTIVE
 70
     0
 10
0.0
 20
0.0
 11
1.0
 21
1.0
 12
587.130541871921082
 22
250.0
 13
0.0
 23
0.0
 14
5.0
 24
5.0
 15
5.0
 25
5.0
 16
0.0
 26
0.0
 36
1.0
 17
0.0
 27
0.0
 37
0.0
 40
500.0
 41
2.3485221674876842
 42
50.0
 43
0.0
 44
0.0
 50
0.0
 51
0.0
 71
     0
 72
   500
 73
     1
 74
     0
 75
     0
 76
     0
 77
     0
 78
     0
  0
ENDTAB
  0
TABLE
  2
LTYPE
 70
     5
  0
LTYPE
  2
CONTINUOUS
 70
     0
  3
Solid Line
 72
    65
 73
     0
 40
0.0
  0
LTYPE
  2
CENTER
 70
     0
  3
____ _ ____ _ ____ _ ____ _ ____ _ ____ _ ____
 72
    65
 73
     4
 40
2.0
 49
1.25
 49
-0.25
 49
0.25
 49
-0.25
  0
LTYPE
  2
PHANTOM2
 70
     0
  3
___ _ _ ___ _ _ ___ _ _ ___ _ _
 72
    65
 73
     6
 40
1.25
 49
0.625
 49
-0.125
 49
0.125
 49
-0.125
 49
0.125
 49
-0.125
  0
LTYPE
  2
HIDDEN
 70
     0
  3
__ __ __ __ __ __ __ __ __ __ __ __ __ __ __ __
 72
    65
 73
     2
 40
0.375
 49
0.25
 49
-0.125
  0
LTYPE
  2
PHANTOM
 70
     0
  3
_____ _ _ _____ _ _ _____ _ _ _____ _ _ ____
 72
    65
 73
     6
 40
2.5
 49
1.25
 49
-0.25
 49
0.25
 49
-0.25
 49
0.25
 49
-0.25
  0
ENDTAB
  0
TABLE
  2
LAYER
 70
     6
  0
LAYER
  2
0
 70
     0
 62
     7
  6
CONTINUOUS
  0
LAYER
  2
1
 70
     0
 62
     1
  6
CENTER
  0
LAYER
  2
2
 70
     0
 62
     2
  6
HIDDEN
  0
LAYER
  2
5
 70
     0
 62
     3
  6
PHANTOM
  0
LAYER
  2
3
 70
     0
 62
     3
  6
CONTINUOUS
  0
LAYER
  2
DEFPOINTS
 70
     0
 62
     7
  6
CONTINUOUS
  0
ENDTAB
  0
TABLE
  2
STYLE
 70
     2
  0
STYLE
  2
STANDARD
 70
     0
 40
0.0
 41
1.0
 50
0.0
 71
     0
 42
0.2
  3
TXT
  4
BIGFONT
  0
STYLE
  2
STANDARD1
 70
     0
 40
0.0
 41
1.0
 50
0.0
 71
     0
 42
3.0
  3
txt
  4

  0
ENDTAB
  0
TABLE
  2
VIEW
 70
     2
  0
VIEW
  2
OLE1
 70
     0
 40
230.5720678175948137
 10
150.6983848979481877
 20
404.399422263265194
 41
272.2524031538524127
 11
0.0
 21
0.0
 31
1.0
 12
0.0
 22
0.0
 32
0.0
 42
50.0
 43
0.0
 44
0.0
 50
0.0
 71
     0
  0
VIEW
  2
OLE2
 70
     0
 40
202.3282431621931039
 10
347.2956790480777158
 20
-206.6388772558275946
 41
238.9029640415126039
 11
0.0
 21
0.0
 31
1.0
 12
0.0
 22
0.0
 32
0.0
 42
50.0
 43
0.0
 44
0.0
 50
0.0
 71
     0
  0
ENDTAB
  0
TABLE
  2
UCS
 70
     0
  0
ENDTAB
  0
TABLE
  2
APPID
 70
    14
  0
APPID
  2
ACAD
 70
     0
  0
APPID
  2
ACAD_MLEADERVER
 70
     0
  0
APPID
  2
ACAD_EXEMPT_FROM_CAD_STANDARDS
 70
     0
  0
APPID
  2
ACAD_DSTYLE_DIMJAG
 70
     0
  0
APPID
  2
ACAD_DSTYLE_DIMTALN
 70
     0
  0
APPID
  2
ACAD_NAV_VCDISPLAY
 70
     0
  0
APPID
  2
ACAD_PSEXT
 70
     0
  0
APPID
  2
ACAECLAYERSTANDARD
 70
     0
  0
APPID
  2
ACCMTRANSPARENCY
 70
     0
  0
APPID
  2
ACAD_DSTYLE_DIMRADIAL_EXTENSION
 70
     0
  0
APPID
  2
ACADANNOTATIVE
 70
     0
  0
APPID
  2
ACAD_DSTYLE_DIMBREAK
 70
     0
  0
APPID
  2
GRADIENTCOLOR1ACI
 70
     0
  0
APPID
  2
GRADIENTCOLOR2ACI
 70
     0
  0
ENDTAB
  0
TABLE
  2
DIMSTYLE
 70
     1
  0
DIMSTYLE
  2
STANDARD
 70
     0
  3

  4

  5

  6

  7

 40
1.0
 41
0.18
 42
0.0625
 43
0.38
 44
0.18
 45
0.0
 46
0.0
 47
0.0
 48
0.0
140
0.18
141
0.09
142
0.0
143
25.3999999999999986
144
1.0
145
0.0
146
1.0
147
0.09
 71
     0
 72
     0
 73
     1
 74
     1
 75
     0
 76
     0
 77
     0
 78
     0
170
     0
171
     2
172
     0
173
     0
174
     0
175
     0
176
     0
177
     0
178
     0
  0
ENDTAB
  0
ENDSEC
  0
SECTION
  2
BLOCKS
  0
BLOCK
  8
0
  2
$MODEL_SPACE
 70
     0
 10
0.0
 20
0.0
 30
0.0
  3
$MODEL_SPACE
  1

  0
ENDBLK
  5
9
  8
0
  0
BLOCK
 67
     1
  8
0
  2
$PAPER_SPACE
 70
     0
 10
0.0
 20
0.0
 30
0.0
  3
$PAPER_SPACE
  1

  0
ENDBLK
  5
E
 67
     1
  8
0
  0
ENDSEC
  0
SECTION
  2
ENTITIES
  0
TEXT
  5
7FEA
  8
0
 62
     3
 10
135.0
 20
0.0
 30
0.0
 40
3.2000000000000002
  1
■クサビロッククランパー ストロング(自在アプローチ)の取付け方法(下図)
  0
TEXT
  5
7FEB
  8
0
 62
     3
 10
185.0866666666665026
 20
-19.1680981886338913
 30
0.0
 40
3.2000000000000002
  1
6mmのプレートに固定する場合
 72
     1
 11
212.4999999999998863
 21
-19.5947648553005607
 31
0.0
 73
     1
  0
TEXT
  5
80DD
  8
0
 62
     3
 10
324.6199999999998909
 20
-19.1680981886338913
 30
0.0
 40
3.2000000000000002
  1
6mmを超え16mm以下のプレートに固定する場合
 72
     1
 11
367.4999999999998863
 21
-19.5947648553005607
 31
0.0
 73
     1
  0
TEXT
  5
8474
  8
0
 62
     3
 10
168.433333333333195
 20
-126.6732704456429985
 30
0.0
 40
3.2000000000000002
  1
組付け状態
 72
     1
 11
177.4999999999998863
 21
-126.6732704456429985
 31
0.0
  0
POLYLINE
  5
8487
  8
5
 66
     1
 10
0.0
 20
0.0
 30
0.0
 70
     1
  0
VERTEX
  5
21862
  8
5
 10
135.0
 20
-10.0
 30
0.0
  0
VERTEX
  5
21863
  8
5
 10
445.0
 20
-10.0
 30
0.0
  0
VERTEX
  5
21864
  8
5
 10
445.0
 20
-139.6732704456427996
 30
0.0
  0
VERTEX
  5
21865
  8
5
 10
135.0
 20
-139.6732704456427996
 30
0.0
  0
SEQEND
  5
21866
  8
5
  0
TEXT
  5
8489
  8
0
 62
     3
 10
240.2466666666666981
 20
-126.6732704456429985
 30
0.0
 40
3.2000000000000002
  1
取付け穴
 72
     1
 11
247.5
 21
-126.6732704456429985
 31
0.0
  0
TEXT
  5
848A
  8
0
 62
     3
 10
323.4333333333332234
 20
-126.6732704456429985
 30
0.0
 40
3.2000000000000002
  1
組付け状態
 72
     1
 11
332.4999999999998863
 21
-126.6732704456429985
 31
0.0
  0
TEXT
  5
848B
  8
0
 62
     3
 10
395.2466666666667265
 20
-126.6732704456429985
 30
0.0
 40
3.2000000000000002
  1
取付け穴
 72
     1
 11
402.5
 21
-126.6732704456429985
 31
0.0
  0
TEXT
  5
87B9
  8
0
 62
     3
 10
0.0
 20
0.0
 30
0.0
 40
10.0
  1
QCWESA1227-16S
  7
STANDARD1
  0
TEXT
  5
884B
  8
0
 62
     3
 10
135.0
 20
-7.0
 30
0.0
 40
3.2000000000000002
  1
■Installation Instructions for Retractable Heavy Duty Knob-Locking pins (see diagram below)
  0
TEXT
  5
884C
  8
0
 62
     3
 10
153.7799999999998875
 20
-26.1680981886338913
 30
0.0
 40
3.2000000000000002
  1
For installation on plate of 6 mm thickness.
 72
     1
 11
212.4999999999998863
 21
-26.5947648553005607
 31
0.0
 73
     1
  0
TEXT
  5
884D
  8
0
 62
     3
 10
293.6333333333333258
 20
-26.1680981886338913
 30
0.0
 40
3.2000000000000002
  1
For installation on plate of over 6 to 16 mm thickness.
 72
     1
 11
367.4999999999998863
 21
-26.5947648553005607
 31
0.0
 73
     1
  0
TEXT
  5
884E
  8
0
 62
     3
 10
152.5399999999997931
 20
-133.6732704456429133
 30
0.0
 40
3.2000000000000002
  1
Installed condition
 72
     1
 11
177.4999999999998863
 21
-133.6732704456429133
 31
0.0
  0
TEXT
  5
884F
  8
0
 62
     3
 10
225.4733333333333007
 20
-133.6732704456429133
 30
0.0
 40
3.2000000000000002
  1
Installation hole
 72
     1
 11
247.5
 21
-133.6732704456429133
 31
0.0
  0
TEXT
  5
8850
  8
0
 62
     3
 10
307.5399999999999068
 20
-133.6732704456429133
 30
0.0
 40
3.2000000000000002
  1
Installed condition
 72
     1
 11
332.4999999999998863
 21
-133.6732704456429133
 31
0.0
  0
TEXT
  5
8851
  8
0
 62
     3
 10
380.4733333333333007
 20
-133.6732704456429133
 30
0.0
 40
3.2000000000000002
  1
Installation hole
 72
     1
 11
402.5
 21
-133.6732704456429133
 31
0.0
  0
CIRCLE
  5
1EEE3
  8
0
 10
125.0000003725291009
 20
222.9999973367964117
 30
0.0
 40
3.0000000000000848
  0
LINE
  5
1EEE4
  8
0
 10
124.4226501033400041
 20
223.9999973367964969
 30
0.0
 11
123.8452998341499978
 21
222.9999973367964117
 31
0.0
  0
LINE
  5
1EEE5
  8
0
 10
123.8452998341499978
 20
222.9999973367964117
 30
0.0
 11
124.4226501033400041
 21
221.9999973367964969
 31
0.0
  0
LINE
  5
1EEE6
  8
0
 10
124.4226501033400041
 20
221.9999973367964969
 30
0.0
 11
125.577350641719093
 21
221.9999973367964969
 31
0.0
  0
LINE
  5
1EEE7
  8
0
 10
125.577350641719093
 20
221.9999973367964969
 30
0.0
 11
126.1547009109087014
 21
222.9999973367964117
 31
0.0
  0
LINE
  5
1EEE8
  8
0
 10
126.1547009109087014
 20
222.9999973367964117
 30
0.0
 11
125.577350641719093
 21
223.9999973367964969
 31
0.0
  0
LINE
  5
1EEE9
  8
0
 10
125.577350641719093
 20
223.9999973367964969
 30
0.0
 11
124.4226501033400041
 21
223.9999973367964969
 31
0.0
  0
CIRCLE
  5
1EEEA
  8
0
 10
125.0000003725291009
 20
222.9999973367964117
 30
0.0
 40
9.0635832737575726
  0
CIRCLE
  5
1EEEB
  8
0
 10
125.0000003725291009
 20
222.9999973367964117
 30
0.0
 40
8.9341737512063002
  0
CIRCLE
  5
1EEEC
  8
0
 10
125.0000003725291009
 20
222.9999973367964117
 30
0.0
 40
3.6499999999999839
  0
ARC
  5
1EEED
  8
0
 10
116.5125882512262052
 20
238.3040437129398867
 30
0.0
 40
4.9999999999997558
 50
299.0121434052912264
 51
335.0000000000002842
  0
ARC
  5
1EEEE
  8
0
 10
133.4874124938328919
 20
207.6959509606527092
 30
0.0
 40
5.00000000000023
 50
119.012143405291198
 51
155.0000000000003126
  0
ARC
  5
1EEEF
  8
0
 10
133.4874124938334035
 20
238.3040437129403983
 30
0.0
 40
5.0000000000005507
 50
204.9999999999996874
 51
240.9878565947086884
  0
ARC
  5
1EEF0
  8
0
 10
116.5125882512262052
 20
207.6959509606529934
 30
0.0
 40
4.9999999999997362
 50
24.9999999999997087
 51
60.9878565947087807
  0
ARC
  5
1EEF1
  8
0
 10
125.0000003725291009
 20
222.9999973367964117
 30
0.0
 40
12.5000000000000604
 50
299.0121434052912264
 51
60.9878565947087807
  0
ARC
  5
1EEF2
  8
0
 10
125.0000003725291009
 20
222.9999973367964117
 30
0.0
 40
12.5000000000000604
 50
119.012143405291198
 51
240.9878565947086884
  0
LINE
  5
1EEF3
  8
0
 10
127.6041633965324991
 20
239.0897042014204033
 30
0.0
 11
128.9558735586493867
 21
236.1909524042366968
 31
0.0
  0
LINE
  5
1EEF4
  8
0
 10
121.0441271864092982
 20
236.1909524042366968
 30
0.0
 11
122.3958373485266975
 21
239.0897042014204033
 31
0.0
  0
LINE
  5
1EEF5
  8
0
 10
122.3958373485266975
 20
206.9102904721725054
 30
0.0
 11
121.0441271864092982
 21
209.8090422693564108
 31
0.0
  0
LINE
  5
1EEF6
  8
0
 10
128.9558735586493867
 20
209.8090422693564108
 30
0.0
 11
127.6041633965324991
 21
206.9102904721725054
 31
0.0
  0
ARC
  5
1EEF7
  8
0
 10
125.0000003725291009
 20
222.9999973367964117
 30
0.0
 40
17.5
 50
87.4880237066358859
 51
92.5119762933641567
  0
LINE
  5
1EEF8
  8
0
 10
127.491953251453296
 20
239.3303396340928089
 30
0.0
 11
127.6041633965324991
 21
239.0897042014204033
 31
0.0
  0
LINE
  5
1EEF9
  8
0
 10
122.3958373485266975
 20
239.0897042014204033
 30
0.0
 11
122.5080474936049058
 21
239.3303396340928089
 31
0.0
  0
LINE
  5
1EEFA
  8
0
 10
127.6041633965324991
 20
206.9102904721725054
 30
0.0
 11
127.491953251453296
 21
206.6696550394999861
 31
0.0
  0
ARC
  5
1EEFB
  8
0
 10
125.0000003725291009
 20
222.9999973367964117
 30
0.0
 40
17.5000000000000817
 50
267.4880237066357722
 51
272.5119762933641141
  0
LINE
  5
1EEFC
  8
0
 10
122.5080474936049058
 20
206.6696550394999861
 30
0.0
 11
122.3958373485266975
 21
206.9102904721725054
 31
0.0
  0
ARC
  5
1EEFD
  8
0
 10
125.6793376773794932
 20
238.4851031106103108
 30
0.0
 40
2.0000000000012408
 50
25.0000000000212701
 51
87.4880237066096811
  0
ARC
  5
1EEFE
  8
0
 10
124.3206630676797033
 20
238.4851031106092023
 30
0.0
 40
2.0000000000023039
 50
92.5119762934163248
 51
154.9999999999643023
  0
ARC
  5
1EEFF
  8
0
 10
124.3206630676797033
 20
207.5148915629827968
 30
0.0
 40
2.0000000000014269
 50
205.0000000000283933
 51
267.4880237066096242
  0
ARC
  5
1EF00
  8
0
 10
125.6793376773789959
 20
207.5148915629829958
 30
0.0
 40
2.0000000000016009
 50
272.5119762933903189
 51
334.9999999999715214
  0
ARC
  5
1EF01
  8
0
 10
125.0000003725291009
 20
222.9999973367964117
 30
0.0
 40
13.5000000000000604
 50
107.8113250356585979
 51
252.1886749643414021
  0
ARC
  5
1EF02
  8
0
 10
125.0000003725291009
 20
222.9999973367964117
 30
0.0
 40
13.5000000000000497
 50
287.8113250356585127
 51
72.1886749643414447
  0
ARC
  5
1EF03
  8
0
 10
125.0000003725291009
 20
222.9999973367964117
 30
0.0
 40
13.1710100716628808
 50
289.5591669313143939
 51
70.4408330686856203
  0
ARC
  5
1EF04
  8
0
 10
125.0000003725291009
 20
222.9999973367964117
 30
0.0
 40
13.1710100716629306
 50
109.5591669312998988
 51
250.4408330687001012
  0
LINE
  5
1EF0D
  8
1
 10
125.0000003725291009
 20
245.4999973367964117
 30
0.0
 11
125.0000003725291009
 21
200.4999973367962127
 31
0.0
  0
LINE
  5
1EF0E
  8
1
 10
147.5000003725290867
 20
222.9999999999998863
 30
0.0
 11
102.5000003725292004
 21
222.9999999999998863
 31
0.0
  0
LINE
  5
1F1B7
  8
0
 10
136.7588194166056041
 20
174.7607740015974969
 30
0.0
 11
134.0635836452603087
 21
175.482960249940902
 31
0.0
  0
LINE
  5
1F1B8
  8
0
 10
115.9364170977456041
 20
175.482960249940902
 30
0.0
 11
113.241181326400806
 21
174.7607740015974969
 31
0.0
  0
ARC
  5
1F1B9
  8
0
 10
137.0000003715026935
 20
153.9999973367964117
 30
0.0
 40
0.500000000000057
 50
270.0
 51
0.0
  0
ARC
  5
1F1BA
  8
0
 10
113.0000003715026935
 20
153.9999973367964117
 30
0.0
 40
0.500000000000057
 50
180.0
 51
270.0
  0
LINE
  5
1F1BB
  8
0
 10
137.5000003715028072
 20
153.9999973367964117
 30
0.0
 11
137.5000003715028072
 21
173.7948481753084877
 31
0.0
  0
LINE
  5
1F1BC
  8
0
 10
112.5000003715032051
 20
173.7948481753084877
 30
0.0
 11
112.5000003715032051
 21
153.9999973367964117
 31
0.0
  0
ARC
  5
1F1BD
  8
0
 10
136.5000003715032051
 20
173.7948481753084877
 30
0.0
 40
1.000000000000046
 50
0.0
 51
75.0000000000055564
  0
ARC
  5
1F1BE
  8
0
 10
113.500000371502793
 20
173.7948481753084877
 30
0.0
 40
1.000000000000052
 50
104.9999999999944009
 51
180.0
  0
ARC
  5
1F1BF
  8
0
 10
133.9341741227096065
 20
174.9999973367964117
 30
0.0
 40
0.4999999999999824
 50
75.0000000000055564
 51
90.0
  0
ARC
  5
1F1C0
  8
0
 10
116.0658266202969031
 20
174.9999973367964117
 30
0.0
 40
0.4999999999999878
 50
90.0
 51
104.9999999999944009
  0
LINE
  5
1F1C1
  8
0
 10
111.500000371502793
 20
132.0579828648928071
 30
0.0
 11
111.500000371502793
 21
123.999997336796298
 31
0.0
  0
LINE
  5
1F1C2
  8
0
 10
138.5000003715028072
 20
123.999997336796298
 30
0.0
 11
138.5000003715028072
 21
132.0579828648928071
 31
0.0
  0
ARC
  5
1F1C3
  8
0
 10
112.0000003715026935
 20
132.0579828648928071
 30
0.0
 40
0.5000000000000364
 50
110.0000000000038938
 51
180.0
  0
ARC
  5
1F1C4
  8
0
 10
138.0000003715032051
 20
132.0579828648928071
 30
0.0
 40
0.5000000000000364
 50
0.0
 51
69.9999999999961346
  0
LINE
  5
1F1C5
  8
0
 10
111.500000371502793
 20
123.999997336796298
 30
0.0
 11
112.0000003715026935
 21
123.499997336796298
 31
0.0
  0
LINE
  5
1F1C6
  8
0
 10
138.0000003715032051
 20
123.499997336796298
 30
0.0
 11
138.5000003715028072
 21
123.999997336796298
 31
0.0
  0
LINE
  5
1F1C7
  8
0
 10
138.1710104431654997
 20
132.5278291752858024
 30
0.0
 11
135.7631923141726134
 21
133.404203303765911
 31
0.0
  0
LINE
  5
1F1C8
  8
0
 10
114.2368084288332994
 20
133.404203303765911
 30
0.0
 11
111.8289902998400009
 21
132.5278291752858024
 31
0.0
  0
ARC
  5
1F1C9
  8
0
 10
135.9000003715028129
 20
133.7800803520800912
 30
0.0
 40
0.4000000000000159
 50
180.0
 51
249.9999999999959925
  0
ARC
  5
1F1CA
  8
0
 10
114.1000003715030999
 20
133.7800803520800912
 30
0.0
 40
0.4000000000000159
 50
290.0000000000039222
 51
0.0
  0
LINE
  5
1F1CB
  8
0
 10
135.5000003715028072
 20
133.7800803520800912
 30
0.0
 11
135.5000003715028072
 21
153.4999973367962127
 31
0.0
  0
LINE
  5
1F1CC
  8
0
 10
114.500000371502793
 20
153.4999973367962127
 30
0.0
 11
114.500000371502793
 21
133.7800803520800912
 31
0.0
  0
LINE
  5
1F1CD
  8
0
 10
117.0000003715032051
 20
123.499997336796298
 30
0.0
 11
117.0000003715032051
 21
118.499997336796298
 31
0.0
  0
LINE
  5
1F1CE
  8
0
 10
133.0000003715032051
 20
118.499997336796298
 30
0.0
 11
133.0000003715032051
 21
123.499997336796298
 31
0.0
  0
LINE
  5
1F1CF
  8
0
 10
117.0000003715032051
 20
118.4999973367964969
 30
0.0
 11
117.500000371502793
 21
117.999997336796298
 31
0.0
  0
LINE
  5
1F1D0
  8
0
 10
132.5000003715028072
 20
117.999997336796298
 30
0.0
 11
133.0000003715032051
 21
118.499997336796298
 31
0.0
  0
LINE
  5
1F1D1
  8
0
 10
125.7450799961781058
 20
158.4999973367964117
 30
0.0
 11
124.2549207468279064
 21
158.4999973367964117
 31
0.0
  0
LINE
  5
1F1D2
  8
0
 10
124.2549207468279064
 20
158.4999973367964117
 30
0.0
 11
122.9612013860970023
 21
158.4999973367964117
 31
0.0
  0
LINE
  5
1F1D3
  8
0
 10
127.0387993569088962
 20
158.4999973367964117
 30
0.0
 11
125.7450799961781058
 21
158.4999973367964117
 31
0.0
  0
LINE
  5
1F1D4
  8
0
 10
122.9612013860970023
 20
158.4999973367964117
 30
0.0
 11
121.4972810789009969
 21
158.4999973367964117
 31
0.0
  0
LINE
  5
1F1D5
  8
0
 10
128.5027196641046032
 20
158.4999973367964117
 30
0.0
 11
127.0387993569088962
 21
158.4999973367964117
 31
0.0
  0
LINE
  5
1F1D6
  8
0
 10
121.4972810789009969
 20
158.4999973367964117
 30
0.0
 11
121.2040345347418935
 21
158.4999973367964117
 31
0.0
  0
LINE
  5
1F1D7
  8
0
 10
128.7959662082641046
 20
158.4999973367964117
 30
0.0
 11
128.8675185622037986
 21
158.508045726308211
 31
0.0
  0
LINE
  5
1F1D8
  8
0
 10
128.7959662082641046
 20
158.4999973367964117
 30
0.0
 11
128.5027196641046032
 21
158.4999973367964117
 31
0.0
  0
LINE
  5
1F1D9
  8
0
 10
137.0000003715026935
 20
153.4999973367962127
 30
0.0
 11
113.0000003767850956
 21
153.4999973367962127
 31
0.0
  0
LINE
  5
1F1DA
  8
0
 10
116.0658266223486947
 20
175.499997336796298
 30
0.0
 11
133.9341741227096065
 21
175.499997336796298
 31
0.0
  0
LINE
  5
1F1DB
  8
0
 10
111.500000371502793
 20
123.999997336796298
 30
0.0
 11
138.5000003715028072
 21
123.999997336796298
 31
0.0
  0
LINE
  5
1F1DC
  8
0
 10
138.0000003715032051
 20
123.499997336796298
 30
0.0
 11
112.0000003715026935
 21
123.499997336796298
 31
0.0
  0
CIRCLE
  5
1F1DD
  8
0
 10
125.000000371502793
 20
141.4999973367966106
 30
0.0
 40
1.000000000000028
  0
LINE
  5
1F1DE
  8
0
 10
117.0000003715032051
 20
118.499997336796298
 30
0.0
 11
133.0000003715032051
 21
118.499997336796298
 31
0.0
  0
LINE
  5
1F1DF
  8
0
 10
132.5000003715028072
 20
117.999997336796298
 30
0.0
 11
117.500000371502793
 21
117.999997336796298
 31
0.0
  0
ARC
  5
1F1E0
  8
0
 10
103.3908586059178987
 20
218.0075908390145969
 30
0.0
 40
51.4413914885125223
 50
295.7842179644521821
 51
297.9379843003690098
  0
LINE
  5
1F1E1
  8
0
 10
125.7669941027861995
 20
171.6877752251739082
 30
0.0
 11
124.2330066402196991
 21
171.6877752251739082
 31
0.0
  0
ARC
  5
1F1E2
  8
0
 10
146.3662392806160142
 20
217.5279964447408076
 30
0.0
 40
50.9038885407855233
 50
242.050643343895814
 51
244.2271543912953859
  0
LINE
  5
1F1E3
  8
0
 10
127.4919532504269029
 20
172.5614249368088053
 30
0.0
 11
127.4919532504269029
 21
158.999997336796298
 31
0.0
  0
LINE
  5
1F1E4
  8
0
 10
122.5080474925785978
 20
158.999997336796298
 30
0.0
 11
122.5080474925785978
 21
172.5614249368088053
 31
0.0
  0
ARC
  5
1F1E5
  8
0
 10
122.9858351525877964
 20
158.9776715624016958
 30
0.0
 40
0.478308988269339
 50
177.3246632994714105
 51
267.0478590626117921
  0
ARC
  5
1F1E6
  8
0
 10
127.0141655904182016
 20
158.9776715624016958
 30
0.0
 40
0.478308988269339
 50
272.9521409374012251
 51
2.6753367005285291
  0
LINE
  5
1F1E7
  8
0
 10
127.6041633955061059
 20
172.6537010514630879
 30
0.0
 11
127.4919532504269029
 21
172.5614249368088053
 31
0.0
  0
LINE
  5
1F1E8
  8
0
 10
122.5080474925785978
 20
172.5614249368088053
 30
0.0
 11
122.3958373475003043
 21
172.6537010514628889
 31
0.0
  0
ARC
  5
1F1E9
  8
0
 10
121.5219148453922031
 20
158.9776715624018095
 30
0.0
 40
0.4783089882693523
 50
177.324663299490993
 51
267.0478590625987749
  0
LINE
  5
1F1EA
  8
0
 10
128.9558735576229935
 20
173.3587708900836901
 30
0.0
 11
127.6041633955061059
 21
172.6537010514630879
 31
0.0
  0
LINE
  5
1F1EB
  8
0
 10
128.9558735576229935
 20
158.999997336796298
 30
0.0
 11
128.9558735576229935
 21
173.3587708900836901
 31
0.0
  0
LINE
  5
1F1EC
  8
0
 10
122.3958373475003043
 20
172.6537010514628889
 30
0.0
 11
121.0441271853830045
 21
173.3587708900836901
 31
0.0
  0
LINE
  5
1F1ED
  8
0
 10
121.0441271853830045
 20
173.3587708900836901
 30
0.0
 11
121.0441271853830045
 21
158.999997336796298
 31
0.0
  0
ARC
  5
1F1EE
  8
0
 10
128.4780858976143065
 20
158.9776715624016958
 30
0.0
 40
0.4783089882692325
 50
272.9521409373880942
 51
2.6753367005350501
  0
ARC
  5
1F1EF
  8
0
 10
119.1563338766527949
 20
169.5455253300181937
 30
0.0
 40
4.2549506786618752
 50
63.6617327939447577
 51
92.9471949230903505
  0
ARC
  5
1F1F0
  8
0
 10
130.852829307691195
 20
169.5012642090514987
 30
0.0
 40
4.2986973505847992
 50
87.2050987177438515
 51
116.1859735652302987
  0
LINE
  5
1F1F1
  8
0
 10
118.9375631420007977
 20
158.999997336796298
 30
0.0
 11
118.9375631420007977
 21
173.7948481753084877
 31
0.0
  0
ARC
  5
1F1F2
  8
0
 10
123.4288782076155968
 20
173.9719789866923918
 30
0.0
 40
15.6311274559273894
 50
253.3017368159208047
 51
261.8170623549045217
  0
ARC
  5
1F1F3
  8
0
 10
126.5430092981840033
 20
174.0216703668941989
 30
0.0
 40
15.6868063291261493
 50
278.5216110579412998
 51
286.7444664953926008
  0
LINE
  5
1F1F4
  8
0
 10
131.0624376010055983
 20
173.7948481753084877
 30
0.0
 11
131.0624376010055983
 21
158.999997336796298
 31
0.0
  0
LINE
  5
1F1F5
  8
0
 10
112.5000003715032051
 20
153.9999973367964117
 30
0.0
 11
137.5000003715028072
 21
153.9999973367964117
 31
0.0
  0
LINE
  5
1F1F6
  8
0
 10
118.9375631420007977
 20
173.7948481753084877
 30
0.0
 11
112.5000003715032051
 21
173.7948481753084877
 31
0.0
  0
LINE
  5
1F1F7
  8
0
 10
137.5000003715028072
 20
173.7948481753084877
 30
0.0
 11
131.0624376010055983
 21
173.7948481753084877
 31
0.0
  0
LINE
  5
1F1F8
  8
0
 10
111.8289902998400009
 20
132.5278291752858024
 30
0.0
 11
138.1710104431654997
 21
132.5278291752858024
 31
0.0
  0
LINE
  5
1F1F9
  8
0
 10
135.7631923141726134
 20
133.404203303765911
 30
0.0
 11
114.2368084288332994
 21
133.404203303765911
 31
0.0
  0
LINE
  5
1F1FA
  8
1
 10
125.0000003725291009
 20
180.4999981021553879
 30
0.0
 11
125.0000003725291009
 21
112.999997336796298
 31
0.0
  0
ARC
  5
1F1FB
  8
0
 10
117.3476142154346036
 20
129.6796720039596948
 30
0.0
 40
1.4086568810249389
 50
97.2969988098630836
 51
187.278787344962609
  0
ARC
  5
1F1FC
  8
0
 10
117.3366489457471999
 20
129.3124918247710866
 30
0.0
 40
1.3991241863943891
 50
172.2486006579086961
 51
263.2468950756215804
  0
ARC
  5
1F1FD
  8
0
 10
117.0331173599766998
 20
129.3698588968536001
 30
0.0
 40
1.4534467973228611
 50
275.4881261162757937
 51
4.780339837137733
  0
ARC
  5
1F1FE
  8
0
 10
117.0125077149460964
 20
129.6112996664967909
 30
0.0
 40
1.473919588085407
 50
355.3177198144892941
 51
83.917023103213694
  0
POLYLINE
  5
1F1FF
  8
0
 66
     1
 10
0.0
 20
0.0
 30
0.0
 70
   128
  0
VERTEX
  5
2186B
  8
0
 10
115.4298413534635017
 20
129.49999747556339
 30
0.0
  0
VERTEX
  5
2186C
  8
0
 10
114.5593043406484952
 20
128.7499968869674944
 30
0.0
  0
VERTEX
  5
2186D
  8
0
 10
113.7853659679164053
 20
127.9999972296942019
 30
0.0
  0
SEQEND
  5
2186E
  8
0
  0
POLYLINE
  5
1F200
  8
0
 66
     1
 10
0.0
 20
0.0
 30
0.0
 70
   128
  0
VERTEX
  5
2186F
  8
0
 10
113.7853659679164053
 20
130.9999977214326066
 30
0.0
  0
VERTEX
  5
21870
  8
0
 10
114.5593043406484952
 20
130.249997132836711
 30
0.0
  0
VERTEX
  5
21871
  8
0
 10
115.4298413534635017
 20
129.49999747556339
 30
0.0
  0
SEQEND
  5
21872
  8
0
  0
LINE
  5
1F201
  8
0
 10
113.7853659679164053
 20
130.249997132836711
 30
0.0
 11
113.7853659679164053
 21
130.9999977214326066
 31
0.0
  0
LINE
  5
1F202
  8
0
 10
112.4766714860667065
 20
130.249997132836711
 30
0.0
 11
113.7853659679164053
 21
130.249997132836711
 31
0.0
  0
LINE
  5
1F203
  8
0
 10
112.4766714860667065
 20
130.9999977214326066
 30
0.0
 11
112.4766714860667065
 21
130.249997132836711
 31
0.0
  0
POLYLINE
  5
1F204
  8
0
 66
     1
 10
0.0
 20
0.0
 30
0.0
 70
   128
  0
VERTEX
  5
21873
  8
0
 10
111.743620037006707
 20
129.49999747556339
 30
0.0
  0
VERTEX
  5
21874
  8
0
 10
112.0502393682469062
 20
130.249997132836711
 30
0.0
  0
VERTEX
  5
21875
  8
0
 10
112.4766714860667065
 20
130.9999977214326066
 30
0.0
  0
SEQEND
  5
21876
  8
0
  0
POLYLINE
  5
1F205
  8
0
 66
     1
 10
0.0
 20
0.0
 30
0.0
 70
   128
  0
VERTEX
  5
21877
  8
0
 10
112.4766714860667065
 20
127.9999972296942019
 30
0.0
  0
VERTEX
  5
21878
  8
0
 10
112.0502393682469062
 20
128.7499968869674944
 30
0.0
  0
VERTEX
  5
21879
  8
0
 10
111.743620037006707
 20
129.49999747556339
 30
0.0
  0
SEQEND
  5
2187A
  8
0
  0
LINE
  5
1F206
  8
0
 10
112.4766714860667065
 20
128.7499968869674944
 30
0.0
 11
112.4766714860667065
 21
127.9999972296942019
 31
0.0
  0
LINE
  5
1F207
  8
0
 10
112.4766714860667065
 20
128.7499968869674944
 30
0.0
 11
113.7853659679164053
 21
128.7499968869674944
 31
0.0
  0
LINE
  5
1F208
  8
0
 10
113.7853659679164053
 20
127.9999972296942019
 30
0.0
 11
113.7853659679164053
 21
128.7499968869674944
 31
0.0
  0
LINE
  5
1F209
  8
0
 10
120.8062664595419022
 20
127.9999972296942019
 30
0.0
 11
120.8062664595419022
 21
130.9999977214326066
 31
0.0
  0
LINE
  5
1F20A
  8
0
 10
120.8062664595419022
 20
127.9999972296942019
 30
0.0
 11
121.3212878433037929
 21
127.9999972296942019
 31
0.0
  0
LINE
  5
1F20B
  8
0
 10
121.3212878433037929
 20
129.3461513681401129
 30
0.0
 11
121.3212878433037929
 21
127.9999972296942019
 31
0.0
  0
LINE
  5
1F20C
  8
0
 10
121.3212878433037929
 20
129.3461513681401129
 30
0.0
 11
122.2173365754066054
 21
129.3461513681401129
 31
0.0
  0
LINE
  5
1F20D
  8
0
 10
122.2173365754066054
 20
129.8846122784603949
 30
0.0
 11
122.2173365754066054
 21
129.3461513681401129
 31
0.0
  0
LINE
  5
1F20E
  8
0
 10
121.3212878433037929
 20
129.8846122784603949
 30
0.0
 11
122.2173365754066054
 21
129.8846122784603949
 31
0.0
  0
LINE
  5
1F20F
  8
0
 10
121.3212878433037929
 20
130.4615358797896931
 30
0.0
 11
121.3212878433037929
 21
129.8846122784603949
 31
0.0
  0
LINE
  5
1F210
  8
0
 10
121.3212878433037929
 20
130.4615358797896931
 30
0.0
 11
122.2173365754066054
 21
130.4615358797896931
 31
0.0
  0
LINE
  5
1F211
  8
0
 10
122.2173365754066054
 20
130.9999977214326066
 30
0.0
 11
122.2173365754066054
 21
130.4615358797896931
 31
0.0
  0
LINE
  5
1F212
  8
0
 10
120.8062664595419022
 20
130.9999977214326066
 30
0.0
 11
122.2173365754066054
 21
130.9999977214326066
 31
0.0
  0
LINE
  5
1F213
  8
0
 10
118.9581001167172047
 20
127.9999972296942019
 30
0.0
 11
118.9581001167172047
 21
130.9999977214326066
 31
0.0
  0
LINE
  5
1F214
  8
0
 10
118.9581001167172047
 20
127.9999972296942019
 30
0.0
 11
119.4443021890694041
 21
127.9999972296942019
 31
0.0
  0
LINE
  5
1F215
  8
0
 10
119.4443021890694041
 20
129.3461513681401129
 30
0.0
 11
119.4443021890694041
 21
127.9999972296942019
 31
0.0
  0
LINE
  5
1F216
  8
0
 10
119.4443021890694041
 20
129.3461513681401129
 30
0.0
 11
120.2979166050428006
 21
129.3461513681401129
 31
0.0
  0
LINE
  5
1F217
  8
0
 10
120.2979166050428006
 20
129.8846122784603949
 30
0.0
 11
120.2979166050428006
 21
129.3461513681401129
 31
0.0
  0
LINE
  5
1F218
  8
0
 10
119.4443021890694041
 20
129.8846122784603949
 30
0.0
 11
120.2979166050428006
 21
129.8846122784603949
 31
0.0
  0
LINE
  5
1F219
  8
0
 10
119.4443021890694041
 20
130.4615358797896931
 30
0.0
 11
119.4443021890694041
 21
129.8846122784603949
 31
0.0
  0
LINE
  5
1F21A
  8
0
 10
119.4443021890694041
 20
130.4615358797896931
 30
0.0
 11
120.2979166050428006
 21
130.4615358797896931
 31
0.0
  0
LINE
  5
1F21B
  8
0
 10
120.2979166050428006
 20
130.9999977214326066
 30
0.0
 11
120.2979166050428006
 21
130.4615358797896931
 31
0.0
  0
LINE
  5
1F21C
  8
0
 10
118.9581001167172047
 20
130.9999977214326066
 30
0.0
 11
120.2979166050428006
 21
130.9999977214326066
 31
0.0
  0
ARC
  5
1F21D
  8
0
 10
117.265426307818899
 20
129.6262774375379934
 30
0.0
 40
0.9180431754702494
 50
96.4783697369274051
 51
188.2851508394880113
  0
ARC
  5
1F21E
  8
0
 10
117.0746992425716968
 20
129.5967464923965906
 30
0.0
 40
0.9457356224464369
 50
354.0185327050833166
 51
84.7129089552101249
  0
ARC
  5
1F21F
  8
0
 10
117.0707728829388969
 20
129.4053320436784986
 30
0.0
 40
0.9490671014070601
 50
276.0411662895635914
 51
5.6151453075009146
  0
POLYLINE
  5
1F220
  8
0
 66
     1
 10
0.0
 20
0.0
 30
0.0
 70
   128
  0
VERTEX
  5
2187B
  8
0
 10
116.6436117132175951
 20
128.6923051787603924
 30
0.0
  0
VERTEX
  5
2187C
  8
0
 10
116.8884731818912996
 20
128.5189785970439118
 30
0.0
  0
VERTEX
  5
2187D
  8
0
 10
117.1706555400966039
 20
128.4615355519642037
 30
0.0
  0
SEQEND
  5
2187E
  8
0
  0
ARC
  5
1F221
  8
0
 10
117.4240955631999981
 20
129.4234601503187037
 30
0.0
 40
1.069459037325402
 50
176.2187772243287895
 51
223.1309464322060023
  0
LINE
  5
1F222
  8
0
 10
134.6000006732517136
 20
120.9999973367963975
 30
0.0
 11
134.6000006732517136
 21
118.9999973367963975
 31
0.0
  0
LINE
  5
1F223
  8
0
 10
138.4000006732516113
 20
118.9999973367963975
 30
0.0
 11
138.4000006732516113
 21
120.9999973367963975
 31
0.0
  0
LINE
  5
1F224
  8
0
 10
137.5000006732516908
 20
120.9999973367963975
 30
0.0
 11
137.5000006732516908
 21
123.499997336796298
 31
0.0
  0
LINE
  5
1F225
  8
0
 10
135.5000006732516908
 20
123.499997336796298
 30
0.0
 11
135.5000006732516908
 21
120.9999973367963975
 31
0.0
  0
LINE
  5
1F226
  8
0
 10
134.6000006732517136
 20
120.9999973367963975
 30
0.0
 11
138.4000006732516113
 21
120.9999973367963975
 31
0.0
  0
LINE
  5
1F227
  8
0
 10
134.6000006732517136
 20
118.9999973367963975
 30
0.0
 11
138.4000006732516113
 21
118.9999973367963975
 31
0.0
  0
LINE
  5
1F228
  8
3
 10
137.3000006732513043
 20
122.1999973367964003
 30
0.0
 11
137.3000006732513043
 21
123.499997336796298
 31
0.0
  0
LINE
  5
1F229
  8
3
 10
137.5000013028256944
 20
121.8535860848281942
 30
0.0
 11
137.3000006732513043
 21
122.1999973367964003
 31
0.0
  0
LINE
  5
1F22A
  8
0
 10
135.5000009750000913
 20
122.1999973367964003
 30
0.0
 11
137.5000013028256944
 21
122.1999973367964003
 31
0.0
  0
LINE
  5
1F22B
  8
3
 10
135.7000006732513953
 20
122.1999973367964003
 30
0.0
 11
135.7000006732515089
 21
123.499997336796298
 31
0.0
  0
LINE
  5
1F22C
  8
3
 10
135.5000000436774883
 20
121.8535860848281942
 30
0.0
 11
135.7000006732513953
 21
122.1999973367964003
 31
0.0
  0
LINE
  5
1F22D
  8
1
 10
136.5000003715032051
 20
116.9999972418014949
 30
0.0
 11
136.5000003715032904
 21
125.499997336796298
 31
0.0
  0
LINE
  5
1F22E
  8
0
 10
123.1000006742774957
 20
120.9999973367963975
 30
0.0
 11
123.1000006742774957
 21
118.9999973367963975
 31
0.0
  0
LINE
  5
1F22F
  8
0
 10
126.9000006742775071
 20
118.9999973367963975
 30
0.0
 11
126.9000006742775071
 21
120.9999973367963975
 31
0.0
  0
LINE
  5
1F230
  8
0
 10
126.0000006742775014
 20
120.9999973367963975
 30
0.0
 11
126.0000006742775014
 21
123.499997336796298
 31
0.0
  0
LINE
  5
1F231
  8
0
 10
124.0000006742775014
 20
123.499997336796298
 30
0.0
 11
124.0000006742775014
 21
120.9999973367963975
 31
0.0
  0
LINE
  5
1F232
  8
0
 10
123.1000006742774957
 20
120.9999973367963975
 30
0.0
 11
126.9000006742775071
 21
120.9999973367963975
 31
0.0
  0
LINE
  5
1F233
  8
0
 10
123.1000006742774957
 20
118.9999973367963975
 30
0.0
 11
126.9000006742775071
 21
118.9999973367963975
 31
0.0
  0
LINE
  5
1F234
  8
3
 10
125.8000006742772001
 20
122.1999973367964003
 30
0.0
 11
125.8000006742772001
 21
123.499997336796298
 31
0.0
  0
LINE
  5
1F235
  8
3
 10
126.000001303851505
 20
121.8535860848281942
 30
0.0
 11
125.8000006742772001
 21
122.1999973367964003
 31
0.0
  0
LINE
  5
1F236
  8
0
 10
124.0000009760260014
 20
122.1999973367964003
 30
0.0
 11
126.000001303851505
 21
122.1999973367964003
 31
0.0
  0
LINE
  5
1F237
  8
3
 10
124.2000006742773053
 20
122.1999973367964003
 30
0.0
 11
124.2000006742773053
 21
123.499997336796298
 31
0.0
  0
LINE
  5
1F238
  8
3
 10
124.0000000447033983
 20
121.8535860848281942
 30
0.0
 11
124.2000006742773053
 21
122.1999973367964003
 31
0.0
  0
LINE
  5
1F239
  8
0
 10
111.6000006732511025
 20
120.9999973367963975
 30
0.0
 11
111.6000006732511025
 21
118.9999973367963975
 31
0.0
  0
LINE
  5
1F23A
  8
0
 10
115.4000006732510997
 20
118.9999973367963975
 30
0.0
 11
115.4000006732510997
 21
120.9999973367963975
 31
0.0
  0
LINE
  5
1F23B
  8
0
 10
114.500000673251094
 20
120.9999973367963975
 30
0.0
 11
114.500000673251094
 21
123.499997336796298
 31
0.0
  0
LINE
  5
1F23C
  8
0
 10
112.500000673251094
 20
123.499997336796298
 30
0.0
 11
112.500000673251094
 21
120.9999973367963975
 31
0.0
  0
LINE
  5
1F23D
  8
0
 10
111.6000006732511025
 20
120.9999973367963975
 30
0.0
 11
115.4000006732510997
 21
120.9999973367963975
 31
0.0
  0
LINE
  5
1F23E
  8
0
 10
111.6000006732511025
 20
118.9999973367963975
 30
0.0
 11
115.4000006732510997
 21
118.9999973367963975
 31
0.0
  0
LINE
  5
1F23F
  8
3
 10
114.3000006732508069
 20
122.1999973367964003
 30
0.0
 11
114.3000006732508069
 21
123.499997336796298
 31
0.0
  0
LINE
  5
1F240
  8
3
 10
114.5000013028250976
 20
121.8535860848281942
 30
0.0
 11
114.3000006732508069
 21
122.1999973367964003
 31
0.0
  0
LINE
  5
1F241
  8
0
 10
112.500000974999594
 20
122.1999973367964003
 30
0.0
 11
114.5000013028250976
 21
122.1999973367964003
 31
0.0
  0
LINE
  5
1F242
  8
3
 10
112.7000006732508979
 20
122.1999973367964003
 30
0.0
 11
112.7000006732508979
 21
123.499997336796298
 31
0.0
  0
LINE
  5
1F243
  8
3
 10
112.5000000436770051
 20
121.8535860848281942
 30
0.0
 11
112.7000006732508979
 21
122.1999973367964003
 31
0.0
  0
LINE
  5
1F244
  8
1
 10
113.500000371502594
 20
116.9999972418014949
 30
0.0
 11
113.5000003715026935
 21
125.499997336796298
 31
0.0
  0
LINE
  5
1F245
  8
0
 10
200.0000005587941985
 20
153.9999973367964117
 30
0.0
 11
200.0000005587941985
 21
157.9999973367962127
 31
0.0
  0
LINE
  5
1F246
  8
0
 10
175.0000005587936869
 20
157.9999973367962127
 30
0.0
 11
175.0000005587936869
 21
153.9999973367964117
 31
0.0
  0
ARC
  5
1F247
  8
0
 10
199.5000005587936869
 20
153.9999973367964117
 30
0.0
 40
0.500000000000057
 50
270.0
 51
0.0
  0
ARC
  5
1F248
  8
0
 10
175.5000005587936869
 20
153.9999973367964117
 30
0.0
 40
0.500000000000057
 50
180.0
 51
270.0
  0
LINE
  5
1F249
  8
0
 10
203.5176386489985987
 20
173.6196268777520118
 30
0.0
 11
196.5635838325511884
 21
175.482960249940902
 31
0.0
  0
LINE
  5
1F24A
  8
0
 10
178.4364172850361001
 20
175.482960249940902
 30
0.0
 11
171.4823624685888035
 21
173.6196268777520118
 31
0.0
  0
ARC
  5
1F24B
  8
0
 10
196.4341743100000031
 20
174.9999973367964117
 30
0.0
 40
0.4999999999999988
 50
74.9999999999922267
 51
90.0
  0
ARC
  5
1F24C
  8
0
 10
178.5658268075873139
 20
174.9999973367964117
 30
0.0
 40
0.4999999999999769
 50
90.0
 51
104.9999999999944009
  0
ARC
  5
1F24D
  8
0
 10
200.5000005587936869
 20
157.9999973367962127
 30
0.0
 40
0.500000000000057
 50
90.0
 51
180.0
  0
ARC
  5
1F24E
  8
0
 10
174.5000005587941132
 20
157.9999973367962127
 30
0.0
 40
0.500000000000057
 50
0.0
 51
90.0
  0
ARC
  5
1F24F
  8
0
 10
203.0000005587941985
 20
171.6877752251739082
 30
0.0
 40
2.0000000000000222
 50
0.0
 51
75.0000000000055422
  0
ARC
  5
1F250
  8
0
 10
172.0000005587936869
 20
171.6877752251739082
 30
0.0
 40
2.0000000000000222
 50
104.9999999999944009
 51
180.0
  0
LINE
  5
1F251
  8
0
 10
205.0000005587936869
 20
158.999997336796298
 30
0.0
 11
205.0000005587936869
 21
171.6877752251739082
 31
0.0
  0
ARC
  5
1F252
  8
0
 10
204.5000005587941985
 20
158.999997336796298
 30
0.0
 40
0.4999999999999716
 50
270.0
 51
0.0
  0
ARC
  5
1F253
  8
0
 10
170.5000005587936869
 20
158.999997336796298
 30
0.0
 40
0.4999999999999716
 50
180.0
 51
270.0
  0
LINE
  5
1F254
  8
0
 10
170.0000005587941985
 20
171.6877752251739082
 30
0.0
 11
170.0000005587941985
 21
158.999997336796298
 31
0.0
  0
LINE
  5
1F255
  8
0
 10
174.0000005587936869
 20
123.999997336796298
 30
0.0
 11
174.5000005587941132
 21
123.499997336796298
 31
0.0
  0
LINE
  5
1F256
  8
0
 10
200.5000005587936869
 20
123.499997336796298
 30
0.0
 11
201.0000005587936869
 21
123.999997336796298
 31
0.0
  0
LINE
  5
1F257
  8
0
 10
174.0000005587936869
 20
132.0579828648928071
 30
0.0
 11
174.0000005587936869
 21
123.999997336796298
 31
0.0
  0
LINE
  5
1F258
  8
0
 10
201.0000005587936869
 20
123.999997336796298
 30
0.0
 11
201.0000005587936869
 21
132.0579828648928071
 31
0.0
  0
ARC
  5
1F259
  8
0
 10
174.5000005587941132
 20
132.0579828648928071
 30
0.0
 40
0.5000000000000292
 50
110.0000000000038938
 51
180.0
  0
ARC
  5
1F25A
  8
0
 10
200.5000005587936869
 20
132.0579828648928071
 30
0.0
 40
0.5000000000000436
 50
0.0
 51
69.9999999999961204
  0
LINE
  5
1F25B
  8
0
 10
200.6710106304564931
 20
132.5278291752858024
 30
0.0
 11
198.2631925014636067
 21
133.404203303765911
 31
0.0
  0
LINE
  5
1F25C
  8
0
 10
176.7368086161237954
 20
133.404203303765911
 30
0.0
 11
174.3289904871309943
 21
132.5278291752858024
 31
0.0
  0
ARC
  5
1F25D
  8
0
 10
198.4000005587938062
 20
133.7800803520800912
 30
0.0
 40
0.4000000000000306
 50
180.0
 51
249.9999999999961062
  0
ARC
  5
1F25E
  8
0
 10
176.6000005587935959
 20
133.7800803520800912
 30
0.0
 40
0.4000000000000199
 50
290.0000000000039222
 51
0.0
  0
LINE
  5
1F25F
  8
0
 10
198.0000005587936869
 20
142.4999975217681936
 30
0.0
 11
198.0000005587936869
 21
153.4999973367962127
 31
0.0
  0
LINE
  5
1F260
  8
0
 10
198.0000005587936869
 20
133.7800803520800912
 30
0.0
 11
198.0000005587936869
 21
140.4996604298949876
 31
0.0
  0
LINE
  5
1F261
  8
0
 10
177.0000005587936869
 20
140.5006079344672969
 30
0.0
 11
177.0000005587936869
 21
133.7800803520800912
 31
0.0
  0
LINE
  5
1F262
  8
0
 10
177.0000005587936869
 20
153.4999973367962127
 30
0.0
 11
177.0000005587936869
 21
142.5003342436972105
 31
0.0
  0
LINE
  5
1F263
  8
0
 10
179.5000005587936869
 20
123.499997336796298
 30
0.0
 11
179.5000005587936869
 21
118.499997336796298
 31
0.0
  0
LINE
  5
1F264
  8
0
 10
195.5000005587941132
 20
118.499997336796298
 30
0.0
 11
195.5000005587941132
 21
123.499997336796298
 31
0.0
  0
LINE
  5
1F265
  8
0
 10
179.5000005587936869
 20
118.499997336796298
 30
0.0
 11
180.0000005587936869
 21
117.999997336796298
 31
0.0
  0
LINE
  5
1F266
  8
0
 10
195.0000005587936869
 20
117.999997336796298
 30
0.0
 11
195.5000005587941132
 21
118.499997336796298
 31
0.0
  0
LINE
  5
1F267
  8
0
 10
177.0000005587936869
 20
140.6999973367962866
 30
0.0
 11
177.0000005587936869
 21
142.2999973367961957
 31
0.0
  0
LINE
  5
1F268
  8
0
 10
199.5000005587936869
 20
153.4999973367962127
 30
0.0
 11
175.5000005587936869
 21
153.4999973367962127
 31
0.0
  0
LINE
  5
1F269
  8
0
 10
178.5658268075873139
 20
175.499997336796298
 30
0.0
 11
196.4341743100000031
 21
175.499997336796298
 31
0.0
  0
LINE
  5
1F26A
  8
0
 10
204.5000005587941985
 20
158.4999973367964117
 30
0.0
 11
199.9334491297310024
 21
158.4999973367964117
 31
0.0
  0
LINE
  5
1F26B
  8
0
 10
199.8850257220071001
 20
158.5076910008843072
 30
0.0
 11
199.9334491297310024
 21
158.4999973367964117
 31
0.0
  0
LINE
  5
1F26C
  8
0
 10
175.0665519878562861
 20
158.4999973367964117
 30
0.0
 11
170.5000005587936869
 21
158.4999973367964117
 31
0.0
  0
LINE
  5
1F26D
  8
0
 10
174.0000005587936869
 20
123.999997336796298
 30
0.0
 11
201.0000005587936869
 21
123.999997336796298
 31
0.0
  0
LINE
  5
1F26E
  8
0
 10
200.5000005587936869
 20
123.499997336796298
 30
0.0
 11
174.5000005587941132
 21
123.499997336796298
 31
0.0
  0
POLYLINE
  5
1F26F
  8
0
 66
     1
 10
0.0
 20
0.0
 30
0.0
 70
   128
  0
VERTEX
  5
2187F
  8
0
 10
198.0000005587936869
 20
140.4996604298949876
 30
0.0
  0
VERTEX
  5
21880
  8
0
 10
197.9909991815499097
 20
140.5994130249910938
 30
0.0
  0
VERTEX
  5
21881
  8
0
 10
197.976142887097609
 20
140.7932031072747918
 30
0.0
  0
VERTEX
  5
21882
  8
0
 10
197.9612245888181121
 20
141.067321700364289
 30
0.0
  0
VERTEX
  5
21883
  8
0
 10
197.9528462142835963
 20
141.3905336556159966
 30
0.0
  0
VERTEX
  5
21884
  8
0
 10
197.9546925909741049
 20
141.7249095146121931
 30
0.0
  0
VERTEX
  5
21885
  8
0
 10
197.965872627809091
 20
142.0333622822018924
 30
0.0
  0
VERTEX
  5
21886
  8
0
 10
197.9815458448107961
 20
142.2828073921934049
 30
0.0
  0
VERTEX
  5
21887
  8
0
 10
197.9948867545651012
 20
142.4447916330271937
 30
0.0
  0
VERTEX
  5
21888
  8
0
 10
198.0000005587936869
 20
142.4999975217681936
 30
0.0
  0
SEQEND
  5
21889
  8
0
  0
POLYLINE
  5
1F270
  8
0
 66
     1
 10
0.0
 20
0.0
 30
0.0
 70
   128
  0
VERTEX
  5
2188A
  8
0
 10
177.0000005587936869
 20
142.5003342436972105
 30
0.0
  0
VERTEX
  5
2188B
  8
0
 10
177.0090019360378903
 20
142.4005816486013032
 30
0.0
  0
VERTEX
  5
2188C
  8
0
 10
177.0238582304897932
 20
142.2067915663178894
 30
0.0
  0
VERTEX
  5
2188D
  8
0
 10
177.0387765287692901
 20
141.932672973228506
 30
0.0
  0
VERTEX
  5
2188E
  8
0
 10
177.0471549033038059
 20
141.609461017976713
 30
0.0
  0
VERTEX
  5
2188F
  8
0
 10
177.0453085266136952
 20
141.2750851589804029
 30
0.0
  0
VERTEX
  5
21890
  8
0
 10
177.0341284897787943
 20
140.9666323913907888
 30
0.0
  0
VERTEX
  5
21891
  8
0
 10
177.0184552727766061
 20
140.7171872813991058
 30
0.0
  0
VERTEX
  5
21892
  8
0
 10
177.0051143630226989
 20
140.5552030405654023
 30
0.0
  0
VERTEX
  5
21893
  8
0
 10
177.0000005587936869
 20
140.5006079344672969
 30
0.0
  0
SEQEND
  5
21894
  8
0
  0
LINE
  5
1F271
  8
0
 10
179.5000005587936869
 20
118.499997336796298
 30
0.0
 11
195.5000005587941132
 21
118.499997336796298
 31
0.0
  0
LINE
  5
1F272
  8
0
 10
195.0000005587936869
 20
117.999997336796298
 30
0.0
 11
180.0000005587936869
 21
117.999997336796298
 31
0.0
  0
LINE
  5
1F273
  8
0
 10
176.5685388615480917
 20
173.7948481753084877
 30
0.0
 11
176.5685388615480917
 21
158.999997336796298
 31
0.0
  0
LINE
  5
1F274
  8
0
 10
198.4314622560393104
 20
173.7948481753084877
 30
0.0
 11
176.5685388615480917
 21
173.7948481753084877
 31
0.0
  0
LINE
  5
1F275
  8
0
 10
198.4314622560393104
 20
158.999997336796298
 30
0.0
 11
198.4314622560393104
 21
173.7948481753084877
 31
0.0
  0
LINE
  5
1F276
  8
0
 10
175.0000005587936869
 20
153.9999973367964117
 30
0.0
 11
200.0000005587941985
 21
153.9999973367964117
 31
0.0
  0
ARC
  5
1F277
  8
0
 10
197.714134981261509
 20
164.0063698239476082
 30
0.0
 40
9.8147270392099202
 50
72.3439976037624604
 51
85.8086960718450769
  0
LINE
  5
1F278
  8
0
 10
200.6909556262341141
 20
173.3587708900836901
 30
0.0
 11
200.6909556262341141
 21
158.999997336796298
 31
0.0
  0
POLYLINE
  5
1F279
  8
0
 66
     1
 10
0.0
 20
0.0
 30
0.0
 70
   128
  0
VERTEX
  5
21895
  8
0
 10
200.6909556262341141
 20
158.999997336796298
 30
0.0
  0
VERTEX
  5
21896
  8
0
 10
200.6868953805357876
 20
158.9024521757881985
 30
0.0
  0
VERTEX
  5
21897
  8
0
 10
200.674870676407096
 20
158.8086556206137061
 30
0.0
  0
VERTEX
  5
21898
  8
0
 10
200.6553436164842026
 20
158.7222122202863943
 30
0.0
  0
VERTEX
  5
21899
  8
0
 10
200.6290646147288044
 20
158.6464439462029929
 30
0.0
  0
VERTEX
  5
2189A
  8
0
 10
200.5970435584401059
 20
158.5842625306451055
 30
0.0
  0
VERTEX
  5
2189B
  8
0
 10
200.5605109988553068
 20
158.5380575705405874
 30
0.0
  0
VERTEX
  5
2189C
  8
0
 10
200.5208708617498985
 20
158.5096046965948062
 30
0.0
  0
VERTEX
  5
2189D
  8
0
 10
200.4796464953635109
 20
158.4999973367964117
 30
0.0
  0
SEQEND
  5
2189E
  8
0
  0
ARC
  5
1F27A
  8
0
 10
200.5726706566863129
 20
162.9300222503127031
 30
0.0
 40
4.4754741911734932
 50
241.4169808618997877
 51
261.1616421841766851
  0
ARC
  5
1F27B
  8
0
 10
177.2517594471171094
 20
164.1830904208651134
 30
0.0
 40
9.6360094177332432
 50
94.0658459006369867
 51
107.7814604237548934
  0
LINE
  5
1F27C
  8
0
 10
174.309045491353686
 20
158.999997336796298
 30
0.0
 11
174.309045491353686
 21
173.3587708900836901
 31
0.0
  0
ARC
  5
1F27D
  8
0
 10
174.3588903249599014
 20
163.13175896291051
 30
0.0
 40
4.6855096617420466
 50
278.6867343202662255
 51
298.1376817568582851
  0
POLYLINE
  5
1F27E
  8
0
 66
     1
 10
0.0
 20
0.0
 30
0.0
 70
   128
  0
VERTEX
  5
2189F
  8
0
 10
174.309045491353686
 20
158.999997336796298
 30
0.0
  0
VERTEX
  5
218A0
  8
0
 10
174.3131057370516999
 20
158.9024521757881985
 30
0.0
  0
VERTEX
  5
218A1
  8
0
 10
174.3251304411803062
 20
158.8086556206137061
 30
0.0
  0
VERTEX
  5
218A2
  8
0
 10
174.3446575011031996
 20
158.7222122202863943
 30
0.0
  0
VERTEX
  5
218A3
  8
0
 10
174.3709365028591094
 20
158.6464439462029929
 30
0.0
  0
VERTEX
  5
218A4
  8
0
 10
174.4029575591472963
 20
158.5842625306451055
 30
0.0
  0
VERTEX
  5
218A5
  8
0
 10
174.4394901187322091
 20
158.5380575705405874
 30
0.0
  0
VERTEX
  5
218A6
  8
0
 10
174.4791302558375037
 20
158.5096046965948062
 30
0.0
  0
VERTEX
  5
218A7
  8
0
 10
174.5203546222242892
 20
158.4999973367964117
 30
0.0
  0
SEQEND
  5
218A8
  8
0
  0
POLYLINE
  5
1F27F
  8
0
 66
     1
 10
0.0
 20
0.0
 30
0.0
 70
   128
  0
VERTEX
  5
218A9
  8
0
 10
203.5897074234177921
 20
172.6537010514628889
 30
0.0
  0
VERTEX
  5
218AA
  8
0
 10
202.1418489617473995
 20
173.0135400048150984
 30
0.0
  0
VERTEX
  5
218AB
  8
0
 10
200.6909556262341141
 20
173.3587708900836901
 30
0.0
  0
SEQEND
  5
218AC
  8
0
  0
LINE
  5
1F280
  8
0
 10
203.8303428560903967
 20
172.5614249368088053
 30
0.0
 11
203.5897074234177921
 21
172.6537010514628889
 31
0.0
  0
LINE
  5
1F281
  8
0
 10
203.8303428560903967
 20
158.999997336796298
 30
0.0
 11
203.8303428560903967
 21
172.5614249368088053
 31
0.0
  0
POLYLINE
  5
1F282
  8
0
 66
     1
 10
0.0
 20
0.0
 30
0.0
 70
   128
  0
VERTEX
  5
218AD
  8
0
 10
203.8303428560903967
 20
158.999997336796298
 30
0.0
  0
VERTEX
  5
218AE
  8
0
 10
203.8262826103924965
 20
158.9024521757881985
 30
0.0
  0
VERTEX
  5
218AF
  8
0
 10
203.8142579062638902
 20
158.8086556206137061
 30
0.0
  0
VERTEX
  5
218B0
  8
0
 10
203.7947308463405136
 20
158.7222122202863943
 30
0.0
  0
VERTEX
  5
218B1
  8
0
 10
203.768451844585087
 20
158.6464439462029929
 30
0.0
  0
VERTEX
  5
218B2
  8
0
 10
203.7364307882969001
 20
158.5842625306451055
 30
0.0
  0
VERTEX
  5
218B3
  8
0
 10
203.6998982287115894
 20
158.5380575705405874
 30
0.0
  0
VERTEX
  5
218B4
  8
0
 10
203.6602580916062095
 20
158.5096046965948062
 30
0.0
  0
VERTEX
  5
218B5
  8
0
 10
203.6190337252197935
 20
158.4999973367964117
 30
0.0
  0
SEQEND
  5
218B6
  8
0
  0
POLYLINE
  5
1F283
  8
0
 66
     1
 10
0.0
 20
0.0
 30
0.0
 70
   128
  0
VERTEX
  5
218B7
  8
0
 10
171.1696582614974034
 20
158.999997336796298
 30
0.0
  0
VERTEX
  5
218B8
  8
0
 10
171.1737185071953036
 20
158.9024521757881985
 30
0.0
  0
VERTEX
  5
218B9
  8
0
 10
171.1857432113239952
 20
158.8086556206137061
 30
0.0
  0
VERTEX
  5
218BA
  8
0
 10
171.2052702712468886
 20
158.7222122202863943
 30
0.0
  0
VERTEX
  5
218BB
  8
0
 10
171.2315492730027984
 20
158.6464439462029929
 30
0.0
  0
VERTEX
  5
218BC
  8
0
 10
171.2635703292909
 20
158.5842625306451055
 30
0.0
  0
VERTEX
  5
218BD
  8
0
 10
171.300102888876296
 20
158.5380575705405874
 30
0.0
  0
VERTEX
  5
218BE
  8
0
 10
171.3397430259817042
 20
158.5096046965948062
 30
0.0
  0
VERTEX
  5
218BF
  8
0
 10
171.3809673923676087
 20
158.4999973367964117
 30
0.0
  0
SEQEND
  5
218C0
  8
0
  0
LINE
  5
1F284
  8
0
 10
174.309045491353686
 20
173.3587708900836901
 30
0.0
 11
171.41029369416961
 21
172.6537010514630879
 31
0.0
  0
LINE
  5
1F285
  8
0
 10
171.41029369416961
 20
172.6537010514630879
 30
0.0
 11
171.1696582614974034
 21
172.5614249368088053
 31
0.0
  0
LINE
  5
1F286
  8
0
 10
171.1696582614974034
 20
172.5614249368088053
 30
0.0
 11
171.1696582614974034
 21
158.999997336796298
 31
0.0
  0
POLYLINE
  5
1F287
  8
0
 66
     1
 10
0.0
 20
0.0
 30
0.0
 70
   128
  0
VERTEX
  5
218C1
  8
0
 10
204.9831844969718873
 20
171.6877752251739082
 30
0.0
  0
VERTEX
  5
218C2
  8
0
 10
204.9828046925638034
 20
171.691785624450489
 30
0.0
  0
VERTEX
  5
218C3
  8
0
 10
204.9827518319609112
 20
171.6923167014610101
 30
0.0
  0
VERTEX
  5
218C4
  8
0
 10
204.9822732402977863
 20
171.6968769139380129
 30
0.0
  0
VERTEX
  5
218C5
  8
0
 10
204.9814119537142005
 20
171.7042013957760105
 30
0.0
  0
VERTEX
  5
218C6
  8
0
 10
204.9795680761031917
 20
171.7174238048974928
 30
0.0
  0
VERTEX
  5
218C7
  8
0
 10
204.9752928074709928
 20
171.7413111385833133
 30
0.0
  0
VERTEX
  5
218C8
  8
0
 10
204.9644451865493977
 20
171.7845711829965012
 30
0.0
  0
VERTEX
  5
218C9
  8
0
 10
204.9341899194984933
 20
171.8635597659429948
 30
0.0
  0
VERTEX
  5
218CA
  8
0
 10
204.8391224657590897
 20
172.0120944873980022
 30
0.0
  0
VERTEX
  5
218CB
  8
0
 10
204.8364271413072117
 20
172.0153778258213038
 30
0.0
  0
VERTEX
  5
218CC
  8
0
 10
204.6517240736226881
 20
172.1895291177442004
 30
0.0
  0
VERTEX
  5
218CD
  8
0
 10
204.3982698502993003
 20
172.3480975010604084
 30
0.0
  0
VERTEX
  5
218CE
  8
0
 10
203.8303428560903967
 20
172.5614249368088053
 30
0.0
  0
SEQEND
  5
218CF
  8
0
  0
POLYLINE
  5
1F288
  8
0
 66
     1
 10
0.0
 20
0.0
 30
0.0
 70
   128
  0
VERTEX
  5
218D0
  8
0
 10
171.1696582614974034
 20
172.5614249368088053
 30
0.0
  0
VERTEX
  5
218D1
  8
0
 10
170.6017312672886135
 20
172.3480975010604084
 30
0.0
  0
VERTEX
  5
218D2
  8
0
 10
170.348277043964714
 20
172.1895291177442004
 30
0.0
  0
VERTEX
  5
218D3
  8
0
 10
170.1635739762801904
 20
172.0153778258213038
 30
0.0
  0
VERTEX
  5
218D4
  8
0
 10
170.1608786518283125
 20
172.0120944873980022
 30
0.0
  0
VERTEX
  5
218D5
  8
0
 10
170.0658111980889089
 20
171.8635597659429948
 30
0.0
  0
VERTEX
  5
218D6
  8
0
 10
170.0355559310380045
 20
171.7845711829965012
 30
0.0
  0
VERTEX
  5
218D7
  8
0
 10
170.0247083101164094
 20
171.7413111385833133
 30
0.0
  0
VERTEX
  5
218D8
  8
0
 10
170.0204330414840967
 20
171.7174238048974928
 30
0.0
  0
VERTEX
  5
218D9
  8
0
 10
170.0185891638732016
 20
171.7042013957760105
 30
0.0
  0
VERTEX
  5
218DA
  8
0
 10
170.0177278772895875
 20
171.6968769139380129
 30
0.0
  0
VERTEX
  5
218DB
  8
0
 10
170.0172492856268889
 20
171.6923167014610101
 30
0.0
  0
VERTEX
  5
218DC
  8
0
 10
170.0171964250235987
 20
171.691785624450489
 30
0.0
  0
VERTEX
  5
218DD
  8
0
 10
170.0168166206154865
 20
171.6877752251739082
 30
0.0
  0
SEQEND
  5
218DE
  8
0
  0
LINE
  5
1F289
  8
0
 10
205.0000005587936869
 20
171.6877752251739082
 30
0.0
 11
204.9831844969718873
 21
171.6877752251739082
 31
0.0
  0
LINE
  5
1F28A
  8
0
 10
170.0168166206154865
 20
171.6877752251739082
 30
0.0
 11
170.0000005587941985
 21
171.6877752251739082
 31
0.0
  0
LINE
  5
1F28B
  8
0
 10
201.0000005587936869
 20
132.0579828648928071
 30
0.0
 11
174.0000005587936869
 21
132.0579828648928071
 31
0.0
  0
LINE
  5
1F28C
  8
0
 10
198.2631925014636067
 20
133.404203303765911
 30
0.0
 11
176.7368086161237954
 21
133.404203303765911
 31
0.0
  0
LINE
  5
1F28D
  8
0
 10
177.0000005587936869
 20
142.2999973367961957
 30
0.0
 11
177.0155229361334079
 21
142.315519714135803
 31
0.0
  0
LINE
  5
1F28E
  8
0
 10
177.0000005587936869
 20
140.6999973367962866
 30
0.0
 11
177.0157429855102009
 21
140.684254910079602
 31
0.0
  0
LINE
  5
1F28F
  8
0
 10
198.0000005587936869
 20
140.6999973367962866
 30
0.0
 11
198.0000005587936869
 21
142.2999973367961957
 31
0.0
  0
LINE
  5
1F290
  8
0
 10
198.0000005587936869
 20
142.2999973367961957
 30
0.0
 11
197.9842581320772013
 21
142.315739763512795
 31
0.0
  0
LINE
  5
1F291
  8
0
 10
198.0000005587936869
 20
140.6999973367962866
 30
0.0
 11
197.9844781814543921
 21
140.6844749594569066
 31
0.0
  0
LINE
  5
1F292
  8
0
 10
197.1000008605421101
 20
120.999997336796298
 30
0.0
 11
197.1000008605421101
 21
118.999997336796298
 31
0.0
  0
LINE
  5
1F293
  8
0
 10
200.9000008605420931
 20
118.999997336796298
 30
0.0
 11
200.9000008605420931
 21
120.9999973367963975
 31
0.0
  0
LINE
  5
1F294
  8
0
 10
200.0000008605420874
 20
120.9999973367963975
 30
0.0
 11
200.0000008605420874
 21
123.499997336796298
 31
0.0
  0
LINE
  5
1F295
  8
0
 10
198.0000008605420874
 20
123.499997336796298
 30
0.0
 11
198.0000008605420874
 21
120.9999973367963975
 31
0.0
  0
LINE
  5
1F296
  8
0
 10
197.1000008605421101
 20
120.999997336796298
 30
0.0
 11
200.9000008605420931
 21
120.9999973367963975
 31
0.0
  0
LINE
  5
1F297
  8
0
 10
197.1000008605421101
 20
118.999997336796298
 30
0.0
 11
200.9000008605420931
 21
118.999997336796298
 31
0.0
  0
LINE
  5
1F298
  8
3
 10
199.800000558793414
 20
122.1999973367964003
 30
0.0
 11
199.800000558793414
 21
123.499997336796298
 31
0.0
  0
LINE
  5
1F299
  8
3
 10
200.0000011883676905
 20
121.8535860848281942
 30
0.0
 11
199.800000558793414
 21
122.1999973367964003
 31
0.0
  0
LINE
  5
1F29A
  8
0
 10
198.0000008605420874
 20
122.1999973367964003
 30
0.0
 11
200.0000011883676905
 21
122.1999973367964003
 31
0.0
  0
LINE
  5
1F29B
  8
3
 10
198.2000005587933913
 20
122.1999973367964003
 30
0.0
 11
198.200000558793505
 21
123.499997336796298
 31
0.0
  0
LINE
  5
1F29C
  8
3
 10
197.999999929219598
 20
121.8535860848281942
 30
0.0
 11
198.2000005587933913
 21
122.1999973367964003
 31
0.0
  0
LINE
  5
1F29D
  8
1
 10
199.0000005587936016
 20
116.9999972418013954
 30
0.0
 11
199.0000005587936869
 21
125.499997336796298
 31
0.0
  0
LINE
  5
1F29E
  8
0
 10
185.6000008605421101
 20
120.999997336796298
 30
0.0
 11
185.6000008605421101
 21
118.999997336796298
 31
0.0
  0
LINE
  5
1F29F
  8
0
 10
189.4000008605420931
 20
118.999997336796298
 30
0.0
 11
189.4000008605420931
 21
120.9999973367963975
 31
0.0
  0
LINE
  5
1F2A0
  8
0
 10
188.5000008605420874
 20
120.9999973367963975
 30
0.0
 11
188.5000008605420874
 21
123.499997336796298
 31
0.0
  0
LINE
  5
1F2A1
  8
0
 10
186.5000008605420874
 20
123.499997336796298
 30
0.0
 11
186.5000008605420874
 21
120.9999973367963975
 31
0.0
  0
LINE
  5
1F2A2
  8
0
 10
185.6000008605421101
 20
120.999997336796298
 30
0.0
 11
189.4000008605420931
 21
120.9999973367963975
 31
0.0
  0
LINE
  5
1F2A3
  8
0
 10
185.6000008605421101
 20
118.999997336796298
 30
0.0
 11
189.4000008605420931
 21
118.999997336796298
 31
0.0
  0
LINE
  5
1F2A4
  8
3
 10
188.300000558793414
 20
122.1999973367964003
 30
0.0
 11
188.300000558793414
 21
123.499997336796298
 31
0.0
  0
LINE
  5
1F2A5
  8
3
 10
188.5000011883676905
 20
121.8535860848281942
 30
0.0
 11
188.300000558793414
 21
122.1999973367964003
 31
0.0
  0
LINE
  5
1F2A6
  8
0
 10
186.5000008605422011
 20
122.1999973367964003
 30
0.0
 11
188.5000011883676905
 21
122.1999973367964003
 31
0.0
  0
LINE
  5
1F2A7
  8
3
 10
186.7000005587933913
 20
122.1999973367964003
 30
0.0
 11
186.700000558793505
 21
123.499997336796298
 31
0.0
  0
LINE
  5
1F2A8
  8
3
 10
186.499999929219598
 20
121.8535860848281942
 30
0.0
 11
186.7000005587933913
 21
122.1999973367964003
 31
0.0
  0
LINE
  5
1F2A9
  8
0
 10
174.1000008605425933
 20
120.999997336796298
 30
0.0
 11
174.1000008605425933
 21
118.999997336796298
 31
0.0
  0
LINE
  5
1F2AA
  8
0
 10
177.900000860542491
 20
118.999997336796298
 30
0.0
 11
177.900000860542491
 21
120.9999973367963975
 31
0.0
  0
LINE
  5
1F2AB
  8
0
 10
177.0000008605425137
 20
120.9999973367963975
 30
0.0
 11
177.0000008605425137
 21
123.499997336796298
 31
0.0
  0
LINE
  5
1F2AC
  8
0
 10
175.0000008605425137
 20
123.499997336796298
 30
0.0
 11
175.0000008605425137
 21
120.9999973367963975
 31
0.0
  0
LINE
  5
1F2AD
  8
0
 10
174.1000008605425933
 20
120.999997336796298
 30
0.0
 11
177.900000860542491
 21
120.9999973367963975
 31
0.0
  0
LINE
  5
1F2AE
  8
0
 10
174.1000008605425933
 20
118.999997336796298
 30
0.0
 11
177.900000860542491
 21
118.999997336796298
 31
0.0
  0
LINE
  5
1F2AF
  8
3
 10
176.8000005587938119
 20
122.1999973367964003
 30
0.0
 11
176.8000005587938119
 21
123.499997336796298
 31
0.0
  0
LINE
  5
1F2B0
  8
3
 10
177.0000011883682021
 20
121.8535860848281942
 30
0.0
 11
176.8000005587938119
 21
122.1999973367964003
 31
0.0
  0
LINE
  5
1F2B1
  8
0
 10
175.000000860542599
 20
122.1999973367964003
 30
0.0
 11
177.0000011883682021
 21
122.1999973367964003
 31
0.0
  0
LINE
  5
1F2B2
  8
3
 10
175.2000005587939029
 20
122.1999973367964003
 30
0.0
 11
175.2000005587939029
 21
123.499997336796298
 31
0.0
  0
LINE
  5
1F2B3
  8
3
 10
174.9999999292199959
 20
121.8535860848281942
 30
0.0
 11
175.2000005587939029
 21
122.1999973367964003
 31
0.0
  0
LINE
  5
1F2B4
  8
1
 10
176.0000005587941132
 20
116.9999972418013954
 30
0.0
 11
176.0000005587941985
 21
125.499997336796298
 31
0.0
  0
LINE
  5
1F2B5
  8
1
 10
187.5000005587936016
 20
180.4999981021553879
 30
0.0
 11
187.5000005587936016
 21
112.999997336796298
 31
0.0
  0
LINE
  5
1F2B6
  8
0
 10
75.000000186265197
 20
153.9999981021555868
 30
0.0
 11
75.000000186265197
 21
157.9999981021553026
 31
0.0
  0
LINE
  5
1F2B7
  8
0
 10
50.0000001862647423
 20
157.9999981021553026
 30
0.0
 11
50.0000001862647423
 21
153.9999981021555868
 31
0.0
  0
ARC
  5
1F2B8
  8
0
 10
74.5000001862647423
 20
153.9999981021555868
 30
0.0
 40
0.500000000000057
 50
270.0
 51
0.0
  0
ARC
  5
1F2B9
  8
0
 10
50.5000001862647423
 20
153.9999981021555868
 30
0.0
 40
0.500000000000057
 50
180.0
 51
270.0
  0
LINE
  5
1F2BA
  8
0
 10
78.517638276469583
 20
173.6196276431111016
 30
0.0
 11
71.5635834600223006
 21
175.4829610152999919
 31
0.0
  0
LINE
  5
1F2BB
  8
0
 10
53.4364169125071768
 20
175.4829610152999919
 30
0.0
 11
46.4823620960598873
 21
173.6196276431111016
 31
0.0
  0
ARC
  5
1F2BC
  8
0
 10
71.4341739374710869
 20
174.9999981021555868
 30
0.0
 40
0.4999999999999988
 50
74.999999999992113
 51
90.0
  0
ARC
  5
1F2BD
  8
0
 10
53.5658264350583977
 20
174.9999981021555868
 30
0.0
 40
0.4999999999999769
 50
90.0
 51
104.9999999999944009
  0
ARC
  5
1F2BE
  8
0
 10
75.5000001862647423
 20
157.9999981021553026
 30
0.0
 40
0.500000000000057
 50
90.0
 51
180.0
  0
ARC
  5
1F2BF
  8
0
 10
49.500000186265197
 20
157.9999981021553026
 30
0.0
 40
0.500000000000057
 50
0.0
 51
90.0
  0
ARC
  5
1F2C0
  8
0
 10
78.000000186265197
 20
171.6877759905329981
 30
0.0
 40
2.0000000000000222
 50
0.0
 51
75.0000000000055422
  0
ARC
  5
1F2C1
  8
0
 10
47.0000001862647423
 20
171.6877759905329981
 30
0.0
 40
2.0000000000000222
 50
104.9999999999944009
 51
180.0
  0
LINE
  5
1F2C2
  8
0
 10
80.0000001862647423
 20
158.9999981021555016
 30
0.0
 11
80.0000001862647423
 21
171.6877759905329981
 31
0.0
  0
ARC
  5
1F2C3
  8
0
 10
79.500000186265197
 20
158.9999981021555016
 30
0.0
 40
0.4999999999999716
 50
270.0
 51
0.0
  0
ARC
  5
1F2C4
  8
0
 10
45.5000001862647423
 20
158.9999981021555016
 30
0.0
 40
0.4999999999999716
 50
180.0
 51
270.0
  0
LINE
  5
1F2C5
  8
0
 10
45.0000001862651899
 20
171.6877759905329981
 30
0.0
 11
45.0000001862651899
 21
158.9999981021555016
 31
0.0
  0
LINE
  5
1F2C6
  8
0
 10
49.0000001862647423
 20
123.9999981021554021
 30
0.0
 11
49.500000186265197
 21
123.4999981021555016
 31
0.0
  0
LINE
  5
1F2C7
  8
0
 10
75.5000001862647423
 20
123.4999981021555016
 30
0.0
 11
76.0000001862647423
 21
123.9999981021554021
 31
0.0
  0
LINE
  5
1F2C8
  8
0
 10
49.0000001862647423
 20
132.057983630251897
 30
0.0
 11
49.0000001862647423
 21
123.9999981021554021
 31
0.0
  0
LINE
  5
1F2C9
  8
0
 10
76.0000001862647423
 20
123.9999981021554021
 30
0.0
 11
76.0000001862647423
 21
132.057983630251897
 31
0.0
  0
ARC
  5
1F2CA
  8
0
 10
49.500000186265197
 20
132.057983630251897
 30
0.0
 40
0.5000000000000292
 50
110.0000000000036948
 51
180.0
  0
ARC
  5
1F2CB
  8
0
 10
75.5000001862647423
 20
132.057983630251897
 30
0.0
 40
0.5000000000000436
 50
0.0
 51
69.9999999999962768
  0
LINE
  5
1F2CC
  8
0
 10
75.6710102579274917
 20
132.5278299406448923
 30
0.0
 11
73.2631921289346337
 21
133.4042040691250008
 31
0.0
  0
LINE
  5
1F2CD
  8
0
 10
51.7368082435948509
 20
133.4042040691250008
 30
0.0
 11
49.3289901146019929
 21
132.5278299406448923
 31
0.0
  0
ARC
  5
1F2CE
  8
0
 10
73.4000001862648332
 20
133.7800811174392948
 30
0.0
 40
0.4000000000000306
 50
180.0
 51
249.9999999999963052
  0
ARC
  5
1F2CF
  8
0
 10
51.6000001862646513
 20
133.7800811174392948
 30
0.0
 40
0.4000000000000199
 50
290.0000000000036948
 51
0.0
  0
LINE
  5
1F2D0
  8
0
 10
73.0000001862647423
 20
142.4999982871273119
 30
0.0
 11
73.0000001862647423
 21
153.4999981021553026
 31
0.0
  0
LINE
  5
1F2D1
  8
0
 10
73.0000001862647423
 20
133.7800811174392948
 30
0.0
 11
73.0000001862647423
 21
140.4996611952541059
 31
0.0
  0
LINE
  5
1F2D2
  8
0
 10
52.0000001862647423
 20
140.5006086998263868
 30
0.0
 11
52.0000001862647423
 21
133.7800811174392948
 31
0.0
  0
LINE
  5
1F2D3
  8
0
 10
52.0000001862647423
 20
153.4999981021553026
 30
0.0
 11
52.0000001862647423
 21
142.5003350090563004
 31
0.0
  0
LINE
  5
1F2D4
  8
0
 10
54.5000001862647423
 20
123.4999981021555016
 30
0.0
 11
54.5000001862647423
 21
118.4999981021555016
 31
0.0
  0
LINE
  5
1F2D5
  8
0
 10
70.500000186265197
 20
118.4999981021555016
 30
0.0
 11
70.500000186265197
 21
123.4999981021555016
 31
0.0
  0
LINE
  5
1F2D6
  8
0
 10
54.5000001862647423
 20
118.4999981021555016
 30
0.0
 11
55.0000001862647423
 21
117.9999981021554021
 31
0.0
  0
LINE
  5
1F2D7
  8
0
 10
70.0000001862647423
 20
117.9999981021554021
 30
0.0
 11
70.500000186265197
 21
118.4999981021555016
 31
0.0
  0
LINE
  5
1F2D8
  8
0
 10
52.0000001862647423
 20
140.6999981021554049
 30
0.0
 11
52.0000001862647423
 21
142.299998102155314
 31
0.0
  0
LINE
  5
1F2D9
  8
0
 10
74.5000001862647423
 20
153.4999981021553026
 30
0.0
 11
50.5000001862647423
 21
153.4999981021553026
 31
0.0
  0
LINE
  5
1F2DA
  8
0
 10
53.5658264350583977
 20
175.4999981021555016
 30
0.0
 11
71.4341739374710869
 21
175.4999981021555016
 31
0.0
  0
LINE
  5
1F2DB
  8
0
 10
79.500000186265197
 20
158.4999981021555868
 30
0.0
 11
74.9334487572020862
 21
158.4999981021555868
 31
0.0
  0
LINE
  5
1F2DC
  8
0
 10
74.8850253494781555
 20
158.5076917662433971
 30
0.0
 11
74.9334487572020862
 21
158.4999981021555868
 31
0.0
  0
LINE
  5
1F2DD
  8
0
 10
50.0665516153273984
 20
158.4999981021555868
 30
0.0
 11
45.5000001862647423
 21
158.4999981021555868
 31
0.0
  0
LINE
  5
1F2DE
  8
0
 10
49.0000001862647423
 20
123.9999981021554021
 30
0.0
 11
76.0000001862647423
 21
123.9999981021554021
 31
0.0
  0
LINE
  5
1F2DF
  8
0
 10
75.5000001862647423
 20
123.4999981021555016
 30
0.0
 11
49.500000186265197
 21
123.4999981021555016
 31
0.0
  0
POLYLINE
  5
1F2E0
  8
0
 66
     1
 10
0.0
 20
0.0
 30
0.0
 70
   128
  0
VERTEX
  5
218DF
  8
0
 10
73.0000001862647423
 20
140.4996611952541059
 30
0.0
  0
VERTEX
  5
218E0
  8
0
 10
72.9909988090209936
 20
140.5994137903502121
 30
0.0
  0
VERTEX
  5
218E1
  8
0
 10
72.9761425145686644
 20
140.7932038726339101
 30
0.0
  0
VERTEX
  5
218E2
  8
0
 10
72.9612242162891107
 20
141.0673224657234073
 30
0.0
  0
VERTEX
  5
218E3
  8
0
 10
72.9528458417546517
 20
141.3905344209750865
 30
0.0
  0
VERTEX
  5
218E4
  8
0
 10
72.9546922184451887
 20
141.7249102799713114
 30
0.0
  0
VERTEX
  5
218E5
  8
0
 10
72.9658722552801464
 20
142.0333630475610107
 30
0.0
  0
VERTEX
  5
218E6
  8
0
 10
72.9815454722818231
 20
142.2828081575524948
 30
0.0
  0
VERTEX
  5
218E7
  8
0
 10
72.9948863820361566
 20
142.444792398386312
 30
0.0
  0
VERTEX
  5
218E8
  8
0
 10
73.0000001862647423
 20
142.4999982871273119
 30
0.0
  0
SEQEND
  5
218E9
  8
0
  0
POLYLINE
  5
1F2E1
  8
0
 66
     1
 10
0.0
 20
0.0
 30
0.0
 70
   128
  0
VERTEX
  5
218EA
  8
0
 10
52.0000001862647423
 20
142.5003350090563004
 30
0.0
  0
VERTEX
  5
218EB
  8
0
 10
52.0090015635089387
 20
142.4005824139603931
 30
0.0
  0
VERTEX
  5
218EC
  8
0
 10
52.0238578579608202
 20
142.206792331677093
 30
0.0
  0
VERTEX
  5
218ED
  8
0
 10
52.0387761562403668
 20
141.9326737385875958
 30
0.0
  0
VERTEX
  5
218EE
  8
0
 10
52.0471545307748329
 20
141.6094617833358029
 30
0.0
  0
VERTEX
  5
218EF
  8
0
 10
52.0453081540847506
 20
141.2750859243394927
 30
0.0
  0
VERTEX
  5
218F0
  8
0
 10
52.0341281172497929
 20
140.9666331567499071
 30
0.0
  0
VERTEX
  5
218F1
  8
0
 10
52.0184549002476615
 20
140.7171880467581957
 30
0.0
  0
VERTEX
  5
218F2
  8
0
 10
52.0051139904937827
 20
140.5552038059244921
 30
0.0
  0
VERTEX
  5
218F3
  8
0
 10
52.0000001862647423
 20
140.5006086998263868
 30
0.0
  0
SEQEND
  5
218F4
  8
0
  0
LINE
  5
1F2E2
  8
0
 10
54.5000001862647423
 20
118.4999981021555016
 30
0.0
 11
70.500000186265197
 21
118.4999981021555016
 31
0.0
  0
LINE
  5
1F2E3
  8
0
 10
70.0000001862647423
 20
117.9999981021554021
 30
0.0
 11
55.0000001862647423
 21
117.9999981021554021
 31
0.0
  0
LINE
  5
1F2E4
  8
0
 10
51.5685384890191401
 20
173.794848940667606
 30
0.0
 11
51.5685384890191401
 21
158.9999981021555016
 31
0.0
  0
LINE
  5
1F2E5
  8
0
 10
73.4314618835103374
 20
173.794848940667606
 30
0.0
 11
51.5685384890191401
 21
173.794848940667606
 31
0.0
  0
LINE
  5
1F2E6
  8
0
 10
73.4314618835103374
 20
158.9999981021555016
 30
0.0
 11
73.4314618835103374
 21
173.794848940667606
 31
0.0
  0
LINE
  5
1F2E7
  8
0
 10
50.0000001862647423
 20
153.9999981021555868
 30
0.0
 11
75.000000186265197
 21
153.9999981021555868
 31
0.0
  0
ARC
  5
1F2E8
  8
0
 10
72.7141346087325928
 20
164.0063705893066981
 30
0.0
 40
9.8147270392099202
 50
72.3439976037622614
 51
85.8086960718450769
  0
LINE
  5
1F2E9
  8
0
 10
75.6909552537051695
 20
173.3587716554428084
 30
0.0
 11
75.6909552537051695
 21
158.9999981021555016
 31
0.0
  0
POLYLINE
  5
1F2EA
  8
0
 66
     1
 10
0.0
 20
0.0
 30
0.0
 70
   128
  0
VERTEX
  5
218F5
  8
0
 10
75.6909552537051695
 20
158.9999981021555016
 30
0.0
  0
VERTEX
  5
218F6
  8
0
 10
75.6868950080067862
 20
158.9024529411472884
 30
0.0
  0
VERTEX
  5
218F7
  8
0
 10
75.6748703038781514
 20
158.8086563859729097
 30
0.0
  0
VERTEX
  5
218F8
  8
0
 10
75.6553432439552438
 20
158.7222129856455126
 30
0.0
  0
VERTEX
  5
218F9
  8
0
 10
75.6290642421997745
 20
158.6464447115621113
 30
0.0
  0
VERTEX
  5
218FA
  8
0
 10
75.5970431859111613
 20
158.5842632960041954
 30
0.0
  0
VERTEX
  5
218FB
  8
0
 10
75.5605106263262769
 20
158.538058335899791
 30
0.0
  0
VERTEX
  5
218FC
  8
0
 10
75.5208704892208971
 20
158.5096054619538961
 30
0.0
  0
VERTEX
  5
218FD
  8
0
 10
75.4796461228345379
 20
158.4999981021555868
 30
0.0
  0
SEQEND
  5
218FE
  8
0
  0
ARC
  5
1F2EB
  8
0
 10
75.5726702841573115
 20
162.930023015671793
 30
0.0
 40
4.4754741911734932
 50
241.4169808618995035
 51
261.1616421841767988
  0
ARC
  5
1F2EC
  8
0
 10
52.251759074588108
 20
164.1830911862242033
 30
0.0
 40
9.6360094177332432
 50
94.0658459006371004
 51
107.7814604237553056
  0
LINE
  5
1F2ED
  8
0
 10
49.3090451188247698
 20
158.9999981021555016
 30
0.0
 11
49.3090451188247698
 21
173.3587716554428084
 31
0.0
  0
ARC
  5
1F2EE
  8
0
 10
49.3588899524308928
 20
163.1317597282697136
 30
0.0
 40
4.6855096617420466
 50
278.686734320266396
 51
298.1376817568583988
  0
POLYLINE
  5
1F2EF
  8
0
 66
     1
 10
0.0
 20
0.0
 30
0.0
 70
   128
  0
VERTEX
  5
218FF
  8
0
 10
49.3090451188247698
 20
158.9999981021555016
 30
0.0
  0
VERTEX
  5
21900
  8
0
 10
49.3131053645226984
 20
158.9024529411472884
 30
0.0
  0
VERTEX
  5
21901
  8
0
 10
49.3251300686513332
 20
158.8086563859729097
 30
0.0
  0
VERTEX
  5
21902
  8
0
 10
49.3446571285742266
 20
158.7222129856455126
 30
0.0
  0
VERTEX
  5
21903
  8
0
 10
49.3709361303301719
 20
158.6464447115621113
 30
0.0
  0
VERTEX
  5
21904
  8
0
 10
49.4029571866183304
 20
158.5842632960041954
 30
0.0
  0
VERTEX
  5
21905
  8
0
 10
49.4394897462032077
 20
158.538058335899791
 30
0.0
  0
VERTEX
  5
21906
  8
0
 10
49.4791298833085875
 20
158.5096054619538961
 30
0.0
  0
VERTEX
  5
21907
  8
0
 10
49.5203542496954014
 20
158.4999981021555868
 30
0.0
  0
SEQEND
  5
21908
  8
0
  0
POLYLINE
  5
1F2F0
  8
0
 66
     1
 10
0.0
 20
0.0
 30
0.0
 70
   128
  0
VERTEX
  5
21909
  8
0
 10
78.5897070508888191
 20
172.6537018168220072
 30
0.0
  0
VERTEX
  5
2190A
  8
0
 10
77.1418485892183838
 20
173.0135407701741883
 30
0.0
  0
VERTEX
  5
2190B
  8
0
 10
75.6909552537051695
 20
173.3587716554428084
 30
0.0
  0
SEQEND
  5
2190C
  8
0
  0
LINE
  5
1F2F1
  8
0
 10
78.8303424835614805
 20
172.5614257021680089
 30
0.0
 11
78.5897070508888191
 21
172.6537018168220072
 31
0.0
  0
LINE
  5
1F2F2
  8
0
 10
78.8303424835614805
 20
158.9999981021555016
 30
0.0
 11
78.8303424835614805
 21
172.5614257021680089
 31
0.0
  0
POLYLINE
  5
1F2F3
  8
0
 66
     1
 10
0.0
 20
0.0
 30
0.0
 70
   128
  0
VERTEX
  5
2190D
  8
0
 10
78.8303424835614805
 20
158.9999981021555016
 30
0.0
  0
VERTEX
  5
2190E
  8
0
 10
78.8262822378635519
 20
158.9024529411472884
 30
0.0
  0
VERTEX
  5
2190F
  8
0
 10
78.8142575337349029
 20
158.8086563859729097
 30
0.0
  0
VERTEX
  5
21910
  8
0
 10
78.794730473811569
 20
158.7222129856455126
 30
0.0
  0
VERTEX
  5
21911
  8
0
 10
78.7684514720560855
 20
158.6464447115621113
 30
0.0
  0
VERTEX
  5
21912
  8
0
 10
78.7364304157679271
 20
158.5842632960041954
 30
0.0
  0
VERTEX
  5
21913
  8
0
 10
78.6998978561825737
 20
158.538058335899791
 30
0.0
  0
VERTEX
  5
21914
  8
0
 10
78.6602577190772081
 20
158.5096054619538961
 30
0.0
  0
VERTEX
  5
21915
  8
0
 10
78.6190333526908489
 20
158.4999981021555868
 30
0.0
  0
SEQEND
  5
21916
  8
0
  0
POLYLINE
  5
1F2F4
  8
0
 66
     1
 10
0.0
 20
0.0
 30
0.0
 70
   128
  0
VERTEX
  5
21917
  8
0
 10
46.1696578889684588
 20
158.9999981021555016
 30
0.0
  0
VERTEX
  5
21918
  8
0
 10
46.1737181346663874
 20
158.9024529411472884
 30
0.0
  0
VERTEX
  5
21919
  8
0
 10
46.1857428387950222
 20
158.8086563859729097
 30
0.0
  0
VERTEX
  5
2191A
  8
0
 10
46.2052698987179085
 20
158.7222129856455126
 30
0.0
  0
VERTEX
  5
2191B
  8
0
 10
46.2315489004738467
 20
158.6464447115621113
 30
0.0
  0
VERTEX
  5
2191C
  8
0
 10
46.2635699567620122
 20
158.5842632960041954
 30
0.0
  0
VERTEX
  5
2191D
  8
0
 10
46.3001025163473514
 20
158.538058335899791
 30
0.0
  0
VERTEX
  5
2191E
  8
0
 10
46.3397426534527312
 20
158.5096054619538961
 30
0.0
  0
VERTEX
  5
2191F
  8
0
 10
46.3809670198386286
 20
158.4999981021555868
 30
0.0
  0
SEQEND
  5
21920
  8
0
  0
LINE
  5
1F2F5
  8
0
 10
49.3090451188247698
 20
173.3587716554428084
 30
0.0
 11
46.4102933216406583
 21
172.6537018168222062
 31
0.0
  0
LINE
  5
1F2F6
  8
0
 10
46.4102933216406583
 20
172.6537018168222062
 30
0.0
 11
46.1696578889684588
 21
172.5614257021680089
 31
0.0
  0
LINE
  5
1F2F7
  8
0
 10
46.1696578889684588
 20
172.5614257021680089
 30
0.0
 11
46.1696578889684588
 21
158.9999981021555016
 31
0.0
  0
POLYLINE
  5
1F2F8
  8
0
 66
     1
 10
0.0
 20
0.0
 30
0.0
 70
   128
  0
VERTEX
  5
21921
  8
0
 10
79.9831841244429143
 20
171.6877759905329981
 30
0.0
  0
VERTEX
  5
21922
  8
0
 10
79.982804320034802
 20
171.6917863898096073
 30
0.0
  0
VERTEX
  5
21923
  8
0
 10
79.982751459431924
 20
171.6923174668201
 30
0.0
  0
VERTEX
  5
21924
  8
0
 10
79.9822728677688701
 20
171.6968776792971028
 30
0.0
  0
VERTEX
  5
21925
  8
0
 10
79.9814115811852844
 20
171.7042021611352141
 30
0.0
  0
VERTEX
  5
21926
  8
0
 10
79.9795677035742756
 20
171.7174245702566111
 30
0.0
  0
VERTEX
  5
21927
  8
0
 10
79.9752924349420482
 20
171.7413119039424032
 30
0.0
  0
VERTEX
  5
21928
  8
0
 10
79.9644448140204531
 20
171.7845719483555911
 30
0.0
  0
VERTEX
  5
21929
  8
0
 10
79.9341895469694919
 20
171.8635605313021131
 30
0.0
  0
VERTEX
  5
2192A
  8
0
 10
79.8391220932301167
 20
172.0120952527570921
 30
0.0
  0
VERTEX
  5
2192B
  8
0
 10
79.8364267687782103
 20
172.0153785911803936
 30
0.0
  0
VERTEX
  5
2192C
  8
0
 10
79.6517237010937151
 20
172.1895298831032903
 30
0.0
  0
VERTEX
  5
2192D
  8
0
 10
79.3982694777703131
 20
172.3480982664196119
 30
0.0
  0
VERTEX
  5
2192E
  8
0
 10
78.8303424835614805
 20
172.5614257021680089
 30
0.0
  0
SEQEND
  5
2192F
  8
0
  0
POLYLINE
  5
1F2F9
  8
0
 66
     1
 10
0.0
 20
0.0
 30
0.0
 70
   128
  0
VERTEX
  5
21930
  8
0
 10
46.1696578889684588
 20
172.5614257021680089
 30
0.0
  0
VERTEX
  5
21931
  8
0
 10
45.6017308947596121
 20
172.3480982664196119
 30
0.0
  0
VERTEX
  5
21932
  8
0
 10
45.3482766714357624
 20
172.1895298831032903
 30
0.0
  0
VERTEX
  5
21933
  8
0
 10
45.1635736037512672
 20
172.0153785911803936
 30
0.0
  0
VERTEX
  5
21934
  8
0
 10
45.1608782792993608
 20
172.0120952527570921
 30
0.0
  0
VERTEX
  5
21935
  8
0
 10
45.0658108255599927
 20
171.8635605313021131
 30
0.0
  0
VERTEX
  5
21936
  8
0
 10
45.0355555585090315
 20
171.7845719483555911
 30
0.0
  0
VERTEX
  5
21937
  8
0
 10
45.0247079375874293
 20
171.7413119039424032
 30
0.0
  0
VERTEX
  5
21938
  8
0
 10
45.020432668955209
 20
171.7174245702566111
 30
0.0
  0
VERTEX
  5
21939
  8
0
 10
45.0185887913441931
 20
171.7042021611352141
 30
0.0
  0
VERTEX
  5
2193A
  8
0
 10
45.0177275047606074
 20
171.6968776792971028
 30
0.0
  0
VERTEX
  5
2193B
  8
0
 10
45.0172489130980011
 20
171.6923174668201
 30
0.0
  0
VERTEX
  5
2193C
  8
0
 10
45.0171960524946826
 20
171.6917863898096073
 30
0.0
  0
VERTEX
  5
2193D
  8
0
 10
45.0168162480865632
 20
171.6877759905329981
 30
0.0
  0
SEQEND
  5
2193E
  8
0
  0
LINE
  5
1F2FA
  8
0
 10
80.0000001862647423
 20
171.6877759905329981
 30
0.0
 11
79.9831841244429143
 21
171.6877759905329981
 31
0.0
  0
LINE
  5
1F2FB
  8
0
 10
45.0168162480865632
 20
171.6877759905329981
 30
0.0
 11
45.0000001862651899
 21
171.6877759905329981
 31
0.0
  0
LINE
  5
1F2FC
  8
0
 10
76.0000001862647423
 20
132.057983630251897
 30
0.0
 11
49.0000001862647423
 21
132.057983630251897
 31
0.0
  0
LINE
  5
1F2FD
  8
0
 10
73.2631921289346337
 20
133.4042040691250008
 30
0.0
 11
51.7368082435948509
 21
133.4042040691250008
 31
0.0
  0
LINE
  5
1F2FE
  8
0
 10
52.0000001862647423
 20
142.299998102155314
 30
0.0
 11
52.0155225636044705
 21
142.3155204794948929
 31
0.0
  0
LINE
  5
1F2FF
  8
0
 10
52.0000001862647423
 20
140.6999981021554049
 30
0.0
 11
52.0157426129812777
 21
140.6842556754386919
 31
0.0
  0
LINE
  5
1F300
  8
0
 10
73.0000001862647423
 20
140.6999981021554049
 30
0.0
 11
73.0000001862647423
 21
142.299998102155314
 31
0.0
  0
LINE
  5
1F301
  8
0
 10
73.0000001862647423
 20
142.299998102155314
 30
0.0
 11
72.9842577595481998
 21
142.3157405288719133
 31
0.0
  0
LINE
  5
1F302
  8
0
 10
73.0000001862647423
 20
140.6999981021554049
 30
0.0
 11
72.984477808925476
 21
140.6844757248159965
 31
0.0
  0
LINE
  5
1F303
  8
0
 10
72.1000004880131655
 20
120.9999981021554021
 30
0.0
 11
72.1000004880131655
 21
118.9999981021554021
 31
0.0
  0
LINE
  5
1F304
  8
0
 10
75.90000048801312
 20
118.9999981021554021
 30
0.0
 11
75.90000048801312
 21
120.9999981021555016
 31
0.0
  0
LINE
  5
1F305
  8
0
 10
75.0000004880131428
 20
120.9999981021555016
 30
0.0
 11
75.0000004880131428
 21
123.4999981021555016
 31
0.0
  0
LINE
  5
1F306
  8
0
 10
73.0000004880131428
 20
123.4999981021555016
 30
0.0
 11
73.0000004880131428
 21
120.9999981021555016
 31
0.0
  0
LINE
  5
1F307
  8
0
 10
72.1000004880131655
 20
120.9999981021554021
 30
0.0
 11
75.90000048801312
 21
120.9999981021555016
 31
0.0
  0
LINE
  5
1F308
  8
0
 10
72.1000004880131655
 20
118.9999981021554021
 30
0.0
 11
75.90000048801312
 21
118.9999981021554021
 31
0.0
  0
LINE
  5
1F309
  8
3
 10
74.8000001862644126
 20
122.1999981021555044
 30
0.0
 11
74.8000001862644126
 21
123.4999981021555016
 31
0.0
  0
LINE
  5
1F30A
  8
3
 10
75.0000008158387459
 20
121.8535868501872983
 30
0.0
 11
74.8000001862644126
 21
122.1999981021555044
 31
0.0
  0
LINE
  5
1F30B
  8
0
 10
73.0000004880131996
 20
122.1999981021555044
 30
0.0
 11
75.0000008158387459
 21
122.1999981021555044
 31
0.0
  0
LINE
  5
1F30C
  8
3
 10
73.2000001862645036
 20
122.1999981021555044
 30
0.0
 11
73.200000186264532
 21
123.4999981021555016
 31
0.0
  0
LINE
  5
1F30D
  8
3
 10
72.999999556690625
 20
121.8535868501872983
 30
0.0
 11
73.2000001862645036
 21
122.1999981021555044
 31
0.0
  0
LINE
  5
1F30E
  8
1
 10
74.0000001862646855
 20
116.9999980071604995
 30
0.0
 11
74.0000001862647707
 21
125.4999981021555016
 31
0.0
  0
LINE
  5
1F30F
  8
0
 10
60.6000004880131726
 20
120.9999981021554021
 30
0.0
 11
60.6000004880131726
 21
118.9999981021554021
 31
0.0
  0
LINE
  5
1F310
  8
0
 10
64.40000048801312
 20
118.9999981021554021
 30
0.0
 11
64.40000048801312
 21
120.9999981021555016
 31
0.0
  0
LINE
  5
1F311
  8
0
 10
63.5000004880131428
 20
120.9999981021555016
 30
0.0
 11
63.5000004880131428
 21
123.4999981021555016
 31
0.0
  0
LINE
  5
1F312
  8
0
 10
61.5000004880131428
 20
123.4999981021555016
 30
0.0
 11
61.5000004880131428
 21
120.9999981021555016
 31
0.0
  0
LINE
  5
1F313
  8
0
 10
60.6000004880131726
 20
120.9999981021554021
 30
0.0
 11
64.40000048801312
 21
120.9999981021555016
 31
0.0
  0
LINE
  5
1F314
  8
0
 10
60.6000004880131726
 20
118.9999981021554021
 30
0.0
 11
64.40000048801312
 21
118.9999981021554021
 31
0.0
  0
LINE
  5
1F315
  8
3
 10
63.3000001862644126
 20
122.1999981021555044
 30
0.0
 11
63.3000001862644126
 21
123.4999981021555016
 31
0.0
  0
LINE
  5
1F316
  8
3
 10
63.500000815838753
 20
121.8535868501872983
 30
0.0
 11
63.3000001862644126
 21
122.1999981021555044
 31
0.0
  0
LINE
  5
1F317
  8
0
 10
61.5000004880131996
 20
122.1999981021555044
 30
0.0
 11
63.500000815838753
 21
122.1999981021555044
 31
0.0
  0
LINE
  5
1F318
  8
3
 10
61.7000001862644964
 20
122.1999981021555044
 30
0.0
 11
61.700000186264532
 21
123.4999981021555016
 31
0.0
  0
LINE
  5
1F319
  8
3
 10
61.4999995566906321
 20
121.8535868501872983
 30
0.0
 11
61.7000001862644964
 21
122.1999981021555044
 31
0.0
  0
LINE
  5
1F31A
  8
0
 10
49.1000004880136203
 20
120.9999981021554021
 30
0.0
 11
49.1000004880136203
 21
118.9999981021554021
 31
0.0
  0
LINE
  5
1F31B
  8
0
 10
52.9000004880135677
 20
118.9999981021554021
 30
0.0
 11
52.9000004880135677
 21
120.9999981021555016
 31
0.0
  0
LINE
  5
1F31C
  8
0
 10
52.0000004880135975
 20
120.9999981021555016
 30
0.0
 11
52.0000004880135975
 21
123.4999981021555016
 31
0.0
  0
LINE
  5
1F31D
  8
0
 10
50.0000004880135975
 20
123.4999981021555016
 30
0.0
 11
50.0000004880135975
 21
120.9999981021555016
 31
0.0
  0
LINE
  5
1F31E
  8
0
 10
49.1000004880136203
 20
120.9999981021554021
 30
0.0
 11
52.9000004880135677
 21
120.9999981021555016
 31
0.0
  0
LINE
  5
1F31F
  8
0
 10
49.1000004880136203
 20
118.9999981021554021
 30
0.0
 11
52.9000004880135677
 21
118.9999981021554021
 31
0.0
  0
LINE
  5
1F320
  8
3
 10
51.8000001862648602
 20
122.1999981021555044
 30
0.0
 11
51.8000001862648602
 21
123.4999981021555016
 31
0.0
  0
LINE
  5
1F321
  8
3
 10
52.0000008158392006
 20
121.8535868501872983
 30
0.0
 11
51.8000001862648602
 21
122.1999981021555044
 31
0.0
  0
LINE
  5
1F322
  8
0
 10
50.0000004880136473
 20
122.1999981021555044
 30
0.0
 11
52.0000008158392006
 21
122.1999981021555044
 31
0.0
  0
LINE
  5
1F323
  8
3
 10
50.2000001862649583
 20
122.1999981021555044
 30
0.0
 11
50.2000001862649867
 21
123.4999981021555016
 31
0.0
  0
LINE
  5
1F324
  8
3
 10
49.9999995566910798
 20
121.8535868501872983
 30
0.0
 11
50.2000001862649583
 21
122.1999981021555044
 31
0.0
  0
LINE
  5
1F325
  8
1
 10
51.0000001862651402
 20
116.9999980071604995
 30
0.0
 11
51.0000001862652326
 21
125.4999981021555016
 31
0.0
  0
LINE
  5
1F326
  8
1
 10
62.5000001862646926
 20
180.4999981021553879
 30
0.0
 11
62.5000001862646926
 21
112.9999981021555016
 31
0.0
  0
ARC
  5
1F32F
  8
0
 10
59.5903425813098124
 20
129.5498786720733051
 30
0.0
 40
1.5272178340461171
 50
90.8684799421206861
 51
181.8265736609220085
  0
ARC
  5
1F330
  8
0
 10
59.5802612587398812
 20
129.4406191008671101
 30
0.0
 40
1.517570160874572
 50
177.7121773006981016
 51
269.6616883444050927
  0
ARC
  5
1F331
  8
0
 10
59.5645823251701927
 20
129.4566985288348064
 30
0.0
 40
1.533637849034271
 50
270.2509909767014733
 51
1.2809895327088601
  0
ARC
  5
1F332
  8
0
 10
59.5456664040070223
 20
129.524537219791398
 30
0.0
 40
1.552533104250212
 50
358.7616302714056928
 51
89.2054992808598257
  0
LINE
  5
1F333
  8
0
 10
61.6343593690548275
 20
127.9999979829462973
 30
0.0
 11
61.6343593690548275
 21
130.9999984746845882
 31
0.0
  0
LINE
  5
1F334
  8
0
 10
61.6343593690548275
 20
127.9999979829462973
 30
0.0
 11
62.1722587791741077
 21
127.9999979829462973
 31
0.0
  0
LINE
  5
1F335
  8
0
 10
62.1722587791741077
 20
129.9681470787199942
 30
0.0
 11
62.1722587791741077
 21
127.9999979829462973
 31
0.0
  0
LINE
  5
1F336
  8
0
 10
63.528800336644899
 20
127.9999979829462973
 30
0.0
 11
62.1722587791741077
 21
129.9681470787199942
 31
0.0
  0
LINE
  5
1F337
  8
0
 10
63.528800336644899
 20
127.9999979829462973
 30
0.0
 11
64.0151812229314032
 21
127.9999979829462973
 31
0.0
  0
LINE
  5
1F338
  8
0
 10
64.0151812229314032
 20
130.9999984746845882
 30
0.0
 11
64.0151812229314032
 21
127.9999979829462973
 31
0.0
  0
LINE
  5
1F339
  8
0
 10
63.47905863076533
 20
130.9999984746845882
 30
0.0
 11
64.0151812229314032
 21
130.9999984746845882
 31
0.0
  0
LINE
  5
1F33A
  8
0
 10
63.47905863076533
 20
129.0258395543368977
 30
0.0
 11
63.47905863076533
 21
130.9999984746845882
 31
0.0
  0
LINE
  5
1F33B
  8
0
 10
62.1187916956850401
 20
130.9999984746845882
 30
0.0
 11
63.47905863076533
 21
129.0258395543368977
 31
0.0
  0
LINE
  5
1F33C
  8
0
 10
61.6343593690548275
 20
130.9999984746845882
 30
0.0
 11
62.1187916956850401
 21
130.9999984746845882
 31
0.0
  0
POLYLINE
  5
1F33D
  8
0
 66
     1
 10
0.0
 20
0.0
 30
0.0
 70
   128
  0
VERTEX
  5
2193F
  8
0
 10
72.5176392123111668
 20
129.5011996349367109
 30
0.0
  0
VERTEX
  5
21940
  8
0
 10
72.5946856662639561
 20
130.1034393778118101
 30
0.0
  0
VERTEX
  5
21941
  8
0
 10
72.8158710524443791
 20
130.6150605028541918
 30
0.0
  0
VERTEX
  5
21942
  8
0
 10
73.1369351968173191
 20
130.9568763768347139
 30
0.0
  0
VERTEX
  5
21943
  8
0
 10
73.4963940456518117
 20
131.0769210627350105
 30
0.0
  0
SEQEND
  5
21944
  8
0
  0
POLYLINE
  5
1F33E
  8
0
 66
     1
 10
0.0
 20
0.0
 30
0.0
 70
   128
  0
VERTEX
  5
21945
  8
0
 10
73.4988341107968495
 20
127.9230753948959034
 30
0.0
  0
VERTEX
  5
21946
  8
0
 10
73.1367358937863514
 20
128.0352029075893086
 30
0.0
  0
VERTEX
  5
21947
  8
0
 10
72.9669436812404797
 20
128.1820035597357048
 30
0.0
  0
VERTEX
  5
21948
  8
0
 10
72.8165024891499684
 20
128.3824763318571058
 30
0.0
  0
VERTEX
  5
21949
  8
0
 10
72.5938493385914967
 20
128.8960103934678045
 30
0.0
  0
VERTEX
  5
2194A
  8
0
 10
72.5176392123111668
 20
129.5011996349367109
 30
0.0
  0
SEQEND
  5
2194B
  8
0
  0
POLYLINE
  5
1F33F
  8
0
 66
     1
 10
0.0
 20
0.0
 30
0.0
 70
   128
  0
VERTEX
  5
2194C
  8
0
 10
74.3219826370481655
 20
129.4909839576156969
 30
0.0
  0
VERTEX
  5
2194D
  8
0
 10
74.2684297263626263
 20
128.8911703100474995
 30
0.0
  0
VERTEX
  5
2194E
  8
0
 10
74.099806323647897
 20
128.3831850683363882
 30
0.0
  0
VERTEX
  5
2194F
  8
0
 10
73.835017345846552
 20
128.0376895388635035
 30
0.0
  0
VERTEX
  5
21950
  8
0
 10
73.4988341107968495
 20
127.9230753948959034
 30
0.0
  0
SEQEND
  5
21951
  8
0
  0
POLYLINE
  5
1F340
  8
0
 66
     1
 10
0.0
 20
0.0
 30
0.0
 70
   128
  0
VERTEX
  5
21952
  8
0
 10
73.4963940456518117
 20
131.0769210627350105
 30
0.0
  0
VERTEX
  5
21953
  8
0
 10
73.8340664654974148
 20
130.9576354047331108
 30
0.0
  0
VERTEX
  5
21954
  8
0
 10
74.098957888782877
 20
130.6057957058818886
 30
0.0
  0
VERTEX
  5
21955
  8
0
 10
74.2683300748471424
 20
130.0943859910638878
 30
0.0
  0
VERTEX
  5
21956
  8
0
 10
74.3219826370481655
 20
129.4909839576156969
 30
0.0
  0
SEQEND
  5
21957
  8
0
  0
POLYLINE
  5
1F341
  8
0
 66
     1
 10
0.0
 20
0.0
 30
0.0
 70
   128
  0
VERTEX
  5
21958
  8
0
 10
72.021663375199239
 20
129.4999982288154001
 30
0.0
  0
VERTEX
  5
21959
  8
0
 10
71.0581468418244526
 20
128.7499976402195898
 30
0.0
  0
VERTEX
  5
2195A
  8
0
 10
70.0154497288176003
 20
127.9999979829462973
 30
0.0
  0
SEQEND
  5
2195B
  8
0
  0
POLYLINE
  5
1F342
  8
0
 66
     1
 10
0.0
 20
0.0
 30
0.0
 70
   128
  0
VERTEX
  5
2195C
  8
0
 10
70.0154497288176003
 20
130.9999984746845882
 30
0.0
  0
VERTEX
  5
2195D
  8
0
 10
71.0581468418244526
 20
130.2499978860886927
 30
0.0
  0
VERTEX
  5
2195E
  8
0
 10
72.021663375199239
 20
129.4999982288154001
 30
0.0
  0
SEQEND
  5
2195F
  8
0
  0
LINE
  5
1F343
  8
0
 10
70.0154497288176003
 20
130.2499978860886927
 30
0.0
 11
70.0154497288176003
 21
130.9999984746845882
 31
0.0
  0
LINE
  5
1F344
  8
0
 10
67.5414527766415063
 20
130.2499978860886927
 30
0.0
 11
70.0154497288176003
 21
130.2499978860886927
 31
0.0
  0
LINE
  5
1F345
  8
0
 10
67.5414527766415063
 20
130.9999984746845882
 30
0.0
 11
67.5414527766415063
 21
130.2499978860886927
 31
0.0
  0
POLYLINE
  5
1F346
  8
0
 66
     1
 10
0.0
 20
0.0
 30
0.0
 70
   128
  0
VERTEX
  5
21960
  8
0
 10
65.0531141553078101
 20
129.4999982288154001
 30
0.0
  0
VERTEX
  5
21961
  8
0
 10
66.314931446686785
 20
130.2499978860886927
 30
0.0
  0
VERTEX
  5
21962
  8
0
 10
67.5414527766415063
 20
130.9999984746845882
 30
0.0
  0
SEQEND
  5
21963
  8
0
  0
POLYLINE
  5
1F347
  8
0
 66
     1
 10
0.0
 20
0.0
 30
0.0
 70
   128
  0
VERTEX
  5
21964
  8
0
 10
67.5414527766415063
 20
127.9999979829462973
 30
0.0
  0
VERTEX
  5
21965
  8
0
 10
66.314931446686785
 20
128.7499976402195898
 30
0.0
  0
VERTEX
  5
21966
  8
0
 10
65.0531141553078101
 20
129.4999982288154001
 30
0.0
  0
SEQEND
  5
21967
  8
0
  0
LINE
  5
1F348
  8
0
 10
67.5414527766415063
 20
128.7499976402195898
 30
0.0
 11
67.5414527766415063
 21
127.9999979829462973
 31
0.0
  0
LINE
  5
1F349
  8
0
 10
67.5414527766415063
 20
128.7499976402195898
 30
0.0
 11
70.0154497288176003
 21
128.7499976402195898
 31
0.0
  0
LINE
  5
1F34A
  8
0
 10
70.0154497288176003
 20
127.9999979829462973
 30
0.0
 11
70.0154497288176003
 21
128.7499976402195898
 31
0.0
  0
LINE
  5
1F34B
  8
0
 10
75.3320923075088444
 20
127.9999979829462973
 30
0.0
 11
75.3320923075088444
 21
130.9999984746845882
 31
0.0
  0
LINE
  5
1F34C
  8
0
 10
75.3320923075088444
 20
127.9999979829462973
 30
0.0
 11
75.489114224911134
 21
127.9999979829462973
 31
0.0
  0
LINE
  5
1F34D
  8
0
 10
75.489114224911134
 20
129.3461521213920946
 30
0.0
 11
75.489114224911134
 21
127.9999979829462973
 31
0.0
  0
LINE
  5
1F34E
  8
0
 10
75.489114224911134
 20
129.3461521213920946
 30
0.0
 11
75.7101012393836186
 21
129.3461521213920946
 31
0.0
  0
LINE
  5
1F34F
  8
0
 10
75.7101012393836186
 20
129.884613031712405
 30
0.0
 11
75.7101012393836186
 21
129.3461521213920946
 31
0.0
  0
LINE
  5
1F350
  8
0
 10
75.489114224911134
 20
129.884613031712405
 30
0.0
 11
75.7101012393836186
 21
129.884613031712405
 31
0.0
  0
LINE
  5
1F351
  8
0
 10
75.489114224911134
 20
130.4615366330417032
 30
0.0
 11
75.489114224911134
 21
129.884613031712405
 31
0.0
  0
LINE
  5
1F352
  8
0
 10
75.489114224911134
 20
130.4615366330417032
 30
0.0
 11
75.7101012393836186
 21
130.4615366330417032
 31
0.0
  0
LINE
  5
1F353
  8
0
 10
75.7101012393836186
 20
130.9999984746845882
 30
0.0
 11
75.7101012393836186
 21
130.4615366330417032
 31
0.0
  0
LINE
  5
1F354
  8
0
 10
75.3320923075088444
 20
130.9999984746845882
 30
0.0
 11
75.7101012393836186
 21
130.9999984746845882
 31
0.0
  0
LINE
  5
1F355
  8
0
 10
74.5725074782975952
 20
127.9999979829462973
 30
0.0
 11
74.5725074782975952
 21
130.9999984746845882
 31
0.0
  0
LINE
  5
1F356
  8
0
 10
74.5725074782975952
 20
127.9999979829462973
 30
0.0
 11
74.803829379380133
 21
127.9999979829462973
 31
0.0
  0
LINE
  5
1F357
  8
0
 10
74.803829379380133
 20
129.3461521213920946
 30
0.0
 11
74.803829379380133
 21
127.9999979829462973
 31
0.0
  0
LINE
  5
1F358
  8
0
 10
74.803829379380133
 20
129.3461521213920946
 30
0.0
 11
75.1546595245603726
 21
129.3461521213920946
 31
0.0
  0
LINE
  5
1F359
  8
0
 10
75.1546595245603726
 20
129.884613031712405
 30
0.0
 11
75.1546595245603726
 21
129.3461521213920946
 31
0.0
  0
LINE
  5
1F35A
  8
0
 10
74.803829379380133
 20
129.884613031712405
 30
0.0
 11
75.1546595245603726
 21
129.884613031712405
 31
0.0
  0
LINE
  5
1F35B
  8
0
 10
74.803829379380133
 20
130.4615366330417032
 30
0.0
 11
74.803829379380133
 21
129.884613031712405
 31
0.0
  0
LINE
  5
1F35C
  8
0
 10
74.803829379380133
 20
130.4615366330417032
 30
0.0
 11
75.1546595245603726
 21
130.4615366330417032
 31
0.0
  0
LINE
  5
1F35D
  8
0
 10
75.1546595245603726
 20
130.9999984746845882
 30
0.0
 11
75.1546595245603726
 21
130.4615366330417032
 31
0.0
  0
LINE
  5
1F35E
  8
0
 10
74.5725074782975952
 20
130.9999984746845882
 30
0.0
 11
75.1546595245603726
 21
130.9999984746845882
 31
0.0
  0
ARC
  5
1F35F
  8
0
 10
59.5613556544030303
 20
129.5512959479299866
 30
0.0
 40
0.9871661263894493
 50
90.1377560888406464
 51
183.3280391008999004
  0
ARC
  5
1F360
  8
0
 10
59.5542116262440118
 20
129.5286771300681039
 30
0.0
 40
1.009793359989104
 50
358.2701887047813898
 51
89.7293152478281257
  0
ARC
  5
1F361
  8
0
 10
59.5599036841730936
 20
129.4656584508979904
 30
0.0
 40
1.0041683892543709
 50
270.5498721367213761
 51
1.856804201666026
  0
POLYLINE
  5
1F362
  8
0
 66
     1
 10
0.0
 20
0.0
 30
0.0
 70
   128
  0
VERTEX
  5
21968
  8
0
 10
58.9303338900216929
 20
128.6923059320124025
 30
0.0
  0
VERTEX
  5
21969
  8
0
 10
59.2292525805536911
 20
128.5189793502958935
 30
0.0
  0
VERTEX
  5
2196A
  8
0
 10
59.5695406198510113
 20
128.4615363052162138
 30
0.0
  0
SEQEND
  5
2196B
  8
0
  0
ARC
  5
1F363
  8
0
 10
59.5537206893672533
 20
129.4471598111562116
 30
0.0
 40
0.9789869664384957
 50
177.2582832370962933
 51
230.4488212866297943
  0
ARC
  5
1F364
  8
0
 10
74.1029605135799443
 20
129.4166489349277924
 30
0.0
 40
1.2348525622286051
 50
176.4091848552803867
 51
215.9148709465864044
  0
POLYLINE
  5
1F365
  8
0
 66
     1
 10
0.0
 20
0.0
 30
0.0
 70
   128
  0
VERTEX
  5
2196C
  8
0
 10
73.4915120527152226
 20
130.5384592210920971
 30
0.0
  0
VERTEX
  5
2196D
  8
0
 10
73.2556937262424412
 20
130.4637364169630018
 30
0.0
  0
VERTEX
  5
2196E
  8
0
 10
73.1479881331328556
 20
130.368083069291913
 30
0.0
  0
VERTEX
  5
2196F
  8
0
 10
73.0507031083115521
 20
130.2350175624760027
 30
0.0
  0
VERTEX
  5
21970
  8
0
 10
72.9706102982167408
 20
130.0742005055817003
 30
0.0
  0
VERTEX
  5
21971
  8
0
 10
72.9136878624562428
 20
129.8937502374919859
 30
0.0
  0
VERTEX
  5
21972
  8
0
 10
72.8705322369937107
 20
129.4939884042414064
 30
0.0
  0
SEQEND
  5
21973
  8
0
  0
POLYLINE
  5
1F366
  8
0
 66
     1
 10
0.0
 20
0.0
 30
0.0
 70
   128
  0
VERTEX
  5
21974
  8
0
 10
74.0526515990499661
 20
129.4981951883110014
 30
0.0
  0
VERTEX
  5
21975
  8
0
 10
74.0150485187772915
 20
129.8953940218362106
 30
0.0
  0
VERTEX
  5
21976
  8
0
 10
73.8978797569874928
 20
130.2324936782987947
 30
0.0
  0
VERTEX
  5
21977
  8
0
 10
73.8123061135415242
 20
130.3672085573944059
 30
0.0
  0
VERTEX
  5
21978
  8
0
 10
73.7167244777087234
 20
130.4619687667164101
 30
0.0
  0
VERTEX
  5
21979
  8
0
 10
73.4915120527152226
 20
130.5384592210920971
 30
0.0
  0
SEQEND
  5
2197A
  8
0
  0
POLYLINE
  5
1F367
  8
0
 66
     1
 10
0.0
 20
0.0
 30
0.0
 70
   128
  0
VERTEX
  5
2197B
  8
0
 10
73.4977891668681309
 20
128.4615363052162138
 30
0.0
  0
VERTEX
  5
2197C
  8
0
 10
73.7212348729376004
 20
128.5379652923020046
 30
0.0
  0
VERTEX
  5
2197D
  8
0
 10
73.8157697021969739
 20
128.6329853406222981
 30
0.0
  0
VERTEX
  5
2197E
  8
0
 10
73.90062343329231
 20
128.76726622339811
 30
0.0
  0
VERTEX
  5
2197F
  8
0
 10
74.0160776302226964
 20
129.103284614351594
 30
0.0
  0
VERTEX
  5
21980
  8
0
 10
74.0526515990499661
 20
129.4981951883110014
 30
0.0
  0
SEQEND
  5
21981
  8
0
  0
POLYLINE
  5
1F368
  8
0
 66
     1
 10
0.0
 20
0.0
 30
0.0
 70
   128
  0
VERTEX
  5
21982
  8
0
 10
73.1028664857157651
 20
128.6923059320124025
 30
0.0
  0
VERTEX
  5
21983
  8
0
 10
73.2913447543987218
 20
128.5189793502958935
 30
0.0
  0
VERTEX
  5
21984
  8
0
 10
73.4977891668681309
 20
128.4615363052162138
 30
0.0
  0
SEQEND
  5
21985
  8
0
  0
ARC
  5
1F412
  8
0
 10
127.9444867453961052
 20
60.7999999999999474
 30
0.0
 40
2.5000000000000089
 50
85.2344673023877561
 51
214.7655326976108938
  0
ARC
  5
1F413
  8
0
 10
122.0555139996618976
 20
60.8000000000000114
 30
0.0
 40
2.5000000000000022
 50
325.2344673024455233
 51
94.7655326975534251
  0
ARC
  5
1F414
  8
0
 10
125.0000003725290014
 20
65.8999999999999773
 30
0.0
 40
2.5000000000000009
 50
205.2344673024450117
 51
334.7655326975549883
  0
CIRCLE
  5
1F415
  8
0
 10
125.0000003725290014
 20
62.5
 30
0.0
 40
0.6999999999999887
  0
CIRCLE
  5
1F416
  8
0
 10
125.0000003725290014
 20
62.5
 30
0.0
 40
0.8999999999999914
  0
ARC
  5
1F417
  8
0
 10
125.0000003725290014
 20
62.5
 30
0.0
 40
2.3221482653371028
 50
137.3305101710789131
 51
162.6694898289229059
  0
ARC
  5
1F418
  8
0
 10
125.0000003725290014
 20
62.5
 30
0.0
 40
2.3221482653371162
 50
257.3305101710765257
 51
282.6694898289218827
  0
ARC
  5
1F419
  8
0
 10
125.0000003725290014
 20
62.5
 30
0.0
 40
2.322148265337094
 50
17.3305101710770799
 51
42.6694898289222593
  0
ARC
  5
1F41A
  8
0
 10
125.0000003725290014
 20
62.5
 30
0.0
 40
2.9999999999999978
 50
135.4548911018418096
 51
164.5451088981581051
  0
ARC
  5
1F41B
  8
0
 10
125.0000003725290014
 20
62.5
 30
0.0
 40
2.9999999999999871
 50
255.4548911018250976
 51
284.5451088982352985
  0
ARC
  5
1F41C
  8
0
 10
125.0000003725290014
 20
62.5
 30
0.0
 40
2.9999999999999871
 50
15.4548911017640798
 51
44.5451088981581975
  0
LINE
  5
1F41D
  8
0
 10
129.1294271293558893
 20
49.6470690245375934
 30
0.0
 11
128.9558735676110075
 21
49.3090450763701824
 31
0.0
  0
LINE
  5
1F41E
  8
0
 10
121.0441271774470948
 20
49.3090450763701824
 30
0.0
 11
120.8705736157021988
 21
49.6470690245374726
 31
0.0
  0
LINE
  5
1F41F
  8
0
 10
128.9558735676110075
 20
75.6909549236297607
 30
0.0
 11
129.129427129355804
 21
75.3529309754624137
 31
0.0
  0
LINE
  5
1F420
  8
0
 10
120.8705736157021988
 20
75.3529309754625274
 30
0.0
 11
121.0441271774470948
 21
75.6909549236297607
 31
0.0
  0
LINE
  5
1F421
  8
0
 10
128.9558735676110075
 20
49.3090450763701824
 30
0.0
 11
127.4919532239436961
 21
46.1696572601794628
 31
0.0
  0
ARC
  5
1F422
  8
0
 10
125.6793374967910069
 20
47.0148947775893475
 30
0.0
 40
2.0000005587893921
 50
272.5119807695518261
 51
334.999976047190728
  0
ARC
  5
1F423
  8
0
 10
125.0000003725290014
 20
62.5
 30
0.0
 40
17.5000000000000497
 50
267.4880237066292921
 51
272.5119762933707079
  0
ARC
  5
1F424
  8
0
 10
124.3206632482671949
 20
47.014894777589852
 30
0.0
 40
2.0000005587898908
 50
205.000023952820186
 51
267.4880192304481739
  0
LINE
  5
1F425
  8
0
 10
122.5080475211143067
 20
46.1696572601794628
 30
0.0
 11
121.0441271774470948
 21
49.3090450763701824
 31
0.0
  0
LINE
  5
1F426
  8
0
 10
127.4919532239436961
 20
78.8303427398204803
 30
0.0
 11
128.9558735676110075
 21
75.6909549236297607
 31
0.0
  0
LINE
  5
1F427
  8
0
 10
121.0441271774470948
 20
75.6909549236297607
 30
0.0
 11
122.5080475211143067
 21
78.8303427398204803
 31
0.0
  0
ARC
  5
1F428
  8
0
 10
125.6793374967910069
 20
77.9851052224104819
 30
0.0
 40
2.000000558789568
 50
25.0000239528114498
 51
87.4880192304498365
  0
ARC
  5
1F429
  8
0
 10
124.3206632482671949
 20
77.9851052224101409
 30
0.0
 40
2.000000558789909
 50
92.511980769553432
 51
154.999976047181292
  0
ARC
  5
1F42A
  8
0
 10
125.0000003725290014
 20
62.5
 30
0.0
 40
17.5000000000000391
 50
87.4880237066293063
 51
92.5119762933706937
  0
CIRCLE
  5
1F42B
  8
0
 10
125.0000003725289019
 20
62.5
 30
0.0
 40
8.0
  0
CIRCLE
  5
1F42C
  8
0
 10
125.0000003725289019
 20
62.5
 30
0.0
 40
7.5
  0
CIRCLE
  5
1F42D
  8
0
 10
125.0000003725289019
 20
62.5
 30
0.0
 40
6.0
  0
CIRCLE
  5
1F42E
  8
0
 10
125.0000003725289019
 20
62.5
 30
0.0
 40
13.5
  0
CIRCLE
  5
1F42F
  8
0
 10
125.0000003725289019
 20
62.5
 30
0.0
 40
13.0
  0
CIRCLE
  5
1F438
  8
0
 10
125.0000003725290014
 20
62.5
 30
0.0
 40
3.25
  0
CIRCLE
  5
1F439
  8
0
 10
125.0000003725290014
 20
62.5
 30
0.0
 40
5.4641016151377571
  0
LINE
  5
1F43A
  8
1
 10
125.0000003725290014
 20
85.0000000000000568
 30
0.0
 11
125.0000003725290014
 21
39.9999999999999574
 31
0.0
  0
LINE
  5
1F43B
  8
1
 10
147.5000003725288877
 20
62.5000026632035173
 30
0.0
 11
102.5000003725291009
 21
62.5000026632035315
 31
0.0
  0
CIRCLE
  5
1F43C
  8
1
 10
125.0000003725290014
 20
62.5
 30
0.0
 40
11.5000000000002292
  0
CIRCLE
  5
1F88B
  8
0
 10
395.0000011227404002
 20
222.999997336796298
 30
0.0
 40
3.0000000000000848
  0
LINE
  5
1F88C
  8
0
 10
394.4226508535513744
 20
223.9999973367966106
 30
0.0
 11
393.8453005843613823
 21
222.9999973367964969
 31
0.0
  0
LINE
  5
1F88D
  8
0
 10
393.8453005843613823
 20
222.9999973367964969
 30
0.0
 11
394.4226508535513744
 21
221.9999973367966106
 31
0.0
  0
LINE
  5
1F88E
  8
0
 10
394.4226508535513744
 20
221.9999973367966106
 30
0.0
 11
395.577351391930506
 21
221.9999973367966106
 31
0.0
  0
LINE
  5
1F88F
  8
0
 10
395.577351391930506
 20
221.9999973367966106
 30
0.0
 11
396.1547016611199865
 21
222.9999973367964969
 31
0.0
  0
LINE
  5
1F890
  8
0
 10
396.1547016611199865
 20
222.9999973367964969
 30
0.0
 11
395.577351391930506
 21
223.9999973367966106
 31
0.0
  0
LINE
  5
1F891
  8
0
 10
395.577351391930506
 20
223.9999973367966106
 30
0.0
 11
394.4226508535513744
 21
223.9999973367966106
 31
0.0
  0
CIRCLE
  5
1F892
  8
0
 10
395.0000011227404002
 20
222.999997336796298
 30
0.0
 40
9.0635832737575726
  0
CIRCLE
  5
1F893
  8
0
 10
395.0000011227404002
 20
222.999997336796298
 30
0.0
 40
8.9341737512063002
  0
CIRCLE
  5
1F894
  8
0
 10
395.0000011227404002
 20
222.999997336796298
 30
0.0
 40
3.6499999999999839
  0
ARC
  5
1F895
  8
0
 10
377.5026021196533748
 20
223.3017060154317903
 30
0.0
 40
4.9999999999997558
 50
359.0121434052912264
 51
35.0000000000000711
  0
ARC
  5
1F896
  8
0
 10
412.4974001258278804
 20
222.6982886581616015
 30
0.0
 40
5.00000000000023
 50
179.0121434052913116
 51
215.0000000000001137
  0
ARC
  5
1F897
  8
0
 10
385.9900142409567252
 20
238.0023350343057871
 30
0.0
 40
5.0000000000005507
 50
265.0000000000002274
 51
300.987856594707182
  0
ARC
  5
1F898
  8
0
 10
404.0099880045241889
 20
207.9976596392884005
 30
0.0
 40
4.9999999999997362
 50
85.0000000000002132
 51
120.9878565947071962
  0
ARC
  5
1F899
  8
0
 10
395.0000011227404002
 20
222.999997336796298
 30
0.0
 40
12.5000000000000604
 50
359.0121434052912264
 51
120.9878565947071962
  0
ARC
  5
1F89A
  8
0
 10
395.0000011227404002
 20
222.999997336796298
 30
0.0
 40
12.5000000000000604
 50
179.0121434052913116
 51
300.987856594707182
  0
LINE
  5
1F89B
  8
0
 10
382.3679877505327909
 20
233.3001221034913897
 30
0.0
 11
385.5542355272182249
 21
233.0213615438462966
 31
0.0
  0
LINE
  5
1F89C
  8
0
 10
381.5983623410982091
 20
226.1695881971870961
 30
0.0
 11
379.7638247265298901
 21
228.7895794347261926
 31
0.0
  0
LINE
  5
1F89D
  8
0
 10
407.6320144949482938
 20
212.6998725701022011
 30
0.0
 11
404.4457667182625755
 21
212.9786331297470099
 31
0.0
  0
LINE
  5
1F89E
  8
0
 10
408.4016399043825913
 20
219.8304064764062105
 30
0.0
 11
410.2361775189511945
 21
217.2104152388673981
 31
0.0
  0
ARC
  5
1F89F
  8
0
 10
395.0000011227404002
 20
222.999997336796298
 30
0.0
 40
17.5
 50
147.4880237066361133
 51
152.511976293365791
  0
LINE
  5
1F8A0
  8
0
 10
382.1034862802482053
 20
233.3232629836267051
 30
0.0
 11
382.3679877505327909
 21
233.3001221034913897
 31
0.0
  0
LINE
  5
1F8A1
  8
0
 10
379.7638247265298901
 20
228.7895794347261926
 30
0.0
 11
379.6115334013239817
 21
229.007073987262487
 31
0.0
  0
LINE
  5
1F8A2
  8
0
 10
410.2361775189511945
 20
217.2104152388673981
 30
0.0
 11
410.3884688441565913
 21
216.9929206863303079
 31
0.0
  0
ARC
  5
1F8A3
  8
0
 10
395.0000011227404002
 20
222.999997336796298
 30
0.0
 40
17.5000000000000817
 50
327.488023706636227
 51
332.5119762933641141
  0
LINE
  5
1F8A4
  8
0
 10
407.8965159652324814
 20
212.6767316899660898
 30
0.0
 11
407.6320144949482938
 21
212.6998725701022011
 31
0.0
  0
ARC
  5
1F8A5
  8
0
 10
381.9291747947535782
 20
231.3308735874421131
 30
0.0
 40
2.0000000000012408
 50
85.0000000000198241
 51
147.4880237066093116
  0
ARC
  5
1F8A6
  8
0
 10
381.2498374899046212
 20
230.1542268599646093
 30
0.0
 40
2.0000000000023039
 50
152.5119762934164953
 51
214.9999999999633076
  0
ARC
  5
1F8A7
  8
0
 10
408.070827450727279
 20
214.669121086151506
 30
0.0
 40
2.0000000000014269
 50
265.0000000000296154
 51
327.4880237066092832
  0
ARC
  5
1F8A8
  8
0
 10
408.7501647555766908
 20
215.8457678136282141
 30
0.0
 40
2.0000000000016009
 50
332.511976293389921
 51
34.9999999999703704
  0
ARC
  5
1F8A9
  8
0
 10
395.0000011227404002
 20
222.999997336796298
 30
0.0
 40
13.5000000000000604
 50
167.8113250356578874
 51
312.1886749643404073
  0
ARC
  5
1F8AA
  8
0
 10
395.0000011227404002
 20
222.999997336796298
 30
0.0
 40
13.5000000000000497
 50
347.8113250356578874
 51
132.1886749643404926
  0
ARC
  5
1F8AB
  8
0
 10
395.0000011227404002
 20
222.999997336796298
 30
0.0
 40
13.1710100716628808
 50
349.5591669313138823
 51
130.4408330686871125
  0
ARC
  5
1F8AC
  8
0
 10
395.0000011227404002
 20
222.999997336796298
 30
0.0
 40
13.1710100716629306
 50
169.5591669313006093
 51
310.4408330686997033
  0
LINE
  5
1F8AD
  8
1
 10
395.0000011227404002
 20
245.4999986683984048
 30
0.0
 11
395.0000011227404002
 21
200.500001331601311
 31
0.0
  0
LINE
  5
1F8AE
  8
1
 10
417.4999997911389755
 20
222.9999999999998863
 30
0.0
 11
372.5000024543419954
 21
222.9999999999998863
 31
0.0
  0
LINE
  5
1F8AF
  8
1
 10
375.5144295375905017
 20
234.2499973367964969
 30
0.0
 11
414.4855704014885873
 21
211.7499986683980921
 31
0.0
  0
ARC
  5
1FCD7
  8
0
 10
337.5494670305432123
 20
111.599997336796207
 30
0.0
 40
2.50000000000004
 50
290.953837441196697
 51
69.0571530525409969
  0
ARC
  5
1FCD8
  8
0
 10
329.975267889442307
 20
111.599997336796207
 30
0.0
 40
2.5000000000000209
 50
99.8176071837808649
 51
262.0243633846592957
  0
LINE
  5
1FCD9
  8
0
 10
344.2588199815784833
 20
157.9607740015975139
 30
0.0
 11
341.5635842102336142
 21
158.6829602499408054
 31
0.0
  0
LINE
  5
1FCDA
  8
0
 10
323.4364176627184975
 20
158.6829602499408054
 30
0.0
 11
320.7411818913736283
 21
157.9607740015975139
 31
0.0
  0
LINE
  5
1FCDB
  8
0
 10
345.0000009364761127
 20
137.1999973367964003
 30
0.0
 11
345.0000009364761127
 21
156.9948481753083911
 31
0.0
  0
LINE
  5
1FCDC
  8
0
 10
320.0000009364761127
 20
156.9948481753083911
 30
0.0
 11
320.0000009364761127
 21
137.1999973367964003
 31
0.0
  0
ARC
  5
1FCDD
  8
0
 10
344.5000009364761127
 20
137.1999973367964003
 30
0.0
 40
0.500000000000057
 50
270.0
 51
0.0
  0
ARC
  5
1FCDE
  8
0
 10
320.5000009364761127
 20
137.1999973367964003
 30
0.0
 40
0.500000000000057
 50
180.0
 51
270.0
  0
ARC
  5
1FCDF
  8
0
 10
344.000000936475999
 20
156.9948481753083911
 30
0.0
 40
1.000000000000028
 50
0.0
 51
75.0000000000055422
  0
POLYLINE
  5
1FCE0
  8
0
 66
     1
 10
0.0
 20
0.0
 30
0.0
 70
   128
  0
VERTEX
  5
21986
  8
0
 10
322.1905187452987889
 20
155.9395078659862008
 30
0.0
  0
VERTEX
  5
21987
  8
0
 10
322.1744069785220859
 20
155.8326957252569116
 30
0.0
  0
VERTEX
  5
21988
  8
0
 10
322.1691246858292743
 20
155.7081821429700028
 30
0.0
  0
SEQEND
  5
21989
  8
0
  0
ARC
  5
1FCE1
  8
0
 10
322.669124685829388
 20
142.1999973367962866
 30
0.0
 40
0.5000000000000142
 50
179.9999999999934914
 51
270.0
  0
LINE
  5
1FCE2
  8
0
 10
322.1691246858292743
 20
155.7081821429700028
 30
0.0
 11
322.1691246858292743
 21
142.1999973367962866
 31
0.0
  0
ARC
  5
1FCE3
  8
0
 10
323.2033585055477261
 20
155.8039645530693065
 30
0.0
 40
1.0218690569821061
 50
156.2070045165937984
 51
172.3776782726598924
  0
POLYLINE
  5
1FCE4
  8
0
 66
     1
 10
0.0
 20
0.0
 30
0.0
 70
   128
  0
VERTEX
  5
2198A
  8
0
 10
322.4739291034463804
 20
156.749957827804792
 30
0.0
  0
VERTEX
  5
2198B
  8
0
 10
322.2683391265105115
 20
156.2162206997093108
 30
0.0
  0
SEQEND
  5
2198C
  8
0
  0
ARC
  5
1FCE5
  8
0
 10
341.4341746876824004
 20
158.1999973367960877
 30
0.0
 40
0.5000000000000702
 50
75.0000000000055422
 51
90.0
  0
ARC
  5
1FCE6
  8
0
 10
323.5658271852702228
 20
158.1999973367960877
 30
0.0
 40
0.5000000000000591
 50
90.0
 51
104.9999999999944009
  0
ARC
  5
1FCE7
  8
0
 10
321.000000936475999
 20
156.9948481753083911
 30
0.0
 40
0.9999999999999857
 50
104.9999999999944009
 51
180.0
  0
LINE
  5
1FCE8
  8
0
 10
319.000000936475999
 20
123.999997336796298
 30
0.0
 11
319.5000009364761127
 21
123.4999973367961985
 31
0.0
  0
LINE
  5
1FCE9
  8
0
 10
345.5000009364761127
 20
123.4999973367961985
 30
0.0
 11
346.000000936475999
 21
123.999997336796298
 31
0.0
  0
ARC
  5
1FCEA
  8
0
 10
319.5000009364761127
 20
132.0579828648928071
 30
0.0
 40
0.5000000000000436
 50
110.0000000000036948
 51
180.0
  0
ARC
  5
1FCEB
  8
0
 10
345.5000009364761127
 20
132.0579828648928071
 30
0.0
 40
0.5000000000000582
 50
0.0
 51
69.9999999999962768
  0
LINE
  5
1FCEC
  8
0
 10
319.000000936475999
 20
132.0579828648928071
 30
0.0
 11
319.000000936475999
 21
123.999997336796298
 31
0.0
  0
LINE
  5
1FCED
  8
0
 10
346.000000936475999
 20
123.999997336796298
 30
0.0
 11
346.000000936475999
 21
132.0579828648928071
 31
0.0
  0
LINE
  5
1FCEE
  8
0
 10
345.6710110081388052
 20
132.5278291752858024
 30
0.0
 11
343.2631928791458904
 21
133.404203303765712
 31
0.0
  0
LINE
  5
1FCEF
  8
0
 10
321.7368089938062212
 20
133.404203303765712
 30
0.0
 11
319.3289908648133064
 21
132.5278291752858024
 31
0.0
  0
ARC
  5
1FCF0
  8
0
 10
343.4000009364762036
 20
133.7800803520800912
 30
0.0
 40
0.4000000000000626
 50
180.0
 51
249.9999999999963052
  0
ARC
  5
1FCF1
  8
0
 10
321.6000009364760217
 20
133.7800803520800912
 30
0.0
 40
0.4000000000000014
 50
290.0000000000036948
 51
0.0
  0
LINE
  5
1FCF2
  8
0
 10
343.0000009364761127
 20
133.7800803520800912
 30
0.0
 11
343.0000009364761127
 21
136.6999973367962866
 31
0.0
  0
LINE
  5
1FCF3
  8
0
 10
322.0000009364761127
 20
136.6999973367962866
 30
0.0
 11
322.0000009364761127
 21
133.7800803520800912
 31
0.0
  0
LINE
  5
1FCF4
  8
0
 10
324.5000009364762832
 20
123.4999973367961985
 30
0.0
 11
324.5000009364761127
 21
118.499997336796298
 31
0.0
  0
LINE
  5
1FCF5
  8
0
 10
340.5000009364761127
 20
118.499997336796298
 30
0.0
 11
340.5000009364757716
 21
123.4999973367961985
 31
0.0
  0
LINE
  5
1FCF6
  8
0
 10
324.5000009364761127
 20
118.499997336796298
 30
0.0
 11
325.000000936475999
 21
117.999997336796298
 31
0.0
  0
LINE
  5
1FCF7
  8
0
 10
340.000000936475999
 20
117.999997336796298
 30
0.0
 11
340.5000009364761127
 21
118.499997336796298
 31
0.0
  0
LINE
  5
1FCF8
  8
0
 10
337.9641025516136779
 20
105.999997336796298
 30
0.0
 11
338.5000009364761127
 21
107.999997336796298
 31
0.0
  0
LINE
  5
1FCF9
  8
0
 10
326.5000009364761127
 20
117.999997336796298
 30
0.0
 11
326.5000009364761127
 21
107.999997336796298
 31
0.0
  0
LINE
  5
1FCFA
  8
0
 10
338.5000009364761127
 20
114.0760764091077988
 30
0.0
 11
338.5000009364761127
 21
117.9999973367961985
 31
0.0
  0
LINE
  5
1FCFB
  8
0
 10
338.5000009364761127
 20
107.999997336796298
 30
0.0
 11
338.5000009364761127
 21
109.124997336796298
 31
0.0
  0
LINE
  5
1FCFC
  8
0
 10
344.5000009364761127
 20
136.6999973367962014
 30
0.0
 11
320.5000009364761127
 21
136.6999973367962014
 31
0.0
  0
LINE
  5
1FCFD
  8
0
 10
329.5706794975405955
 20
141.6999973367964003
 30
0.0
 11
322.669124685829388
 21
141.6999973367964003
 31
0.0
  0
LINE
  5
1FCFE
  8
0
 10
329.5706794975405955
 20
141.6999973367964003
 30
0.0
 11
329.6654308833951745
 21
141.7087332703382003
 31
0.0
  0
LINE
  5
1FCFF
  8
0
 10
323.5658271852702228
 20
158.6999973367962866
 30
0.0
 11
341.4341746876824004
 21
158.6999973367962866
 31
0.0
  0
LINE
  5
1FD00
  8
0
 10
319.000000936475999
 20
123.999997336796298
 30
0.0
 11
346.000000936475999
 21
123.999997336796298
 31
0.0
  0
LINE
  5
1FD01
  8
0
 10
345.5000009364761127
 20
123.4999973367961985
 30
0.0
 11
319.5000009364761127
 21
123.4999973367961985
 31
0.0
  0
LINE
  5
1FD02
  8
0
 10
324.5000009364761127
 20
118.499997336796298
 30
0.0
 11
340.5000009364761127
 21
118.499997336796298
 31
0.0
  0
LINE
  5
1FD03
  8
0
 10
340.000000936475999
 20
117.999997336796298
 30
0.0
 11
325.000000936475999
 21
117.999997336796298
 31
0.0
  0
ARC
  5
1FD04
  8
0
 10
329.7561207030632886
 20
112.1602143708271058
 30
0.0
 40
2.0496321597274099
 50
130.6693377851630942
 51
158.1935201922069893
  0
ARC
  5
1FD05
  8
0
 10
329.5163009697947132
 20
110.8298303418163044
 30
0.0
 40
1.734685659804011
 50
200.7900933866307014
 51
230.8196804233099044
  0
ARC
  5
1FD06
  8
0
 10
329.4473157112796002
 20
111.5999973367960934
 30
0.0
 40
2.4732128649128868
 50
301.2299184162263259
 51
58.7700815837722601
  0
LINE
  5
1FD07
  8
0
 10
326.5000009364761127
 20
107.999997336796298
 30
0.0
 11
338.5000009364761127
 21
107.999997336796298
 31
0.0
  0
ARC
  5
1FD08
  8
0
 10
329.5750009364762718
 20
111.0223321828469949
 30
0.0
 40
1.898903367514567
 50
232.552040687277696
 51
307.4479593127222188
  0
LINE
  5
1FD09
  8
0
 10
330.7296112603514757
 20
109.5147815206276931
 30
0.0
 11
330.7296112603514757
 21
109.4851687385405938
 31
0.0
  0
LINE
  5
1FD0A
  8
0
 10
330.7296112603514757
 20
113.7148259350519055
 30
0.0
 11
330.7296112603514757
 21
113.6852131529650052
 31
0.0
  0
ARC
  5
1FD0B
  8
0
 10
329.5750009364762718
 20
112.1126084555296956
 30
0.0
 40
1.950951187086744
 50
53.7137910057127428
 51
126.2862089942871933
  0
LINE
  5
1FD0C
  8
0
 10
328.4203906126007269
 20
113.6852131529650052
 30
0.0
 11
328.4203906126007269
 21
113.7148259350519055
 31
0.0
  0
LINE
  5
1FD0D
  8
0
 10
328.4203906126007269
 20
109.4851687385405938
 30
0.0
 11
328.4203906126007269
 21
109.5147815206276931
 31
0.0
  0
ARC
  5
1FD0E
  8
0
 10
346.5064912268434227
 20
112.4298759131285976
 30
0.0
 40
8.6617613205427002
 50
199.6666700522106055
 51
202.4296085608764884
  0
POLYLINE
  5
1FD0F
  8
0
 66
     1
 10
0.0
 20
0.0
 30
0.0
 70
   128
  0
VERTEX
  5
2198D
  8
0
 10
338.5000009364761127
 20
114.0760764091077988
 30
0.0
  0
VERTEX
  5
2198E
  8
0
 10
338.402196338637907
 20
113.8274477998369036
 30
0.0
  0
VERTEX
  5
2198F
  8
0
 10
338.3500009364760217
 20
113.6852131529650052
 30
0.0
  0
SEQEND
  5
21990
  8
0
  0
LINE
  5
1FD10
  8
0
 10
338.3500009364760217
 20
113.6852131529650052
 30
0.0
 11
338.3500009364760217
 21
113.7148259350519055
 31
0.0
  0
ARC
  5
1FD11
  8
0
 10
343.9142751131205955
 20
111.599997336796207
 30
0.0
 40
5.9526168289979422
 50
159.1895702652504951
 51
200.8104297347495049
  0
LINE
  5
1FD12
  8
0
 10
338.3500009364760217
 20
109.4851687385405938
 30
0.0
 11
338.3500009364760217
 21
109.5147815206276931
 31
0.0
  0
LINE
  5
1FD13
  8
0
 10
321.7840454382557027
 20
156.9948481753083911
 30
0.0
 11
320.0000009364761127
 21
156.9948481753083911
 31
0.0
  0
LINE
  5
1FD14
  8
0
 10
321.7840454382557027
 20
142.1999973367962866
 30
0.0
 11
321.7840454382557027
 21
156.9948481753083911
 31
0.0
  0
LINE
  5
1FD15
  8
0
 10
332.2844947374509275
 20
156.9948481753083911
 30
0.0
 11
332.2844947374509275
 21
142.1999973367962866
 31
0.0
  0
LINE
  5
1FD16
  8
0
 10
345.0000009364761127
 20
156.9948481753083911
 30
0.0
 11
332.2844947374509275
 21
156.9948481753083911
 31
0.0
  0
LINE
  5
1FD17
  8
0
 10
320.0000009364761127
 20
137.1999973367964003
 30
0.0
 11
345.0000009364761127
 21
137.1999973367964003
 31
0.0
  0
ARC
  5
1FD18
  8
0
 10
329.8475411708744218
 20
144.9222365670231056
 30
0.0
 40
11.3464293484742207
 50
107.196756424300105
 51
118.5623508606840062
  0
LINE
  5
1FD19
  8
0
 10
326.4929242860101226
 20
155.761424936808794
 30
0.0
 11
326.4929242860101226
 21
142.1999973367962866
 31
0.0
  0
POLYLINE
  5
1FD1A
  8
0
 66
     1
 10
0.0
 20
0.0
 30
0.0
 70
   128
  0
VERTEX
  5
21991
  8
0
 10
326.4929242860101226
 20
142.1999973367962866
 30
0.0
  0
VERTEX
  5
21992
  8
0
 10
326.4874137308141258
 20
142.1024521757881018
 30
0.0
  0
VERTEX
  5
21993
  8
0
 10
326.471093832771885
 20
142.0086556206136947
 30
0.0
  0
VERTEX
  5
21994
  8
0
 10
326.4445917564137858
 20
141.9222122202864114
 30
0.0
  0
VERTEX
  5
21995
  8
0
 10
326.4089259616706045
 20
141.8464439462028963
 30
0.0
  0
VERTEX
  5
21996
  8
0
 10
326.3654670650332719
 20
141.7842625306450088
 30
0.0
  0
VERTEX
  5
21997
  8
0
 10
326.3158851675278243
 20
141.7380575705406045
 30
0.0
  0
VERTEX
  5
21998
  8
0
 10
326.2620856736688211
 20
141.7096046965947096
 30
0.0
  0
VERTEX
  5
21999
  8
0
 10
326.2061360678346773
 20
141.6999973367964003
 30
0.0
  0
SEQEND
  5
2199A
  8
0
  0
LINE
  5
1FD1B
  8
0
 10
324.4226450232216052
 20
154.8877752251738968
 30
0.0
 11
323.0941729115523913
 21
154.8877752251738968
 31
0.0
  0
POLYLINE
  5
1FD1C
  8
0
 66
     1
 10
0.0
 20
0.0
 30
0.0
 70
   128
  0
VERTEX
  5
2199B
  8
0
 10
329.3304100760859114
 20
142.1999973367962866
 30
0.0
  0
VERTEX
  5
2199C
  8
0
 10
329.3248995208899146
 20
142.1024521757881018
 30
0.0
  0
VERTEX
  5
2199D
  8
0
 10
329.3085796228481854
 20
142.0086556206136947
 30
0.0
  0
VERTEX
  5
2199E
  8
0
 10
329.2820775464895746
 20
141.9222122202864114
 30
0.0
  0
VERTEX
  5
2199F
  8
0
 10
329.2464117517467912
 20
141.8464439462028963
 30
0.0
  0
VERTEX
  5
219A0
  8
0
 10
329.2029528551095723
 20
141.7842625306450088
 30
0.0
  0
VERTEX
  5
219A1
  8
0
 10
329.1533709576036131
 20
141.7380575705406045
 30
0.0
  0
VERTEX
  5
219A2
  8
0
 10
329.0995714637440983
 20
141.7096046965947096
 30
0.0
  0
VERTEX
  5
219A3
  8
0
 10
329.0436218579101251
 20
141.6999973367960877
 30
0.0
  0
SEQEND
  5
219A4
  8
0
  0
LINE
  5
1FD1D
  8
0
 10
326.7104188385467864
 20
155.8537010514631049
 30
0.0
 11
326.4929242860101226
 21
155.761424936808794
 31
0.0
  0
LINE
  5
1FD1E
  8
0
 10
329.3304100760859114
 20
156.5587708900835935
 30
0.0
 11
326.7104188385467864
 21
155.8537010514631049
 31
0.0
  0
LINE
  5
1FD1F
  8
0
 10
329.3304100760859114
 20
142.1999973367962866
 30
0.0
 11
329.3304100760859114
 21
156.5587708900835935
 31
0.0
  0
ARC
  5
1FD20
  8
0
 10
324.4225111184861134
 20
157.3172620122660987
 30
0.0
 40
2.7689146683592001
 50
215.5295640047748122
 51
241.3320708918928972
  0
ARC
  5
1FD21
  8
0
 10
332.274753715021518
 20
146.8369836459204976
 30
0.0
 40
10.1578692000297401
 50
89.945055449334717
 51
106.8494783876924004
  0
ARC
  5
1FD22
  8
0
 10
327.4996088989959162
 20
160.4824328561088009
 30
0.0
 40
18.8982163445355908
 50
276.5808178658680276
 51
284.666506128862693
  0
ARC
  5
1FD23
  8
0
 10
321.9398935038324225
 20
156.3397045820991877
 30
0.0
 40
0.6734253835927606
 50
37.5319486463946816
 51
103.3810341136845068
  0
ARC
  5
1FD24
  8
0
 10
318.0136479858496159
 20
134.0331249784981082
 30
0.0
 40
8.9952043370813826
 50
62.1385742464910891
 51
65.2186611547948871
  0
LINE
  5
1FD25
  8
0
 10
346.000000936475999
 20
132.0579828648928071
 30
0.0
 11
319.000000936475999
 21
132.0579828648928071
 31
0.0
  0
LINE
  5
1FD26
  8
0
 10
343.2631928791458904
 20
133.404203303765712
 30
0.0
 11
321.7368089938062212
 21
133.404203303765712
 31
0.0
  0
LINE
  5
1FD27
  8
0
 10
326.5000009364761127
 20
107.999997336796298
 30
0.0
 11
327.0358993213379222
 21
105.999997336796298
 31
0.0
  0
LINE
  5
1FD28
  8
0
 10
337.9641025516136779
 20
105.999997336796298
 30
0.0
 11
327.0358993213379222
 21
105.999997336796298
 31
0.0
  0
ARC
  5
1FD29
  8
0
 10
329.5903433315211828
 20
129.5498779067141015
 30
0.0
 40
1.5272178340461171
 50
90.8684799421207146
 51
181.8265736609218948
  0
ARC
  5
1FD2A
  8
0
 10
329.5802620089513084
 20
129.4406183355079065
 30
0.0
 40
1.517570160874572
 50
177.7121773006981869
 51
269.6616883444050927
  0
ARC
  5
1FD2B
  8
0
 10
329.5645830753816199
 20
129.4566977634756029
 30
0.0
 40
1.533637849034271
 50
270.2509909767014733
 51
1.2809895327089611
  0
ARC
  5
1FD2C
  8
0
 10
329.5456671542183926
 20
129.5245364544321944
 30
0.0
 40
1.552533104250212
 50
358.7616302714056928
 51
89.2054992808598257
  0
LINE
  5
1FD2D
  8
0
 10
331.6343601192662049
 20
127.9999972175869942
 30
0.0
 11
331.6343601192662049
 21
130.9999977093252994
 31
0.0
  0
LINE
  5
1FD2E
  8
0
 10
331.6343601192662049
 20
127.9999972175869942
 30
0.0
 11
332.1722595293854852
 21
127.9999972175869942
 31
0.0
  0
LINE
  5
1FD2F
  8
0
 10
332.1722595293854852
 20
129.9681463133607053
 30
0.0
 11
332.1722595293854852
 21
127.9999972175869942
 31
0.0
  0
LINE
  5
1FD30
  8
0
 10
333.5288010868562765
 20
127.9999972175869942
 30
0.0
 11
332.1722595293854852
 21
129.9681463133607053
 31
0.0
  0
LINE
  5
1FD31
  8
0
 10
333.5288010868562765
 20
127.9999972175869942
 30
0.0
 11
334.0151819731427736
 21
127.9999972175869942
 31
0.0
  0
LINE
  5
1FD32
  8
0
 10
334.0151819731427736
 20
130.9999977093252994
 30
0.0
 11
334.0151819731427736
 21
127.9999972175869942
 31
0.0
  0
LINE
  5
1FD33
  8
0
 10
333.4790593809767074
 20
130.9999977093252994
 30
0.0
 11
334.0151819731427736
 21
130.9999977093252994
 31
0.0
  0
LINE
  5
1FD34
  8
0
 10
333.4790593809767074
 20
129.0258387889776941
 30
0.0
 11
333.4790593809767074
 21
130.9999977093252994
 31
0.0
  0
LINE
  5
1FD35
  8
0
 10
332.1187924458964176
 20
130.9999977093252994
 30
0.0
 11
333.4790593809767074
 21
129.0258387889776941
 31
0.0
  0
LINE
  5
1FD36
  8
0
 10
331.6343601192662049
 20
130.9999977093252994
 30
0.0
 11
332.1187924458964176
 21
130.9999977093252994
 31
0.0
  0
POLYLINE
  5
1FD37
  8
0
 66
     1
 10
0.0
 20
0.0
 30
0.0
 70
   128
  0
VERTEX
  5
219A5
  8
0
 10
342.5176399625224803
 20
129.5011988695773937
 30
0.0
  0
VERTEX
  5
219A6
  8
0
 10
342.5946864164753265
 20
130.1034386124524929
 30
0.0
  0
VERTEX
  5
219A7
  8
0
 10
342.8158718026558063
 20
130.6150597374949882
 30
0.0
  0
VERTEX
  5
219A8
  8
0
 10
343.1369359470286895
 20
130.9568756114755104
 30
0.0
  0
VERTEX
  5
219A9
  8
0
 10
343.496394795863182
 20
131.0769202973756933
 30
0.0
  0
SEQEND
  5
219AA
  8
0
  0
POLYLINE
  5
1FD38
  8
0
 66
     1
 10
0.0
 20
0.0
 30
0.0
 70
   128
  0
VERTEX
  5
219AB
  8
0
 10
343.4988348610082198
 20
127.9230746295366998
 30
0.0
  0
VERTEX
  5
219AC
  8
0
 10
343.1367366439977218
 20
128.035202142230105
 30
0.0
  0
VERTEX
  5
219AD
  8
0
 10
342.9669444314519069
 20
128.1820027943763876
 30
0.0
  0
VERTEX
  5
219AE
  8
0
 10
342.8165032393612819
 20
128.3824755664977886
 30
0.0
  0
VERTEX
  5
219AF
  8
0
 10
342.5938500888029239
 20
128.8960096281084873
 30
0.0
  0
VERTEX
  5
219B0
  8
0
 10
342.5176399625224803
 20
129.5011988695773937
 30
0.0
  0
SEQEND
  5
219B1
  8
0
  0
POLYLINE
  5
1FD39
  8
0
 66
     1
 10
0.0
 20
0.0
 30
0.0
 70
   128
  0
VERTEX
  5
219B2
  8
0
 10
344.3219833872594791
 20
129.4909831922564933
 30
0.0
  0
VERTEX
  5
219B3
  8
0
 10
344.2684304765739967
 20
128.8911695446882959
 30
0.0
  0
VERTEX
  5
219B4
  8
0
 10
344.0998070738593242
 20
128.3831843029770994
 30
0.0
  0
VERTEX
  5
219B5
  8
0
 10
343.8350180960579223
 20
128.0376887735042999
 30
0.0
  0
VERTEX
  5
219B6
  8
0
 10
343.4988348610082198
 20
127.9230746295366998
 30
0.0
  0
SEQEND
  5
219B7
  8
0
  0
POLYLINE
  5
1FD3A
  8
0
 66
     1
 10
0.0
 20
0.0
 30
0.0
 70
   128
  0
VERTEX
  5
219B8
  8
0
 10
343.496394795863182
 20
131.0769202973756933
 30
0.0
  0
VERTEX
  5
219B9
  8
0
 10
343.8340672157087852
 20
130.9576346393737936
 30
0.0
  0
VERTEX
  5
219BA
  8
0
 10
344.0989586389941906
 20
130.6057949405227134
 30
0.0
  0
VERTEX
  5
219BB
  8
0
 10
344.2683308250585128
 20
130.0943852257047126
 30
0.0
  0
VERTEX
  5
219BC
  8
0
 10
344.3219833872594791
 20
129.4909831922564933
 30
0.0
  0
SEQEND
  5
219BD
  8
0
  0
POLYLINE
  5
1FD3B
  8
0
 66
     1
 10
0.0
 20
0.0
 30
0.0
 70
   128
  0
VERTEX
  5
219BE
  8
0
 10
342.0216641254106094
 20
129.4999974634561966
 30
0.0
  0
VERTEX
  5
219BF
  8
0
 10
341.058147592035823
 20
128.749996874860301
 30
0.0
  0
VERTEX
  5
219C0
  8
0
 10
340.0154504790290275
 20
127.9999972175869942
 30
0.0
  0
SEQEND
  5
219C1
  8
0
  0
POLYLINE
  5
1FD3C
  8
0
 66
     1
 10
0.0
 20
0.0
 30
0.0
 70
   128
  0
VERTEX
  5
219C2
  8
0
 10
340.0154504790290275
 20
130.9999977093252994
 30
0.0
  0
VERTEX
  5
219C3
  8
0
 10
341.058147592035823
 20
130.2499971207294891
 30
0.0
  0
VERTEX
  5
219C4
  8
0
 10
342.0216641254106094
 20
129.4999974634561966
 30
0.0
  0
SEQEND
  5
219C5
  8
0
  0
LINE
  5
1FD3D
  8
0
 10
340.0154504790290275
 20
130.2499971207294891
 30
0.0
 11
340.0154504790290275
 21
130.9999977093252994
 31
0.0
  0
LINE
  5
1FD3E
  8
0
 10
337.5414535268528766
 20
130.2499971207294891
 30
0.0
 11
340.0154504790290275
 21
130.2499971207294891
 31
0.0
  0
LINE
  5
1FD3F
  8
0
 10
337.5414535268528766
 20
130.9999977093252994
 30
0.0
 11
337.5414535268528766
 21
130.2499971207294891
 31
0.0
  0
POLYLINE
  5
1FD40
  8
0
 66
     1
 10
0.0
 20
0.0
 30
0.0
 70
   128
  0
VERTEX
  5
219C6
  8
0
 10
335.0531149055191804
 20
129.4999974634561966
 30
0.0
  0
VERTEX
  5
219C7
  8
0
 10
336.3149321968982122
 20
130.2499971207294891
 30
0.0
  0
VERTEX
  5
219C8
  8
0
 10
337.5414535268528766
 20
130.9999977093252994
 30
0.0
  0
SEQEND
  5
219C9
  8
0
  0
POLYLINE
  5
1FD41
  8
0
 66
     1
 10
0.0
 20
0.0
 30
0.0
 70
   128
  0
VERTEX
  5
219CA
  8
0
 10
337.5414535268528766
 20
127.9999972175869942
 30
0.0
  0
VERTEX
  5
219CB
  8
0
 10
336.3149321968982122
 20
128.749996874860301
 30
0.0
  0
VERTEX
  5
219CC
  8
0
 10
335.0531149055191804
 20
129.4999974634561966
 30
0.0
  0
SEQEND
  5
219CD
  8
0
  0
LINE
  5
1FD42
  8
0
 10
337.5414535268528766
 20
128.749996874860301
 30
0.0
 11
337.5414535268528766
 21
127.9999972175869942
 31
0.0
  0
LINE
  5
1FD43
  8
0
 10
337.5414535268528766
 20
128.749996874860301
 30
0.0
 11
340.0154504790290275
 21
128.749996874860301
 31
0.0
  0
LINE
  5
1FD44
  8
0
 10
340.0154504790290275
 20
127.9999972175869942
 30
0.0
 11
340.0154504790290275
 21
128.749996874860301
 31
0.0
  0
LINE
  5
1FD45
  8
0
 10
345.3320930577202148
 20
127.9999972175869942
 30
0.0
 11
345.3320930577202148
 21
130.9999977093252994
 31
0.0
  0
LINE
  5
1FD46
  8
0
 10
345.3320930577202148
 20
127.9999972175869942
 30
0.0
 11
345.4891149751225043
 21
127.9999972175869942
 31
0.0
  0
LINE
  5
1FD47
  8
0
 10
345.4891149751225043
 20
129.346151356032891
 30
0.0
 11
345.4891149751225043
 21
127.9999972175869942
 31
0.0
  0
LINE
  5
1FD48
  8
0
 10
345.4891149751225043
 20
129.346151356032891
 30
0.0
 11
345.7101019895949889
 21
129.346151356032891
 31
0.0
  0
LINE
  5
1FD49
  8
0
 10
345.7101019895949889
 20
129.8846122663532014
 30
0.0
 11
345.7101019895949889
 21
129.346151356032891
 31
0.0
  0
LINE
  5
1FD4A
  8
0
 10
345.4891149751225043
 20
129.8846122663532014
 30
0.0
 11
345.7101019895949889
 21
129.8846122663532014
 31
0.0
  0
LINE
  5
1FD4B
  8
0
 10
345.4891149751225043
 20
130.4615358676824997
 30
0.0
 11
345.4891149751225043
 21
129.8846122663532014
 31
0.0
  0
LINE
  5
1FD4C
  8
0
 10
345.4891149751225043
 20
130.4615358676824997
 30
0.0
 11
345.7101019895949889
 21
130.4615358676824997
 31
0.0
  0
LINE
  5
1FD4D
  8
0
 10
345.7101019895949889
 20
130.9999977093252994
 30
0.0
 11
345.7101019895949889
 21
130.4615358676824997
 31
0.0
  0
LINE
  5
1FD4E
  8
0
 10
345.3320930577202148
 20
130.9999977093252994
 30
0.0
 11
345.7101019895949889
 21
130.9999977093252994
 31
0.0
  0
LINE
  5
1FD4F
  8
0
 10
344.5725082285089798
 20
127.9999972175869942
 30
0.0
 11
344.5725082285089798
 21
130.9999977093252994
 31
0.0
  0
LINE
  5
1FD50
  8
0
 10
344.5725082285089798
 20
127.9999972175869942
 30
0.0
 11
344.8038301295915176
 21
127.9999972175869942
 31
0.0
  0
LINE
  5
1FD51
  8
0
 10
344.8038301295915176
 20
129.346151356032891
 30
0.0
 11
344.8038301295915176
 21
127.9999972175869942
 31
0.0
  0
LINE
  5
1FD52
  8
0
 10
344.8038301295915176
 20
129.346151356032891
 30
0.0
 11
345.1546602747716861
 21
129.346151356032891
 31
0.0
  0
LINE
  5
1FD53
  8
0
 10
345.1546602747716861
 20
129.8846122663532014
 30
0.0
 11
345.1546602747716861
 21
129.346151356032891
 31
0.0
  0
LINE
  5
1FD54
  8
0
 10
344.8038301295915176
 20
129.8846122663532014
 30
0.0
 11
345.1546602747716861
 21
129.8846122663532014
 31
0.0
  0
LINE
  5
1FD55
  8
0
 10
344.8038301295915176
 20
130.4615358676824997
 30
0.0
 11
344.8038301295915176
 21
129.8846122663532014
 31
0.0
  0
LINE
  5
1FD56
  8
0
 10
344.8038301295915176
 20
130.4615358676824997
 30
0.0
 11
345.1546602747716861
 21
130.4615358676824997
 31
0.0
  0
LINE
  5
1FD57
  8
0
 10
345.1546602747716861
 20
130.9999977093252994
 30
0.0
 11
345.1546602747716861
 21
130.4615358676824997
 31
0.0
  0
LINE
  5
1FD58
  8
0
 10
344.5725082285089798
 20
130.9999977093252994
 30
0.0
 11
345.1546602747716861
 21
130.9999977093252994
 31
0.0
  0
ARC
  5
1FD59
  8
0
 10
329.5613564046144006
 20
129.5512951825708114
 30
0.0
 40
0.9871661263894493
 50
90.1377560888406464
 51
183.3280391008991899
  0
ARC
  5
1FD5A
  8
0
 10
329.5542123764553821
 20
129.5286763647089003
 30
0.0
 40
1.009793359989104
 50
358.2701887047812193
 51
89.7293152478281257
  0
ARC
  5
1FD5B
  8
0
 10
329.5599044343845208
 20
129.4656576855387016
 30
0.0
 40
1.0041683892543709
 50
270.5498721367213761
 51
1.856804201666127
  0
POLYLINE
  5
1FD5C
  8
0
 66
     1
 10
0.0
 20
0.0
 30
0.0
 70
   128
  0
VERTEX
  5
219CE
  8
0
 10
328.9303346402331272
 20
128.692305166653199
 30
0.0
  0
VERTEX
  5
219CF
  8
0
 10
329.2292533307651183
 20
128.5189785849366899
 30
0.0
  0
VERTEX
  5
219D0
  8
0
 10
329.5695413700623817
 20
128.4615355398568965
 30
0.0
  0
SEQEND
  5
219D1
  8
0
  0
ARC
  5
1FD5D
  8
0
 10
329.5537214395786236
 20
129.447159045797008
 30
0.0
 40
0.9789869664384957
 50
177.2582832370964923
 51
230.4488212866291974
  0
ARC
  5
1FD5E
  8
0
 10
344.1029612637913147
 20
129.4166481695685889
 30
0.0
 40
1.2348525622286051
 50
176.4091848552797046
 51
215.9148709465866887
  0
POLYLINE
  5
1FD5F
  8
0
 66
     1
 10
0.0
 20
0.0
 30
0.0
 70
   128
  0
VERTEX
  5
219D2
  8
0
 10
343.4915128029265929
 20
130.5384584557328935
 30
0.0
  0
VERTEX
  5
219D3
  8
0
 10
343.2556944764538116
 20
130.463735651603713
 30
0.0
  0
VERTEX
  5
219D4
  8
0
 10
343.147988883344226
 20
130.3680823039327095
 30
0.0
  0
VERTEX
  5
219D5
  8
0
 10
343.0507038585229225
 20
130.2350167971167991
 30
0.0
  0
VERTEX
  5
219D6
  8
0
 10
342.9706110484281112
 20
130.0741997402224968
 30
0.0
  0
VERTEX
  5
219D7
  8
0
 10
342.9136886126676131
 20
129.8937494721326971
 30
0.0
  0
VERTEX
  5
219D8
  8
0
 10
342.8705329872050811
 20
129.4939876388822029
 30
0.0
  0
SEQEND
  5
219D9
  8
0
  0
POLYLINE
  5
1FD60
  8
0
 66
     1
 10
0.0
 20
0.0
 30
0.0
 70
   128
  0
VERTEX
  5
219DA
  8
0
 10
344.0526523492612796
 20
129.4981944229517126
 30
0.0
  0
VERTEX
  5
219DB
  8
0
 10
344.0150492689887187
 20
129.8953932564768934
 30
0.0
  0
VERTEX
  5
219DC
  8
0
 10
343.89788050719892
 20
130.2324929129395912
 30
0.0
  0
VERTEX
  5
219DD
  8
0
 10
343.8123068637528945
 20
130.3672077920350887
 30
0.0
  0
VERTEX
  5
219DE
  8
0
 10
343.716725227920108
 20
130.4619680013570928
 30
0.0
  0
VERTEX
  5
219DF
  8
0
 10
343.4915128029265929
 20
130.5384584557328935
 30
0.0
  0
SEQEND
  5
219E0
  8
0
  0
POLYLINE
  5
1FD61
  8
0
 66
     1
 10
0.0
 20
0.0
 30
0.0
 70
   128
  0
VERTEX
  5
219E1
  8
0
 10
343.4977899170795013
 20
128.4615355398568965
 30
0.0
  0
VERTEX
  5
219E2
  8
0
 10
343.7212356231490276
 20
128.5379645269428011
 30
0.0
  0
VERTEX
  5
219E3
  8
0
 10
343.8157704524082874
 20
128.6329845752630945
 30
0.0
  0
VERTEX
  5
219E4
  8
0
 10
343.9006241835036803
 20
128.7672654580387928
 30
0.0
  0
VERTEX
  5
219E5
  8
0
 10
344.0160783804341236
 20
129.1032838489923904
 30
0.0
  0
VERTEX
  5
219E6
  8
0
 10
344.0526523492612796
 20
129.4981944229517126
 30
0.0
  0
SEQEND
  5
219E7
  8
0
  0
POLYLINE
  5
1FD62
  8
0
 66
     1
 10
0.0
 20
0.0
 30
0.0
 70
   128
  0
VERTEX
  5
219E8
  8
0
 10
343.1028672359270786
 20
128.692305166653199
 30
0.0
  0
VERTEX
  5
219E9
  8
0
 10
343.2913455046100921
 20
128.5189785849366899
 30
0.0
  0
VERTEX
  5
219EA
  8
0
 10
343.4977899170795013
 20
128.4615355398568965
 30
0.0
  0
SEQEND
  5
219EB
  8
0
  0
LINE
  5
1FD63
  8
0
 10
342.1000009364760217
 20
120.999997336796298
 30
0.0
 11
342.1000009364760217
 21
118.9999973367961985
 31
0.0
  0
LINE
  5
1FD64
  8
0
 10
345.9000009364759762
 20
118.9999973367961985
 30
0.0
 11
345.9000009364759762
 21
120.999997336796298
 31
0.0
  0
LINE
  5
1FD65
  8
0
 10
345.000000936475999
 20
120.999997336796298
 30
0.0
 11
345.000000936475999
 21
123.4999973367961985
 31
0.0
  0
LINE
  5
1FD66
  8
0
 10
343.000000936475999
 20
123.4999973367961985
 30
0.0
 11
343.000000936475999
 21
120.999997336796298
 31
0.0
  0
LINE
  5
1FD67
  8
0
 10
342.1000009364760217
 20
120.999997336796298
 30
0.0
 11
345.9000009364759762
 21
120.999997336796298
 31
0.0
  0
LINE
  5
1FD68
  8
0
 10
342.1000009364760217
 20
118.9999973367961985
 30
0.0
 11
345.9000009364759762
 21
118.9999973367961985
 31
0.0
  0
LINE
  5
1FD69
  8
3
 10
344.8000009364757261
 20
122.1999973367963008
 30
0.0
 11
344.8000009364757261
 21
123.4999973367961985
 31
0.0
  0
LINE
  5
1FD6A
  8
3
 10
345.0000015660500026
 20
121.8535860848280947
 30
0.0
 11
344.8000009364757261
 21
122.1999973367963008
 31
0.0
  0
LINE
  5
1FD6B
  8
0
 10
343.0000012382245131
 20
122.1999973367963008
 30
0.0
 11
345.0000015660500026
 21
122.1999973367963008
 31
0.0
  0
LINE
  5
1FD6C
  8
3
 10
343.2000009364758171
 20
122.1999973367963008
 30
0.0
 11
343.2000009364758171
 21
123.4999973367961985
 31
0.0
  0
LINE
  5
1FD6D
  8
3
 10
343.0000003069018817
 20
121.8535860848280947
 30
0.0
 11
343.2000009364758171
 21
122.1999973367963008
 31
0.0
  0
LINE
  5
1FD6E
  8
1
 10
344.000000936475999
 20
116.9999972418013954
 30
0.0
 11
344.0000009364761127
 21
125.4999973367961985
 31
0.0
  0
LINE
  5
1FD6F
  8
0
 10
330.6000009364761922
 20
120.999997336796298
 30
0.0
 11
330.6000009364761922
 21
118.9999973367961985
 31
0.0
  0
LINE
  5
1FD70
  8
0
 10
334.4000009364762036
 20
118.9999973367961985
 30
0.0
 11
334.4000009364762036
 21
120.999997336796298
 31
0.0
  0
LINE
  5
1FD71
  8
0
 10
333.5000009364762263
 20
120.999997336796298
 30
0.0
 11
333.5000009364762263
 21
123.4999973367961985
 31
0.0
  0
LINE
  5
1FD72
  8
0
 10
331.5000009364762263
 20
123.4999973367961985
 30
0.0
 11
331.5000009364762263
 21
120.999997336796298
 31
0.0
  0
LINE
  5
1FD73
  8
0
 10
330.6000009364761922
 20
120.999997336796298
 30
0.0
 11
334.4000009364762036
 21
120.999997336796298
 31
0.0
  0
LINE
  5
1FD74
  8
0
 10
330.6000009364761922
 20
118.9999973367961985
 30
0.0
 11
334.4000009364762036
 21
118.9999973367961985
 31
0.0
  0
LINE
  5
1FD75
  8
3
 10
333.300000936475783
 20
122.1999973367963008
 30
0.0
 11
333.300000936475783
 21
123.4999973367961985
 31
0.0
  0
LINE
  5
1FD76
  8
3
 10
333.5000015660501731
 20
121.8535860848280947
 30
0.0
 11
333.300000936475783
 21
122.1999973367963008
 31
0.0
  0
LINE
  5
1FD77
  8
0
 10
331.5000012382246268
 20
122.1999973367963008
 30
0.0
 11
333.5000015660501731
 21
122.1999973367963008
 31
0.0
  0
LINE
  5
1FD78
  8
3
 10
331.7000009364758739
 20
122.1999973367963008
 30
0.0
 11
331.7000009364758739
 21
123.4999973367961985
 31
0.0
  0
LINE
  5
1FD79
  8
3
 10
331.5000003069019954
 20
121.8535860848280947
 30
0.0
 11
331.7000009364758739
 21
122.1999973367963008
 31
0.0
  0
LINE
  5
1FD7A
  8
1
 10
332.5000009364761127
 20
116.9999972418013954
 30
0.0
 11
332.5000009364762832
 21
125.4999973367961985
 31
0.0
  0
LINE
  5
1FD7B
  8
0
 10
319.1000009364760217
 20
120.999997336796298
 30
0.0
 11
319.1000009364760217
 21
118.9999973367961985
 31
0.0
  0
LINE
  5
1FD7C
  8
0
 10
322.9000009364759762
 20
118.9999973367961985
 30
0.0
 11
322.9000009364759762
 21
120.999997336796298
 31
0.0
  0
LINE
  5
1FD7D
  8
0
 10
322.000000936475999
 20
120.999997336796298
 30
0.0
 11
322.000000936475999
 21
123.4999973367961985
 31
0.0
  0
LINE
  5
1FD7E
  8
0
 10
320.000000936475999
 20
123.4999973367961985
 30
0.0
 11
320.000000936475999
 21
120.999997336796298
 31
0.0
  0
LINE
  5
1FD7F
  8
0
 10
319.1000009364760217
 20
120.999997336796298
 30
0.0
 11
322.9000009364759762
 21
120.999997336796298
 31
0.0
  0
LINE
  5
1FD80
  8
0
 10
319.1000009364760217
 20
118.9999973367961985
 30
0.0
 11
322.9000009364759762
 21
118.9999973367961985
 31
0.0
  0
LINE
  5
1FD81
  8
3
 10
321.8000009364757261
 20
122.1999973367963008
 30
0.0
 11
321.8000009364757261
 21
123.4999973367961985
 31
0.0
  0
LINE
  5
1FD82
  8
3
 10
322.0000015660500026
 20
121.8535860848280947
 30
0.0
 11
321.8000009364757261
 21
122.1999973367963008
 31
0.0
  0
LINE
  5
1FD83
  8
0
 10
320.0000012382245131
 20
122.1999973367963008
 30
0.0
 11
322.0000015660500026
 21
122.1999973367963008
 31
0.0
  0
LINE
  5
1FD84
  8
3
 10
320.2000009364758171
 20
122.1999973367963008
 30
0.0
 11
320.2000009364758171
 21
123.4999973367961985
 31
0.0
  0
LINE
  5
1FD85
  8
3
 10
320.0000003069018817
 20
121.8535860848280947
 30
0.0
 11
320.2000009364758171
 21
122.1999973367963008
 31
0.0
  0
LINE
  5
1FD86
  8
1
 10
321.000000936475999
 20
116.9999972418013954
 30
0.0
 11
321.0000009364761127
 21
125.4999973367961985
 31
0.0
  0
LINE
  5
1FD87
  8
1
 10
332.500000936475999
 20
163.6999973367962866
 30
0.0
 11
332.5000009364762263
 21
100.999997336796298
 31
0.0
  0
LINE
  5
208DE
  8
0
 10
49.3289906345310598
 20
132.5278303182730042
 30
0.0
 11
75.671010073274644
 21
132.5278303182730042
 31
0.0
  0
LINE
  5
208DF
  8
0
 10
52.0000001862646712
 20
133.7800810641655005
 30
0.0
 11
73.0000001862647991
 21
133.7800810641655005
 31
0.0
  0
LINE
  5
208E1
  8
0
 10
114.5000003715031056
 20
133.7800802988064106
 30
0.0
 11
135.5000003715028072
 21
133.7800802988064106
 31
0.0
  0
LINE
  5
208E2
  8
0
 10
174.3289915246556063
 20
132.5278295529138859
 30
0.0
 11
200.6710095929317959
 21
132.5278295529138859
 31
0.0
  0
LINE
  5
208E3
  8
0
 10
177.0000005587936016
 20
133.7800802988064106
 30
0.0
 11
198.0000005587938006
 21
133.7800802988064106
 31
0.0
  0
LINE
  5
208E4
  8
0
 10
138.5000003715032051
 20
132.0579828648928071
 30
0.0
 11
111.5000003715032051
 21
132.0579828648928071
 31
0.0
  0
LINE
  5
208ED
  8
0
 10
319.3289908648133064
 20
132.5278291752858024
 30
0.0
 11
345.6710110081389189
 21
132.5278291752858024
 31
0.0
  0
LINE
  5
208EE
  8
0
 10
322.0000009364761127
 20
133.7800803520802049
 30
0.0
 11
343.0000009364761127
 21
133.7800803520802049
 31
0.0
  0
ARC
  5
20A20
  8
0
 10
390.6140448348529048
 20
111.5999973367963065
 30
0.0
 40
2.5000000000000289
 50
130.211987976099806
 51
229.7880120239001087
  0
ARC
  5
20A23
  8
0
 10
399.3859574229873033
 20
111.5999973367963065
 30
0.0
 40
2.5000000000000111
 50
310.21198797608929
 51
49.7880120239105892
  0
LINE
  5
20A24
  8
0
 10
406.7588201740226168
 20
157.9607740015975992
 30
0.0
 11
404.0635844026774066
 21
158.6829602499408907
 31
0.0
  0
LINE
  5
20A25
  8
0
 10
385.9364178551624036
 20
158.6829602499408907
 30
0.0
 11
383.2411820838174776
 21
157.9607740015975992
 31
0.0
  0
LINE
  5
20A26
  8
0
 10
407.5000011289199051
 20
137.1999973367962866
 30
0.0
 11
407.5000011289199051
 21
141.6999973367962014
 31
0.0
  0
LINE
  5
20A27
  8
0
 10
382.5000011289199051
 20
156.9948481753085048
 30
0.0
 11
382.5000011289199051
 21
137.1999973367962866
 31
0.0
  0
ARC
  5
20A28
  8
0
 10
407.0000011289199051
 20
137.1999973367962866
 30
0.0
 40
0.5
 50
270.0000000000064801
 51
0.0000000000032569
  0
ARC
  5
20A29
  8
0
 10
383.0000011289199051
 20
137.1999973367962866
 30
0.0
 40
0.5
 50
179.9999999999967031
 51
269.9999999999935199
  0
ARC
  5
20A2A
  8
0
 10
383.5000011289199051
 20
156.9948481753085048
 30
0.0
 40
1.0000000000000171
 50
105.0000000000011937
 51
180.0
  0
ARC
  5
20A2B
  8
0
 10
403.9341748801261929
 20
158.1999973367962866
 30
0.0
 40
0.5000000000000301
 50
74.9999999999920135
 51
89.9999999999934914
  0
ARC
  5
20A2C
  8
0
 10
386.0658273777135037
 20
158.1999973367962866
 30
0.0
 40
0.5000000000000152
 50
90.0000000000065086
 51
105.0000000000011937
  0
ARC
  5
20A2D
  8
0
 10
409.3631744461985136
 20
155.4208947461818866
 30
0.0
 40
1.389652021766103
 50
356.4532220388085761
 51
52.5770508504844116
  0
ARC
  5
20A2E
  8
0
 10
410.2501647617581853
 20
142.1999973367962866
 30
0.0
 40
0.5
 50
270.0
 51
359.9999999999968168
  0
LINE
  5
20A2F
  8
0
 10
410.7501647617581853
 20
142.1999973367962866
 30
0.0
 11
410.7501647617581853
 21
155.3349261115388913
 31
0.0
  0
ARC
  5
20A30
  8
0
 10
409.3667386229569729
 20
155.6390748486487041
 30
0.0
 40
1.2211271947180651
 50
46.4773235172296779
 51
69.9050429488533354
  0
POLYLINE
  5
20A31
  8
0
 66
     1
 10
0.0
 20
0.0
 30
0.0
 70
   128
  0
VERTEX
  5
219EC
  8
0
 10
409.7862898873892732
 20
156.7858653099767992
 30
0.0
  0
VERTEX
  5
219ED
  8
0
 10
409.0775386236359736
 20
157.0696078921118897
 30
0.0
  0
VERTEX
  5
219EE
  8
0
 10
407.9323028003865943
 20
157.4962481363747031
 30
0.0
  0
SEQEND
  5
219EF
  8
0
  0
ARC
  5
20A32
  8
0
 10
411.9924134848698145
 20
169.1373741290938142
 30
0.0
 40
12.3288407057847902
 50
245.9363158752649952
 51
250.7726064092788931
  0
POLYLINE
  5
20A33
  8
0
 66
     1
 10
0.0
 20
0.0
 30
0.0
 70
   128
  0
VERTEX
  5
219F0
  8
0
 10
406.9653065536541021
 20
157.8799983669217113
 30
0.0
  0
VERTEX
  5
219F1
  8
0
 10
406.9127081587243993
 20
157.9057120002296131
 30
0.0
  0
VERTEX
  5
219F2
  8
0
 10
406.7588201740226168
 20
157.9607740015975139
 30
0.0
  0
SEQEND
  5
219F3
  8
0
  0
ARC
  5
20A34
  8
0
 10
376.533834621243102
 20
172.9841254421158112
 30
0.0
 40
16.4467601792475797
 50
289.6599961214423047
 51
293.1754899086081991
  0
POLYLINE
  5
20A35
  8
0
 66
     1
 10
0.0
 20
0.0
 30
0.0
 70
   128
  0
VERTEX
  5
219F4
  8
0
 10
382.3343358914603982
 20
141.6999973367962866
 30
0.0
  0
VERTEX
  5
219F5
  8
0
 10
382.4138574813545119
 20
141.6916678773924048
 30
0.0
  0
VERTEX
  5
219F6
  8
0
 10
382.5000011289199051
 20
141.6562016091885994
 30
0.0
  0
SEQEND
  5
219F7
  8
0
  0
ARC
  5
20A36
  8
0
 10
396.3694264993018237
 20
117.5334334108733998
 30
0.0
 40
42.44492146861176
 50
109.6918240804807994
 51
112.3758120491116017
  0
ARC
  5
20A37
  8
0
 10
380.5606449326402867
 20
155.7535099186439993
 30
0.0
 40
1.086652873523686
 50
108.7421809874570044
 51
134.9054621666413141
  0
ARC
  5
20A38
  8
0
 10
379.7498374960816818
 20
142.1999973367962866
 30
0.0
 40
0.5
 50
180.0
 51
270.0
  0
LINE
  5
20A39
  8
0
 10
379.2498374960816818
 20
155.3349261115388913
 30
0.0
 11
379.2498374960816818
 21
142.1999973367962866
 31
0.0
  0
ARC
  5
20A3A
  8
0
 10
380.7204004470889913
 20
155.3805471877448099
 30
0.0
 40
1.471270429074677
 50
129.0484121188947881
 51
181.7769093476501894
  0
LINE
  5
20A3B
  8
0
 10
389.0000011289199051
 20
117.999997336796298
 30
0.0
 11
389.0000011289199051
 21
107.9999973367963975
 31
0.0
  0
LINE
  5
20A3C
  8
0
 10
401.0000011289197914
 20
107.9999973367963975
 30
0.0
 11
401.0000011289197914
 21
117.999997336796298
 31
0.0
  0
LINE
  5
20A3D
  8
0
 10
389.0000011289199051
 20
107.9999973367963975
 30
0.0
 11
389.5358995137819988
 21
105.999997336796298
 31
0.0
  0
LINE
  5
20A3E
  8
0
 10
400.4641027440575272
 20
105.999997336796298
 30
0.0
 11
401.0000011289197914
 21
107.9999973367963975
 31
0.0
  0
LINE
  5
20A3F
  8
0
 10
401.4357060444797867
 20
142.1999973367962866
 30
0.0
 11
401.4357060444797867
 21
156.9948481753085048
 31
0.0
  0
LINE
  5
20A40
  8
0
 10
407.0000011289199051
 20
136.6999973367962866
 30
0.0
 11
383.0000011289199051
 21
136.6999973367962866
 31
0.0
  0
LINE
  5
20A41
  8
0
 10
386.0658273777135037
 20
158.6999973367962866
 30
0.0
 11
403.9341748801261929
 21
158.6999973367962866
 31
0.0
  0
ARC
  5
20A42
  8
0
 10
401.1364594516471129
 20
144.3226340109715125
 30
0.0
 40
12.6757469346049003
 50
74.8662041532536762
 51
88.6472465954039848
  0
LINE
  5
20A43
  8
0
 10
404.4457667244420236
 20
156.5587708900837924
 30
0.0
 11
404.4457667244420236
 21
142.1999973367962866
 31
0.0
  0
ARC
  5
20A44
  8
0
 10
405.912664283683398
 20
142.0759468522331872
 30
0.0
 40
1.4721334762951681
 50
175.1661939641755907
 51
194.7959448232253123
  0
LINE
  5
20A45
  8
0
 10
410.2501647617581853
 20
141.6999973367962866
 30
0.0
 11
403.8697005296182851
 21
141.6999973367962866
 31
0.0
  0
LINE
  5
20A46
  8
0
 10
403.7861416478976935
 20
141.70844117521969
 30
0.0
 11
403.8697005296182851
 21
141.6999973367962866
 31
0.0
  0
LINE
  5
20A47
  8
0
 10
407.6320145011277987
 20
155.8537010514629912
 30
0.0
 11
404.4457667244420236
 21
156.5587708900837924
 31
0.0
  0
LINE
  5
20A48
  8
0
 10
407.8965159714121
 20
155.761424936808794
 30
0.0
 11
407.6320145011277987
 21
155.8537010514629912
 31
0.0
  0
LINE
  5
20A49
  8
0
 10
407.8965159714121
 20
142.1999973367962866
 30
0.0
 11
407.8965159714121
 21
155.761424936808794
 31
0.0
  0
ARC
  5
20A4A
  8
0
 10
409.3634135306504049
 20
142.0759468522329882
 30
0.0
 40
1.472133476292101
 50
175.1661939641527113
 51
194.7959448232489876
  0
ARC
  5
20A4B
  8
0
 10
407.2512426471556068
 20
151.9683491579845906
 30
0.0
 40
3.847570860543005
 50
49.3559914990973496
 51
80.345341841656321
  0
LINE
  5
20A4C
  8
0
 10
409.7573856927767793
 20
154.8877752251738968
 30
0.0
 11
409.7573856927767793
 21
142.1999973367962866
 31
0.0
  0
ARC
  5
20A4D
  8
0
 10
409.2929251503546766
 20
142.1638872956393129
 30
0.0
 40
0.4658621368381361
 50
275.2739414994576919
 51
4.4455863207393964
  0
LINE
  5
20A4E
  8
0
 10
381.5983623472778277
 20
142.1999973367962866
 30
0.0
 11
381.5983623472778277
 21
156.5587708900837924
 31
0.0
  0
ARC
  5
20A4F
  8
0
 10
382.0581411874812261
 20
142.1588735957541871
 30
0.0
 40
0.4616142805159343
 50
174.8889262044031909
 51
263.7564536148677803
  0
ARC
  5
20A50
  8
0
 10
380.0713122477072829
 20
142.1588735957543008
 30
0.0
 40
0.4616142805159562
 50
174.8889262044162933
 51
263.7564536148809111
  0
ARC
  5
20A51
  8
0
 10
404.2809387638956196
 20
94.8012496988691851
 30
0.0
 40
65.791266111688671
 50
110.1674980607219965
 51
111.8791415569723
  0
LINE
  5
20A52
  8
0
 10
379.763824732709395
 20
155.8537010514631049
 30
0.0
 11
379.6115334075036003
 21
155.761424936808794
 31
0.0
  0
LINE
  5
20A53
  8
0
 10
379.6115334075036003
 20
155.761424936808794
 30
0.0
 11
379.6115334075036003
 21
142.1999973367962866
 31
0.0
  0
LINE
  5
20A54
  8
0
 10
382.3343358914603982
 20
141.6999973367962866
 30
0.0
 11
379.7498374960816818
 21
141.6999973367962866
 31
0.0
  0
ARC
  5
20A55
  8
0
 10
395.0000011289199051
 20
111.5999973367963065
 30
0.0
 40
2.4749999999999721
 50
237.4062795803162089
 51
302.5937204196837911
  0
LINE
  5
20A56
  8
0
 10
396.3332302915172249
 20
109.5147815206276931
 30
0.0
 11
396.3332302915172249
 21
109.4851687385406933
 31
0.0
  0
ARC
  5
20A57
  8
0
 10
394.9997671114600166
 20
111.5999973367963065
 30
0.0
 40
2.5001248073982572
 50
302.2326671015799775
 51
57.767332898419987
  0
LINE
  5
20A58
  8
0
 10
396.3332302915172249
 20
113.714825935052005
 30
0.0
 11
396.3332302915172249
 21
113.6852131529650052
 31
0.0
  0
ARC
  5
20A59
  8
0
 10
395.0000011289199051
 20
111.5999973367968039
 30
0.0
 40
2.4749999999996009
 50
57.4062795803087909
 51
122.5937204196911949
  0
LINE
  5
20A5A
  8
0
 10
393.666771966322699
 20
113.6852131529650052
 30
0.0
 11
393.666771966322699
 21
113.714825935052005
 31
0.0
  0
ARC
  5
20A5B
  8
0
 10
395.0002351463796231
 20
111.5999973367963065
 30
0.0
 40
2.5001248073982261
 50
122.2326671015800059
 51
237.7673328984199941
  0
LINE
  5
20A5C
  8
0
 10
393.666771966322699
 20
109.4851687385406933
 30
0.0
 11
393.666771966322699
 21
109.5147815206276931
 31
0.0
  0
LINE
  5
20A5D
  8
0
 10
389.0000011289199051
 20
107.9999973367963975
 30
0.0
 11
401.0000011289197914
 21
107.9999973367963975
 31
0.0
  0
LINE
  5
20A5E
  8
0
 10
400.4641027440575272
 20
105.999997336796298
 30
0.0
 11
389.5358995137819988
 21
105.999997336796298
 31
0.0
  0
LINE
  5
20A5F
  8
0
 10
401.4357060444797867
 20
156.9948481753085048
 30
0.0
 11
382.5000011289199051
 21
156.9948481753085048
 31
0.0
  0
LINE
  5
20A60
  8
0
 10
382.5000011289199051
 20
137.1999973367962866
 30
0.0
 11
407.5000011289199051
 21
137.1999973367962866
 31
0.0
  0
ARC
  5
20A61
  8
0
 10
405.1681355629930863
 20
154.1818382637266893
 30
0.0
 40
12.5497227901230293
 50
252.6978133332941923
 51
263.6776822031507095
  0
ARC
  5
20A62
  8
0
 10
378.6689923057908231
 20
163.7657309572446138
 30
0.0
 40
7.7795554017959541
 50
292.1199734571807198
 51
299.5014593279685187
  0
POLYLINE
  5
20A63
  8
0
 66
     1
 10
0.0
 20
0.0
 30
0.0
 70
   128
  0
VERTEX
  5
219F8
  8
0
 10
379.6115334075036003
 20
155.761424936808794
 30
0.0
  0
VERTEX
  5
219F9
  8
0
 10
379.3183705760691851
 20
155.5480975010605107
 30
0.0
  0
VERTEX
  5
219FA
  8
0
 10
379.2541183873266277
 20
155.3925605448783074
 30
0.0
  0
VERTEX
  5
219FB
  8
0
 10
379.2498374960816818
 20
155.3349261115388913
 30
0.0
  0
SEQEND
  5
219FC
  8
0
  0
LINE
  5
20A64
  8
0
 10
381.5000011278935972
 20
132.0579828648928071
 30
0.0
 11
381.5000011278935972
 21
123.999997336796298
 31
0.0
  0
LINE
  5
20A65
  8
0
 10
408.5000011278934835
 20
123.999997336796298
 30
0.0
 11
408.5000011278934835
 21
132.0579828648928071
 31
0.0
  0
ARC
  5
20A66
  8
0
 10
382.0000011278934835
 20
132.0579828648928071
 30
0.0
 40
0.5000000000000364
 50
110.0000000000035953
 51
180.0
  0
ARC
  5
20A67
  8
0
 10
408.0000011278938814
 20
132.0579828648928071
 30
0.0
 40
0.5000000000000364
 50
0.0
 51
69.9999999999964331
  0
LINE
  5
20A68
  8
0
 10
381.5000011278935972
 20
123.999997336796298
 30
0.0
 11
382.0000011278934835
 21
123.499997336796298
 31
0.0
  0
LINE
  5
20A69
  8
0
 10
408.0000011278938814
 20
123.499997336796298
 30
0.0
 11
408.5000011278934835
 21
123.999997336796298
 31
0.0
  0
LINE
  5
20A6A
  8
0
 10
408.1710111995562897
 20
132.5278291752858024
 30
0.0
 11
405.7631930705633749
 21
133.404203303765911
 31
0.0
  0
LINE
  5
20A6B
  8
0
 10
384.2368091852241037
 20
133.404203303765911
 30
0.0
 11
381.8289910562307909
 21
132.5278291752858024
 31
0.0
  0
ARC
  5
20A6C
  8
0
 10
405.9000011278935744
 20
133.7800803520800912
 30
0.0
 40
0.4000000000000159
 50
180.0
 51
249.9999999999963904
  0
ARC
  5
20A6D
  8
0
 10
384.1000011278939041
 20
133.7800803520800912
 30
0.0
 40
0.4000000000000159
 50
290.0000000000035243
 51
0.0
  0
LINE
  5
20A6E
  8
0
 10
405.5000011278934835
 20
133.7800803520800912
 30
0.0
 11
405.5000011278934835
 21
136.6999973367962866
 31
0.0
  0
LINE
  5
20A6F
  8
0
 10
384.5000011278934267
 20
136.6999973367962866
 30
0.0
 11
384.5000011278934835
 21
133.7800803520800912
 31
0.0
  0
LINE
  5
20A70
  8
0
 10
387.0000011278939951
 20
123.499997336796298
 30
0.0
 11
387.0000011278939951
 21
118.499997336796298
 31
0.0
  0
LINE
  5
20A71
  8
0
 10
403.0000011278938814
 20
118.499997336796298
 30
0.0
 11
403.0000011278938814
 21
123.499997336796298
 31
0.0
  0
LINE
  5
20A72
  8
0
 10
387.0000011278939951
 20
118.4999973367964969
 30
0.0
 11
387.5000011278935972
 21
117.999997336796298
 31
0.0
  0
LINE
  5
20A73
  8
0
 10
402.5000011278934835
 20
117.999997336796298
 30
0.0
 11
403.0000011278938814
 21
118.499997336796298
 31
0.0
  0
LINE
  5
20A74
  8
0
 10
381.5000011278935972
 20
123.999997336796298
 30
0.0
 11
408.5000011278934835
 21
123.999997336796298
 31
0.0
  0
LINE
  5
20A75
  8
0
 10
408.0000011278938814
 20
123.499997336796298
 30
0.0
 11
382.0000011278934835
 21
123.499997336796298
 31
0.0
  0
LINE
  5
20A76
  8
0
 10
387.0000011278939951
 20
118.499997336796298
 30
0.0
 11
403.0000011278938814
 21
118.499997336796298
 31
0.0
  0
LINE
  5
20A77
  8
0
 10
402.5000011278934835
 20
117.999997336796298
 30
0.0
 11
387.5000011278935972
 21
117.999997336796298
 31
0.0
  0
LINE
  5
20A78
  8
0
 10
381.8289910562307909
 20
132.5278291752858024
 30
0.0
 11
408.1710111995562897
 21
132.5278291752858024
 31
0.0
  0
LINE
  5
20A79
  8
0
 10
405.7631930705633749
 20
133.404203303765911
 30
0.0
 11
384.2368091852241037
 21
133.404203303765911
 31
0.0
  0
ARC
  5
20A7A
  8
0
 10
387.3476149718254078
 20
129.6796720039596948
 30
0.0
 40
1.4086568810249389
 50
97.2969988098629841
 51
187.2787873449626943
  0
ARC
  5
20A7B
  8
0
 10
387.3366497021380042
 20
129.3124918247710866
 30
0.0
 40
1.3991241863943891
 50
172.2486006579088098
 51
263.2468950756218078
  0
ARC
  5
20A7C
  8
0
 10
387.0331181163675183
 20
129.3698588968536001
 30
0.0
 40
1.4534467973228611
 50
275.4881261162759074
 51
4.780339837137733
  0
ARC
  5
20A7D
  8
0
 10
387.0125084713367869
 20
129.6112996664967909
 30
0.0
 40
1.473919588085407
 50
355.3177198144892941
 51
83.9170231032136655
  0
POLYLINE
  5
20A7E
  8
0
 66
     1
 10
0.0
 20
0.0
 30
0.0
 70
   128
  0
VERTEX
  5
219FD
  8
0
 10
385.4298421098542917
 20
129.49999747556339
 30
0.0
  0
VERTEX
  5
219FE
  8
0
 10
384.5593050970393278
 20
128.7499968869674944
 30
0.0
  0
VERTEX
  5
219FF
  8
0
 10
383.7853667243070959
 20
127.9999972296942019
 30
0.0
  0
SEQEND
  5
21A00
  8
0
  0
POLYLINE
  5
20A7F
  8
0
 66
     1
 10
0.0
 20
0.0
 30
0.0
 70
   128
  0
VERTEX
  5
21A01
  8
0
 10
383.7853667243070959
 20
130.9999977214326066
 30
0.0
  0
VERTEX
  5
21A02
  8
0
 10
384.5593050970393278
 20
130.249997132836711
 30
0.0
  0
VERTEX
  5
21A03
  8
0
 10
385.4298421098542917
 20
129.49999747556339
 30
0.0
  0
SEQEND
  5
21A04
  8
0
  0
LINE
  5
20A80
  8
0
 10
383.7853667243070959
 20
130.249997132836711
 30
0.0
 11
383.7853667243070959
 21
130.9999977214326066
 31
0.0
  0
LINE
  5
20A81
  8
0
 10
382.4766722424574823
 20
130.249997132836711
 30
0.0
 11
383.7853667243070959
 21
130.249997132836711
 31
0.0
  0
LINE
  5
20A82
  8
0
 10
382.4766722424574823
 20
130.9999977214326066
 30
0.0
 11
382.4766722424574823
 21
130.249997132836711
 31
0.0
  0
POLYLINE
  5
20A83
  8
0
 66
     1
 10
0.0
 20
0.0
 30
0.0
 70
   128
  0
VERTEX
  5
21A05
  8
0
 10
381.743620793397497
 20
129.49999747556339
 30
0.0
  0
VERTEX
  5
21A06
  8
0
 10
382.0502401246376962
 20
130.249997132836711
 30
0.0
  0
VERTEX
  5
21A07
  8
0
 10
382.4766722424574823
 20
130.9999977214326066
 30
0.0
  0
SEQEND
  5
21A08
  8
0
  0
POLYLINE
  5
20A84
  8
0
 66
     1
 10
0.0
 20
0.0
 30
0.0
 70
   128
  0
VERTEX
  5
21A09
  8
0
 10
382.4766722424574823
 20
127.9999972296942019
 30
0.0
  0
VERTEX
  5
21A0A
  8
0
 10
382.0502401246376962
 20
128.7499968869674944
 30
0.0
  0
VERTEX
  5
21A0B
  8
0
 10
381.743620793397497
 20
129.49999747556339
 30
0.0
  0
SEQEND
  5
21A0C
  8
0
  0
LINE
  5
20A85
  8
0
 10
382.4766722424574823
 20
128.7499968869674944
 30
0.0
 11
382.4766722424574823
 21
127.9999972296942019
 31
0.0
  0
LINE
  5
20A86
  8
0
 10
382.4766722424574823
 20
128.7499968869674944
 30
0.0
 11
383.7853667243070959
 21
128.7499968869674944
 31
0.0
  0
LINE
  5
20A87
  8
0
 10
383.7853667243070959
 20
127.9999972296942019
 30
0.0
 11
383.7853667243070959
 21
128.7499968869674944
 31
0.0
  0
LINE
  5
20A88
  8
0
 10
390.806267215932678
 20
127.9999972296942019
 30
0.0
 11
390.806267215932678
 21
130.9999977214326066
 31
0.0
  0
LINE
  5
20A89
  8
0
 10
390.806267215932678
 20
127.9999972296942019
 30
0.0
 11
391.3212885996945829
 21
127.9999972296942019
 31
0.0
  0
LINE
  5
20A8A
  8
0
 10
391.3212885996945829
 20
129.3461513681401129
 30
0.0
 11
391.3212885996945829
 21
127.9999972296942019
 31
0.0
  0
LINE
  5
20A8B
  8
0
 10
391.3212885996945829
 20
129.3461513681401129
 30
0.0
 11
392.2173373317974097
 21
129.3461513681401129
 31
0.0
  0
LINE
  5
20A8C
  8
0
 10
392.2173373317974097
 20
129.8846122784603949
 30
0.0
 11
392.2173373317974097
 21
129.3461513681401129
 31
0.0
  0
LINE
  5
20A8D
  8
0
 10
391.3212885996945829
 20
129.8846122784603949
 30
0.0
 11
392.2173373317974097
 21
129.8846122784603949
 31
0.0
  0
LINE
  5
20A8E
  8
0
 10
391.3212885996945829
 20
130.4615358797896931
 30
0.0
 11
391.3212885996945829
 21
129.8846122784603949
 31
0.0
  0
LINE
  5
20A8F
  8
0
 10
391.3212885996945829
 20
130.4615358797896931
 30
0.0
 11
392.2173373317974097
 21
130.4615358797896931
 31
0.0
  0
LINE
  5
20A90
  8
0
 10
392.2173373317974097
 20
130.9999977214326066
 30
0.0
 11
392.2173373317974097
 21
130.4615358797896931
 31
0.0
  0
LINE
  5
20A91
  8
0
 10
390.806267215932678
 20
130.9999977214326066
 30
0.0
 11
392.2173373317974097
 21
130.9999977214326066
 31
0.0
  0
LINE
  5
20A92
  8
0
 10
388.9581008731079805
 20
127.9999972296942019
 30
0.0
 11
388.9581008731079805
 21
130.9999977214326066
 31
0.0
  0
LINE
  5
20A93
  8
0
 10
388.9581008731079805
 20
127.9999972296942019
 30
0.0
 11
389.4443029454602083
 21
127.9999972296942019
 31
0.0
  0
LINE
  5
20A94
  8
0
 10
389.4443029454602083
 20
129.3461513681401129
 30
0.0
 11
389.4443029454602083
 21
127.9999972296942019
 31
0.0
  0
LINE
  5
20A95
  8
0
 10
389.4443029454602083
 20
129.3461513681401129
 30
0.0
 11
390.2979173614335764
 21
129.3461513681401129
 31
0.0
  0
LINE
  5
20A96
  8
0
 10
390.2979173614335764
 20
129.8846122784603949
 30
0.0
 11
390.2979173614335764
 21
129.3461513681401129
 31
0.0
  0
LINE
  5
20A97
  8
0
 10
389.4443029454602083
 20
129.8846122784603949
 30
0.0
 11
390.2979173614335764
 21
129.8846122784603949
 31
0.0
  0
LINE
  5
20A98
  8
0
 10
389.4443029454602083
 20
130.4615358797896931
 30
0.0
 11
389.4443029454602083
 21
129.8846122784603949
 31
0.0
  0
LINE
  5
20A99
  8
0
 10
389.4443029454602083
 20
130.4615358797896931
 30
0.0
 11
390.2979173614335764
 21
130.4615358797896931
 31
0.0
  0
LINE
  5
20A9A
  8
0
 10
390.2979173614335764
 20
130.9999977214326066
 30
0.0
 11
390.2979173614335764
 21
130.4615358797896931
 31
0.0
  0
LINE
  5
20A9B
  8
0
 10
388.9581008731079805
 20
130.9999977214326066
 30
0.0
 11
390.2979173614335764
 21
130.9999977214326066
 31
0.0
  0
ARC
  5
20A9C
  8
0
 10
387.265427064209689
 20
129.6262774375379934
 30
0.0
 40
0.9180431754702494
 50
96.4783697369272062
 51
188.2851508394880113
  0
ARC
  5
20A9D
  8
0
 10
387.0746999989623873
 20
129.5967464923965906
 30
0.0
 40
0.9457356224464369
 50
354.0185327050833735
 51
84.7129089552102243
  0
ARC
  5
20A9E
  8
0
 10
387.0707736393296727
 20
129.4053320436784986
 30
0.0
 40
0.9490671014070601
 50
276.0411662895638187
 51
5.6151453075009146
  0
POLYLINE
  5
20A9F
  8
0
 66
     1
 10
0.0
 20
0.0
 30
0.0
 70
   128
  0
VERTEX
  5
21A0D
  8
0
 10
386.6436124696083994
 20
128.6923051787603924
 30
0.0
  0
VERTEX
  5
21A0E
  8
0
 10
386.8884739382821181
 20
128.5189785970439118
 30
0.0
  0
VERTEX
  5
21A0F
  8
0
 10
387.1706562964873797
 20
128.4615355519642037
 30
0.0
  0
SEQEND
  5
21A10
  8
0
  0
ARC
  5
20AA0
  8
0
 10
387.4240963195907739
 20
129.4234601503187037
 30
0.0
 40
1.069459037325402
 50
176.2187772243287895
 51
223.1309464322052918
  0
LINE
  5
20AA1
  8
0
 10
404.6000014296423046
 20
120.9999973367963975
 30
0.0
 11
404.6000014296423046
 21
118.9999973367963975
 31
0.0
  0
LINE
  5
20AA2
  8
0
 10
408.4000014296423728
 20
118.9999973367963975
 30
0.0
 11
408.4000014296423728
 21
120.9999973367963975
 31
0.0
  0
LINE
  5
20AA3
  8
0
 10
407.5000014296422819
 20
120.9999973367963975
 30
0.0
 11
407.5000014296422819
 21
123.499997336796298
 31
0.0
  0
LINE
  5
20AA4
  8
0
 10
405.5000014296423956
 20
123.499997336796298
 30
0.0
 11
405.5000014296423956
 21
120.9999973367963975
 31
0.0
  0
LINE
  5
20AA5
  8
0
 10
404.6000014296423046
 20
120.9999973367963975
 30
0.0
 11
408.4000014296423728
 21
120.9999973367963975
 31
0.0
  0
LINE
  5
20AA6
  8
0
 10
404.6000014296423046
 20
118.9999973367963975
 30
0.0
 11
408.4000014296423728
 21
118.9999973367963975
 31
0.0
  0
LINE
  5
20AA7
  8
3
 10
407.300001429642009
 20
122.1999973367964003
 30
0.0
 11
407.300001429642009
 21
123.499997336796298
 31
0.0
  0
LINE
  5
20AA8
  8
3
 10
407.5000020592162855
 20
121.8535860848281942
 30
0.0
 11
407.300001429642009
 21
122.1999973367964003
 31
0.0
  0
LINE
  5
20AA9
  8
0
 10
405.5000017313907961
 20
122.1999973367964003
 30
0.0
 11
407.5000020592162855
 21
122.1999973367964003
 31
0.0
  0
LINE
  5
20AAA
  8
3
 10
405.7000014296421
 20
122.1999973367964003
 30
0.0
 11
405.7000014296422137
 21
123.499997336796298
 31
0.0
  0
LINE
  5
20AAB
  8
3
 10
405.5000008000682215
 20
121.8535860848281942
 30
0.0
 11
405.7000014296421
 21
122.1999973367964003
 31
0.0
  0
LINE
  5
20AAC
  8
1
 10
406.5000011278938814
 20
116.9999972418014949
 30
0.0
 11
406.5000011278938814
 21
125.499997336796298
 31
0.0
  0
LINE
  5
20AAD
  8
0
 10
393.1000014306683283
 20
120.9999973367963975
 30
0.0
 11
393.1000014306683283
 21
118.9999973367963975
 31
0.0
  0
LINE
  5
20AAE
  8
0
 10
396.9000014306682829
 20
118.9999973367963975
 30
0.0
 11
396.9000014306682829
 21
120.9999973367963975
 31
0.0
  0
LINE
  5
20AAF
  8
0
 10
396.0000014306681919
 20
120.9999973367963975
 30
0.0
 11
396.0000014306681919
 21
123.499997336796298
 31
0.0
  0
LINE
  5
20AB0
  8
0
 10
394.0000014306681919
 20
123.499997336796298
 30
0.0
 11
394.0000014306681919
 21
120.9999973367963975
 31
0.0
  0
LINE
  5
20AB1
  8
0
 10
393.1000014306683283
 20
120.9999973367963975
 30
0.0
 11
396.9000014306682829
 21
120.9999973367963975
 31
0.0
  0
LINE
  5
20AB2
  8
0
 10
393.1000014306683283
 20
118.9999973367963975
 30
0.0
 11
396.9000014306682829
 21
118.9999973367963975
 31
0.0
  0
LINE
  5
20AB3
  8
3
 10
395.8000014306679191
 20
122.1999973367964003
 30
0.0
 11
395.8000014306679191
 21
123.499997336796298
 31
0.0
  0
LINE
  5
20AB4
  8
3
 10
396.0000020602421955
 20
121.8535860848281942
 30
0.0
 11
395.8000014306679191
 21
122.1999973367964003
 31
0.0
  0
LINE
  5
20AB5
  8
0
 10
394.0000017324167061
 20
122.1999973367964003
 30
0.0
 11
396.0000020602421955
 21
122.1999973367964003
 31
0.0
  0
LINE
  5
20AB6
  8
3
 10
394.20000143066801
 20
122.1999973367964003
 30
0.0
 11
394.20000143066801
 21
123.499997336796298
 31
0.0
  0
LINE
  5
20AB7
  8
3
 10
394.0000008010940746
 20
121.8535860848281942
 30
0.0
 11
394.20000143066801
 21
122.1999973367964003
 31
0.0
  0
LINE
  5
20AB8
  8
0
 10
381.600001429641793
 20
120.9999973367963975
 30
0.0
 11
381.600001429641793
 21
118.9999973367963975
 31
0.0
  0
LINE
  5
20AB9
  8
0
 10
385.4000014296418044
 20
118.9999973367963975
 30
0.0
 11
385.4000014296418044
 21
120.9999973367963975
 31
0.0
  0
LINE
  5
20ABA
  8
0
 10
384.5000014296418271
 20
120.9999973367963975
 30
0.0
 11
384.5000014296418271
 21
123.499997336796298
 31
0.0
  0
LINE
  5
20ABB
  8
0
 10
382.5000014296418271
 20
123.499997336796298
 30
0.0
 11
382.5000014296418271
 21
120.9999973367963975
 31
0.0
  0
LINE
  5
20ABC
  8
0
 10
381.600001429641793
 20
120.9999973367963975
 30
0.0
 11
385.4000014296418044
 21
120.9999973367963975
 31
0.0
  0
LINE
  5
20ABD
  8
0
 10
381.600001429641793
 20
118.9999973367963975
 30
0.0
 11
385.4000014296418044
 21
118.9999973367963975
 31
0.0
  0
LINE
  5
20ABE
  8
3
 10
384.3000014296416111
 20
122.1999973367964003
 30
0.0
 11
384.3000014296416111
 21
123.499997336796298
 31
0.0
  0
LINE
  5
20ABF
  8
3
 10
384.5000020592158876
 20
121.8535860848281942
 30
0.0
 11
384.3000014296416111
 21
122.1999973367964003
 31
0.0
  0
LINE
  5
20AC0
  8
0
 10
382.5000017313902845
 20
122.1999973367964003
 30
0.0
 11
384.5000020592158876
 21
122.1999973367964003
 31
0.0
  0
LINE
  5
20AC1
  8
3
 10
382.7000014296415884
 20
122.1999973367964003
 30
0.0
 11
382.7000014296415884
 21
123.499997336796298
 31
0.0
  0
LINE
  5
20AC2
  8
3
 10
382.5000008000678235
 20
121.8535860848281942
 30
0.0
 11
382.7000014296415884
 21
122.1999973367964003
 31
0.0
  0
LINE
  5
20AC3
  8
1
 10
383.500001127893313
 20
116.9999972418014949
 30
0.0
 11
383.5000011278934267
 21
125.499997336796298
 31
0.0
  0
LINE
  5
20AC4
  8
1
 10
395.0000011289197914
 20
163.6999973367962866
 30
0.0
 11
395.0000011289200188
 21
100.999997336796298
 31
0.0
  0
LINE
  5
20AC5
  8
0
 10
384.5000011289199051
 20
133.7800803520802049
 30
0.0
 11
405.5000011289199051
 21
133.7800803520802049
 31
0.0
  0
LINE
  5
20AC6
  8
0
 10
408.500001127893313
 20
132.0579828648928071
 30
0.0
 11
381.500001127893313
 21
132.0579828648928071
 31
0.0
  0
LINE
  5
20FD0
  8
0
 10
469.2588203489543162
 20
157.9607740015975139
 30
0.0
 11
466.5635845776093902
 21
158.6829602499408054
 31
0.0
  0
LINE
  5
20FD1
  8
0
 10
448.4364180300942735
 20
158.6829602499408054
 30
0.0
 11
445.7411822587494044
 21
157.9607740015975139
 31
0.0
  0
LINE
  5
20FD2
  8
0
 10
470.000001303851775
 20
137.1999973367964003
 30
0.0
 11
470.000001303851775
 21
156.9948481753083911
 31
0.0
  0
LINE
  5
20FD3
  8
0
 10
445.000001303851775
 20
156.9948481753083911
 30
0.0
 11
445.000001303851775
 21
137.1999973367964003
 31
0.0
  0
ARC
  5
20FD4
  8
0
 10
469.500001303851775
 20
137.1999973367964003
 30
0.0
 40
0.500000000000057
 50
270.0
 51
0.0
  0
ARC
  5
20FD5
  8
0
 10
445.500001303851775
 20
137.1999973367964003
 30
0.0
 40
0.500000000000057
 50
180.0
 51
270.0
  0
ARC
  5
20FD6
  8
0
 10
469.0000013038518887
 20
156.9948481753083911
 30
0.0
 40
1.000000000000028
 50
0.0
 51
75.0000000000055422
  0
POLYLINE
  5
20FD7
  8
0
 66
     1
 10
0.0
 20
0.0
 30
0.0
 70
   128
  0
VERTEX
  5
21A11
  8
0
 10
447.1905191126746217
 20
155.9395078659862008
 30
0.0
  0
VERTEX
  5
21A12
  8
0
 10
447.1744073458979187
 20
155.8326957252569116
 30
0.0
  0
VERTEX
  5
21A13
  8
0
 10
447.1691250532051072
 20
155.7081821429700028
 30
0.0
  0
SEQEND
  5
21A14
  8
0
  0
ARC
  5
20FD8
  8
0
 10
447.6691250532051072
 20
142.1999973367962866
 30
0.0
 40
0.5000000000000142
 50
179.9999999999934914
 51
270.0
  0
LINE
  5
20FD9
  8
0
 10
447.1691250532051072
 20
155.7081821429700028
 30
0.0
 11
447.1691250532051072
 21
142.1999973367962866
 31
0.0
  0
ARC
  5
20FDA
  8
0
 10
448.2033588729235021
 20
155.8039645530693065
 30
0.0
 40
1.0218690569821061
 50
156.2070045165920078
 51
172.3776782726598924
  0
POLYLINE
  5
20FDB
  8
0
 66
     1
 10
0.0
 20
0.0
 30
0.0
 70
   128
  0
VERTEX
  5
21A15
  8
0
 10
447.4739294708222133
 20
156.749957827804792
 30
0.0
  0
VERTEX
  5
21A16
  8
0
 10
447.2683394938862875
 20
156.2162206997093108
 30
0.0
  0
SEQEND
  5
21A17
  8
0
  0
ARC
  5
20FDC
  8
0
 10
466.4341750550581764
 20
158.1999973367960877
 30
0.0
 40
0.5000000000000702
 50
75.0000000000055422
 51
90.0
  0
ARC
  5
20FDD
  8
0
 10
448.5658275526459988
 20
158.1999973367960877
 30
0.0
 40
0.5000000000000591
 50
90.0
 51
104.9999999999944009
  0
ARC
  5
20FDE
  8
0
 10
446.000001303851775
 20
156.9948481753083911
 30
0.0
 40
0.9999999999999857
 50
104.9999999999944009
 51
180.0
  0
LINE
  5
20FDF
  8
0
 10
444.0000013038518887
 20
123.999997336796298
 30
0.0
 11
444.500001303851775
 21
123.4999973367961985
 31
0.0
  0
LINE
  5
20FE0
  8
0
 10
470.500001303851775
 20
123.4999973367961985
 30
0.0
 11
471.000001303851775
 21
123.999997336796298
 31
0.0
  0
ARC
  5
20FE1
  8
0
 10
444.500001303851775
 20
132.0579828648928071
 30
0.0
 40
0.5000000000000436
 50
110.0000000000036948
 51
180.0
  0
ARC
  5
20FE2
  8
0
 10
470.500001303851775
 20
132.0579828648928071
 30
0.0
 40
0.5000000000000582
 50
0.0
 51
69.9999999999962768
  0
LINE
  5
20FE3
  8
0
 10
444.0000013038518887
 20
132.0579828648928071
 30
0.0
 11
444.0000013038518887
 21
123.999997336796298
 31
0.0
  0
LINE
  5
20FE4
  8
0
 10
471.000001303851775
 20
123.999997336796298
 30
0.0
 11
471.000001303851775
 21
132.0579828648928071
 31
0.0
  0
LINE
  5
20FE5
  8
0
 10
470.6710113755145812
 20
132.5278291752858024
 30
0.0
 11
468.2631932465217233
 21
133.404203303765712
 31
0.0
  0
LINE
  5
20FE6
  8
0
 10
446.7368093611819972
 20
133.404203303765712
 30
0.0
 11
444.3289912321890824
 21
132.5278291752858024
 31
0.0
  0
ARC
  5
20FE7
  8
0
 10
468.4000013038519228
 20
133.7800803520800912
 30
0.0
 40
0.4000000000000626
 50
180.0
 51
249.9999999999963052
  0
ARC
  5
20FE8
  8
0
 10
446.6000013038517977
 20
133.7800803520800912
 30
0.0
 40
0.4000000000000014
 50
290.0000000000036948
 51
0.0
  0
LINE
  5
20FE9
  8
0
 10
468.0000013038518887
 20
133.7800803520800912
 30
0.0
 11
468.0000013038518887
 21
136.6999973367962866
 31
0.0
  0
LINE
  5
20FEA
  8
0
 10
447.0000013038518887
 20
136.6999973367962866
 30
0.0
 11
447.0000013038518887
 21
133.7800803520800912
 31
0.0
  0
LINE
  5
20FEB
  8
0
 10
449.5000013038521161
 20
123.4999973367961985
 30
0.0
 11
449.500001303851775
 21
118.499997336796298
 31
0.0
  0
LINE
  5
20FEC
  8
0
 10
465.500001303851775
 20
118.499997336796298
 30
0.0
 11
465.5000013038516045
 21
123.4999973367961985
 31
0.0
  0
LINE
  5
20FED
  8
0
 10
449.500001303851775
 20
118.499997336796298
 30
0.0
 11
450.000001303851775
 21
117.999997336796298
 31
0.0
  0
LINE
  5
20FEE
  8
0
 10
465.0000013038518887
 20
117.999997336796298
 30
0.0
 11
465.500001303851775
 21
118.499997336796298
 31
0.0
  0
LINE
  5
20FF3
  8
0
 10
469.500001303851775
 20
136.6999973367962014
 30
0.0
 11
445.500001303851775
 21
136.6999973367962014
 31
0.0
  0
LINE
  5
20FF4
  8
0
 10
454.5706798649164284
 20
141.6999973367964003
 30
0.0
 11
447.6691250532051072
 21
141.6999973367964003
 31
0.0
  0
LINE
  5
20FF5
  8
0
 10
454.5706798649164284
 20
141.6999973367964003
 30
0.0
 11
454.6654312507710074
 21
141.7087332703382003
 31
0.0
  0
LINE
  5
20FF6
  8
0
 10
448.5658275526459988
 20
158.6999973367962866
 30
0.0
 11
466.4341750550581764
 21
158.6999973367962866
 31
0.0
  0
LINE
  5
20FF7
  8
0
 10
444.0000013038518887
 20
123.999997336796298
 30
0.0
 11
471.000001303851775
 21
123.999997336796298
 31
0.0
  0
LINE
  5
20FF8
  8
0
 10
470.500001303851775
 20
123.4999973367961985
 30
0.0
 11
444.500001303851775
 21
123.4999973367961985
 31
0.0
  0
LINE
  5
20FF9
  8
0
 10
449.500001303851775
 20
118.499997336796298
 30
0.0
 11
465.500001303851775
 21
118.499997336796298
 31
0.0
  0
LINE
  5
20FFA
  8
0
 10
465.0000013038518887
 20
117.999997336796298
 30
0.0
 11
450.000001303851775
 21
117.999997336796298
 31
0.0
  0
LINE
  5
2100A
  8
0
 10
446.7840458056314219
 20
156.9948481753083911
 30
0.0
 11
445.000001303851775
 21
156.9948481753083911
 31
0.0
  0
LINE
  5
2100B
  8
0
 10
446.7840458056314219
 20
142.1999973367962866
 30
0.0
 11
446.7840458056314219
 21
156.9948481753083911
 31
0.0
  0
LINE
  5
2100C
  8
0
 10
457.2844951048265898
 20
156.9948481753083911
 30
0.0
 11
457.2844951048265898
 21
142.1999973367962866
 31
0.0
  0
LINE
  5
2100D
  8
0
 10
470.000001303851775
 20
156.9948481753083911
 30
0.0
 11
457.2844951048265898
 21
156.9948481753083911
 31
0.0
  0
LINE
  5
2100E
  8
0
 10
445.000001303851775
 20
137.1999973367964003
 30
0.0
 11
470.000001303851775
 21
137.1999973367964003
 31
0.0
  0
ARC
  5
2100F
  8
0
 10
454.8475415382501978
 20
144.9222365670231056
 30
0.0
 40
11.3464293484742207
 50
107.1967564243006024
 51
118.5623508606840062
  0
LINE
  5
21010
  8
0
 10
451.4929246533858986
 20
155.761424936808794
 30
0.0
 11
451.4929246533858986
 21
142.1999973367962866
 31
0.0
  0
POLYLINE
  5
21011
  8
0
 66
     1
 10
0.0
 20
0.0
 30
0.0
 70
   128
  0
VERTEX
  5
21A18
  8
0
 10
451.4929246533858986
 20
142.1999973367962866
 30
0.0
  0
VERTEX
  5
21A19
  8
0
 10
451.4874140981899018
 20
142.1024521757881018
 30
0.0
  0
VERTEX
  5
21A1A
  8
0
 10
451.4710942001477179
 20
142.0086556206136947
 30
0.0
  0
VERTEX
  5
21A1B
  8
0
 10
451.4445921237896187
 20
141.9222122202864114
 30
0.0
  0
VERTEX
  5
21A1C
  8
0
 10
451.4089263290463805
 20
141.8464439462028963
 30
0.0
  0
VERTEX
  5
21A1D
  8
0
 10
451.3654674324091047
 20
141.7842625306450088
 30
0.0
  0
VERTEX
  5
21A1E
  8
0
 10
451.3158855349036003
 20
141.7380575705406045
 30
0.0
  0
VERTEX
  5
21A1F
  8
0
 10
451.2620860410445971
 20
141.7096046965947096
 30
0.0
  0
VERTEX
  5
21A20
  8
0
 10
451.2061364352105102
 20
141.6999973367964003
 30
0.0
  0
SEQEND
  5
21A21
  8
0
  0
LINE
  5
21012
  8
0
 10
449.4226453905973813
 20
154.8877752251738968
 30
0.0
 11
448.0941732789282241
 21
154.8877752251738968
 31
0.0
  0
POLYLINE
  5
21013
  8
0
 66
     1
 10
0.0
 20
0.0
 30
0.0
 70
   128
  0
VERTEX
  5
21A22
  8
0
 10
454.3304104434616875
 20
142.1999973367962866
 30
0.0
  0
VERTEX
  5
21A23
  8
0
 10
454.3248998882656906
 20
142.1024521757881018
 30
0.0
  0
VERTEX
  5
21A24
  8
0
 10
454.3085799902240183
 20
142.0086556206136947
 30
0.0
  0
VERTEX
  5
21A25
  8
0
 10
454.2820779138652938
 20
141.9222122202864114
 30
0.0
  0
VERTEX
  5
21A26
  8
0
 10
454.2464121191226241
 20
141.8464439462028963
 30
0.0
  0
VERTEX
  5
21A27
  8
0
 10
454.2029532224852915
 20
141.7842625306450088
 30
0.0
  0
VERTEX
  5
21A28
  8
0
 10
454.1533713249793891
 20
141.7380575705406045
 30
0.0
  0
VERTEX
  5
21A29
  8
0
 10
454.0995718311198743
 20
141.7096046965947096
 30
0.0
  0
VERTEX
  5
21A2A
  8
0
 10
454.0436222252859011
 20
141.6999973367960877
 30
0.0
  0
SEQEND
  5
21A2B
  8
0
  0
LINE
  5
21014
  8
0
 10
451.7104192059226193
 20
155.8537010514631049
 30
0.0
 11
451.4929246533858986
 21
155.761424936808794
 31
0.0
  0
LINE
  5
21015
  8
0
 10
454.3304104434616875
 20
156.5587708900835935
 30
0.0
 11
451.7104192059226193
 21
155.8537010514631049
 31
0.0
  0
LINE
  5
21016
  8
0
 10
454.3304104434616875
 20
142.1999973367962866
 30
0.0
 11
454.3304104434616875
 21
156.5587708900835935
 31
0.0
  0
ARC
  5
21017
  8
0
 10
449.4225114858617758
 20
157.3172620122660987
 30
0.0
 40
2.7689146683592001
 50
215.5295640047748122
 51
241.3320708918928972
  0
ARC
  5
21018
  8
0
 10
457.274754082397294
 20
146.8369836459204976
 30
0.0
 40
10.1578692000297401
 50
89.945055449334717
 51
106.8494783876924004
  0
ARC
  5
21019
  8
0
 10
452.4996092663716922
 20
160.4824328561088009
 30
0.0
 40
18.8982163445355908
 50
276.5808178658680276
 51
284.6665061288630909
  0
ARC
  5
2101A
  8
0
 10
446.9398938712081986
 20
156.3397045820991877
 30
0.0
 40
0.6734253835927606
 50
37.5319486463946816
 51
103.3810341136845068
  0
ARC
  5
2101B
  8
0
 10
443.0136483532253919
 20
134.0331249784981082
 30
0.0
 40
8.9952043370813826
 50
62.1385742464917925
 51
65.2186611547948871
  0
LINE
  5
2101C
  8
0
 10
471.000001303851775
 20
132.0579828648928071
 30
0.0
 11
444.0000013038518887
 21
132.0579828648928071
 31
0.0
  0
LINE
  5
2101D
  8
0
 10
468.2631932465217233
 20
133.404203303765712
 30
0.0
 11
446.7368093611819972
 21
133.404203303765712
 31
0.0
  0
LINE
  5
2105A
  8
0
 10
467.1000013038517977
 20
120.999997336796298
 30
0.0
 11
467.1000013038517977
 21
118.9999973367961985
 31
0.0
  0
LINE
  5
2105B
  8
0
 10
470.9000013038518091
 20
118.9999973367961985
 30
0.0
 11
470.9000013038518091
 21
120.999997336796298
 31
0.0
  0
LINE
  5
2105C
  8
0
 10
470.000001303851775
 20
120.999997336796298
 30
0.0
 11
470.000001303851775
 21
123.4999973367961985
 31
0.0
  0
LINE
  5
2105D
  8
0
 10
468.0000013038518887
 20
123.4999973367961985
 30
0.0
 11
468.0000013038518887
 21
120.999997336796298
 31
0.0
  0
LINE
  5
2105E
  8
0
 10
467.1000013038517977
 20
120.999997336796298
 30
0.0
 11
470.9000013038518091
 21
120.999997336796298
 31
0.0
  0
LINE
  5
2105F
  8
0
 10
467.1000013038517977
 20
118.9999973367961985
 30
0.0
 11
470.9000013038518091
 21
118.9999973367961985
 31
0.0
  0
LINE
  5
21060
  8
3
 10
469.8000013038516158
 20
122.1999973367963008
 30
0.0
 11
469.8000013038516158
 21
123.4999973367961985
 31
0.0
  0
LINE
  5
21061
  8
3
 10
470.0000019334258923
 20
121.8535860848280947
 30
0.0
 11
469.8000013038516158
 21
122.1999973367963008
 31
0.0
  0
LINE
  5
21062
  8
0
 10
468.0000016056004029
 20
122.1999973367963008
 30
0.0
 11
470.0000019334258923
 21
122.1999973367963008
 31
0.0
  0
LINE
  5
21063
  8
3
 10
468.2000013038517068
 20
122.1999973367963008
 30
0.0
 11
468.2000013038517068
 21
123.4999973367961985
 31
0.0
  0
LINE
  5
21064
  8
3
 10
468.0000006742778282
 20
121.8535860848280947
 30
0.0
 11
468.2000013038517068
 21
122.1999973367963008
 31
0.0
  0
LINE
  5
21065
  8
1
 10
469.0000013038518887
 20
116.9999972418013954
 30
0.0
 11
469.0000013038518887
 21
125.4999973367961985
 31
0.0
  0
LINE
  5
21066
  8
0
 10
455.6000013038520251
 20
120.999997336796298
 30
0.0
 11
455.6000013038520251
 21
118.9999973367961985
 31
0.0
  0
LINE
  5
21067
  8
0
 10
459.4000013038519228
 20
118.9999973367961985
 30
0.0
 11
459.4000013038519228
 21
120.999997336796298
 31
0.0
  0
LINE
  5
21068
  8
0
 10
458.5000013038521161
 20
120.999997336796298
 30
0.0
 11
458.5000013038521161
 21
123.4999973367961985
 31
0.0
  0
LINE
  5
21069
  8
0
 10
456.5000013038520024
 20
123.4999973367961985
 30
0.0
 11
456.5000013038520024
 21
120.999997336796298
 31
0.0
  0
LINE
  5
2106A
  8
0
 10
455.6000013038520251
 20
120.999997336796298
 30
0.0
 11
459.4000013038519228
 21
120.999997336796298
 31
0.0
  0
LINE
  5
2106B
  8
0
 10
455.6000013038520251
 20
118.9999973367961985
 30
0.0
 11
459.4000013038519228
 21
118.9999973367961985
 31
0.0
  0
LINE
  5
2106C
  8
3
 10
458.3000013038516727
 20
122.1999973367963008
 30
0.0
 11
458.3000013038516727
 21
123.4999973367961985
 31
0.0
  0
LINE
  5
2106D
  8
3
 10
458.500001933426006
 20
121.8535860848280947
 30
0.0
 11
458.3000013038516727
 21
122.1999973367963008
 31
0.0
  0
LINE
  5
2106E
  8
0
 10
456.5000016056004029
 20
122.1999973367963008
 30
0.0
 11
458.500001933426006
 21
122.1999973367963008
 31
0.0
  0
LINE
  5
2106F
  8
3
 10
456.7000013038517068
 20
122.1999973367963008
 30
0.0
 11
456.7000013038517068
 21
123.4999973367961985
 31
0.0
  0
LINE
  5
21070
  8
3
 10
456.5000006742778851
 20
121.8535860848280947
 30
0.0
 11
456.7000013038517068
 21
122.1999973367963008
 31
0.0
  0
LINE
  5
21071
  8
1
 10
457.5000013038518887
 20
116.9999972418013954
 30
0.0
 11
457.5000013038521161
 21
125.4999973367961985
 31
0.0
  0
LINE
  5
21072
  8
0
 10
444.1000013038519114
 20
120.999997336796298
 30
0.0
 11
444.1000013038519114
 21
118.9999973367961985
 31
0.0
  0
LINE
  5
21073
  8
0
 10
447.9000013038518091
 20
118.9999973367961985
 30
0.0
 11
447.9000013038518091
 21
120.999997336796298
 31
0.0
  0
LINE
  5
21074
  8
0
 10
447.0000013038518887
 20
120.999997336796298
 30
0.0
 11
447.0000013038518887
 21
123.4999973367961985
 31
0.0
  0
LINE
  5
21075
  8
0
 10
445.000001303851775
 20
123.4999973367961985
 30
0.0
 11
445.000001303851775
 21
120.999997336796298
 31
0.0
  0
LINE
  5
21076
  8
0
 10
444.1000013038519114
 20
120.999997336796298
 30
0.0
 11
447.9000013038518091
 21
120.999997336796298
 31
0.0
  0
LINE
  5
21077
  8
0
 10
444.1000013038519114
 20
118.9999973367961985
 30
0.0
 11
447.9000013038518091
 21
118.9999973367961985
 31
0.0
  0
LINE
  5
21078
  8
3
 10
446.8000013038516158
 20
122.1999973367963008
 30
0.0
 11
446.8000013038516158
 21
123.4999973367961985
 31
0.0
  0
LINE
  5
21079
  8
3
 10
447.0000019334258923
 20
121.8535860848280947
 30
0.0
 11
446.8000013038516158
 21
122.1999973367963008
 31
0.0
  0
LINE
  5
2107A
  8
0
 10
445.0000016056002892
 20
122.1999973367963008
 30
0.0
 11
447.0000019334258923
 21
122.1999973367963008
 31
0.0
  0
LINE
  5
2107B
  8
3
 10
445.2000013038515931
 20
122.1999973367963008
 30
0.0
 11
445.2000013038515931
 21
123.4999973367961985
 31
0.0
  0
LINE
  5
2107C
  8
3
 10
445.0000006742778282
 20
121.8535860848280947
 30
0.0
 11
445.2000013038515931
 21
122.1999973367963008
 31
0.0
  0
LINE
  5
2107D
  8
1
 10
446.000001303851775
 20
116.9999972418013954
 30
0.0
 11
446.0000013038520024
 21
125.4999973367961985
 31
0.0
  0
LINE
  5
2107E
  8
1
 10
457.500001303851775
 20
163.6999973367962866
 30
0.0
 11
457.5000013038521161
 21
100.999997336796298
 31
0.0
  0
LINE
  5
2107F
  8
0
 10
444.3289912321890824
 20
132.5278291752858024
 30
0.0
 11
470.6710113755148086
 21
132.5278291752858024
 31
0.0
  0
LINE
  5
21080
  8
0
 10
447.0000013038518887
 20
133.7800803520802049
 30
0.0
 11
468.0000013038518887
 21
133.7800803520802049
 31
0.0
  0
ARC
  5
21082
  8
0
 10
452.435535209784689
 20
111.599997336796406
 30
0.0
 40
2.4999999999999991
 50
110.7147563121764051
 51
249.3630871190050016
  0
ARC
  5
21084
  8
0
 10
460.0322343508854033
 20
111.5999973367963065
 30
0.0
 40
2.5
 50
278.8744585413638788
 51
82.1349720221772941
  0
LINE
  5
21085
  8
0
 10
451.5000013038520024
 20
109.124997336796298
 30
0.0
 11
451.5000013038520024
 21
107.9999973367963975
 31
0.0
  0
LINE
  5
21086
  8
0
 10
451.5000013038520024
 20
117.999997336796298
 30
0.0
 11
451.5000013038520024
 21
114.0423654929257964
 31
0.0
  0
LINE
  5
21087
  8
0
 10
463.5000013038520024
 20
107.9999973367963975
 30
0.0
 11
463.5000013038520024
 21
117.999997336796298
 31
0.0
  0
LINE
  5
21088
  8
0
 10
451.5000013038520024
 20
107.9999973367963975
 30
0.0
 11
452.0358996887142098
 21
105.999997336796298
 31
0.0
  0
LINE
  5
21089
  8
0
 10
462.9641029189896813
 20
105.999997336796298
 30
0.0
 11
463.5000013038520024
 21
107.9999973367963975
 31
0.0
  0
ARC
  5
2108A
  8
0
 10
460.4250013038519
 20
111.0542670447706968
 30
0.0
 40
1.9243546136422001
 50
233.1301933252752008
 51
306.8698066747248276
  0
LINE
  5
2108B
  8
0
 10
461.5796116277275019
 20
109.5147815206276931
 30
0.0
 11
461.5796116277275019
 21
109.4851687385406933
 31
0.0
  0
POLYLINE
  5
2108C
  8
0
 66
     1
 10
0.0
 20
0.0
 30
0.0
 70
   128
  0
VERTEX
  5
21A2C
  8
0
 10
461.5796116277275019
 20
109.4851687385406933
 30
0.0
  0
VERTEX
  5
21A2D
  8
0
 10
462.0374413216824792
 20
110.0565380119786028
 30
0.0
  0
VERTEX
  5
21A2E
  8
0
 10
462.0971104912886744
 20
110.1906405598255958
 30
0.0
  0
SEQEND
  5
21A2F
  8
0
  0
ARC
  5
2108D
  8
0
 10
460.4926038313215031
 20
112.3775238823609044
 30
0.0
 40
1.723357980681709
 50
21.6502804122649195
 51
50.8945328308821914
  0
LINE
  5
2108E
  8
0
 10
461.5796116277275019
 20
113.714825935052005
 30
0.0
 11
461.5796116277275019
 21
113.6852131529650052
 31
0.0
  0
ARC
  5
2108F
  8
0
 10
460.4250013038519
 20
112.1805279605354997
 30
0.0
 40
1.8966292543132639
 50
52.4994064111754284
 51
127.5005935888245006
  0
LINE
  5
21090
  8
0
 10
459.2703909799764119
 20
113.6852131529650052
 30
0.0
 11
459.2703909799764119
 21
113.714825935052005
 31
0.0
  0
ARC
  5
21091
  8
0
 10
460.5526865290485148
 20
111.5999973367963065
 30
0.0
 40
2.4732128649127669
 50
121.2299184162269938
 51
238.770081583772992
  0
LINE
  5
21092
  8
0
 10
459.2703909799764119
 20
109.4851687385406933
 30
0.0
 11
459.2703909799764119
 21
109.5147815206276931
 31
0.0
  0
POLYLINE
  5
21093
  8
0
 66
     1
 10
0.0
 20
0.0
 30
0.0
 70
   128
  0
VERTEX
  5
21A30
  8
0
 10
451.5000013038520024
 20
109.124997336796298
 30
0.0
  0
VERTEX
  5
21A31
  8
0
 10
451.5511959135887992
 20
109.2518255860033065
 30
0.0
  0
VERTEX
  5
21A32
  8
0
 10
451.6500013038519796
 20
109.5147815206276931
 30
0.0
  0
SEQEND
  5
21A33
  8
0
  0
LINE
  5
21094
  8
0
 10
451.6500013038519796
 20
109.5147815206276931
 30
0.0
 11
451.6500013038519796
 21
109.4851687385406933
 31
0.0
  0
ARC
  5
21095
  8
0
 10
446.0857271272079743
 20
111.5999973367963065
 30
0.0
 40
5.952616828997602
 50
339.1895702652500972
 51
20.8104297347498104
  0
LINE
  5
21096
  8
0
 10
451.6500013038519796
 20
113.714825935052005
 30
0.0
 11
451.6500013038519796
 21
113.6852131529650052
 31
0.0
  0
ARC
  5
21097
  8
0
 10
449.5023813561732027
 20
112.9933120577372989
 30
0.0
 40
2.2563241268144489
 50
17.8574408022805784
 51
27.7062844017702616
  0
LINE
  5
21098
  8
0
 10
451.5000013038520024
 20
107.9999973367963975
 30
0.0
 11
463.5000013038520024
 21
107.9999973367963975
 31
0.0
  0
LINE
  5
21099
  8
0
 10
462.9641029189896813
 20
105.999997336796298
 30
0.0
 11
452.0358996887142098
 21
105.999997336796298
 31
0.0
  0
ARC
  5
210EA
  8
0
 10
394.999996509936409
 20
67.564463430863583
 30
0.0
 40
2.5000000000000151
 50
9.3206307660984606
 51
170.679369233918095
  0
ARC
  5
210EB
  8
0
 10
394.999996509936409
 20
67.564463430863583
 30
0.0
 40
2.5000000000000071
 50
237.4145287556864901
 51
302.5854860316719055
  0
ARC
  5
210ED
  8
0
 10
399.3859528040036935
 20
59.9677642897628402
 30
0.0
 40
2.5000000000000089
 50
249.3206307660329912
 51
50.6793692339731408
  0
ARC
  5
210EE
  8
0
 10
399.3859528040036935
 20
59.9677642897628402
 30
0.0
 40
2.5000000000000151
 50
117.4145287556950024
 51
182.5854918983706909
  0
ARC
  5
210F0
  8
0
 10
390.6140402158691813
 20
59.9677642897625773
 30
0.0
 40
2.5000000000000222
 50
129.3206307660894083
 51
290.679369233916475
  0
ARC
  5
210F1
  8
0
 10
390.6140402158691813
 20
59.9677642897625773
 30
0.0
 40
2.4999999999999969
 50
357.4145287556896733
 51
62.585480164974939
  0
LINE
  5
210F2
  8
0
 10
381.5983577282941042
 20
59.3304064764059902
 30
0.0
 11
381.8043182960344097
 21
59.6497207756259513
 31
0.0
  0
LINE
  5
210F3
  8
0
 10
404.0662475266718161
 20
72.5026516096150715
 30
0.0
 11
404.4457621054583001
 21
72.5213615438461829
 31
0.0
  0
LINE
  5
210F4
  8
0
 10
385.9337454932004903
 20
52.4973430639776382
 30
0.0
 11
385.5542309144141768
 21
52.478633129746548
 31
0.0
  0
LINE
  5
210F5
  8
0
 10
408.4016352915783727
 20
65.6695881971867266
 30
0.0
 11
408.1956747238380103
 21
65.3502738979665878
 31
0.0
  0
LINE
  5
210F9
  8
0
 10
379.6115287885199905
 20
56.4929206863301303
 30
0.0
 11
381.5983577282941042
 21
59.3304064764059902
 31
0.0
  0
LINE
  5
210FB
  8
0
 10
385.5542309144141768
 20
52.478633129746548
 30
0.0
 11
382.1034816674441004
 21
52.1767316899660614
 31
0.0
  0
ARC
  5
210FD
  8
0
 10
381.2498328770980152
 20
55.3457678136280506
 30
0.0
 40
2.0000000000000262
 50
145.0000000000013074
 51
207.4880237066367101
  0
ARC
  5
21102
  8
0
 10
381.9291701819489049
 20
54.1691210861495094
 30
0.0
 40
2.0000000000000271
 50
212.5119762933682921
 51
274.9999999999997158
  0
ARC
  5
21104
  8
0
 10
394.9999965099362953
 20
62.4999973367963619
 30
0.0
 40
17.5000000000000604
 50
207.4880237066294058
 51
212.5119762933682921
  0
LINE
  5
21105
  8
0
 10
404.4457621054583001
 20
72.5213615438461829
 30
0.0
 11
407.8965113524283765
 21
72.8232629836266483
 31
0.0
  0
ARC
  5
21108
  8
0
 10
408.7501601427745186
 20
69.6542268599646945
 30
0.0
 40
2.0000000000000111
 50
325.0000000000013074
 51
27.4880237066294093
  0
LINE
  5
2110A
  8
0
 10
410.3884642313524864
 20
68.5070739872625722
 30
0.0
 11
408.4016352915783727
 21
65.6695881971867266
 31
0.0
  0
ARC
  5
2110B
  8
0
 10
394.9999965099362953
 20
62.4999973367963619
 30
0.0
 40
17.5000000000000391
 50
27.4880237066294093
 51
32.5119762933683418
  0
ARC
  5
2110D
  8
0
 10
408.0708228379236857
 20
70.8308735874431932
 30
0.0
 40
1.9999999999999989
 50
32.5119762933683418
 51
94.9999999999997584
  0
CIRCLE
  5
2110E
  8
0
 10
394.9999965099362953
 20
62.4999973367963619
 30
0.0
 40
2.2000000000000082
  0
CIRCLE
  5
2110F
  8
0
 10
394.9999965099362953
 20
62.4999973367963619
 30
0.0
 40
1.7000000000000099
  0
CIRCLE
  5
21110
  8
0
 10
394.9999965099361816
 20
62.4999973367963619
 30
0.0
 40
8.0
  0
ARC
  5
21112
  8
0
 10
394.9999965099361816
 20
62.4999973367963619
 30
0.0
 40
7.500000000000024
 50
215.24577443831339
 51
324.7542255614973215
  0
ARC
  5
21113
  8
0
 10
394.9999965099361816
 20
62.4999973367963619
 30
0.0
 40
7.499999999999992
 50
335.2457744385097271
 51
84.7542255616638442
  0
ARC
  5
21114
  8
0
 10
394.9999965099361816
 20
62.4999973367963619
 30
0.0
 40
7.5000000000000053
 50
95.2457744383329157
 51
204.7542030202338026
  0
CIRCLE
  5
21115
  8
0
 10
394.9999965099361816
 20
62.4999973367963619
 30
0.0
 40
13.5
  0
CIRCLE
  5
21116
  8
0
 10
394.9999965099361816
 20
62.4999973367963619
 30
0.0
 40
13.0
  0
CIRCLE
  5
21123
  8
0
 10
394.9999965099361816
 20
62.4999973367963619
 30
0.0
 40
3.249999999999992
  0
CIRCLE
  5
21124
  8
0
 10
394.9999965099361816
 20
62.4999973367963619
 30
0.0
 40
5.4641016151377571
  0
CIRCLE
  5
21125
  8
0
 10
394.9999965099361816
 20
62.4999973367963619
 30
0.0
 40
6.0
  0
LINE
  5
2112F
  8
1
 10
394.999996509936409
 20
84.9999973367964685
 30
0.0
 11
394.9999965099365227
 21
39.9999973367962411
 31
0.0
  0
LINE
  5
21130
  8
1
 10
417.4999965099360111
 20
62.4999999999998934
 30
0.0
 11
372.4999965099362953
 21
62.4999999999998792
 31
0.0
  0
LINE
  5
21131
  8
1
 10
414.4855680950861938
 20
73.7499973367962696
 30
0.0
 11
375.5144249247862831
 21
51.249997336796163
 31
0.0
  0
CIRCLE
  5
21133
  8
1
 10
395.0000011227402865
 20
62.4999999999998934
 30
0.0
 40
11.5000000000002292
  0
LINE
  5
21286
  8
0
 10
186.7999998009078126
 20
-98.8732703897636043
 30
0.0
 11
186.7999998009078126
 21
-102.0732705999630952
 31
0.0
  0
LINE
  5
21287
  8
0
 10
191.1999997770658979
 20
-102.0732705999630952
 30
0.0
 11
191.1999997770658979
 21
-98.8732703897636043
 31
0.0
  0
LINE
  5
21288
  8
0
 10
186.7999998009078126
 20
-102.0732705999630952
 30
0.0
 11
191.1999997770658979
 21
-102.0732705999630952
 31
0.0
  0
LINE
  5
21289
  8
0
 10
186.7999998009078126
 20
-102.0732705999630952
 30
0.0
 11
186.499999379204894
 21
-102.3732705560046981
 31
0.0
  0
LINE
  5
2128A
  8
0
 10
191.5000001987687881
 20
-102.3732705560046981
 30
0.0
 11
191.1999997770658979
 21
-102.0732705999630952
 31
0.0
  0
LINE
  5
2128B
  8
0
 10
168.5000001540653045
 20
-102.3732705560046981
 30
0.0
 11
169.499999386655503
 21
-101.3732705667148934
 31
0.0
  0
LINE
  5
2128C
  8
0
 10
185.5000001466146955
 20
-101.3732705667148934
 30
0.0
 11
186.499999379204894
 21
-102.3732705560046981
 31
0.0
  0
LINE
  5
2128D
  8
0
 10
186.499999379204894
 20
-96.3732704456429587
 30
0.0
 11
185.5000001466146955
 21
-97.3732706095557319
 31
0.0
  0
LINE
  5
2128E
  8
0
 10
169.499999386655503
 20
-97.3732706095557319
 30
0.0
 11
168.5000001540653045
 21
-96.3732704456429587
 31
0.0
  0
LINE
  5
2128F
  8
0
 10
164.7999999201171022
 20
-96.6732704016843059
 30
0.0
 11
164.7999999201171022
 21
-98.8732703897636043
 31
0.0
  0
LINE
  5
21290
  8
0
 10
164.7999999201171022
 20
-96.6732704016843059
 30
0.0
 11
164.9999995803705986
 21
-96.6732704016843059
 31
0.0
  0
LINE
  5
21291
  8
0
 10
166.9999999081962017
 20
-96.6732704016843059
 30
0.0
 11
167.199999568449698
 21
-96.6732704016843059
 31
0.0
  0
LINE
  5
21292
  8
0
 10
167.199999568449698
 20
-98.8732703897636043
 30
0.0
 11
167.199999568449698
 21
-96.6732704016843059
 31
0.0
  0
LINE
  5
21293
  8
0
 10
187.7999999648206142
 20
-96.6732704016843059
 30
0.0
 11
187.7999999648206142
 21
-98.8732703897636043
 31
0.0
  0
LINE
  5
21294
  8
0
 10
187.7999999648206142
 20
-96.6732704016843059
 30
0.0
 11
187.9999996250741106
 21
-96.6732704016843059
 31
0.0
  0
LINE
  5
21295
  8
0
 10
189.9999999528996
 20
-96.6732704016843059
 30
0.0
 11
190.19999961315321
 21
-96.6732704016843059
 31
0.0
  0
LINE
  5
21296
  8
0
 10
190.19999961315321
 20
-98.8732703897636043
 30
0.0
 11
190.19999961315321
 21
-96.6732704016843059
 31
0.0
  0
LINE
  5
21297
  8
0
 10
163.7999997562043006
 20
-102.0732705999630952
 30
0.0
 11
163.4999993345014104
 21
-102.3732705560046981
 31
0.0
  0
LINE
  5
21298
  8
0
 10
163.7999997562043006
 20
-102.0732705999630952
 30
0.0
 11
168.1999997323623859
 21
-102.0732705999630952
 31
0.0
  0
LINE
  5
21299
  8
0
 10
168.5000001540653045
 20
-102.3732705560046981
 30
0.0
 11
168.1999997323623859
 21
-102.0732705999630952
 31
0.0
  0
LINE
  5
2129A
  8
0
 10
163.7999997562043006
 20
-98.8732703897636043
 30
0.0
 11
163.7999997562043006
 21
-102.0732705999630952
 31
0.0
  0
LINE
  5
2129B
  8
0
 10
168.1999997323623859
 20
-102.0732705999630952
 30
0.0
 11
168.1999997323623859
 21
-98.8732703897636043
 31
0.0
  0
LINE
  5
2129C
  8
0
 10
190.19999961315321
 20
-96.6732704016843059
 30
0.0
 11
190.5000000348559865
 21
-96.3732704456429587
 31
0.0
  0
LINE
  5
2129D
  8
0
 10
187.4999995431176956
 20
-96.3732704456429587
 30
0.0
 11
187.7999999648206142
 21
-96.6732704016843059
 31
0.0
  0
LINE
  5
2129E
  8
0
 10
167.199999568449698
 20
-96.6732704016843059
 30
0.0
 11
167.499999990152503
 21
-96.3732704456429587
 31
0.0
  0
LINE
  5
2129F
  8
0
 10
164.499999498414212
 20
-96.3732704456429587
 30
0.0
 11
164.7999999201171022
 21
-96.6732704016843059
 31
0.0
  0
LINE
  5
212A0
  8
0
 10
191.1999997770658979
 20
-98.8732703897636043
 30
0.0
 11
186.7999998009078126
 21
-98.8732703897636043
 31
0.0
  0
LINE
  5
212A2
  8
0
 10
168.1999997323623859
 20
-98.8732703897636043
 30
0.0
 11
163.7999997562043006
 21
-98.8732703897636043
 31
0.0
  0
LINE
  5
212A3
  8
0
 10
202.5000001391642002
 20
-96.3732704456429587
 30
0.0
 11
152.499999394106112
 21
-96.3732704456429587
 31
0.0
  0
LINE
  5
212A4
  8
0
 10
202.5000001391642002
 20
-102.3732705560046981
 30
0.0
 11
152.499999394106112
 21
-102.3732705560046981
 31
0.0
  0
LINE
  5
212A8
  8
0
 10
190.8999993553630929
 20
-100.8732704847585069
 30
0.0
 11
187.1000002226107028
 21
-100.8732704847586064
 31
0.0
  0
LINE
  5
212A9
  8
0
 10
187.1000002226107028
 20
-98.8732703897636043
 30
0.0
 11
187.1000002226107028
 21
-100.8732704847585069
 31
0.0
  0
LINE
  5
212AA
  8
0
 10
190.8999993553630929
 20
-100.8732704847585069
 30
0.0
 11
190.8999993553630929
 21
-98.8732703897636043
 31
0.0
  0
LINE
  5
212AD
  8
0
 10
164.1000001779071908
 20
-98.8732703897636043
 30
0.0
 11
164.1000001779071908
 21
-100.8732704847585069
 31
0.0
  0
LINE
  5
212AE
  8
0
 10
167.8999993106596094
 20
-100.8732704847585069
 30
0.0
 11
167.8999993106596094
 21
-98.8732703897636043
 31
0.0
  0
LINE
  5
212AF
  8
0
 10
167.8999993106596094
 20
-100.8732704847585069
 30
0.0
 11
164.1000001779071908
 21
-100.8732704847586064
 31
0.0
  0
LINE
  5
212B0
  8
1
 10
165.9999997666351135
 20
-102.8732704847586064
 30
0.0
 11
165.9999997666349998
 21
-94.3732704456429587
 31
0.0
  0
LINE
  5
212B1
  8
1
 10
188.9999997889867984
 20
-102.8732704847585069
 30
0.0
 11
188.9999997889867984
 21
-94.3732704456429587
 31
0.0
  0
LINE
  5
212B3
  8
1
 10
177.4999997676613077
 20
-39.3732704456429587
 30
0.0
 11
177.4999997676613077
 21
-106.8732704456429019
 31
0.0
  0
LINE
  5
212B4
  8
0
 10
189.2588188117377968
 20
-45.1124937808418167
 30
0.0
 11
186.5635830403923876
 21
-44.3903075324983973
 31
0.0
  0
LINE
  5
212B5
  8
0
 10
168.4364164928778109
 20
-44.3903075324983973
 30
0.0
 11
165.7411807215329134
 21
-45.1124937808418167
 31
0.0
  0
ARC
  5
212B6
  8
0
 10
189.4999997666348861
 20
-65.8732704456428451
 30
0.0
 40
0.500000000000057
 50
270.0
 51
0.0
  0
ARC
  5
212B7
  8
0
 10
165.4999997666348861
 20
-65.8732704456428451
 30
0.0
 40
0.500000000000057
 50
180.0
 51
270.0
  0
LINE
  5
212B8
  8
0
 10
189.9999997666348861
 20
-65.8732704456428451
 30
0.0
 11
189.9999997666348861
 21
-46.0784196071307974
 31
0.0
  0
LINE
  5
212B9
  8
0
 10
164.9999997666353977
 20
-46.0784196071307974
 30
0.0
 11
164.9999997666353977
 21
-65.8732704456428451
 31
0.0
  0
ARC
  5
212BA
  8
0
 10
188.9999997666353977
 20
-46.0784196071307974
 30
0.0
 40
1.000000000000046
 50
0.0
 51
74.9999999999921272
  0
ARC
  5
212BB
  8
0
 10
165.9999997666348861
 20
-46.0784196071307974
 30
0.0
 40
1.000000000000052
 50
105.0000000000079012
 51
180.0
  0
ARC
  5
212BC
  8
0
 10
186.4341735178417139
 20
-44.873270445642838
 30
0.0
 40
0.4999999999999824
 50
74.9999999999921272
 51
90.0
  0
ARC
  5
212BD
  8
0
 10
168.5658260154289962
 20
-44.873270445642838
 30
0.0
 40
0.4999999999999878
 50
90.0
 51
105.0000000000079012
  0
LINE
  5
212BE
  8
0
 10
163.9999997666348861
 20
-87.8152849175465349
 30
0.0
 11
163.9999997666348861
 21
-95.8732704456429445
 31
0.0
  0
LINE
  5
212BF
  8
0
 10
190.9999997666348861
 20
-95.8732704456429445
 30
0.0
 11
190.9999997666348861
 21
-87.8152849175465349
 31
0.0
  0
ARC
  5
212C0
  8
0
 10
164.4999997666348861
 20
-87.8152849175465349
 30
0.0
 40
0.5000000000000364
 50
109.9999999999897966
 51
180.0
  0
ARC
  5
212C1
  8
0
 10
190.4999997666353124
 20
-87.8152849175465349
 30
0.0
 40
0.5000000000000364
 50
0.0
 51
70.0000000000102034
  0
LINE
  5
212C2
  8
0
 10
163.9999997666348861
 20
-95.8732704456429445
 30
0.0
 11
164.4999997666348861
 21
-96.3732704456429587
 31
0.0
  0
LINE
  5
212C3
  8
0
 10
190.4999997666353124
 20
-96.3732704456429587
 30
0.0
 11
190.9999997666348861
 21
-95.8732704456429445
 31
0.0
  0
LINE
  5
212C4
  8
0
 10
190.6710098382976071
 20
-87.3454386071535254
 30
0.0
 11
188.263191709304806
 21
-86.4690644786733742
 31
0.0
  0
LINE
  5
212C5
  8
0
 10
166.7368078239653926
 20
-86.4690644786733742
 30
0.0
 11
164.3289896949721083
 21
-87.3454386071535254
 31
0.0
  0
ARC
  5
212C6
  8
0
 10
188.3999997666350055
 20
-86.0931874303591229
 30
0.0
 40
0.4000000000000159
 50
180.0
 51
250.0000000000102034
  0
ARC
  5
212C7
  8
0
 10
166.5999997666353067
 20
-86.0931874303591229
 30
0.0
 40
0.4000000000000159
 50
290.0000000000034106
 51
0.0
  0
LINE
  5
212C8
  8
0
 10
187.9999997666348861
 20
-86.0931874303591229
 30
0.0
 11
187.9999997666348861
 21
-66.3732704456430724
 31
0.0
  0
LINE
  5
212C9
  8
0
 10
166.9999997666348861
 20
-66.3732704456430724
 30
0.0
 11
166.9999997666348861
 21
-86.0931874303591229
 31
0.0
  0
LINE
  5
212CA
  8
0
 10
169.4999997666353124
 20
-96.3732704456429587
 30
0.0
 11
169.4999997666353124
 21
-101.3732704456429019
 31
0.0
  0
LINE
  5
212CB
  8
0
 10
185.4999997666353977
 20
-101.3732704456429019
 30
0.0
 11
185.4999997666353977
 21
-96.3732704456429587
 31
0.0
  0
LINE
  5
212CC
  8
0
 10
169.4999997666353124
 20
-101.3732704456428024
 30
0.0
 11
169.9999997666348861
 21
-101.8732704456429019
 31
0.0
  0
LINE
  5
212CD
  8
0
 10
184.9999997666348861
 20
-101.8732704456429019
 30
0.0
 11
185.4999997666353977
 21
-101.3732704456429019
 31
0.0
  0
LINE
  5
212CE
  8
0
 10
178.2450793913102132
 20
-61.373270445642838
 30
0.0
 11
176.7549201419600138
 21
-61.373270445642838
 31
0.0
  0
LINE
  5
212CF
  8
0
 10
176.7549201419600138
 20
-61.373270445642838
 30
0.0
 11
175.4612007812291949
 21
-61.373270445642838
 31
0.0
  0
LINE
  5
212D0
  8
0
 10
179.5387987520410888
 20
-61.373270445642838
 30
0.0
 11
178.2450793913102132
 21
-61.373270445642838
 31
0.0
  0
LINE
  5
212D1
  8
0
 10
175.4612007812291949
 20
-61.373270445642838
 30
0.0
 11
173.9972804740330901
 21
-61.373270445642838
 31
0.0
  0
LINE
  5
212D2
  8
0
 10
181.0027190592367106
 20
-61.373270445642838
 30
0.0
 11
179.5387987520410888
 21
-61.373270445642838
 31
0.0
  0
LINE
  5
212D3
  8
0
 10
173.9972804740330901
 20
-61.373270445642838
 30
0.0
 11
173.7040339298741003
 21
-61.373270445642838
 31
0.0
  0
LINE
  5
212D4
  8
0
 10
181.2959656033962119
 20
-61.373270445642838
 30
0.0
 11
181.367517957335906
 21
-61.365222056131131
 31
0.0
  0
LINE
  5
212D5
  8
0
 10
181.2959656033962119
 20
-61.373270445642838
 30
0.0
 11
181.0027190592367106
 21
-61.373270445642838
 31
0.0
  0
LINE
  5
212D6
  8
0
 10
189.4999997666348861
 20
-66.3732704456430724
 30
0.0
 11
165.4999997719172029
 21
-66.3732704456430724
 31
0.0
  0
LINE
  5
212D7
  8
0
 10
168.5658260174807879
 20
-44.3732704456429587
 30
0.0
 11
186.4341735178417139
 21
-44.3732704456429587
 31
0.0
  0
LINE
  5
212D8
  8
0
 10
163.9999997666348861
 20
-95.8732704456429445
 30
0.0
 11
190.9999997666348861
 21
-95.8732704456429445
 31
0.0
  0
CIRCLE
  5
212D9
  8
0
 10
177.4999997666348861
 20
-78.3732704456427314
 30
0.0
 40
1.000000000000028
  0
LINE
  5
212DA
  8
0
 10
169.4999997666353124
 20
-101.3732704456429019
 30
0.0
 11
185.4999997666353977
 21
-101.3732704456429019
 31
0.0
  0
LINE
  5
212DB
  8
0
 10
184.9999997666348861
 20
-101.8732704456429019
 30
0.0
 11
169.9999997666348861
 21
-101.8732704456429019
 31
0.0
  0
ARC
  5
212DC
  8
0
 10
155.8908580010501055
 20
-1.865676943424716
 30
0.0
 40
51.4413914885125223
 50
295.7842179644662792
 51
297.9379843003690098
  0
LINE
  5
212DD
  8
0
 10
178.2669934979184063
 20
-48.1854925572653698
 30
0.0
 11
176.7330060353519059
 21
-48.1854925572653698
 31
0.0
  0
ARC
  5
212DE
  8
0
 10
198.8662386757480931
 20
-2.3452713376985339
 30
0.0
 40
50.9038885407855233
 50
242.0506433438957004
 51
244.2271543912812035
  0
LINE
  5
212DF
  8
0
 10
179.9919526455591097
 20
-47.3118428456304372
 30
0.0
 11
179.9919526455591097
 21
-60.8732704456429587
 31
0.0
  0
LINE
  5
212E0
  8
0
 10
175.008046887710691
 20
-60.8732704456429587
 30
0.0
 11
175.008046887710691
 21
-47.3118428456304372
 31
0.0
  0
ARC
  5
212E1
  8
0
 10
175.4858345477198895
 20
-60.8955962200375893
 30
0.0
 40
0.478308988269339
 50
177.3246632994714105
 51
267.0478590626117921
  0
ARC
  5
212E2
  8
0
 10
179.514164985550309
 20
-60.8955962200375893
 30
0.0
 40
0.478308988269339
 50
272.9521409374012251
 51
2.6753367005285731
  0
LINE
  5
212E3
  8
0
 10
180.1041627906382132
 20
-47.2195667309761689
 30
0.0
 11
179.9919526455591097
 21
-47.3118428456304372
 31
0.0
  0
LINE
  5
212E4
  8
0
 10
175.008046887710691
 20
-47.3118428456304372
 30
0.0
 11
174.8958367426324116
 21
-47.2195667309763891
 31
0.0
  0
ARC
  5
212E5
  8
0
 10
174.0219142405242962
 20
-60.8955962200374685
 30
0.0
 40
0.4783089882693523
 50
177.3246632994909078
 51
267.0478590625987749
  0
LINE
  5
212E6
  8
0
 10
181.4558729527551009
 20
-46.5144968923555666
 30
0.0
 11
180.1041627906382132
 21
-47.2195667309761689
 31
0.0
  0
LINE
  5
212E7
  8
0
 10
181.4558729527551009
 20
-60.8732704456429587
 30
0.0
 11
181.4558729527551009
 21
-46.5144968923555666
 31
0.0
  0
LINE
  5
212E8
  8
0
 10
174.8958367426324116
 20
-47.2195667309763891
 30
0.0
 11
173.5441265805150977
 21
-46.5144968923555666
 31
0.0
  0
LINE
  5
212E9
  8
0
 10
173.5441265805150977
 20
-46.5144968923555666
 30
0.0
 11
173.5441265805150977
 21
-60.8732704456429587
 31
0.0
  0
ARC
  5
212EA
  8
0
 10
180.9780852927464139
 20
-60.8955962200375893
 30
0.0
 40
0.4783089882692325
 50
272.9521409373880942
 51
2.6753367005285731
  0
ARC
  5
212EB
  8
0
 10
171.6563332717850017
 20
-50.3277424524210915
 30
0.0
 40
4.2549506786618752
 50
63.6617327939302129
 51
92.9471949231032966
  0
ARC
  5
212EC
  8
0
 10
183.3528287028233024
 20
-50.3720035733877509
 30
0.0
 40
4.2986973505847992
 50
87.205098717730877
 51
116.1859735652162016
  0
LINE
  5
212ED
  8
0
 10
171.4375625371330045
 20
-60.8732704456429587
 30
0.0
 11
171.4375625371330045
 21
-46.0784196071307974
 31
0.0
  0
ARC
  5
212EE
  8
0
 10
175.9288776027478036
 20
-45.9012887957468934
 30
0.0
 40
15.6311274559273894
 50
253.3017368159204921
 51
261.8170623549045217
  0
ARC
  5
212EF
  8
0
 10
179.0430086933162102
 20
-45.8515974155450792
 30
0.0
 40
15.6868063291261493
 50
278.5216110579410724
 51
286.7444664953924871
  0
LINE
  5
212F0
  8
0
 10
183.5624369961377056
 20
-46.0784196071307974
 30
0.0
 11
183.5624369961377056
 21
-60.8732704456429587
 31
0.0
  0
LINE
  5
212F1
  8
0
 10
164.9999997666353977
 20
-65.8732704456428451
 30
0.0
 11
189.9999997666348861
 21
-65.8732704456428451
 31
0.0
  0
LINE
  5
212F2
  8
0
 10
171.4375625371330045
 20
-46.0784196071307974
 30
0.0
 11
164.9999997666353977
 21
-46.0784196071307974
 31
0.0
  0
LINE
  5
212F3
  8
0
 10
189.9999997666348861
 20
-46.0784196071307974
 30
0.0
 11
183.5624369961377056
 21
-46.0784196071307974
 31
0.0
  0
LINE
  5
212F4
  8
0
 10
164.3289896949721083
 20
-87.3454386071535254
 30
0.0
 11
190.6710098382976071
 21
-87.3454386071535254
 31
0.0
  0
LINE
  5
212F5
  8
0
 10
188.263191709304806
 20
-86.4690644786733742
 30
0.0
 11
166.7368078239653926
 21
-86.4690644786733742
 31
0.0
  0
ARC
  5
212F6
  8
0
 10
169.8476136115928909
 20
-90.1935957784796187
 30
0.0
 40
1.4086568810249389
 50
97.2969988098630552
 51
187.2787873449626943
  0
ARC
  5
212F7
  8
0
 10
169.8366483419054873
 20
-90.560775957668227
 30
0.0
 40
1.3991241863943891
 50
172.2486006579090088
 51
263.2468950756218078
  0
ARC
  5
212F8
  8
0
 10
169.5331167561350014
 20
-90.5034088855856567
 30
0.0
 40
1.4534467973228611
 50
275.4881261162759074
 51
4.7803398371378991
  0
ARC
  5
212F9
  8
0
 10
169.5125071111042985
 20
-90.2619681159424658
 30
0.0
 40
1.473919588085407
 50
355.3177198144894078
 51
83.9170231032136655
  0
POLYLINE
  5
212FA
  8
0
 66
     1
 10
0.0
 20
0.0
 30
0.0
 70
   128
  0
VERTEX
  5
21A34
  8
0
 10
167.9298407496218033
 20
-90.3732703068758951
 30
0.0
  0
VERTEX
  5
21A35
  8
0
 10
167.059303736806811
 20
-91.1232708954717765
 30
0.0
  0
VERTEX
  5
21A36
  8
0
 10
166.2853653640746074
 20
-91.8732705527450548
 30
0.0
  0
SEQEND
  5
21A37
  8
0
  0
POLYLINE
  5
212FB
  8
0
 66
     1
 10
0.0
 20
0.0
 30
0.0
 70
   128
  0
VERTEX
  5
21A38
  8
0
 10
166.2853653640746074
 20
-88.8732700610067354
 30
0.0
  0
VERTEX
  5
21A39
  8
0
 10
167.059303736806811
 20
-89.6232706496026168
 30
0.0
  0
VERTEX
  5
21A3A
  8
0
 10
167.9298407496218033
 20
-90.3732703068758951
 30
0.0
  0
SEQEND
  5
21A3B
  8
0
  0
LINE
  5
212FC
  8
0
 10
166.2853653640746074
 20
-89.6232706496026168
 30
0.0
 11
166.2853653640746074
 21
-88.8732700610067354
 31
0.0
  0
LINE
  5
212FD
  8
0
 10
164.9766708822249939
 20
-89.6232706496026168
 30
0.0
 11
166.2853653640746074
 21
-89.6232706496026168
 31
0.0
  0
LINE
  5
212FE
  8
0
 10
164.9766708822249939
 20
-88.8732700610067354
 30
0.0
 11
164.9766708822249939
 21
-89.6232706496026168
 31
0.0
  0
POLYLINE
  5
212FF
  8
0
 66
     1
 10
0.0
 20
0.0
 30
0.0
 70
   128
  0
VERTEX
  5
21A3C
  8
0
 10
164.2436194331650086
 20
-90.3732703068758951
 30
0.0
  0
VERTEX
  5
21A3D
  8
0
 10
164.5502387644052078
 20
-89.6232706496026168
 30
0.0
  0
VERTEX
  5
21A3E
  8
0
 10
164.9766708822249939
 20
-88.8732700610067354
 30
0.0
  0
SEQEND
  5
21A3F
  8
0
  0
POLYLINE
  5
21300
  8
0
 66
     1
 10
0.0
 20
0.0
 30
0.0
 70
   128
  0
VERTEX
  5
21A40
  8
0
 10
164.9766708822249939
 20
-91.8732705527450548
 30
0.0
  0
VERTEX
  5
21A41
  8
0
 10
164.5502387644052078
 20
-91.1232708954717765
 30
0.0
  0
VERTEX
  5
21A42
  8
0
 10
164.2436194331650086
 20
-90.3732703068758951
 30
0.0
  0
SEQEND
  5
21A43
  8
0
  0
LINE
  5
21301
  8
0
 10
164.9766708822249939
 20
-91.1232708954717765
 30
0.0
 11
164.9766708822249939
 21
-91.8732705527450548
 31
0.0
  0
LINE
  5
21302
  8
0
 10
164.9766708822249939
 20
-91.1232708954717765
 30
0.0
 11
166.2853653640746074
 21
-91.1232708954717765
 31
0.0
  0
LINE
  5
21303
  8
0
 10
166.2853653640746074
 20
-91.8732705527450548
 30
0.0
 11
166.2853653640746074
 21
-91.1232708954717765
 31
0.0
  0
LINE
  5
21304
  8
0
 10
173.3062658557001896
 20
-91.8732705527450548
 30
0.0
 11
173.3062658557001896
 21
-88.8732700610067354
 31
0.0
  0
LINE
  5
21305
  8
0
 10
173.3062658557001896
 20
-91.8732705527450548
 30
0.0
 11
173.8212872394620945
 21
-91.8732705527450548
 31
0.0
  0
LINE
  5
21306
  8
0
 10
173.8212872394620945
 20
-90.5271164142992149
 30
0.0
 11
173.8212872394620945
 21
-91.8732705527450548
 31
0.0
  0
LINE
  5
21307
  8
0
 10
173.8212872394620945
 20
-90.5271164142992149
 30
0.0
 11
174.7173359715648928
 21
-90.5271164142992149
 31
0.0
  0
LINE
  5
21308
  8
0
 10
174.7173359715648928
 20
-89.9886555039789187
 30
0.0
 11
174.7173359715648928
 21
-90.5271164142992149
 31
0.0
  0
LINE
  5
21309
  8
0
 10
173.8212872394620945
 20
-89.9886555039789187
 30
0.0
 11
174.7173359715648928
 21
-89.9886555039789187
 31
0.0
  0
LINE
  5
2130A
  8
0
 10
173.8212872394620945
 20
-89.4117319026496062
 30
0.0
 11
173.8212872394620945
 21
-89.9886555039789187
 31
0.0
  0
LINE
  5
2130B
  8
0
 10
173.8212872394620945
 20
-89.4117319026496062
 30
0.0
 11
174.7173359715648928
 21
-89.4117319026496062
 31
0.0
  0
LINE
  5
2130C
  8
0
 10
174.7173359715648928
 20
-88.8732700610067354
 30
0.0
 11
174.7173359715648928
 21
-89.4117319026496062
 31
0.0
  0
LINE
  5
2130D
  8
0
 10
173.3062658557001896
 20
-88.8732700610067354
 30
0.0
 11
174.7173359715648928
 21
-88.8732700610067354
 31
0.0
  0
LINE
  5
2130E
  8
0
 10
171.4580995128754921
 20
-91.8732705527450548
 30
0.0
 11
171.4580995128754921
 21
-88.8732700610067354
 31
0.0
  0
LINE
  5
2130F
  8
0
 10
171.4580995128754921
 20
-91.8732705527450548
 30
0.0
 11
171.9443015852276062
 21
-91.8732705527450548
 31
0.0
  0
LINE
  5
21310
  8
0
 10
171.9443015852276062
 20
-90.5271164142992149
 30
0.0
 11
171.9443015852276062
 21
-91.8732705527450548
 31
0.0
  0
LINE
  5
21311
  8
0
 10
171.9443015852276062
 20
-90.5271164142992149
 30
0.0
 11
172.797916001201088
 21
-90.5271164142992149
 31
0.0
  0
LINE
  5
21312
  8
0
 10
172.797916001201088
 20
-89.9886555039789187
 30
0.0
 11
172.797916001201088
 21
-90.5271164142992149
 31
0.0
  0
LINE
  5
21313
  8
0
 10
171.9443015852276062
 20
-89.9886555039789187
 30
0.0
 11
172.797916001201088
 21
-89.9886555039789187
 31
0.0
  0
LINE
  5
21314
  8
0
 10
171.9443015852276062
 20
-89.4117319026496062
 30
0.0
 11
171.9443015852276062
 21
-89.9886555039789187
 31
0.0
  0
LINE
  5
21315
  8
0
 10
171.9443015852276062
 20
-89.4117319026496062
 30
0.0
 11
172.797916001201088
 21
-89.4117319026496062
 31
0.0
  0
LINE
  5
21316
  8
0
 10
172.797916001201088
 20
-88.8732700610067354
 30
0.0
 11
172.797916001201088
 21
-89.4117319026496062
 31
0.0
  0
LINE
  5
21317
  8
0
 10
171.4580995128754921
 20
-88.8732700610067354
 30
0.0
 11
172.797916001201088
 21
-88.8732700610067354
 31
0.0
  0
ARC
  5
21318
  8
0
 10
169.7654257039772006
 20
-90.2469903449012349
 30
0.0
 40
0.9180431754702494
 50
96.4783697369272062
 51
188.2851508394878977
  0
ARC
  5
21319
  8
0
 10
169.5746986387298989
 20
-90.2765212900426945
 30
0.0
 40
0.9457356224464369
 50
354.0185327050829756
 51
84.7129089552102528
  0
ARC
  5
2131A
  8
0
 10
169.5707722790972127
 20
-90.4679357387607865
 30
0.0
 40
0.9490671014070601
 50
276.0411662895638187
 51
5.6151453075007867
  0
POLYLINE
  5
2131B
  8
0
 66
     1
 10
0.0
 20
0.0
 30
0.0
 70
   128
  0
VERTEX
  5
21A44
  8
0
 10
169.1436111093759109
 20
-91.1809626036789069
 30
0.0
  0
VERTEX
  5
21A45
  8
0
 10
169.3884725780496012
 20
-91.3542891853954444
 30
0.0
  0
VERTEX
  5
21A46
  8
0
 10
169.6706549362548913
 20
-91.4117322304751383
 30
0.0
  0
SEQEND
  5
21A47
  8
0
  0
ARC
  5
2131C
  8
0
 10
169.9240949593583139
 20
-90.4498076321205531
 30
0.0
 40
1.069459037325402
 50
176.2187772243287895
 51
223.1309464322044107
  0
LINE
  5
21337
  8
3
 10
189.7999994872380967
 20
-97.6732703897635872
 30
0.0
 11
189.7999994872380967
 21
-96.3732703897636469
 31
0.0
  0
LINE
  5
21338
  8
3
 10
190.0000001168124868
 20
-98.0196816417317507
 30
0.0
 11
189.7999994872380967
 21
-97.6732703897635872
 31
0.0
  0
LINE
  5
21339
  8
0
 10
187.9999997889869121
 20
-97.6732703897635872
 30
0.0
 11
190.0000001168124868
 21
-97.6732703897635872
 31
0.0
  0
LINE
  5
2133A
  8
3
 10
188.1999994872381876
 20
-97.6732703897635872
 30
0.0
 11
188.1999994872381876
 21
-96.3732703897636469
 31
0.0
  0
LINE
  5
2133B
  8
3
 10
187.9999988576643091
 20
-98.0196816417317507
 30
0.0
 11
188.1999994872381876
 21
-97.6732703897635872
 31
0.0
  0
LINE
  5
2133C
  8
3
 10
166.799999464886298
 20
-97.6732703897635872
 30
0.0
 11
166.799999464886298
 21
-96.3732703897636469
 31
0.0
  0
LINE
  5
2133D
  8
3
 10
167.0000000944606882
 20
-98.0196816417317507
 30
0.0
 11
166.799999464886298
 21
-97.6732703897635872
 31
0.0
  0
LINE
  5
2133E
  8
0
 10
164.9999997666351135
 20
-97.6732703897635872
 30
0.0
 11
167.0000000944606882
 21
-97.6732703897635872
 31
0.0
  0
LINE
  5
2133F
  8
3
 10
165.199999464886389
 20
-97.6732703897635872
 30
0.0
 11
165.1999994648865027
 21
-96.3732703897636469
 31
0.0
  0
LINE
  5
21340
  8
3
 10
164.9999988353125104
 20
-98.0196816417317507
 30
0.0
 11
165.199999464886389
 21
-97.6732703897635872
 31
0.0
  0
LINE
  5
213DC
  8
0
 10
189.9999997889869121
 20
-98.8732703897636043
 30
0.0
 11
189.9999997889869121
 21
-96.3732703897636611
 31
0.0
  0
LINE
  5
213DD
  8
0
 10
187.9999997889869121
 20
-96.3732703897636611
 30
0.0
 11
187.9999997889869121
 21
-98.8732703897636043
 31
0.0
  0
LINE
  5
213DE
  8
0
 10
166.9999997666351135
 20
-98.8732703897636043
 30
0.0
 11
166.9999997666351135
 21
-96.3732703897636611
 31
0.0
  0
LINE
  5
213DF
  8
0
 10
164.9999997666351135
 20
-96.3732703897636611
 30
0.0
 11
164.9999997666351135
 21
-98.8732703897636043
 31
0.0
  0
LINE
  5
213E0
  8
0
 10
166.9999997666353124
 20
-86.093187483632903
 30
0.0
 11
187.9999997666349998
 21
-86.093187483632903
 31
0.0
  0
LINE
  5
213E1
  8
0
 10
190.9999997666353124
 20
-87.8152849175465349
 30
0.0
 11
163.9999997666353124
 21
-87.8152849175465349
 31
0.0
  0
LINE
  5
213E7
  8
0
 10
255.4999999153023111
 20
-97.373270609555675
 30
0.0
 11
239.4999991553430903
 21
-97.373270609555675
 31
0.0
  0
LINE
  5
213E9
  8
0
 10
255.4999999153023111
 20
-97.373270609555675
 30
0.0
 11
255.4999999153023111
 21
-101.3732704502995006
 31
0.0
  0
LINE
  5
213EA
  8
0
 10
239.4999991553430903
 20
-101.3732704502995006
 30
0.0
 11
255.4999999153023111
 21
-101.3732704502995006
 31
0.0
  0
LINE
  5
213EB
  8
0
 10
239.4999991553430903
 20
-101.3732704502995006
 30
0.0
 11
239.4999991553430903
 21
-97.373270609555675
 31
0.0
  0
LINE
  5
213EC
  8
0
 10
257.7999997335081162
 20
-96.673270401684249
 30
0.0
 11
260.199999381840712
 21
-96.673270401684249
 31
0.0
  0
LINE
  5
213ED
  8
0
 10
257.7999997335081162
 20
-96.673270401684249
 30
0.0
 11
257.4999993118053112
 21
-96.3732704456429019
 31
0.0
  0
LINE
  5
213EE
  8
0
 10
260.4999998035435738
 20
-96.3732704456429019
 30
0.0
 11
260.199999381840712
 21
-96.673270401684249
 31
0.0
  0
LINE
  5
213EF
  8
0
 10
260.199999381840712
 20
-96.673270401684249
 30
0.0
 11
260.199999381840712
 21
-98.8732703897635474
 31
0.0
  0
LINE
  5
213F0
  8
0
 10
257.7999997335081162
 20
-98.8732703897635474
 30
0.0
 11
257.7999997335081162
 21
-96.673270401684249
 31
0.0
  0
LINE
  5
213F1
  8
0
 10
261.1999995457534851
 20
-98.8732703897635474
 30
0.0
 11
261.1999995457534851
 21
-102.0732704835475033
 31
0.0
  0
LINE
  5
213F2
  8
0
 10
256.7999995695953999
 20
-102.0732704835475033
 30
0.0
 11
261.1999995457534851
 21
-102.0732704835475033
 31
0.0
  0
LINE
  5
213F3
  8
0
 10
256.7999995695953999
 20
-102.0732704835475033
 30
0.0
 11
256.7999995695953999
 21
-98.8732703897635474
 31
0.0
  0
LINE
  5
213F4
  8
0
 10
261.1999995457534851
 20
-102.0732704835475033
 30
0.0
 11
261.4999999674564037
 21
-102.3732704977966961
 31
0.0
  0
LINE
  5
213F5
  8
0
 10
256.4999991478924812
 20
-102.3732704977966961
 30
0.0
 11
256.7999995695953999
 21
-102.0732704835475033
 31
0.0
  0
LINE
  5
213F6
  8
0
 10
256.4999991478924812
 20
-102.3732704977966961
 30
0.0
 11
255.4999999153023111
 21
-101.3732704502995006
 31
0.0
  0
LINE
  5
213F7
  8
0
 10
239.4999991553430903
 20
-101.3732704502995006
 30
0.0
 11
238.4999999227528917
 21
-102.3732704977966961
 31
0.0
  0
LINE
  5
213F8
  8
0
 10
234.7999996888046041
 20
-96.673270401684249
 30
0.0
 11
237.1999993371372
 21
-96.673270401684249
 31
0.0
  0
LINE
  5
213F9
  8
0
 10
234.7999996888046041
 20
-96.673270401684249
 30
0.0
 11
234.4999992671017992
 21
-96.3732704456429019
 31
0.0
  0
LINE
  5
213FA
  8
0
 10
237.4999997588400902
 20
-96.3732704456429019
 30
0.0
 11
237.1999993371372
 21
-96.673270401684249
 31
0.0
  0
LINE
  5
213FB
  8
0
 10
237.1999993371372
 20
-96.673270401684249
 30
0.0
 11
237.1999993371372
 21
-98.8732703897635474
 31
0.0
  0
LINE
  5
213FC
  8
0
 10
234.7999996888046041
 20
-98.8732703897635474
 30
0.0
 11
234.7999996888046041
 21
-96.673270401684249
 31
0.0
  0
LINE
  5
213FD
  8
0
 10
238.1999995010500015
 20
-98.8732703897635474
 30
0.0
 11
238.1999995010500015
 21
-102.0732704835475033
 31
0.0
  0
LINE
  5
213FE
  8
0
 10
233.7999995248918879
 20
-102.0732704835475033
 30
0.0
 11
238.1999995010500015
 21
-102.0732704835475033
 31
0.0
  0
LINE
  5
213FF
  8
0
 10
233.7999995248918879
 20
-102.0732704835475033
 30
0.0
 11
233.7999995248918879
 21
-98.8732703897635474
 31
0.0
  0
LINE
  5
21400
  8
0
 10
238.1999995010500015
 20
-102.0732704835475033
 30
0.0
 11
238.4999999227528917
 21
-102.3732704977966961
 31
0.0
  0
LINE
  5
21401
  8
0
 10
233.4999991031889977
 20
-102.3732704977966961
 30
0.0
 11
233.7999995248918879
 21
-102.0732704835475033
 31
0.0
  0
LINE
  5
21402
  8
0
 10
238.4999999227528917
 20
-96.3732704456429019
 30
0.0
 11
239.4999991553430903
 21
-97.373270609555675
 31
0.0
  0
LINE
  5
21403
  8
0
 10
255.4999999153023111
 20
-97.373270609555675
 30
0.0
 11
256.4999991478924812
 21
-96.3732704456429019
 31
0.0
  0
LINE
  5
21404
  8
0
 10
256.7999995695953999
 20
-98.8732703897635474
 30
0.0
 11
261.1999995457534851
 21
-98.8732703897635474
 31
0.0
  0
LINE
  5
21405
  8
0
 10
233.7999995248918879
 20
-98.8732703897635474
 30
0.0
 11
238.1999995010500015
 21
-98.8732703897635474
 31
0.0
  0
LINE
  5
21406
  8
0
 10
272.4999988647704185
 20
-96.3732704456430156
 30
0.0
 11
222.5000002058748976
 21
-96.3732704456429019
 31
0.0
  0
LINE
  5
21408
  8
0
 10
222.5000002058748976
 20
-102.3732704977966961
 30
0.0
 11
272.4999988647704185
 21
-102.3732704977966961
 31
0.0
  0
LINE
  5
2140A
  8
1
 10
247.4999995353227007
 20
-107.3732704977966961
 30
0.0
 11
247.4999995353228996
 21
-91.373270445642973
 31
0.0
  0
LINE
  5
2140B
  8
1
 10
235.999999512971101
 20
-104.3732704977966961
 30
0.0
 11
235.9999995129711863
 21
-94.3732704456429445
 31
0.0
  0
LINE
  5
2140C
  8
1
 10
258.999999535322786
 20
-104.3732704977966961
 30
0.0
 11
258.9999995353228996
 21
-94.3732704456430156
 31
0.0
  0
CIRCLE
  5
2141A
  8
0
 10
247.4999995353230133
 20
-53.0947648553004967
 30
0.0
 40
7.9999999999999707
  0
LINE
  5
2141B
  8
1
 10
247.4999995353238091
 20
-71.7947648553007269
 30
0.0
 11
247.4999995353221891
 21
-34.3947648553002665
 31
0.0
  0
LINE
  5
2141C
  8
1
 10
266.1999995353231725
 20
-53.0947648553004967
 30
0.0
 11
228.7999995353227973
 21
-53.0947648553004967
 31
0.0
  0
CIRCLE
  5
2141D
  8
1
 10
247.4999995353223028
 20
-53.0947648553004967
 30
0.0
 40
11.5000000000002292
  0
CIRCLE
  5
2141E
  8
0
 10
247.499999535322587
 20
-41.5947648553002693
 30
0.0
 40
1.200000000000045
  0
CIRCLE
  5
2141F
  8
2
 10
247.4999995353227007
 20
-41.5947648553002693
 30
0.0
 40
2.2000000000000002
  0
CIRCLE
  5
21420
  8
0
 10
258.9999995353226154
 20
-53.0947648553004967
 30
0.0
 40
1.200000000000045
  0
CIRCLE
  5
21421
  8
2
 10
258.9999995353226723
 20
-53.0947648553004967
 30
0.0
 40
2.2000000000000002
  0
CIRCLE
  5
21422
  8
0
 10
235.9999995353221038
 20
-53.0947648553004967
 30
0.0
 40
1.200000000000045
  0
CIRCLE
  5
21423
  8
2
 10
235.9999995353221891
 20
-53.0947648553004967
 30
0.0
 40
2.2000000000000002
  0
CIRCLE
  5
21424
  8
0
 10
247.4999995353234965
 20
-64.5947648553007241
 30
0.0
 40
1.200000000000045
  0
CIRCLE
  5
21425
  8
2
 10
247.4999995353236102
 20
-64.5947648553007241
 30
0.0
 40
2.2000000000000002
  0
LINE
  5
2143A
  8
0
 10
341.8000002540646278
 20
-108.8732701662462006
 30
0.0
 11
341.8000002540646278
 21
-112.0732703764457057
 31
0.0
  0
LINE
  5
2143B
  8
0
 10
346.2000002302232247
 20
-112.0732703764457057
 30
0.0
 11
346.2000002302232247
 21
-108.8732701662462006
 31
0.0
  0
LINE
  5
2143C
  8
0
 10
341.8000002540646278
 20
-112.0732703764457057
 30
0.0
 11
346.2000002302232247
 21
-112.0732703764457057
 31
0.0
  0
LINE
  5
2143D
  8
0
 10
323.5000006072220913
 20
-112.3732703324871949
 30
0.0
 11
324.4999998398122898
 21
-111.373270343197504
 31
0.0
  0
LINE
  5
2143E
  8
0
 10
340.5000005997715107
 20
-111.373270343197504
 30
0.0
 11
341.4999998323617092
 21
-112.3732703324871949
 31
0.0
  0
LINE
  5
2143F
  8
0
 10
341.8000002540646278
 20
-112.0732703764457057
 30
0.0
 11
341.4999998323617092
 21
-112.3732703324871949
 31
0.0
  0
LINE
  5
21440
  8
0
 10
346.5000006519255749
 20
-112.3732703324871949
 30
0.0
 11
346.2000002302232247
 21
-112.0732703764457057
 31
0.0
  0
LINE
  5
21441
  8
0
 10
343.1144242323932758
 20
-96.3732704456427314
 30
0.0
 11
357.5000005923208732
 21
-96.3732704456427314
 31
0.0
  0
LINE
  5
21442
  8
0
 10
347.4999998025598984
 20
-96.3732704456427314
 30
0.0
 11
346.5000005699691883
 21
-97.3732706095555045
 31
0.0
  0
LINE
  5
21443
  8
0
 10
346.5000005699691883
 20
-97.3732706095555045
 30
0.0
 11
345.7337170347773281
 21
-97.3732706095555045
 31
0.0
  0
LINE
  5
21444
  8
0
 10
319.2662834068597135
 20
-97.3732706095555045
 30
0.0
 11
318.4999998696146122
 21
-97.3732706095555045
 31
0.0
  0
LINE
  5
21445
  8
0
 10
318.4999998696146122
 20
-97.3732706095555045
 30
0.0
 11
317.5000006370249253
 21
-96.3732704456427314
 31
0.0
  0
LINE
  5
21446
  8
0
 10
346.5000005699691883
 20
-106.3732702221254982
 30
0.0
 11
346.5000005699691883
 21
-97.3732706095555045
 31
0.0
  0
LINE
  5
21447
  8
0
 10
318.4999998696146122
 20
-97.3732706095555045
 30
0.0
 11
318.4999998696146122
 21
-106.3732702221254982
 31
0.0
  0
LINE
  5
21448
  8
0
 10
342.8000004179772873
 20
-106.6732701781669022
 30
0.0
 11
342.8000004179772873
 21
-108.8732701662462006
 31
0.0
  0
LINE
  5
21449
  8
0
 10
342.8000004179772873
 20
-106.6732701781669022
 30
0.0
 11
343.0000000782309257
 21
-106.6732701781669022
 31
0.0
  0
LINE
  5
2144A
  8
0
 10
345.0000004060564152
 20
-106.6732701781669022
 30
0.0
 11
345.2000000663103947
 21
-106.6732701781669022
 31
0.0
  0
LINE
  5
2144B
  8
0
 10
345.2000000663103947
 20
-108.8732701662462006
 30
0.0
 11
345.2000000663103947
 21
-106.6732701781669022
 31
0.0
  0
LINE
  5
2144C
  8
0
 10
318.800000209361599
 20
-108.8732701662462006
 30
0.0
 11
318.800000209361599
 21
-112.0732703764457057
 31
0.0
  0
LINE
  5
2144D
  8
0
 10
323.2000001855191726
 20
-112.0732703764457057
 30
0.0
 11
323.2000001855191726
 21
-108.8732701662462006
 31
0.0
  0
LINE
  5
2144E
  8
0
 10
318.800000209361599
 20
-112.0732703764457057
 30
0.0
 11
323.2000001855191726
 21
-112.0732703764457057
 31
0.0
  0
LINE
  5
2144F
  8
0
 10
319.8000003732743153
 20
-106.6732701781669022
 30
0.0
 11
319.8000003732743153
 21
-108.8732701662462006
 31
0.0
  0
LINE
  5
21450
  8
0
 10
319.8000003732743153
 20
-106.6732701781669022
 30
0.0
 11
320.0000000335273853
 21
-106.6732701781669022
 31
0.0
  0
LINE
  5
21451
  8
0
 10
322.0000003613528747
 20
-106.6732701781669022
 30
0.0
 11
322.2000000216063995
 21
-106.6732701781669022
 31
0.0
  0
LINE
  5
21452
  8
0
 10
322.2000000216063995
 20
-108.8732701662462006
 30
0.0
 11
322.2000000216063995
 21
-106.6732701781669022
 31
0.0
  0
LINE
  5
21453
  8
0
 10
319.4999999515709987
 20
-106.3732702221254982
 30
0.0
 11
319.8000003732743153
 21
-106.6732701781669022
 31
0.0
  0
LINE
  5
21454
  8
0
 10
318.800000209361599
 20
-112.0732703764457057
 30
0.0
 11
318.4999997876582256
 21
-112.3732703324871949
 31
0.0
  0
LINE
  5
21456
  8
0
 10
321.8855762071905247
 20
-96.3732704456427314
 30
0.0
 11
307.4999998472629272
 21
-96.3732704456427314
 31
0.0
  0
LINE
  5
21457
  8
0
 10
323.2000001855191726
 20
-108.8732701662462006
 30
0.0
 11
318.800000209361599
 21
-108.8732701662462006
 31
0.0
  0
LINE
  5
21458
  8
0
 10
346.5000005699691883
 20
-106.3732702221254982
 30
0.0
 11
318.4999998696146122
 21
-106.3732702221254982
 31
0.0
  0
LINE
  5
21459
  8
0
 10
357.5000005923208732
 20
-112.3732703324871949
 30
0.0
 11
307.4999998472629272
 21
-112.3732703324871949
 31
0.0
  0
LINE
  5
2145A
  8
0
 10
345.2000000663103947
 20
-106.6732701781669022
 30
0.0
 11
345.5000004880128017
 21
-106.3732702221254982
 31
0.0
  0
LINE
  5
2145B
  8
0
 10
342.4999999962744823
 20
-106.3732702221254982
 30
0.0
 11
342.8000004179772873
 21
-106.6732701781669022
 31
0.0
  0
LINE
  5
2145C
  8
0
 10
341.4999998323617092
 20
-106.3732702221254982
 30
0.0
 11
340.5000005997715107
 21
-107.3732703860382998
 31
0.0
  0
LINE
  5
2145D
  8
0
 10
324.4999998398122898
 20
-107.3732703860382998
 30
0.0
 11
323.5000006072220913
 21
-106.3732702221254982
 31
0.0
  0
LINE
  5
2145E
  8
0
 10
323.5000006072220913
 20
-112.3732703324871949
 30
0.0
 11
323.2000001855191726
 21
-112.0732703764457057
 31
0.0
  0
LINE
  5
2145F
  8
0
 10
322.2000000216063995
 20
-106.6732701781669022
 30
0.0
 11
322.5000004433093181
 21
-106.3732702221254982
 31
0.0
  0
LINE
  5
21460
  8
0
 10
346.2000002302232247
 20
-108.8732701662462006
 30
0.0
 11
341.8000002540646278
 21
-108.8732701662462006
 31
0.0
  0
LINE
  5
21462
  8
0
 10
345.8999998085197944
 20
-110.8732702612411032
 30
0.0
 11
342.1000006757678875
 21
-110.8732702612411032
 31
0.0
  0
LINE
  5
21463
  8
0
 10
342.1000006757678875
 20
-108.8732701662462006
 30
0.0
 11
342.1000006757678875
 21
-110.8732702612411032
 31
0.0
  0
LINE
  5
21464
  8
0
 10
343.0000000782309257
 20
-108.8732701662462006
 30
0.0
 11
343.0000000782309257
 21
-106.3732702221254982
 31
0.0
  0
LINE
  5
21465
  8
0
 10
345.0000004060564152
 20
-106.3732702221254982
 30
0.0
 11
345.0000004060564152
 21
-108.8732701662462006
 31
0.0
  0
LINE
  5
21466
  8
0
 10
345.8999998085197944
 20
-110.8732702612411032
 30
0.0
 11
345.8999998085197944
 21
-108.8732701662462006
 31
0.0
  0
LINE
  5
21467
  8
0
 10
319.1000006310638923
 20
-108.8732701662462006
 30
0.0
 11
319.1000006310638923
 21
-110.8732702612411032
 31
0.0
  0
LINE
  5
21468
  8
0
 10
320.0000000335273853
 20
-108.8732701662462006
 30
0.0
 11
320.0000000335273853
 21
-106.3732702221254982
 31
0.0
  0
LINE
  5
21469
  8
0
 10
322.0000003613528747
 20
-106.3732702221254982
 30
0.0
 11
322.0000003613528747
 21
-108.8732701662462006
 31
0.0
  0
LINE
  5
2146A
  8
0
 10
322.8999997638168225
 20
-110.8732702612411032
 30
0.0
 11
322.8999997638168225
 21
-108.8732701662462006
 31
0.0
  0
LINE
  5
2146B
  8
0
 10
322.8999997638168225
 20
-110.8732702612411032
 30
0.0
 11
319.1000006310638923
 21
-110.8732702612411032
 31
0.0
  0
LINE
  5
2146C
  8
0
 10
324.4999998398122898
 20
-111.373270343197504
 30
0.0
 11
340.5000005997715107
 21
-111.373270343197504
 31
0.0
  0
LINE
  5
2146D
  8
1
 10
332.5000002208184924
 20
-49.3732702221255408
 30
0.0
 11
332.5000002208183787
 21
-116.8732702221254982
 31
0.0
  0
LINE
  5
2146E
  8
1
 10
321.0000002197915023
 20
-112.8732702612410037
 30
0.0
 11
321.0000002197915023
 21
-104.3732702221254982
 31
0.0
  0
LINE
  5
2146F
  8
1
 10
344.0000002421435852
 20
-112.8732702612410037
 30
0.0
 11
344.0000002421435852
 21
-104.3732702221254982
 31
0.0
  0
LINE
  5
21470
  8
0
 10
344.2588192659210904
 20
-55.1124935573243988
 30
0.0
 11
341.5635834945758234
 21
-54.3903073089810007
 31
0.0
  0
LINE
  5
21471
  8
0
 10
323.4364169470612183
 20
-54.3903073089810007
 30
0.0
 11
320.7411811757162923
 21
-55.1124935573243988
 31
0.0
  0
ARC
  5
21472
  8
0
 10
344.5000002208183218
 20
-75.8732702221254272
 30
0.0
 40
0.500000000000057
 50
270.0
 51
0.0
  0
ARC
  5
21473
  8
0
 10
320.5000002208183218
 20
-75.8732702221254272
 30
0.0
 40
0.500000000000057
 50
180.0
 51
270.0
  0
LINE
  5
21474
  8
0
 10
345.0000002208183218
 20
-75.8732702221254272
 30
0.0
 11
345.0000002208183218
 21
-56.0784193836133795
 31
0.0
  0
LINE
  5
21475
  8
0
 10
320.0000002208187198
 20
-56.0784193836133795
 30
0.0
 11
320.0000002208187198
 21
-75.8732702221254272
 31
0.0
  0
ARC
  5
21476
  8
0
 10
344.0000002208187198
 20
-56.0784193836133795
 30
0.0
 40
1.000000000000046
 50
0.0
 51
74.9999999999921272
  0
ARC
  5
21477
  8
0
 10
321.0000002208183218
 20
-56.0784193836133795
 30
0.0
 40
1.000000000000052
 50
105.0000000000079012
 51
180.0
  0
ARC
  5
21478
  8
0
 10
341.4341739720251212
 20
-54.8732702221254272
 30
0.0
 40
0.4999999999999824
 50
74.9999999999921272
 51
90.0
  0
ARC
  5
21479
  8
0
 10
323.5658264696123751
 20
-54.8732702221254272
 30
0.0
 40
0.4999999999999878
 50
90.0
 51
105.0000000000079012
  0
ARC
  5
2147A
  8
0
 10
319.5000002208183218
 20
-97.815284694029117
 30
0.0
 40
0.5000000000000364
 50
109.9999999999897966
 51
180.0
  0
ARC
  5
2147B
  8
0
 10
345.5000002208187198
 20
-97.815284694029117
 30
0.0
 40
0.5000000000000364
 50
0.0
 51
70.0000000000102034
  0
LINE
  5
2147C
  8
0
 10
319.0000002208183218
 20
-105.8732702221254982
 30
0.0
 11
319.5000002208183218
 21
-106.3732702221254982
 31
0.0
  0
LINE
  5
2147D
  8
0
 10
345.5000002208187198
 20
-106.3732702221254982
 30
0.0
 11
346.0000002208183218
 21
-105.8732702221254982
 31
0.0
  0
LINE
  5
2147E
  8
0
 10
345.6710102924810144
 20
-97.3454383836361359
 30
0.0
 11
343.2631921634880996
 21
-96.4690642551559563
 31
0.0
  0
LINE
  5
2147F
  8
0
 10
321.7368082781488283
 20
-96.4690642551559563
 30
0.0
 11
319.3289901491555156
 21
-97.3454383836361359
 31
0.0
  0
ARC
  5
21480
  8
0
 10
343.4000002208184128
 20
-96.093187206841705
 30
0.0
 40
0.4000000000000159
 50
180.0
 51
250.0000000000102034
  0
ARC
  5
21481
  8
0
 10
321.600000220818572
 20
-96.093187206841705
 30
0.0
 40
0.4000000000000159
 50
290.0000000000034106
 51
0.0
  0
LINE
  5
21482
  8
0
 10
343.0000002208183218
 20
-96.093187206841705
 30
0.0
 11
343.0000002208183218
 21
-76.3732702221256545
 31
0.0
  0
LINE
  5
21483
  8
0
 10
322.0000002208183218
 20
-76.3732702221256545
 30
0.0
 11
322.0000002208183218
 21
-96.093187206841705
 31
0.0
  0
LINE
  5
21484
  8
0
 10
324.5000002208187198
 20
-106.3732702221254982
 30
0.0
 11
324.5000002208187198
 21
-111.3732702221254982
 31
0.0
  0
LINE
  5
21485
  8
0
 10
340.5000002208187198
 20
-111.3732702221254982
 30
0.0
 11
340.5000002208187198
 21
-106.3732702221254982
 31
0.0
  0
LINE
  5
21486
  8
0
 10
324.5000002208187198
 20
-111.3732702221253987
 30
0.0
 11
325.0000002208182082
 21
-111.8732702221254982
 31
0.0
  0
LINE
  5
21487
  8
0
 10
340.0000002208183218
 20
-111.8732702221254982
 30
0.0
 11
340.5000002208187198
 21
-111.3732702221254982
 31
0.0
  0
LINE
  5
21488
  8
0
 10
333.2450798454935921
 20
-71.3732702221254129
 30
0.0
 11
331.7549205961433927
 21
-71.3732702221254129
 31
0.0
  0
LINE
  5
21489
  8
0
 10
331.7549205961433927
 20
-71.3732702221254129
 30
0.0
 11
330.4612012354124886
 21
-71.3732702221254129
 31
0.0
  0
LINE
  5
2148A
  8
0
 10
334.5387992062243825
 20
-71.3732702221254129
 30
0.0
 11
333.2450798454935921
 21
-71.3732702221254129
 31
0.0
  0
LINE
  5
2148B
  8
0
 10
330.4612012354124886
 20
-71.3732702221254129
 30
0.0
 11
328.9972809282165258
 21
-71.3732702221254129
 31
0.0
  0
LINE
  5
2148C
  8
0
 10
336.0027195134201179
 20
-71.3732702221254129
 30
0.0
 11
334.5387992062243825
 21
-71.3732702221254129
 31
0.0
  0
LINE
  5
2148D
  8
0
 10
328.9972809282165258
 20
-71.3732702221254129
 30
0.0
 11
328.7040343840574224
 21
-71.3732702221254129
 31
0.0
  0
LINE
  5
2148E
  8
0
 10
336.2959660575796192
 20
-71.3732702221254129
 30
0.0
 11
336.3675184115193133
 21
-71.3652218326137131
 31
0.0
  0
LINE
  5
2148F
  8
0
 10
336.2959660575796192
 20
-71.3732702221254129
 30
0.0
 11
336.0027195134201179
 21
-71.3732702221254129
 31
0.0
  0
LINE
  5
21490
  8
0
 10
344.5000002208183218
 20
-76.3732702221256545
 30
0.0
 11
320.5000002261006102
 21
-76.3732702221256545
 31
0.0
  0
LINE
  5
21491
  8
0
 10
323.5658264716641952
 20
-54.3732702221255408
 30
0.0
 11
341.4341739720251212
 21
-54.3732702221255408
 31
0.0
  0
LINE
  5
21492
  8
0
 10
319.0000002208183218
 20
-105.8732702221254982
 30
0.0
 11
346.0000002208183218
 21
-105.8732702221254982
 31
0.0
  0
CIRCLE
  5
21493
  8
0
 10
332.5000002208183218
 20
-88.3732702221253135
 30
0.0
 40
1.000000000000028
  0
LINE
  5
21494
  8
0
 10
340.0000002208183218
 20
-111.8732702221254982
 30
0.0
 11
325.0000002208182082
 21
-111.8732702221254982
 31
0.0
  0
ARC
  5
21495
  8
0
 10
310.8908584552333991
 20
-11.8656767199073006
 30
0.0
 40
51.4413914885125223
 50
295.7842179644662792
 51
297.9379843003690098
  0
LINE
  5
21496
  8
0
 10
333.2669939521017
 20
-58.1854923337479519
 30
0.0
 11
331.733006489535228
 21
-58.1854923337479519
 31
0.0
  0
ARC
  5
21497
  8
0
 10
353.8662391299315004
 20
-12.3452711141811093
 30
0.0
 40
50.9038885407855233
 50
242.0506433438957004
 51
244.2271543912812035
  0
LINE
  5
21498
  8
0
 10
334.9919530997424886
 20
-57.3118426221130406
 30
0.0
 11
334.9919530997424886
 21
-70.8732702221255408
 31
0.0
  0
LINE
  5
21499
  8
0
 10
330.0080473418940983
 20
-70.8732702221255408
 30
0.0
 11
330.0080473418940983
 21
-57.3118426221130406
 31
0.0
  0
ARC
  5
2149A
  8
0
 10
330.4858350019032969
 20
-70.8955959965201714
 30
0.0
 40
0.478308988269339
 50
177.3246632994714105
 51
267.0478590626117921
  0
ARC
  5
2149B
  8
0
 10
334.5141654397336879
 20
-70.8955959965201714
 30
0.0
 40
0.478308988269339
 50
272.9521409374012251
 51
2.6753367005285731
  0
LINE
  5
2149C
  8
0
 10
335.1041632448216205
 20
-57.2195665074587509
 30
0.0
 11
334.9919530997424886
 21
-57.3118426221130406
 31
0.0
  0
LINE
  5
2149D
  8
0
 10
330.0080473418940983
 20
-57.3118426221130406
 30
0.0
 11
329.895837196815819
 21
-57.2195665074589783
 31
0.0
  0
ARC
  5
2149E
  8
0
 10
329.0219146947076752
 20
-70.8955959965200435
 30
0.0
 40
0.4783089882693523
 50
177.3246632994909078
 51
267.0478590625987749
  0
LINE
  5
2149F
  8
0
 10
336.4558734069385082
 20
-56.5144966688381487
 30
0.0
 11
335.1041632448216205
 21
-57.2195665074587509
 31
0.0
  0
LINE
  5
214A0
  8
0
 10
336.4558734069385082
 20
-70.8732702221255408
 30
0.0
 11
336.4558734069385082
 21
-56.5144966688381487
 31
0.0
  0
LINE
  5
214A1
  8
0
 10
329.895837196815819
 20
-57.2195665074589783
 30
0.0
 11
328.5441270346984766
 21
-56.5144966688381487
 31
0.0
  0
LINE
  5
214A2
  8
0
 10
328.5441270346984766
 20
-56.5144966688381487
 30
0.0
 11
328.5441270346984766
 21
-70.8732702221255408
 31
0.0
  0
ARC
  5
214A3
  8
0
 10
335.9780857469297075
 20
-70.8955959965201714
 30
0.0
 40
0.4783089882692325
 50
272.9521409373880942
 51
2.6753367005285731
  0
ARC
  5
214A4
  8
0
 10
326.6563337259682953
 20
-60.3277422289036735
 30
0.0
 40
4.2549506786618752
 50
63.6617327939302129
 51
92.9471949231032966
  0
ARC
  5
214A5
  8
0
 10
338.3528291570066813
 20
-60.3720033498703401
 30
0.0
 40
4.2986973505847992
 50
87.205098717730877
 51
116.1859735652162016
  0
LINE
  5
214A6
  8
0
 10
326.4375629913163266
 20
-70.8732702221255408
 30
0.0
 11
326.4375629913163266
 21
-56.0784193836133795
 31
0.0
  0
ARC
  5
214A7
  8
0
 10
330.9288780569311257
 20
-55.9012885722294683
 30
0.0
 40
15.6311274559273894
 50
253.3017368159204921
 51
261.8170623549045217
  0
ARC
  5
214A8
  8
0
 10
334.0430091474996175
 20
-55.8515971920276684
 30
0.0
 40
15.6868063291261493
 50
278.5216110579410724
 51
286.7444664953924871
  0
LINE
  5
214A9
  8
0
 10
338.5624374503211129
 20
-56.0784193836133795
 30
0.0
 11
338.5624374503211129
 21
-70.8732702221255408
 31
0.0
  0
LINE
  5
214AA
  8
0
 10
320.0000002208187198
 20
-75.8732702221254272
 30
0.0
 11
345.0000002208183218
 21
-75.8732702221254272
 31
0.0
  0
LINE
  5
214AB
  8
0
 10
326.4375629913163266
 20
-56.0784193836133795
 30
0.0
 11
320.0000002208187198
 21
-56.0784193836133795
 31
0.0
  0
LINE
  5
214AC
  8
0
 10
345.0000002208183218
 20
-56.0784193836133795
 30
0.0
 11
338.5624374503211129
 21
-56.0784193836133795
 31
0.0
  0
LINE
  5
214AD
  8
0
 10
319.3289901491555156
 20
-97.3454383836361359
 30
0.0
 11
345.6710102924810144
 21
-97.3454383836361359
 31
0.0
  0
LINE
  5
214AE
  8
0
 10
343.2631921634880996
 20
-96.4690642551559563
 30
0.0
 11
321.7368082781488283
 21
-96.4690642551559563
 31
0.0
  0
LINE
  5
214AF
  8
0
 10
319.0000002197921276
 20
-97.815284694029117
 30
0.0
 11
319.0000002197921276
 21
-105.8732702221254982
 31
0.0
  0
LINE
  5
214B0
  8
0
 10
346.0000002197921276
 20
-105.8732702221254982
 30
0.0
 11
346.0000002197921276
 21
-97.815284694029117
 31
0.0
  0
ARC
  5
214B1
  8
0
 10
324.8476140647500756
 20
-100.1935955549622008
 30
0.0
 40
1.4086568810249389
 50
97.2969988098630552
 51
187.2787873449626943
  0
ARC
  5
214B2
  8
0
 10
324.836648795062672
 20
-100.5607757341507948
 30
0.0
 40
1.3991241863943891
 50
172.2486006579090088
 51
263.2468950756218078
  0
ARC
  5
214B3
  8
0
 10
324.5331172092921861
 20
-100.5034086620681961
 30
0.0
 40
1.4534467973228611
 50
275.4881261162759074
 51
4.7803398371378991
  0
ARC
  5
214B4
  8
0
 10
324.5125075642615116
 20
-100.2619678924250053
 30
0.0
 40
1.473919588085407
 50
355.3177198144894078
 51
83.9170231032136655
  0
POLYLINE
  5
214B5
  8
0
 66
     1
 10
0.0
 20
0.0
 30
0.0
 70
   128
  0
VERTEX
  5
21A48
  8
0
 10
322.9298412027790164
 20
-100.3732700833585056
 30
0.0
  0
VERTEX
  5
21A49
  8
0
 10
322.0593041899639957
 20
-101.1232706719543017
 30
0.0
  0
VERTEX
  5
21A4A
  8
0
 10
321.2853658172318774
 20
-101.8732703292275943
 30
0.0
  0
SEQEND
  5
21A4B
  8
0
  0
POLYLINE
  5
214B6
  8
0
 66
     1
 10
0.0
 20
0.0
 30
0.0
 70
   128
  0
VERTEX
  5
21A4C
  8
0
 10
321.2853658172318774
 20
-98.8732698374893175
 30
0.0
  0
VERTEX
  5
21A4D
  8
0
 10
322.0593041899639957
 20
-99.6232704260851847
 30
0.0
  0
VERTEX
  5
21A4E
  8
0
 10
322.9298412027790164
 20
-100.3732700833585056
 30
0.0
  0
SEQEND
  5
21A4F
  8
0
  0
LINE
  5
214B7
  8
0
 10
321.2853658172318774
 20
-99.6232704260851847
 30
0.0
 11
321.2853658172318774
 21
-98.8732698374893175
 31
0.0
  0
LINE
  5
214B8
  8
0
 10
319.976671335382207
 20
-99.6232704260851847
 30
0.0
 11
321.2853658172318774
 21
-99.6232704260851847
 31
0.0
  0
LINE
  5
214B9
  8
0
 10
319.976671335382207
 20
-98.8732698374893175
 30
0.0
 11
319.976671335382207
 21
-99.6232704260851847
 31
0.0
  0
POLYLINE
  5
214BA
  8
0
 66
     1
 10
0.0
 20
0.0
 30
0.0
 70
   128
  0
VERTEX
  5
21A50
  8
0
 10
319.2436198863222216
 20
-100.3732700833585056
 30
0.0
  0
VERTEX
  5
21A51
  8
0
 10
319.5502392175624209
 20
-99.6232704260851847
 30
0.0
  0
VERTEX
  5
21A52
  8
0
 10
319.976671335382207
 20
-98.8732698374893175
 30
0.0
  0
SEQEND
  5
21A53
  8
0
  0
POLYLINE
  5
214BB
  8
0
 66
     1
 10
0.0
 20
0.0
 30
0.0
 70
   128
  0
VERTEX
  5
21A54
  8
0
 10
319.976671335382207
 20
-101.8732703292275943
 30
0.0
  0
VERTEX
  5
21A55
  8
0
 10
319.5502392175624209
 20
-101.1232706719543017
 30
0.0
  0
VERTEX
  5
21A56
  8
0
 10
319.2436198863222216
 20
-100.3732700833585056
 30
0.0
  0
SEQEND
  5
21A57
  8
0
  0
LINE
  5
214BC
  8
0
 10
319.976671335382207
 20
-101.1232706719543017
 30
0.0
 11
319.976671335382207
 21
-101.8732703292275943
 31
0.0
  0
LINE
  5
214BD
  8
0
 10
319.976671335382207
 20
-101.1232706719543017
 30
0.0
 11
321.2853658172318774
 21
-101.1232706719543017
 31
0.0
  0
LINE
  5
214BE
  8
0
 10
321.2853658172318774
 20
-101.8732703292275943
 30
0.0
 11
321.2853658172318774
 21
-101.1232706719543017
 31
0.0
  0
LINE
  5
214BF
  8
0
 10
328.3062663088574027
 20
-101.8732703292275943
 30
0.0
 11
328.3062663088574027
 21
-98.8732698374893175
 31
0.0
  0
LINE
  5
214C0
  8
0
 10
328.3062663088574027
 20
-101.8732703292275943
 30
0.0
 11
328.8212876926193076
 21
-101.8732703292275943
 31
0.0
  0
LINE
  5
214C1
  8
0
 10
328.8212876926193076
 20
-100.5271161907817969
 30
0.0
 11
328.8212876926193076
 21
-101.8732703292275943
 31
0.0
  0
LINE
  5
214C2
  8
0
 10
328.8212876926193076
 20
-100.5271161907817969
 30
0.0
 11
329.7173364247221912
 21
-100.5271161907817969
 31
0.0
  0
LINE
  5
214C3
  8
0
 10
329.7173364247221912
 20
-99.988655280461515
 30
0.0
 11
329.7173364247221912
 21
-100.5271161907817969
 31
0.0
  0
LINE
  5
214C4
  8
0
 10
328.8212876926193076
 20
-99.988655280461515
 30
0.0
 11
329.7173364247221912
 21
-99.988655280461515
 31
0.0
  0
LINE
  5
214C5
  8
0
 10
328.8212876926193076
 20
-99.4117316791321741
 30
0.0
 11
328.8212876926193076
 21
-99.988655280461515
 31
0.0
  0
LINE
  5
214C6
  8
0
 10
328.8212876926193076
 20
-99.4117316791321741
 30
0.0
 11
329.7173364247221912
 21
-99.4117316791321741
 31
0.0
  0
LINE
  5
214C7
  8
0
 10
329.7173364247221912
 20
-98.8732698374893175
 30
0.0
 11
329.7173364247221912
 21
-99.4117316791321741
 31
0.0
  0
LINE
  5
214C8
  8
0
 10
328.3062663088574027
 20
-98.8732698374893175
 30
0.0
 11
329.7173364247221912
 21
-98.8732698374893175
 31
0.0
  0
LINE
  5
214C9
  8
0
 10
326.4580999660327052
 20
-101.8732703292275943
 30
0.0
 11
326.4580999660327052
 21
-98.8732698374893175
 31
0.0
  0
LINE
  5
214CA
  8
0
 10
326.4580999660327052
 20
-101.8732703292275943
 30
0.0
 11
326.9443020383848761
 21
-101.8732703292275943
 31
0.0
  0
LINE
  5
214CB
  8
0
 10
326.9443020383848761
 20
-100.5271161907817969
 30
0.0
 11
326.9443020383848761
 21
-101.8732703292275943
 31
0.0
  0
LINE
  5
214CC
  8
0
 10
326.9443020383848761
 20
-100.5271161907817969
 30
0.0
 11
327.7979164543583011
 21
-100.5271161907817969
 31
0.0
  0
LINE
  5
214CD
  8
0
 10
327.7979164543583011
 20
-99.988655280461515
 30
0.0
 11
327.7979164543583011
 21
-100.5271161907817969
 31
0.0
  0
LINE
  5
214CE
  8
0
 10
326.9443020383848761
 20
-99.988655280461515
 30
0.0
 11
327.7979164543583011
 21
-99.988655280461515
 31
0.0
  0
LINE
  5
214CF
  8
0
 10
326.9443020383848761
 20
-99.4117316791321741
 30
0.0
 11
326.9443020383848761
 21
-99.988655280461515
 31
0.0
  0
LINE
  5
214D0
  8
0
 10
326.9443020383848761
 20
-99.4117316791321741
 30
0.0
 11
327.7979164543583011
 21
-99.4117316791321741
 31
0.0
  0
LINE
  5
214D1
  8
0
 10
327.7979164543583011
 20
-98.8732698374893175
 30
0.0
 11
327.7979164543583011
 21
-99.4117316791321741
 31
0.0
  0
LINE
  5
214D2
  8
0
 10
326.4580999660327052
 20
-98.8732698374893175
 30
0.0
 11
327.7979164543583011
 21
-98.8732698374893175
 31
0.0
  0
ARC
  5
214D3
  8
0
 10
324.7654261571345273
 20
-100.2469901213838028
 30
0.0
 40
0.9180431754702494
 50
96.4783697369272062
 51
188.2851508394878977
  0
ARC
  5
214D4
  8
0
 10
324.5746990918872257
 20
-100.2765210665252056
 30
0.0
 40
0.9457356224464369
 50
354.0185327050829756
 51
84.7129089552102528
  0
ARC
  5
214D5
  8
0
 10
324.5707727322545111
 20
-100.467935515243397
 30
0.0
 40
0.9490671014070601
 50
276.0411662895638187
 51
5.6151453075007867
  0
POLYLINE
  5
214D6
  8
0
 66
     1
 10
0.0
 20
0.0
 30
0.0
 70
   128
  0
VERTEX
  5
21A58
  8
0
 10
324.143611562533124
 20
-101.1809623801614038
 30
0.0
  0
VERTEX
  5
21A59
  8
0
 10
324.3884730312067859
 20
-101.3542889618779981
 30
0.0
  0
VERTEX
  5
21A5A
  8
0
 10
324.6706553894121043
 20
-101.4117320069577062
 30
0.0
  0
SEQEND
  5
21A5B
  8
0
  0
ARC
  5
214D7
  8
0
 10
324.9240954125154985
 20
-100.4498074086031068
 30
0.0
 40
1.069459037325402
 50
176.2187772243287895
 51
223.1309464322044107
  0
CIRCLE
  5
214D9
  8
0
 10
402.4999986114513035
 20
-53.0947648553006104
 30
0.0
 40
14.0
  0
CIRCLE
  5
214DA
  8
0
 10
402.4999986114513035
 20
-53.0947648553006104
 30
0.0
 40
7.9999999999999707
  0
LINE
  5
214DB
  8
1
 10
402.4999986114523267
 20
-72.0947648553006104
 30
0.0
 11
402.4999986114506783
 21
-34.0947648553006104
 31
0.0
  0
LINE
  5
214DC
  8
1
 10
421.4999986114513035
 20
-53.0947648553006104
 30
0.0
 11
383.4999986114514172
 21
-53.0947648553006104
 31
0.0
  0
CIRCLE
  5
214DD
  8
1
 10
402.4999986114509056
 20
-53.0947648553006104
 30
0.0
 40
11.5000000000002292
  0
CIRCLE
  5
214DE
  8
0
 10
402.4999986114509056
 20
-41.594764855300383
 30
0.0
 40
1.200000000000045
  0
CIRCLE
  5
214DF
  8
2
 10
402.4999986114510762
 20
-41.594764855300383
 30
0.0
 40
2.2000000000000002
  0
CIRCLE
  5
214E0
  8
0
 10
413.9999986114507919
 20
-53.0947648553006104
 30
0.0
 40
1.200000000000045
  0
CIRCLE
  5
214E1
  8
2
 10
413.9999986114510762
 20
-53.0947648553006104
 30
0.0
 40
2.2000000000000002
  0
CIRCLE
  5
214E2
  8
0
 10
390.9999986114505077
 20
-53.0947648553006104
 30
0.0
 40
1.200000000000045
  0
CIRCLE
  5
214E3
  8
2
 10
390.9999986114506783
 20
-53.0947648553006104
 30
0.0
 40
2.2000000000000002
  0
CIRCLE
  5
214E4
  8
0
 10
402.4999986114518151
 20
-64.5947648553008378
 30
0.0
 40
1.200000000000045
  0
CIRCLE
  5
214E5
  8
2
 10
402.4999986114519857
 20
-64.5947648553008378
 30
0.0
 40
2.2000000000000002
  0
LINE
  5
214E7
  8
3
 10
321.7999999180432837
 20
-107.6732701662460983
 30
0.0
 11
321.7999999180432837
 21
-106.3732701662462006
 31
0.0
  0
LINE
  5
214E8
  8
3
 10
322.0000005476176739
 20
-108.0196814182143044
 30
0.0
 11
321.7999999180432837
 21
-107.6732701662460983
 31
0.0
  0
LINE
  5
214E9
  8
0
 10
320.0000002197921276
 20
-107.6732701662460983
 30
0.0
 11
322.0000005476176739
 21
-107.6732701662460983
 31
0.0
  0
LINE
  5
214EA
  8
3
 10
320.1999999180433747
 20
-107.6732701662460983
 30
0.0
 11
320.1999999180433747
 21
-106.3732701662462006
 31
0.0
  0
LINE
  5
214EB
  8
3
 10
319.9999992884694962
 20
-108.0196814182143044
 30
0.0
 11
320.1999999180433747
 21
-107.6732701662460983
 31
0.0
  0
LINE
  5
214EC
  8
3
 10
344.7999999627468242
 20
-107.6732701662460983
 30
0.0
 11
344.7999999627468242
 21
-106.3732701662462006
 31
0.0
  0
LINE
  5
214ED
  8
3
 10
345.0000005923211006
 20
-108.0196814182143044
 30
0.0
 11
344.7999999627468242
 21
-107.6732701662460983
 31
0.0
  0
LINE
  5
214EE
  8
0
 10
343.0000002644956112
 20
-107.6732701662460983
 30
0.0
 11
345.0000005923211006
 21
-107.6732701662460983
 31
0.0
  0
LINE
  5
214EF
  8
3
 10
343.1999999627469151
 20
-107.6732701662460983
 30
0.0
 11
343.1999999627469151
 21
-106.3732701662462006
 31
0.0
  0
LINE
  5
214F0
  8
3
 10
342.9999993331729797
 20
-108.0196814182143044
 30
0.0
 11
343.1999999627469151
 21
-107.6732701662460983
 31
0.0
  0
LINE
  5
214FE
  8
0
 10
388.7999988333586998
 20
-112.0732711913527027
 30
0.0
 11
393.1999988095163872
 21
-112.0732711913527027
 31
0.0
  0
LINE
  5
21500
  8
0
 10
393.1999988095163872
 20
-112.0732711913527027
 30
0.0
 11
393.4999992312197037
 21
-112.3732712056018954
 31
0.0
  0
LINE
  5
21501
  8
0
 10
388.4999984116558949
 20
-112.3732712056018954
 30
0.0
 11
388.7999988333586998
 21
-112.0732711913527027
 31
0.0
  0
LINE
  5
21502
  8
0
 10
411.49999845635881
 20
-112.3732712056018954
 30
0.0
 11
410.4999992237691231
 21
-111.3732711581046999
 31
0.0
  0
LINE
  5
21503
  8
0
 10
394.4999984638095043
 20
-111.3732711581046999
 30
0.0
 11
393.4999992312197037
 21
-112.3732712056018954
 31
0.0
  0
LINE
  5
21504
  8
0
 10
394.4999984638095043
 20
-111.3732711581046999
 30
0.0
 11
410.4999992237691231
 21
-111.3732711581046999
 31
0.0
  0
LINE
  5
21505
  8
0
 10
411.7999988780621834
 20
-108.8732710975687041
 30
0.0
 11
416.1999988542203255
 21
-108.8732710975687041
 31
0.0
  0
LINE
  5
21506
  8
0
 10
411.7999988780621834
 20
-112.0732711913527027
 30
0.0
 11
411.7999988780621834
 21
-108.8732710975687041
 31
0.0
  0
LINE
  5
21507
  8
0
 10
411.49999845635881
 20
-112.3732712056018954
 30
0.0
 11
411.7999988780621834
 21
-112.0732711913527027
 31
0.0
  0
LINE
  5
21508
  8
0
 10
410.4999992237691231
 20
-107.3732713173609028
 30
0.0
 11
410.4999992237691231
 21
-111.3732711581046999
 31
0.0
  0
LINE
  5
21509
  8
0
 10
410.4999992237691231
 20
-107.3732713173609028
 30
0.0
 11
411.49999845635881
 21
-106.3732711534481012
 31
0.0
  0
LINE
  5
2150A
  8
0
 10
412.7999990419748997
 20
-106.6732711094894057
 30
0.0
 11
412.4999986202715831
 21
-106.3732711534481012
 31
0.0
  0
LINE
  5
2150B
  8
0
 10
412.7999990419748997
 20
-108.8732710975687041
 30
0.0
 11
412.7999990419748997
 21
-106.6732711094894057
 31
0.0
  0
LINE
  5
2150C
  8
0
 10
389.7999989972714729
 20
-106.6732711094894057
 30
0.0
 11
392.199998645603614
 21
-106.6732711094894057
 31
0.0
  0
LINE
  5
2150D
  8
0
 10
392.199998645603614
 20
-106.6732711094894057
 30
0.0
 11
392.199998645603614
 21
-108.8732710975687041
 31
0.0
  0
LINE
  5
2150E
  8
0
 10
389.7999989972714729
 20
-108.8732710975687041
 30
0.0
 11
389.7999989972714729
 21
-106.6732711094894057
 31
0.0
  0
LINE
  5
2150F
  8
0
 10
387.4999992610220261
 20
-96.3732704456429587
 30
0.0
 11
388.4999984936122246
 21
-97.3732715408780649
 31
0.0
  0
LINE
  5
21510
  8
0
 10
416.4999991939662891
 20
-97.3732715408780649
 30
0.0
 11
417.4999984265569992
 21
-96.3732704456429587
 31
0.0
  0
LINE
  5
21511
  8
0
 10
416.4999991939662891
 20
-97.3732715408780649
 30
0.0
 11
388.4999984936122246
 21
-97.3732715408780649
 31
0.0
  0
LINE
  5
21512
  8
0
 10
411.7999988780621834
 20
-112.0732711913527027
 30
0.0
 11
416.1999988542203255
 21
-112.0732711913527027
 31
0.0
  0
LINE
  5
21513
  8
0
 10
416.1999988542203255
 20
-112.0732711913527027
 30
0.0
 11
416.4999992759226757
 21
-112.3732712056018954
 31
0.0
  0
LINE
  5
21514
  8
0
 10
416.1999988542203255
 20
-108.8732710975687041
 30
0.0
 11
416.1999988542203255
 21
-112.0732711913527027
 31
0.0
  0
LINE
  5
21515
  8
0
 10
389.7999989972714729
 20
-106.6732711094894057
 30
0.0
 11
389.4999985755686112
 21
-106.3732711534481012
 31
0.0
  0
LINE
  5
21516
  8
0
 10
392.4999990673069874
 20
-106.3732711534481012
 30
0.0
 11
392.199998645603614
 21
-106.6732711094894057
 31
0.0
  0
LINE
  5
21517
  8
0
 10
412.7999990419748997
 20
-106.6732711094894057
 30
0.0
 11
415.1999986903074955
 21
-106.6732711094894057
 31
0.0
  0
LINE
  5
21518
  8
0
 10
415.1999986903074955
 20
-106.6732711094894057
 30
0.0
 11
415.1999986903074955
 21
-108.8732710975687041
 31
0.0
  0
LINE
  5
21519
  8
0
 10
388.4999984936122246
 20
-106.3732711534481012
 30
0.0
 11
388.4999984936122246
 21
-97.3732715408780649
 31
0.0
  0
LINE
  5
2151A
  8
0
 10
416.4999991939662891
 20
-97.3732715408780649
 30
0.0
 11
416.4999991939662891
 21
-106.3732711534481012
 31
0.0
  0
LINE
  5
2151B
  8
0
 10
393.4999992312197037
 20
-106.3732711534481012
 30
0.0
 11
394.4999984638095043
 21
-107.3732713173609028
 31
0.0
  0
LINE
  5
2151C
  8
0
 10
410.4999992237691231
 20
-107.3732713173609028
 30
0.0
 11
394.4999984638095043
 21
-107.3732713173609028
 31
0.0
  0
LINE
  5
2151D
  8
0
 10
393.1999988095163872
 20
-108.8732710975687041
 30
0.0
 11
393.1999988095163872
 21
-112.0732711913527027
 31
0.0
  0
LINE
  5
2151E
  8
0
 10
388.7999988333586998
 20
-112.0732711913527027
 30
0.0
 11
388.7999988333586998
 21
-108.8732710975687041
 31
0.0
  0
LINE
  5
2151F
  8
0
 10
394.4999984638095043
 20
-111.3732711581046999
 30
0.0
 11
394.4999984638095043
 21
-107.3732713173609028
 31
0.0
  0
LINE
  5
21520
  8
0
 10
415.4999991120099025
 20
-106.3732711534481012
 30
0.0
 11
415.1999986903074955
 21
-106.6732711094894057
 31
0.0
  0
LINE
  5
21522
  8
0
 10
388.7999988333586998
 20
-108.8732710975687041
 30
0.0
 11
393.1999988095163872
 21
-108.8732710975687041
 31
0.0
  0
LINE
  5
21523
  8
0
 10
427.4999988437895126
 20
-96.3732704456429587
 30
0.0
 11
377.4999988437900242
 21
-96.3732704456429587
 31
0.0
  0
LINE
  5
21524
  8
0
 10
388.4999984936125088
 20
-106.3732711534481012
 30
0.0
 11
416.4999991939665165
 21
-106.3732711534481012
 31
0.0
  0
LINE
  5
21525
  8
0
 10
377.4999988437895126
 20
-112.3732712056018954
 30
0.0
 11
427.4999988437895126
 21
-112.3732712056018954
 31
0.0
  0
LINE
  5
21527
  8
1
 10
402.4999988437896832
 20
-117.3732712056018954
 30
0.0
 11
402.4999988437896263
 21
-91.3732704456429587
 31
0.0
  0
LINE
  5
21528
  8
1
 10
390.9999988437896832
 20
-114.3732712056018954
 30
0.0
 11
390.9999988437896263
 21
-104.3732711534481012
 31
0.0
  0
LINE
  5
21529
  8
1
 10
413.9999988437891147
 20
-114.3732712056018954
 30
0.0
 11
413.9999988437891147
 21
-104.3732711534481012
 31
0.0
  0
CIRCLE
  5
2154F
  8
0
 10
125.0000003725290014
 20
74.0000000000001847
 30
0.0
 40
1.900000000000005
  0
LINE
  5
21550
  8
0
 10
125.7725003725288957
 20
73.5539969170512506
 30
0.0
 11
125.7725003725288957
 21
74.4460030829492041
 31
0.0
  0
LINE
  5
21551
  8
0
 10
125.7725003725288957
 20
74.4460030829492041
 30
0.0
 11
125.0000003725290014
 21
74.8920061658982092
 31
0.0
  0
LINE
  5
21552
  8
0
 10
125.0000003725290014
 20
74.8920061658982092
 30
0.0
 11
124.2275003725289935
 21
74.4460030829492041
 31
0.0
  0
LINE
  5
21553
  8
0
 10
124.2275003725289935
 20
74.4460030829492041
 30
0.0
 11
124.2275003725289935
 21
73.5539969170512506
 31
0.0
  0
LINE
  5
21554
  8
0
 10
124.2275003725289935
 20
73.5539969170512506
 30
0.0
 11
125.0000003725290014
 21
73.1079938341022455
 31
0.0
  0
LINE
  5
21555
  8
0
 10
125.0000003725290014
 20
73.1079938341022455
 30
0.0
 11
125.7725003725288957
 21
73.5539969170512506
 31
0.0
  0
CIRCLE
  5
21556
  8
0
 10
136.5000003725290014
 20
62.4999999999999218
 30
0.0
 40
1.900000000000005
  0
LINE
  5
21557
  8
0
 10
137.2725003725288957
 20
62.0539969170509593
 30
0.0
 11
137.2725003725288957
 21
62.9460030829489199
 31
0.0
  0
LINE
  5
21558
  8
0
 10
137.2725003725288957
 20
62.9460030829489199
 30
0.0
 11
136.5000003725290014
 21
63.3920061658979179
 31
0.0
  0
LINE
  5
21559
  8
0
 10
136.5000003725290014
 20
63.3920061658979179
 30
0.0
 11
135.7275003725289935
 21
62.9460030829489199
 31
0.0
  0
LINE
  5
2155A
  8
0
 10
135.7275003725289935
 20
62.9460030829489199
 30
0.0
 11
135.7275003725289935
 21
62.0539969170509593
 31
0.0
  0
LINE
  5
2155B
  8
0
 10
135.7275003725289935
 20
62.0539969170509593
 30
0.0
 11
136.5000003725290014
 21
61.6079938341019613
 31
0.0
  0
LINE
  5
2155C
  8
0
 10
136.5000003725290014
 20
61.6079938341019613
 30
0.0
 11
137.2725003725288957
 21
62.0539969170509593
 31
0.0
  0
CIRCLE
  5
2155D
  8
0
 10
113.5000003725290014
 20
62.5000000000000782
 30
0.0
 40
1.900000000000005
  0
LINE
  5
2155E
  8
0
 10
114.2725003725288957
 20
62.053996917051137
 30
0.0
 11
114.2725003725288957
 21
62.9460030829490904
 31
0.0
  0
LINE
  5
2155F
  8
0
 10
114.2725003725288957
 20
62.9460030829490904
 30
0.0
 11
113.5000003725290014
 21
63.3920061658981027
 31
0.0
  0
LINE
  5
21560
  8
0
 10
113.5000003725290014
 20
63.3920061658981027
 30
0.0
 11
112.7275003725289935
 21
62.9460030829490904
 31
0.0
  0
LINE
  5
21561
  8
0
 10
112.7275003725289935
 20
62.9460030829490904
 30
0.0
 11
112.7275003725289935
 21
62.053996917051137
 31
0.0
  0
LINE
  5
21562
  8
0
 10
112.7275003725289935
 20
62.053996917051137
 30
0.0
 11
113.5000003725290014
 21
61.6079938341021318
 31
0.0
  0
LINE
  5
21563
  8
0
 10
113.5000003725290014
 20
61.6079938341021318
 30
0.0
 11
114.2725003725288957
 21
62.053996917051137
 31
0.0
  0
CIRCLE
  5
21564
  8
0
 10
125.0000003725290014
 20
50.9999999999997371
 30
0.0
 40
1.900000000000005
  0
LINE
  5
21565
  8
0
 10
125.7725003725288957
 20
50.553996917050803
 30
0.0
 11
125.7725003725288957
 21
51.4460030829487494
 31
0.0
  0
LINE
  5
21566
  8
0
 10
125.7725003725288957
 20
51.4460030829487494
 30
0.0
 11
125.0000003725290014
 21
51.8920061658977616
 31
0.0
  0
LINE
  5
21567
  8
0
 10
125.0000003725290014
 20
51.8920061658977616
 30
0.0
 11
124.2275003725289935
 21
51.4460030829487494
 31
0.0
  0
LINE
  5
21568
  8
0
 10
124.2275003725289935
 20
51.4460030829487494
 30
0.0
 11
124.2275003725289935
 21
50.553996917050803
 31
0.0
  0
LINE
  5
21569
  8
0
 10
124.2275003725289935
 20
50.553996917050803
 30
0.0
 11
125.0000003725290014
 21
50.1079938341017908
 31
0.0
  0
LINE
  5
2156A
  8
0
 10
125.0000003725290014
 20
50.1079938341017908
 30
0.0
 11
125.7725003725288957
 21
50.553996917050803
 31
0.0
  0
CIRCLE
  5
2156B
  8
0
 10
394.9999965099361816
 20
73.9999973367963264
 30
0.0
 40
1.900000000000005
  0
LINE
  5
2156C
  8
0
 10
395.7724965099361043
 20
73.5539942538473781
 30
0.0
 11
395.7724965099361043
 21
74.4460004197453316
 31
0.0
  0
LINE
  5
2156D
  8
0
 10
395.7724965099361043
 20
74.4460004197453316
 30
0.0
 11
394.9999965099361816
 21
74.8920035026943367
 31
0.0
  0
LINE
  5
2156E
  8
0
 10
394.9999965099361816
 20
74.8920035026943367
 30
0.0
 11
394.2274965099360884
 21
74.4460004197453316
 31
0.0
  0
LINE
  5
2156F
  8
0
 10
394.2274965099360884
 20
74.4460004197453316
 30
0.0
 11
394.2274965099360884
 21
73.5539942538473781
 31
0.0
  0
LINE
  5
21570
  8
0
 10
394.2274965099360884
 20
73.5539942538473781
 30
0.0
 11
394.9999965099361816
 21
73.107991170898373
 31
0.0
  0
LINE
  5
21571
  8
0
 10
394.9999965099361816
 20
73.107991170898373
 30
0.0
 11
395.7724965099361043
 21
73.5539942538473781
 31
0.0
  0
CIRCLE
  5
21572
  8
0
 10
406.5000011227405139
 20
62.4999999999998579
 30
0.0
 40
1.900000000000005
  0
LINE
  5
21573
  8
0
 10
407.2725011227403797
 20
62.0539969170509167
 30
0.0
 11
407.2725011227403797
 21
62.9460030829488701
 31
0.0
  0
LINE
  5
21574
  8
0
 10
407.2725011227403797
 20
62.9460030829488701
 30
0.0
 11
406.5000011227405139
 21
63.3920061658978824
 31
0.0
  0
LINE
  5
21575
  8
0
 10
406.5000011227405139
 20
63.3920061658978824
 30
0.0
 11
405.7275011227404207
 21
62.9460030829488701
 31
0.0
  0
LINE
  5
21576
  8
0
 10
405.7275011227404207
 20
62.9460030829488701
 30
0.0
 11
405.7275011227404207
 21
62.0539969170509167
 31
0.0
  0
LINE
  5
21577
  8
0
 10
405.7275011227404207
 20
62.0539969170509167
 30
0.0
 11
406.5000011227405139
 21
61.6079938341019115
 31
0.0
  0
LINE
  5
21578
  8
0
 10
406.5000011227405139
 20
61.6079938341019115
 30
0.0
 11
407.2725011227403797
 21
62.0539969170509167
 31
0.0
  0
CIRCLE
  5
21579
  8
0
 10
383.4999965099361816
 20
62.4999973367964401
 30
0.0
 40
1.900000000000005
  0
LINE
  5
2157A
  8
0
 10
384.2724965099361043
 20
62.0539942538474918
 30
0.0
 11
384.2724965099361043
 21
62.9460004197454381
 31
0.0
  0
LINE
  5
2157B
  8
0
 10
384.2724965099361043
 20
62.9460004197454381
 30
0.0
 11
383.4999965099361816
 21
63.3920035026944504
 31
0.0
  0
LINE
  5
2157C
  8
0
 10
383.4999965099361816
 20
63.3920035026944504
 30
0.0
 11
382.7274965099360884
 21
62.9460004197454381
 31
0.0
  0
LINE
  5
2157D
  8
0
 10
382.7274965099360884
 20
62.9460004197454381
 30
0.0
 11
382.7274965099360884
 21
62.0539942538474918
 31
0.0
  0
LINE
  5
2157E
  8
0
 10
382.7274965099360884
 20
62.0539942538474918
 30
0.0
 11
383.4999965099361816
 21
61.6079911708984795
 31
0.0
  0
LINE
  5
2157F
  8
0
 10
383.4999965099361816
 20
61.6079911708984795
 30
0.0
 11
384.2724965099361043
 21
62.0539942538474918
 31
0.0
  0
CIRCLE
  5
21580
  8
0
 10
394.9999965099361816
 20
50.9999973367963193
 30
0.0
 40
1.900000000000005
  0
LINE
  5
21581
  8
0
 10
395.7724965099361043
 20
50.5539942538473781
 30
0.0
 11
395.7724965099361043
 21
51.4460004197453316
 31
0.0
  0
LINE
  5
21582
  8
0
 10
395.7724965099361043
 20
51.4460004197453316
 30
0.0
 11
394.9999965099361816
 21
51.8920035026943367
 31
0.0
  0
LINE
  5
21583
  8
0
 10
394.9999965099361816
 20
51.8920035026943367
 30
0.0
 11
394.2274965099360884
 21
51.4460004197453316
 31
0.0
  0
LINE
  5
21584
  8
0
 10
394.2274965099360884
 20
51.4460004197453316
 30
0.0
 11
394.2274965099360884
 21
50.5539942538473781
 31
0.0
  0
LINE
  5
21585
  8
0
 10
394.2274965099360884
 20
50.5539942538473781
 30
0.0
 11
394.9999965099361816
 21
50.107991170898373
 31
0.0
  0
LINE
  5
21586
  8
0
 10
394.9999965099361816
 20
50.107991170898373
 30
0.0
 11
395.7724965099361043
 21
50.5539942538473781
 31
0.0
  0
LINE
  5
21802
  8
0
 10
410.5243794230336221
 20
154.8877752251738968
 30
0.0
 11
409.7573856917504145
 21
154.8877752251738968
 31
0.0
  0
ARC
  5
21803
  8
0
 10
409.9190120756794045
 20
155.474030439573994
 30
0.0
 40
0.8427127634336343
 50
315.9188737344048832
 51
350.4988553997221743
  0
ENDSEC
  0
EOF
