  0
SECTION
  2
HEADER
  9
$ACADVER
  1
AC1009
  9
$INSBASE
 10
0.0
 20
0.0
 30
0.0
  9
$EXTMIN
 10
0.0
 20
-153.973270445642811
 30
0.0
  9
$EXTMAX
 10
495.5000013038518887
 20
282.2999998753078899
 30
0.0
  9
$LIMMIN
 10
0.0
 20
0.0
  9
$LIMMAX
 10
187.5
 20
135.0
  9
$ORTHOMODE
 70
     1
  9
$REGENMODE
 70
     1
  9
$FILLMODE
 70
     1
  9
$QTEXTMODE
 70
     0
  9
$MIRRTEXT
 70
     0
  9
$DRAGMODE
 70
     2
  9
$LTSCALE
 40
5.0
  9
$OSMODE
 70
    37
  9
$ATTMODE
 70
     1
  9
$TEXTSIZE
 40
0.2
  9
$TRACEWID
 40
0.05
  9
$TEXTSTYLE
  7
STANDARD
  9
$CLAYER
  8
0
  9
$CELTYPE
  6
BYLAYER
  9
$CECOLOR
 62
   256
  9
$DIMSCALE
 40
1.0
  9
$DIMASZ
 40
3.0
  9
$DIMEXO
 40
2.0
  9
$DIMDLI
 40
0.3799999999999999
  9
$DIMRND
 40
0.0
  9
$DIMDLE
 40
0.0
  9
$DIMEXE
 40
2.0
  9
$DIMTP
 40
0.0
  9
$DIMTM
 40
0.0
  9
$DIMTXT
 40
3.0
  9
$DIMCEN
 40
0.0
  9
$DIMTSZ
 40
0.0
  9
$DIMTOL
 70
     0
  9
$DIMLIM
 70
     0
  9
$DIMTIH
 70
     0
  9
$DIMTOH
 70
     0
  9
$DIMSE1
 70
     0
  9
$DIMSE2
 70
     0
  9
$DIMTAD
 70
     1
  9
$DIMZIN
 70
     8
  9
$DIMBLK
  1

  9
$DIMASO
 70
     0
  9
$DIMSHO
 70
     0
  9
$DIMPOST
  1

  9
$DIMAPOST
  1

  9
$DIMALT
 70
     0
  9
$DIMALTD
 70
     2
  9
$DIMALTF
 40
25.3999999999999986
  9
$DIMLFAC
 40
1.0
  9
$DIMTOFL
 70
     1
  9
$DIMTVP
 40
1.6000000000000001
  9
$DIMTIX
 70
     1
  9
$DIMSOXD
 70
     0
  9
$DIMSAH
 70
     0
  9
$DIMBLK1
  1

  9
$DIMBLK2
  1

  9
$DIMSTYLE
  2
STANDARD
  9
$DIMCLRD
 70
   256
  9
$DIMCLRE
 70
   256
  9
$DIMCLRT
 70
   256
  9
$DIMTFAC
 40
1.0
  9
$DIMGAP
 40
1.1999999999999991
  9
$LUNITS
 70
     2
  9
$LUPREC
 70
     1
  9
$SKETCHINC
 40
0.1
  9
$FILLETRAD
 40
0.4
  9
$AUNITS
 70
     0
  9
$AUPREC
 70
     1
  9
$MENU
  1
E:\r13\win\SUPPORT\ACAD
  9
$ELEVATION
 40
0.0
  9
$PELEVATION
 40
0.0
  9
$THICKNESS
 40
0.0
  9
$LIMCHECK
 70
     0
  9
$BLIPMODE
 70
     0
  9
$CHAMFERA
 40
0.5
  9
$CHAMFERB
 40
0.5
  9
$SKPOLY
 70
     0
  9
$TDCREATE
 40
2451824.6906134258024395
  9
$TDUPDATE
 40
2460395.4565393519587815
  9
$TDINDWG
 40
2.8910165278000002
  9
$TDUSRTIMER
 40
2.8910163426
  9
$USRTIMER
 70
     1
  9
$ANGBASE
 50
0.0
  9
$ANGDIR
 70
     0
  9
$PDMODE
 70
     0
  9
$PDSIZE
 40
0.0
  9
$PLINEWID
 40
0.0
  9
$COORDS
 70
     1
  9
$SPLFRAME
 70
     0
  9
$SPLINETYPE
 70
     6
  9
$SPLINESEGS
 70
     8
  9
$ATTDIA
 70
     1
  9
$ATTREQ
 70
     1
  9
$HANDLING
 70
     1
  9
$HANDSEED
  5
23E4D
  9
$SURFTAB1
 70
     6
  9
$SURFTAB2
 70
     6
  9
$SURFTYPE
 70
     6
  9
$SURFU
 70
     6
  9
$SURFV
 70
     6
  9
$UCSNAME
  2

  9
$UCSORG
 10
0.0
 20
0.0
 30
0.0
  9
$UCSXDIR
 10
1.0
 20
0.0
 30
0.0
  9
$UCSYDIR
 10
0.0
 20
1.0
 30
0.0
  9
$PUCSNAME
  2

  9
$PUCSORG
 10
0.0
 20
0.0
 30
0.0
  9
$PUCSXDIR
 10
1.0
 20
0.0
 30
0.0
  9
$PUCSYDIR
 10
0.0
 20
1.0
 30
0.0
  9
$USERI1
 70
     0
  9
$USERI2
 70
     1
  9
$USERI3
 70
     0
  9
$USERI4
 70
     0
  9
$USERI5
 70
     0
  9
$USERR1
 40
0.0
  9
$USERR2
 40
0.0
  9
$USERR3
 40
0.0
  9
$USERR4
 40
0.0
  9
$USERR5
 40
0.0
  9
$WORLDVIEW
 70
     1
  9
$SHADEDGE
 70
     3
  9
$SHADEDIF
 70
    70
  9
$TILEMODE
 70
     1
  9
$MAXACTVP
 70
    16
  9
$PLIMCHECK
 70
     0
  9
$PEXTMIN
 10
1.0000000000000000E+20
 20
1.0000000000000000E+20
 30
1.0000000000000000E+20
  9
$PEXTMAX
 10
-1.0000000000000000E+20
 20
-1.0000000000000000E+20
 30
-1.0000000000000000E+20
  9
$PLIMMIN
 10
0.0
 20
0.0
  9
$PLIMMAX
 10
12.0
 20
9.0
  9
$UNITMODE
 70
     0
  9
$VISRETAIN
 70
     0
  9
$PLINEGEN
 70
     0
  9
$PSLTSCALE
 70
     0
  0
ENDSEC
  0
SECTION
  2
TABLES
  0
TABLE
  2
VPORT
 70
     1
  0
VPORT
  2
*ACTIVE
 70
     0
 10
0.0
 20
0.0
 11
1.0
 21
1.0
 12
587.130541871921082
 22
250.0
 13
0.0
 23
0.0
 14
5.0
 24
5.0
 15
5.0
 25
5.0
 16
0.0
 26
0.0
 36
1.0
 17
0.0
 27
0.0
 37
0.0
 40
500.0
 41
2.3485221674876842
 42
50.0
 43
0.0
 44
0.0
 50
0.0
 51
0.0
 71
     0
 72
   500
 73
     1
 74
     0
 75
     0
 76
     0
 77
     0
 78
     0
  0
ENDTAB
  0
TABLE
  2
LTYPE
 70
     5
  0
LTYPE
  2
CONTINUOUS
 70
     0
  3
Solid Line
 72
    65
 73
     0
 40
0.0
  0
LTYPE
  2
CENTER
 70
     0
  3
____ _ ____ _ ____ _ ____ _ ____ _ ____ _ ____
 72
    65
 73
     4
 40
2.0
 49
1.25
 49
-0.25
 49
0.25
 49
-0.25
  0
LTYPE
  2
PHANTOM2
 70
     0
  3
___ _ _ ___ _ _ ___ _ _ ___ _ _
 72
    65
 73
     6
 40
1.25
 49
0.625
 49
-0.125
 49
0.125
 49
-0.125
 49
0.125
 49
-0.125
  0
LTYPE
  2
HIDDEN
 70
     0
  3
__ __ __ __ __ __ __ __ __ __ __ __ __ __ __ __
 72
    65
 73
     2
 40
0.375
 49
0.25
 49
-0.125
  0
LTYPE
  2
PHANTOM
 70
     0
  3
_____ _ _ _____ _ _ _____ _ _ _____ _ _ ____
 72
    65
 73
     6
 40
2.5
 49
1.25
 49
-0.25
 49
0.25
 49
-0.25
 49
0.25
 49
-0.25
  0
ENDTAB
  0
TABLE
  2
LAYER
 70
     6
  0
LAYER
  2
0
 70
     0
 62
     7
  6
CONTINUOUS
  0
LAYER
  2
1
 70
     0
 62
     1
  6
CENTER
  0
LAYER
  2
2
 70
     0
 62
     2
  6
HIDDEN
  0
LAYER
  2
5
 70
     0
 62
     3
  6
PHANTOM
  0
LAYER
  2
3
 70
     0
 62
     3
  6
CONTINUOUS
  0
LAYER
  2
DEFPOINTS
 70
     0
 62
     7
  6
CONTINUOUS
  0
ENDTAB
  0
TABLE
  2
STYLE
 70
     2
  0
STYLE
  2
STANDARD
 70
     0
 40
0.0
 41
1.0
 50
0.0
 71
     0
 42
0.2
  3
TXT
  4
BIGFONT
  0
STYLE
  2
STANDARD1
 70
     0
 40
0.0
 41
1.0
 50
0.0
 71
     0
 42
3.0
  3
txt
  4

  0
ENDTAB
  0
TABLE
  2
VIEW
 70
     2
  0
VIEW
  2
OLE1
 70
     0
 40
230.5720678175948137
 10
150.6983848979481877
 20
404.399422263265194
 41
272.2524031538524127
 11
0.0
 21
0.0
 31
1.0
 12
0.0
 22
0.0
 32
0.0
 42
50.0
 43
0.0
 44
0.0
 50
0.0
 71
     0
  0
VIEW
  2
OLE2
 70
     0
 40
202.3282431621931039
 10
347.2956790480777158
 20
-206.6388772558275946
 41
238.9029640415126039
 11
0.0
 21
0.0
 31
1.0
 12
0.0
 22
0.0
 32
0.0
 42
50.0
 43
0.0
 44
0.0
 50
0.0
 71
     0
  0
ENDTAB
  0
TABLE
  2
UCS
 70
     0
  0
ENDTAB
  0
TABLE
  2
APPID
 70
    14
  0
APPID
  2
ACAD
 70
     0
  0
APPID
  2
ACAD_MLEADERVER
 70
     0
  0
APPID
  2
ACAD_EXEMPT_FROM_CAD_STANDARDS
 70
     0
  0
APPID
  2
ACAD_DSTYLE_DIMJAG
 70
     0
  0
APPID
  2
ACAD_DSTYLE_DIMTALN
 70
     0
  0
APPID
  2
ACAD_NAV_VCDISPLAY
 70
     0
  0
APPID
  2
ACAD_PSEXT
 70
     0
  0
APPID
  2
ACAECLAYERSTANDARD
 70
     0
  0
APPID
  2
ACCMTRANSPARENCY
 70
     0
  0
APPID
  2
ACAD_DSTYLE_DIMRADIAL_EXTENSION
 70
     0
  0
APPID
  2
ACADANNOTATIVE
 70
     0
  0
APPID
  2
ACAD_DSTYLE_DIMBREAK
 70
     0
  0
APPID
  2
GRADIENTCOLOR1ACI
 70
     0
  0
APPID
  2
GRADIENTCOLOR2ACI
 70
     0
  0
ENDTAB
  0
TABLE
  2
DIMSTYLE
 70
     1
  0
DIMSTYLE
  2
STANDARD
 70
     0
  3

  4

  5

  6

  7

 40
1.0
 41
0.18
 42
0.0625
 43
0.38
 44
0.18
 45
0.0
 46
0.0
 47
0.0
 48
0.0
140
0.18
141
0.09
142
0.0
143
25.3999999999999986
144
1.0
145
0.0
146
1.0
147
0.09
 71
     0
 72
     0
 73
     1
 74
     1
 75
     0
 76
     0
 77
     0
 78
     0
170
     0
171
     2
172
     0
173
     0
174
     0
175
     0
176
     0
177
     0
178
     0
  0
ENDTAB
  0
ENDSEC
  0
SECTION
  2
BLOCKS
  0
BLOCK
  8
0
  2
$MODEL_SPACE
 70
     0
 10
0.0
 20
0.0
 30
0.0
  3
$MODEL_SPACE
  1

  0
ENDBLK
  5
9
  8
0
  0
BLOCK
 67
     1
  8
0
  2
$PAPER_SPACE
 70
     0
 10
0.0
 20
0.0
 30
0.0
  3
$PAPER_SPACE
  1

  0
ENDBLK
  5
E
 67
     1
  8
0
  0
ENDSEC
  0
SECTION
  2
ENTITIES
  0
TEXT
  5
7FEA
  8
0
 62
     3
 10
135.0
 20
0.0
 30
0.0
 40
3.2000000000000002
  1
■クサビロッククランパー ストロング(自在アプローチ)の取付け方法(下図)
  0
TEXT
  5
7FEB
  8
0
 62
     3
 10
185.0866666666665026
 20
-19.1680981886338913
 30
0.0
 40
3.2000000000000002
  1
6mmのプレートに固定する場合
 72
     1
 11
212.4999999999998863
 21
-19.5947648553005607
 31
0.0
 73
     1
  0
TEXT
  5
80DD
  8
0
 62
     3
 10
324.3533333333331825
 20
-19.1680981886338913
 30
0.0
 40
3.2000000000000002
  1
6mmを超え20mm以下のプレートに固定する場合
 72
     1
 11
367.4999999999998863
 21
-19.5947648553005607
 31
0.0
 73
     1
  0
TEXT
  5
8474
  8
0
 62
     3
 10
168.433333333333195
 20
-140.9732704456430099
 30
0.0
 40
3.2000000000000002
  1
組付け状態
 72
     1
 11
177.4999999999998863
 21
-140.9732704456430099
 31
0.0
  0
POLYLINE
  5
8487
  8
5
 66
     1
 10
0.0
 20
0.0
 30
0.0
 70
     1
  0
VERTEX
  5
23C7B
  8
5
 10
135.0
 20
-10.0
 30
0.0
  0
VERTEX
  5
23C7C
  8
5
 10
445.0
 20
-10.0
 30
0.0
  0
VERTEX
  5
23C7D
  8
5
 10
445.0
 20
-153.973270445642811
 30
0.0
  0
VERTEX
  5
23C7E
  8
5
 10
135.0
 20
-153.973270445642811
 30
0.0
  0
SEQEND
  5
23C7F
  8
5
  0
TEXT
  5
8489
  8
0
 62
     3
 10
240.2466666666666981
 20
-140.9732704456430099
 30
0.0
 40
3.2000000000000002
  1
取付け穴
 72
     1
 11
247.5
 21
-140.9732704456430099
 31
0.0
  0
TEXT
  5
848A
  8
0
 62
     3
 10
323.4333333333332234
 20
-140.9732704456430099
 30
0.0
 40
3.2000000000000002
  1
組付け状態
 72
     1
 11
332.4999999999998863
 21
-140.9732704456430099
 31
0.0
  0
TEXT
  5
848B
  8
0
 62
     3
 10
395.2466666666667265
 20
-140.9732704456430099
 30
0.0
 40
3.2000000000000002
  1
取付け穴
 72
     1
 11
402.5
 21
-140.9732704456430099
 31
0.0
  0
TEXT
  5
87B9
  8
0
 62
     3
 10
0.0
 20
0.0
 30
0.0
 40
10.0
  1
QCWESA1636-20S
  7
STANDARD1
  0
TEXT
  5
884B
  8
0
 62
     3
 10
135.0
 20
-7.0
 30
0.0
 40
3.2000000000000002
  1
■Installation Instructions for Retractable Heavy Duty Knob-Locking pins (see diagram below)
  0
TEXT
  5
884C
  8
0
 62
     3
 10
153.7799999999998875
 20
-26.1680981886338913
 30
0.0
 40
3.2000000000000002
  1
For installation on plate of 6 mm thickness.
 72
     1
 11
212.4999999999998863
 21
-26.5947648553005607
 31
0.0
 73
     1
  0
TEXT
  5
884D
  8
0
 62
     3
 10
293.3666666666666742
 20
-26.1680981886338913
 30
0.0
 40
3.2000000000000002
  1
For installation on plate of over 6 to 20 mm thickness.
 72
     1
 11
367.4999999999998863
 21
-26.5947648553005607
 31
0.0
 73
     1
  0
TEXT
  5
884E
  8
0
 62
     3
 10
152.5399999999997931
 20
-147.9732704456430099
 30
0.0
 40
3.2000000000000002
  1
Installed condition
 72
     1
 11
177.4999999999998863
 21
-147.9732704456430099
 31
0.0
  0
TEXT
  5
884F
  8
0
 62
     3
 10
225.4733333333333007
 20
-147.9732704456430099
 30
0.0
 40
3.2000000000000002
  1
Installation hole
 72
     1
 11
247.5
 21
-147.9732704456430099
 31
0.0
  0
TEXT
  5
8850
  8
0
 62
     3
 10
307.5399999999999068
 20
-147.9732704456430099
 30
0.0
 40
3.2000000000000002
  1
Installed condition
 72
     1
 11
332.4999999999998863
 21
-147.9732704456430099
 31
0.0
  0
TEXT
  5
8851
  8
0
 62
     3
 10
380.4733333333333007
 20
-147.9732704456430099
 30
0.0
 40
3.2000000000000002
  1
Installation hole
 72
     1
 11
402.5
 21
-147.9732704456430099
 31
0.0
  0
CIRCLE
  5
220E4
  8
0
 10
125.0000003725290014
 20
252.2999998753078899
 30
0.0
 40
4.1000000000000218
  0
LINE
  5
220E5
  8
0
 10
125.0000003725290014
 20
250.8566242023337907
 30
0.0
 11
126.2500003725290014
 21
251.5783120388209113
 31
0.0
  0
LINE
  5
220E6
  8
0
 10
126.2500003725290014
 20
251.5783120388209113
 30
0.0
 11
126.2500003725290014
 21
253.0216877117950105
 31
0.0
  0
LINE
  5
220E7
  8
0
 10
126.2500003725290014
 20
253.0216877117950105
 30
0.0
 11
125.0000003725290014
 21
253.743375548281989
 31
0.0
  0
LINE
  5
220E8
  8
0
 10
125.0000003725290014
 20
253.743375548281989
 30
0.0
 11
123.7500003725290014
 21
253.0216877117950105
 31
0.0
  0
LINE
  5
220E9
  8
0
 10
123.7500003725290014
 20
253.0216877117950105
 30
0.0
 11
123.7500003725290014
 21
251.5783120388209113
 31
0.0
  0
LINE
  5
220EA
  8
0
 10
123.7500003725290014
 20
251.5783120388209113
 30
0.0
 11
125.0000003725290014
 21
250.8566242023337907
 31
0.0
  0
CIRCLE
  5
220EB
  8
0
 10
125.0000003725290014
 20
252.2999998753078899
 30
0.0
 40
11.2543330950302405
  0
CIRCLE
  5
220EC
  8
0
 10
125.0000003725290014
 20
252.2999998753078899
 30
0.0
 40
10.7366950048252008
  0
CIRCLE
  5
220ED
  8
0
 10
125.0000003725290014
 20
252.2999998753078899
 30
0.0
 40
4.450000000000002
  0
ARC
  5
220EE
  8
0
 10
108.2955386680809937
 20
275.3913610124225215
 30
0.0
 40
12.0000000000001599
 50
305.8822558217302117
 51
337.4999999999940883
  0
ARC
  5
220EF
  8
0
 10
141.7044620769769949
 20
229.208638738193514
 30
0.0
 40
11.9999999999998703
 50
125.8822558217301975
 51
157.499999999994202
  0
ARC
  5
220F0
  8
0
 10
141.7044620769769949
 20
275.3913610124226921
 30
0.0
 40
12.0000000000003997
 50
202.500000000005798
 51
234.1177441782697883
  0
ARC
  5
220F1
  8
0
 10
108.2955386680809937
 20
229.2086387381932866
 30
0.0
 40
12.0000000000003499
 50
22.50000000000583
 51
54.1177441782697883
  0
ARC
  5
220F2
  8
0
 10
125.0000003725290014
 20
252.2999998753078899
 30
0.0
 40
16.4999999999999787
 50
305.8822558217302117
 51
54.1177441782697883
  0
ARC
  5
220F3
  8
0
 10
125.0000003725290014
 20
252.2999998753078899
 30
0.0
 40
16.4999999999999893
 50
125.8822558217301975
 51
234.1177441782697883
  0
LINE
  5
220F4
  8
0
 10
128.7003982867676939
 20
275.4284370236766222
 30
0.0
 11
130.6179076868411073
 21
270.7991598240412827
 31
0.0
  0
LINE
  5
220F5
  8
0
 10
119.3820930582168955
 20
270.7991598240413964
 30
0.0
 11
121.2996024582902947
 21
275.4284370236766222
 31
0.0
  0
ARC
  5
220F6
  8
0
 10
125.0000003725290014
 20
252.2999998753078899
 30
0.0
 40
25.0000000000000213
 50
87.5804632629277364
 51
92.4195367370722636
  0
LINE
  5
220F7
  8
0
 10
130.6179076868411073
 20
233.8008399265746107
 30
0.0
 11
128.7003982867676939
 21
229.1715627269391859
 31
0.0
  0
ARC
  5
220F8
  8
0
 10
125.0000003725290014
 20
252.2999998753078899
 30
0.0
 40
24.9999999999999893
 50
267.580463262927708
 51
272.419536737072292
  0
LINE
  5
220F9
  8
0
 10
121.2996024582902947
 20
229.1715627269391859
 30
0.0
 11
119.3820930582168955
 21
233.8008399265746107
 31
0.0
  0
ARC
  5
220FA
  8
0
 10
124.0712410558244017
 20
274.2803867265806161
 30
0.0
 40
3.0000000000007478
 50
92.4195367370853091
 51
157.499999999994202
  0
ARC
  5
220FB
  8
0
 10
125.927936194975203
 20
274.2792088955205259
 30
0.0
 40
3.00121164548134
 50
22.5147579474125088
 51
87.5657053155159275
  0
ARC
  5
220FC
  8
0
 10
125.9287596892332033
 20
230.319613024035192
 30
0.0
 40
3.000000000000794
 50
272.4195367370853091
 51
337.4999999999940883
  0
ARC
  5
220FD
  8
0
 10
124.0720645500827999
 20
230.320790855095197
 30
0.0
 40
3.0012116454812068
 50
202.5147579474125052
 51
267.5657053155159133
  0
ARC
  5
220FE
  8
0
 10
125.0000003725290014
 20
252.2999998753078899
 30
0.0
 40
18.0000000000000391
 50
111.1456120992572068
 51
248.8543879007428075
  0
ARC
  5
220FF
  8
0
 10
125.0000003725290014
 20
252.2999998753078899
 30
0.0
 40
18.0000000000000107
 50
291.145612099257221
 51
68.8543879007428075
  0
ARC
  5
22100
  8
0
 10
125.0000003725290014
 20
252.2999998753078899
 30
0.0
 40
17.3420201433256693
 50
294.4829486842975257
 51
65.5170513157025027
  0
ARC
  5
22101
  8
0
 10
125.0000003725290014
 20
252.2999998753078899
 30
0.0
 40
17.3420201433256693
 50
114.4829486842974973
 51
245.5170513157025027
  0
LINE
  5
22102
  8
1
 10
125.0000003725290014
 20
282.2999998753078899
 30
0.0
 11
125.0000003725290014
 21
222.2999998753080035
 31
0.0
  0
LINE
  5
22103
  8
1
 10
155.0000003725290014
 20
252.2999998753078899
 30
0.0
 11
95.0000003725290583
 21
252.2999998753078899
 31
0.0
  0
CIRCLE
  5
22105
  8
1
 10
125.0000003725290014
 20
252.2999998753078899
 30
0.0
 40
15.0
  0
ARC
  5
224C6
  8
0
 10
68.0000001862645149
 20
169.8000000745057889
 30
0.0
 40
0.5000000000000142
 50
270.0
 51
0.0
  0
ARC
  5
224C7
  8
0
 10
36.0000001862649697
 20
169.8000000745057889
 30
0.0
 40
0.500000000000057
 50
180.0
 51
270.0
  0
LINE
  5
224C8
  8
0
 10
68.5000001862645149
 20
169.8000000745057889
 30
0.0
 11
68.5000001862645149
 21
175.8000000745057889
 31
0.0
  0
LINE
  5
224C9
  8
0
 10
35.500000186264522
 20
175.8000000745057889
 30
0.0
 11
35.500000186264522
 21
169.8000000745057889
 31
0.0
  0
LINE
  5
224CA
  8
0
 10
72.5529144568799893
 20
194.7403044103307934
 30
0.0
 11
63.2543332812947483
 21
197.2318517270840061
 31
0.0
  0
LINE
  5
224CB
  8
0
 10
40.7456670912347292
 20
197.2318517270840061
 30
0.0
 11
31.4470859156494917
 21
194.7403044103307934
 31
0.0
  0
ARC
  5
224CC
  8
0
 10
62.7366951910898933
 20
195.3000000745057889
 30
0.0
 40
1.9999999999999809
 50
75.0000000000055564
 51
90.0
  0
ARC
  5
224CD
  8
0
 10
41.2633051814395913
 20
195.3000000745057889
 30
0.0
 40
1.9999999999999809
 50
90.0
 51
104.9999999999944009
  0
ARC
  5
224CE
  8
0
 10
69.0000001862649697
 20
175.8000000745057889
 30
0.0
 40
0.5000000000000142
 50
90.0
 51
180.0
  0
ARC
  5
224CF
  8
0
 10
35.0000001862645078
 20
175.8000000745057889
 30
0.0
 40
0.5000000000000142
 50
0.0
 51
90.0
  0
ARC
  5
224D0
  8
0
 10
71.0000001862645149
 20
188.9447494525963975
 30
0.0
 40
6.0000000000000142
 50
0.0
 51
75.0000000000055564
  0
ARC
  5
224D1
  8
0
 10
33.0000001862649697
 20
188.9447494525963975
 30
0.0
 40
6.0000000000000142
 50
104.9999999999944009
 51
180.0
  0
LINE
  5
224D2
  8
0
 10
77.0000001862645149
 20
176.8000000745057889
 30
0.0
 11
77.0000001862645149
 21
188.9447494525963975
 31
0.0
  0
ARC
  5
224D3
  8
0
 10
76.5000001862649697
 20
176.8000000745057889
 30
0.0
 40
0.5000000000000142
 50
270.0
 51
0.0
  0
ARC
  5
224D4
  8
0
 10
27.5000001862645114
 20
176.8000000745057889
 30
0.0
 40
0.5000000000000142
 50
180.0
 51
270.0
  0
LINE
  5
224D5
  8
0
 10
27.0000001862649697
 20
188.9447494525963975
 30
0.0
 11
27.0000001862649697
 21
176.8000000745057889
 31
0.0
  0
LINE
  5
224D6
  8
0
 10
68.0000001862645149
 20
169.3000000745057889
 30
0.0
 11
36.0000001862649697
 21
169.3000000745057889
 31
0.0
  0
LINE
  5
224D7
  8
0
 10
41.2633051814395913
 20
197.3000000745057889
 30
0.0
 11
62.7366951910898933
 21
197.3000000745057889
 31
0.0
  0
LINE
  5
224D8
  8
0
 10
76.5000001862649697
 20
176.3000000745057889
 30
0.0
 11
67.6365351114632176
 21
176.3000000745057889
 31
0.0
  0
LINE
  5
224D9
  8
0
 10
67.5541795686931437
 20
176.3112885744077118
 30
0.0
 11
67.6365351114632176
 21
176.3000000745057889
 31
0.0
  0
LINE
  5
224DA
  8
0
 10
36.3634652610658122
 20
176.3000000745057889
 30
0.0
 11
36.4350632571154165
 21
176.3098140341276974
 31
0.0
  0
LINE
  5
224DB
  8
0
 10
36.3634652610658122
 20
176.3000000745057889
 30
0.0
 11
27.5000001862645114
 21
176.3000000745057889
 31
0.0
  0
LINE
  5
224DC
  8
0
 10
35.500000186264522
 20
169.8000000745057889
 30
0.0
 11
68.5000001862645149
 21
169.8000000745057889
 31
0.0
  0
LINE
  5
224DD
  8
0
 10
38.6313174226720619
 20
194.2916255401767955
 30
0.0
 11
38.6313174226720619
 21
176.8000000745057889
 31
0.0
  0
LINE
  5
224DE
  8
0
 10
65.3686829498574298
 20
194.2916255401767955
 30
0.0
 11
38.6313174226720619
 21
194.2916255401767955
 31
0.0
  0
LINE
  5
224DF
  8
0
 10
65.3686829498574298
 20
176.8000000745057889
 30
0.0
 11
65.3686829498574298
 21
194.2916255401767955
 31
0.0
  0
ARC
  5
224E0
  8
0
 10
64.0350142836059604
 20
173.2403798989531936
 30
0.0
 40
21.0934495793948784
 50
72.1544131791518453
 51
86.374960418647845
  0
POLYLINE
  5
224E1
  8
0
 66
     1
 10
0.0
 20
0.0
 30
0.0
 70
   128
  0
VERTEX
  5
23C84
  8
0
 10
70.4991601349979646
 20
176.8000000745057889
 30
0.0
  0
VERTEX
  5
23C85
  8
0
 10
70.4954835575745165
 20
176.7024549134978031
 30
0.0
  0
VERTEX
  5
23C86
  8
0
 10
70.4845951141119258
 20
176.608658358323197
 30
0.0
  0
VERTEX
  5
23C87
  8
0
 10
70.466913241386905
 20
176.5222149579959989
 30
0.0
  0
VERTEX
  5
23C88
  8
0
 10
70.443117443851861
 20
176.4464466839125123
 30
0.0
  0
VERTEX
  5
23C89
  8
0
 10
70.4141221806612521
 20
176.3842652683545111
 30
0.0
  0
VERTEX
  5
23C8A
  8
0
 10
70.3810417235185923
 20
176.3380603082501068
 30
0.0
  0
VERTEX
  5
23C8B
  8
0
 10
70.3451473358404655
 20
176.3096074343042972
 30
0.0
  0
VERTEX
  5
23C8C
  8
0
 10
70.3078184188152591
 20
176.3000000745057889
 30
0.0
  0
SEQEND
  5
23C8D
  8
0
  0
ARC
  5
224E2
  8
0
 10
68.8508726233303605
 20
187.241122405085008
 30
0.0
 40
11.0064835639799803
 50
251.5560850128292998
 51
263.234170964573309
  0
LINE
  5
224E3
  8
0
 10
70.4991601349979646
 20
193.3189364598815985
 30
0.0
 11
70.4991601349979646
 21
176.8000000745057889
 31
0.0
  0
ARC
  5
224E4
  8
0
 10
39.7833193840365311
 20
174.1985862812425125
 30
0.0
 40
20.1260362510867488
 50
93.2813687337935136
 51
108.1892576684221012
  0
ARC
  5
224E5
  8
0
 10
35.1445855570805179
 20
187.2569319428164079
 30
0.0
 40
11.0229180891913696
 50
276.723163095064308
 51
288.4403134566073845
  0
POLYLINE
  5
224E6
  8
0
 66
     1
 10
0.0
 20
0.0
 30
0.0
 70
   128
  0
VERTEX
  5
23C8E
  8
0
 10
33.50084023753152
 20
176.8000000745057889
 30
0.0
  0
VERTEX
  5
23C8F
  8
0
 10
33.5045168149549681
 20
176.7024549134978031
 30
0.0
  0
VERTEX
  5
23C90
  8
0
 10
33.5154052584171112
 20
176.608658358323197
 30
0.0
  0
VERTEX
  5
23C91
  8
0
 10
33.5330871311421106
 20
176.5222149579959989
 30
0.0
  0
VERTEX
  5
23C92
  8
0
 10
33.5568829286771688
 20
176.4464466839125123
 30
0.0
  0
VERTEX
  5
23C93
  8
0
 10
33.5858781918682325
 20
176.3842652683545111
 30
0.0
  0
VERTEX
  5
23C94
  8
0
 10
33.6189586490104375
 20
176.3380603082501068
 30
0.0
  0
VERTEX
  5
23C95
  8
0
 10
33.6548530366885714
 20
176.3096074343042972
 30
0.0
  0
VERTEX
  5
23C96
  8
0
 10
33.6921819537142326
 20
176.3000000745057889
 30
0.0
  0
SEQEND
  5
23C97
  8
0
  0
LINE
  5
224E7
  8
0
 10
33.50084023753152
 20
176.8000000745057889
 30
0.0
 11
33.50084023753152
 21
193.3189364598815985
 31
0.0
  0
POLYLINE
  5
224E8
  8
0
 66
     1
 10
0.0
 20
0.0
 30
0.0
 70
   128
  0
VERTEX
  5
23C98
  8
0
 10
75.1284373346334036
 20
176.8000000745057889
 30
0.0
  0
VERTEX
  5
23C99
  8
0
 10
75.1247607572099554
 20
176.7024549134978031
 30
0.0
  0
VERTEX
  5
23C9A
  8
0
 10
75.1138723137473789
 20
176.608658358323197
 30
0.0
  0
VERTEX
  5
23C9B
  8
0
 10
75.0961904410228271
 20
176.5222149579959989
 30
0.0
  0
VERTEX
  5
23C9C
  8
0
 10
75.0723946434873142
 20
176.4464466839125123
 30
0.0
  0
VERTEX
  5
23C9D
  8
0
 10
75.0433993802967052
 20
176.3842652683545111
 30
0.0
  0
VERTEX
  5
23C9E
  8
0
 10
75.0103189231540455
 20
176.3380603082501068
 30
0.0
  0
VERTEX
  5
23C9F
  8
0
 10
74.9744245354759045
 20
176.3096074343042972
 30
0.0
  0
VERTEX
  5
23CA0
  8
0
 10
74.9370956184507122
 20
176.3000000745057889
 30
0.0
  0
SEQEND
  5
23CA1
  8
0
  0
LINE
  5
224E9
  8
0
 10
72.5889919510113941
 20
192.8084527577526899
 30
0.0
 11
70.4991601349979646
 21
193.3189364598815985
 31
0.0
  0
ARC
  5
224EA
  8
0
 10
71.6320548595808759
 20
188.7939885280881072
 30
0.0
 40
4.1269421668122286
 50
32.0906117530780222
 51
76.5924800751046462
  0
LINE
  5
224EB
  8
0
 10
75.1284373346334036
 20
176.8000000745057889
 30
0.0
 11
75.1284373346334036
 21
190.9864668601038886
 31
0.0
  0
POLYLINE
  5
224EC
  8
0
 66
     1
 10
0.0
 20
0.0
 30
0.0
 70
   128
  0
VERTEX
  5
23CA2
  8
0
 10
28.8715630378960704
 20
176.8000000745057889
 30
0.0
  0
VERTEX
  5
23CA3
  8
0
 10
28.8752396153195185
 20
176.7024549134978031
 30
0.0
  0
VERTEX
  5
23CA4
  8
0
 10
28.8861280587820985
 20
176.608658358323197
 30
0.0
  0
VERTEX
  5
23CA5
  8
0
 10
28.903809931506661
 20
176.5222149579959989
 30
0.0
  0
VERTEX
  5
23CA6
  8
0
 10
28.9276057290421704
 20
176.4464466839125123
 30
0.0
  0
VERTEX
  5
23CA7
  8
0
 10
28.9566009922327794
 20
176.3842652683545111
 30
0.0
  0
VERTEX
  5
23CA8
  8
0
 10
28.9896814493754391
 20
176.3380603082501068
 30
0.0
  0
VERTEX
  5
23CA9
  8
0
 10
29.0255758370535695
 20
176.3096074343042972
 30
0.0
  0
VERTEX
  5
23CAA
  8
0
 10
29.0629047540787688
 20
176.3000000745057889
 30
0.0
  0
SEQEND
  5
23CAB
  8
0
  0
LINE
  5
224ED
  8
0
 10
33.50084023753152
 20
193.3189364598815985
 30
0.0
 11
31.4110084215180905
 21
192.8084527577526899
 31
0.0
  0
ARC
  5
224EE
  8
0
 10
32.3709124761953717
 20
188.7898532375068896
 30
0.0
 40
4.1316531677170314
 50
103.4342457849630961
 51
147.882662386851905
  0
LINE
  5
224EF
  8
0
 10
28.8715630378960704
 20
190.9864668601038886
 30
0.0
 11
28.8715630378960704
 21
176.8000000745057889
 31
0.0
  0
ARC
  5
224F0
  8
0
 10
74.0958135812284127
 20
188.1928286240874968
 30
0.0
 40
2.9783764721454249
 50
14.6231282929928295
 51
69.7139722037665308
  0
ARC
  5
224F1
  8
0
 10
29.9046596647072001
 20
188.1924003213991057
 30
0.0
 40
2.9789421718183551
 50
110.2917026162008938
 51
165.3711968870443059
  0
LINE
  5
224F2
  8
0
 10
77.0000001862645149
 20
188.9447494525963975
 30
0.0
 11
76.9777125172572454
 21
188.9447494525963975
 31
0.0
  0
LINE
  5
224F3
  8
0
 10
27.0222878552717702
 20
188.9447494525963975
 30
0.0
 11
27.0000001862649697
 21
188.9447494525963975
 31
0.0
  0
LINE
  5
224F4
  8
1
 10
52.0000001862645078
 20
202.3000000745057889
 30
0.0
 11
52.0000001862645078
 21
121.0000000745059054
 31
0.0
  0
LINE
  5
224F5
  8
0
 10
34.0000001859684673
 20
132.0000000745058912
 30
0.0
 11
34.5000001859684815
 21
131.5000000745056923
 31
0.0
  0
LINE
  5
224F6
  8
0
 10
69.5000001859689291
 20
131.5000000745056923
 30
0.0
 11
70.0000001859684744
 21
132.0000000745058912
 31
0.0
  0
ARC
  5
224F7
  8
0
 10
35.0000001859684815
 20
143.5258967163642865
 30
0.0
 40
1.000000000000032
 50
110.0000000000036948
 51
180.0
  0
ARC
  5
224F8
  8
0
 10
69.0000001859684744
 20
143.5258967163642865
 30
0.0
 40
1.000000000000032
 50
0.0
 51
69.999999999996291
  0
LINE
  5
224F9
  8
0
 10
34.0000001859684673
 20
143.5258967163642865
 30
0.0
 11
34.0000001859684673
 21
132.0000000745058912
 31
0.0
  0
LINE
  5
224FA
  8
0
 10
70.0000001859684744
 20
132.0000000745058912
 30
0.0
 11
70.0000001859684744
 21
143.5258967163642865
 31
0.0
  0
LINE
  5
224FB
  8
0
 10
69.3420203292939732
 20
144.4655893371503055
 30
0.0
 11
66.7631921286383658
 21
145.4042060414753053
 31
0.0
  0
LINE
  5
224FC
  8
0
 10
37.236808243298583
 20
145.4042060414753053
 30
0.0
 11
34.6579800426425209
 21
144.4655893371503055
 31
0.0
  0
ARC
  5
224FD
  8
0
 10
66.9000001859685653
 20
145.7800830897897129
 30
0.0
 40
0.400000000000056
 50
180.0
 51
249.9999999999963052
  0
ARC
  5
224FE
  8
0
 10
37.1000001859683906
 20
145.7800830897897129
 30
0.0
 40
0.4000000000000487
 50
290.0000000000036948
 51
0.0
  0
LINE
  5
224FF
  8
0
 10
66.5000001859689291
 20
145.7800830897897129
 30
0.0
 11
66.5000001859689291
 21
153.4996527337889063
 31
0.0
  0
LINE
  5
22500
  8
0
 10
66.5000001859689291
 20
155.5000007523782131
 30
0.0
 11
66.5000001859689291
 21
169.3000000745057889
 31
0.0
  0
LINE
  5
22501
  8
0
 10
37.5000001859684815
 20
169.3000000745057889
 30
0.0
 11
37.5000001859684815
 21
155.5003474242969048
 31
0.0
  0
LINE
  5
22502
  8
0
 10
37.5000001859684815
 20
153.4999993877970041
 30
0.0
 11
37.5000001859684815
 21
145.7800830897897129
 31
0.0
  0
LINE
  5
22503
  8
0
 10
42.0000001859684673
 20
131.5000000745056923
 30
0.0
 11
42.0000001859684673
 21
126.5000000745057065
 31
0.0
  0
LINE
  5
22504
  8
0
 10
62.0000001859684673
 20
126.5000000745057065
 30
0.0
 11
62.0000001859684673
 21
131.5000000745056923
 31
0.0
  0
LINE
  5
22505
  8
0
 10
42.0000001859684673
 20
126.5000000745057065
 30
0.0
 11
42.5000001859684673
 21
126.0000000745059054
 31
0.0
  0
LINE
  5
22506
  8
0
 10
61.5000001859684673
 20
126.0000000745059054
 30
0.0
 11
62.0000001859684673
 21
126.5000000745057065
 31
0.0
  0
LINE
  5
22507
  8
0
 10
34.0000001859684673
 20
132.0000000745058912
 30
0.0
 11
70.0000001859684744
 21
132.0000000745058912
 31
0.0
  0
LINE
  5
22508
  8
0
 10
69.5000001859689291
 20
131.5000000745056923
 30
0.0
 11
34.5000001859684815
 21
131.5000000745056923
 31
0.0
  0
LINE
  5
22509
  8
0
 10
42.0000001859684673
 20
126.5000000745057065
 30
0.0
 11
49.250000201165669
 21
126.5000000745057065
 31
0.0
  0
LINE
  5
2250A
  8
0
 10
54.7500001713633466
 20
126.5000000745057065
 30
0.0
 11
62.0000001859684673
 21
126.5000000745057065
 31
0.0
  0
LINE
  5
2250B
  8
0
 10
61.5000001859684673
 20
126.0000000745059054
 30
0.0
 11
42.5000001859684673
 21
126.0000000745059054
 31
0.0
  0
LINE
  5
2250C
  8
0
 10
34.6579800426425209
 20
144.4655893371503055
 30
0.0
 11
69.3420203292939732
 21
144.4655893371503055
 31
0.0
  0
LINE
  5
2250D
  8
0
 10
66.7631921286383658
 20
145.4042060414753053
 30
0.0
 11
37.236808243298583
 21
145.4042060414753053
 31
0.0
  0
POLYLINE
  5
2250E
  8
0
 66
     1
 10
0.0
 20
0.0
 30
0.0
 70
   128
  0
VERTEX
  5
23CAC
  8
0
 10
66.5000001859689291
 20
153.4996527337889063
 30
0.0
  0
VERTEX
  5
23CAD
  8
0
 10
66.4934353777516662
 20
153.6001869551137986
 30
0.0
  0
VERTEX
  5
23CAE
  8
0
 10
66.4826521700906596
 20
153.7948699555813903
 30
0.0
  0
VERTEX
  5
23CAF
  8
0
 10
66.4718840640252893
 20
154.0693923976292865
 30
0.0
  0
VERTEX
  5
23CB0
  8
0
 10
66.4658748739111616
 20
154.3926200079961006
 30
0.0
  0
VERTEX
  5
23CB1
  8
0
 10
66.4672625805751522
 20
154.7273350384346031
 30
0.0
  0
VERTEX
  5
23CB2
  8
0
 10
66.475408133977453
 20
155.0361299586841142
 30
0.0
  0
VERTEX
  5
23CB3
  8
0
 10
66.4867645173244455
 20
155.2850738186016883
 30
0.0
  0
VERTEX
  5
23CB4
  8
0
 10
66.4963707587012323
 20
155.4459174987044889
 30
0.0
  0
VERTEX
  5
23CB5
  8
0
 10
66.5000001859689291
 20
155.5000007523782131
 30
0.0
  0
SEQEND
  5
23CB6
  8
0
  0
POLYLINE
  5
2250F
  8
0
 66
     1
 10
0.0
 20
0.0
 30
0.0
 70
   128
  0
VERTEX
  5
23CB7
  8
0
 10
37.5000001859684815
 20
155.5003474242969048
 30
0.0
  0
VERTEX
  5
23CB8
  8
0
 10
37.5065649947778184
 20
155.3998131938978986
 30
0.0
  0
VERTEX
  5
23CB9
  8
0
 10
37.5173482024388179
 20
155.2051301934301932
 30
0.0
  0
VERTEX
  5
23CBA
  8
0
 10
37.5281163085042024
 20
154.9306077513824107
 30
0.0
  0
VERTEX
  5
23CBB
  8
0
 10
37.534125498618323
 20
154.6073801410155966
 30
0.0
  0
VERTEX
  5
23CBC
  8
0
 10
37.5327377919543395
 20
154.2726651105770941
 30
0.0
  0
VERTEX
  5
23CBD
  8
0
 10
37.5245922385515769
 20
153.9638701903276115
 30
0.0
  0
VERTEX
  5
23CBE
  8
0
 10
37.5132358552050391
 20
153.7149263304098952
 30
0.0
  0
VERTEX
  5
23CBF
  8
0
 10
37.5036296138282523
 20
153.5540826503070946
 30
0.0
  0
VERTEX
  5
23CC0
  8
0
 10
37.5000001859684815
 20
153.4999993877970041
 30
0.0
  0
SEQEND
  5
23CC1
  8
0
  0
LINE
  5
22510
  8
0
 10
70.0000001859681333
 20
143.5258975522592948
 30
0.0
 11
34.0000001859688226
 21
143.5258975522592948
 31
0.0
  0
LINE
  5
22511
  8
0
 10
37.5000001859684815
 20
145.7800837503748141
 30
0.0
 11
66.5000001859689291
 21
145.7800837503745868
 31
0.0
  0
LINE
  5
22512
  8
0
 10
39.7500001710673203
 20
125.9999999878927071
 30
0.0
 11
39.7500001710673203
 21
129.0000001303851036
 31
0.0
  0
LINE
  5
22513
  8
0
 10
34.2500002008696427
 20
129.0000001303851036
 30
0.0
 11
34.2500002008696427
 21
125.9999999878927071
 31
0.0
  0
LINE
  5
22514
  8
0
 10
38.5000004318376412
 20
129.0000001303851036
 30
0.0
 11
38.5000004318376412
 21
131.5000000745056923
 31
0.0
  0
LINE
  5
22515
  8
0
 10
35.5000008714218893
 20
131.5000000745056923
 30
0.0
 11
35.5000008714218893
 21
129.0000001303851036
 31
0.0
  0
LINE
  5
22516
  8
0
 10
39.7500001710673203
 20
125.9999999878927071
 30
0.0
 11
34.2500002008696427
 21
125.9999999878927071
 31
0.0
  0
LINE
  5
22517
  8
0
 10
39.7500001710673203
 20
129.0000001303851036
 30
0.0
 11
34.2500002008696427
 21
129.0000001303851036
 31
0.0
  0
LINE
  5
22518
  8
3
 10
38.2295001859683907
 20
130.5000000349245113
 30
0.0
 11
38.2295001859683907
 21
131.500000037252903
 31
0.0
  0
LINE
  5
22519
  8
3
 10
35.7705001859684515
 20
130.5000000349245113
 30
0.0
 11
35.7705001859684515
 21
131.500000037252903
 31
0.0
  0
LINE
  5
2251A
  8
3
 10
38.2295001859691865
 20
130.5000000349243976
 30
0.0
 11
38.5000001859684815
 21
130.0314802914784025
 31
0.0
  0
LINE
  5
2251B
  8
3
 10
35.7705001859676486
 20
130.5000000349243976
 30
0.0
 11
35.5000001859684673
 21
130.0314802914784025
 31
0.0
  0
LINE
  5
2251C
  8
0
 10
35.5000001859684673
 20
130.5000000349243976
 30
0.0
 11
38.5000001859683607
 21
130.5000000349243976
 31
0.0
  0
LINE
  5
2251D
  8
1
 10
37.0000001859684815
 20
133.500000037252903
 30
0.0
 11
37.0000001859684815
 21
124.0000000088474934
 31
0.0
  0
LINE
  5
2251E
  8
0
 10
54.7500001713633466
 20
125.9999999878927071
 30
0.0
 11
54.7500001713633466
 21
129.0000001303851036
 31
0.0
  0
LINE
  5
2251F
  8
0
 10
49.250000201165669
 20
129.0000001303851036
 30
0.0
 11
49.250000201165669
 21
125.9999999878927071
 31
0.0
  0
LINE
  5
22520
  8
0
 10
53.5000004321336675
 20
129.0000001303851036
 30
0.0
 11
53.5000004321336675
 21
131.5000000745056923
 31
0.0
  0
LINE
  5
22521
  8
0
 10
50.5000008717179298
 20
131.5000000745056923
 30
0.0
 11
50.5000008717179298
 21
129.0000001303851036
 31
0.0
  0
LINE
  5
22523
  8
0
 10
54.7500001713633466
 20
129.0000001303851036
 30
0.0
 11
49.250000201165669
 21
129.0000001303851036
 31
0.0
  0
LINE
  5
22524
  8
3
 10
53.2295001862644312
 20
130.5000000349245113
 30
0.0
 11
53.2295001862644312
 21
131.500000037252903
 31
0.0
  0
LINE
  5
22525
  8
3
 10
50.7705001862644778
 20
130.5000000349245113
 30
0.0
 11
50.7705001862644778
 21
131.500000037252903
 31
0.0
  0
LINE
  5
22526
  8
3
 10
53.2295001862652271
 20
130.5000000349243976
 30
0.0
 11
53.500000186264522
 21
130.0314802914784025
 31
0.0
  0
LINE
  5
22527
  8
3
 10
50.7705001862636891
 20
130.5000000349243976
 30
0.0
 11
50.500000186264522
 21
130.0314802914784025
 31
0.0
  0
LINE
  5
22528
  8
0
 10
50.500000186264522
 20
130.5000000349243976
 30
0.0
 11
53.5000001862644012
 21
130.5000000349243976
 31
0.0
  0
LINE
  5
22529
  8
0
 10
69.7500001710673132
 20
125.9999999878927071
 30
0.0
 11
69.7500001710673132
 21
129.0000001303851036
 31
0.0
  0
LINE
  5
2252A
  8
0
 10
64.2500002008696356
 20
129.0000001303851036
 30
0.0
 11
64.2500002008696356
 21
125.9999999878927071
 31
0.0
  0
LINE
  5
2252B
  8
0
 10
68.5000004318376341
 20
129.0000001303851036
 30
0.0
 11
68.5000004318376341
 21
131.5000000745056923
 31
0.0
  0
LINE
  5
2252C
  8
0
 10
65.5000008714218893
 20
131.5000000745056923
 30
0.0
 11
65.5000008714218893
 21
129.0000001303851036
 31
0.0
  0
LINE
  5
2252D
  8
0
 10
69.7500001710673132
 20
125.9999999878927071
 30
0.0
 11
64.2500002008696356
 21
125.9999999878927071
 31
0.0
  0
LINE
  5
2252E
  8
0
 10
69.7500001710673132
 20
129.0000001303851036
 30
0.0
 11
64.2500002008696356
 21
129.0000001303851036
 31
0.0
  0
LINE
  5
2252F
  8
3
 10
68.2295001859683907
 20
130.5000000349245113
 30
0.0
 11
68.2295001859683907
 21
131.500000037252903
 31
0.0
  0
LINE
  5
22530
  8
3
 10
65.7705001859684444
 20
130.5000000349245113
 30
0.0
 11
65.7705001859684444
 21
131.500000037252903
 31
0.0
  0
LINE
  5
22531
  8
3
 10
68.2295001859691865
 20
130.5000000349243976
 30
0.0
 11
68.5000001859684744
 21
130.0314802914784025
 31
0.0
  0
LINE
  5
22532
  8
3
 10
65.7705001859676344
 20
130.5000000349243976
 30
0.0
 11
65.5000001859684744
 21
130.0314802914784025
 31
0.0
  0
LINE
  5
22533
  8
0
 10
65.5000001859684744
 20
130.5000000349243976
 30
0.0
 11
68.5000001859683607
 21
130.5000000349243976
 31
0.0
  0
LINE
  5
22534
  8
1
 10
67.0000001859684744
 20
133.500000037252903
 30
0.0
 11
67.0000001859684744
 21
124.0000000088474934
 31
0.0
  0
LINE
  5
22535
  8
0
 10
51.4917222182280128
 20
142.4999998137353998
 30
0.0
 11
53.3054114067940574
 21
139.8677879199385927
 31
0.0
  0
LINE
  5
22536
  8
0
 10
53.3717336813001566
 20
138.5000000894069103
 30
0.0
 11
51.5630116725819789
 21
141.1241979524492933
 31
0.0
  0
ARC
  5
22537
  8
0
 10
48.1204590318079681
 20
140.5665056108825013
 30
0.0
 40
2.0362928523853041
 50
90.868539800176805
 51
181.8265133954278099
  0
ARC
  5
22538
  8
0
 10
48.1070165526230085
 20
140.4208287324597961
 30
0.0
 40
2.0234286186487549
 50
177.7121930339378082
 51
269.6616410439784204
  0
ARC
  5
22539
  8
0
 10
48.0861083406944019
 20
140.4422675082930141
 30
0.0
 40
2.044851737134413
 50
270.2510268681209027
 51
1.28097065177102
  0
ARC
  5
2253A
  8
0
 10
48.0608879394599171
 20
140.5327189222680033
 30
0.0
 40
2.070044608596417
 50
358.7616175049208778
 51
89.2054802960674635
  0
LINE
  5
2253B
  8
0
 10
50.8458123523760079
 20
138.5000000894069103
 30
0.0
 11
50.8458123523760079
 21
142.4999998137353998
 31
0.0
  0
LINE
  5
2253C
  8
0
 10
50.8458123523760079
 20
138.5000000894069103
 30
0.0
 11
51.5630116725819789
 21
138.5000000894069103
 31
0.0
  0
LINE
  5
2253D
  8
0
 10
51.5630116725819789
 20
141.1241979524492933
 30
0.0
 11
51.5630116725819789
 21
138.5000000894069103
 31
0.0
  0
LINE
  5
2253E
  8
0
 10
53.3717336813001566
 20
138.5000000894069103
 30
0.0
 11
54.0202414132668309
 21
138.5000000894069103
 31
0.0
  0
LINE
  5
2253F
  8
0
 10
54.0202414132668309
 20
142.4999998137353998
 30
0.0
 11
54.0202414132668309
 21
138.5000000894069103
 31
0.0
  0
LINE
  5
22540
  8
0
 10
53.3054114067940574
 20
142.4999998137353998
 30
0.0
 11
54.0202414132668309
 21
142.4999998137353998
 31
0.0
  0
LINE
  5
22541
  8
0
 10
53.3054114067940574
 20
139.8677879199385927
 30
0.0
 11
53.3054114067940574
 21
142.4999998137353998
 31
0.0
  0
LINE
  5
22542
  8
0
 10
50.8458123523760079
 20
142.4999998137353998
 30
0.0
 11
51.4917222182280128
 21
142.4999998137353998
 31
0.0
  0
POLYLINE
  5
22543
  8
0
 66
     1
 10
0.0
 20
0.0
 30
0.0
 70
   128
  0
VERTEX
  5
23CC2
  8
0
 10
65.3568516001123498
 20
140.5016022920609089
 30
0.0
  0
VERTEX
  5
23CC3
  8
0
 10
65.4595811367048555
 20
141.3045876845716862
 30
0.0
  0
VERTEX
  5
23CC4
  8
0
 10
65.7544937431825929
 20
141.9867498055101009
 30
0.0
  0
VERTEX
  5
23CC5
  8
0
 10
66.182579889894896
 20
142.4425036832689955
 30
0.0
  0
VERTEX
  5
23CC6
  8
0
 10
66.6618589758886628
 20
142.6025645062327101
 30
0.0
  0
SEQEND
  5
23CC7
  8
0
  0
POLYLINE
  5
22544
  8
0
 66
     1
 10
0.0
 20
0.0
 30
0.0
 70
   128
  0
VERTEX
  5
23CC8
  8
0
 10
66.6651120856417947
 20
138.3974353969097137
 30
0.0
  0
VERTEX
  5
23CC9
  8
0
 10
66.1823144629611306
 20
138.5469396784901903
 30
0.0
  0
VERTEX
  5
23CCA
  8
0
 10
65.9559248462333017
 20
138.7426738813520046
 30
0.0
  0
VERTEX
  5
23CCB
  8
0
 10
65.7553365901126199
 20
139.0099699795246977
 30
0.0
  0
VERTEX
  5
23CCC
  8
0
 10
65.4584654122609209
 20
139.694682061672296
 30
0.0
  0
VERTEX
  5
23CCD
  8
0
 10
65.3568516001123498
 20
140.5016022920609089
 30
0.0
  0
SEQEND
  5
23CCE
  8
0
  0
POLYLINE
  5
22545
  8
0
 66
     1
 10
0.0
 20
0.0
 30
0.0
 70
   128
  0
VERTEX
  5
23CCF
  8
0
 10
67.7626422122139047
 20
140.4879807680844976
 30
0.0
  0
VERTEX
  5
23CD0
  8
0
 10
67.6912451609987329
 20
139.6882531419396969
 30
0.0
  0
VERTEX
  5
23CD1
  8
0
 10
67.4664229601639818
 20
139.0109441429376034
 30
0.0
  0
VERTEX
  5
23CD2
  8
0
 10
67.113341808320456
 20
138.5502440109848976
 30
0.0
  0
VERTEX
  5
23CD3
  8
0
 10
66.6651120856417947
 20
138.3974353969097137
 30
0.0
  0
SEQEND
  5
23CD4
  8
0
  0
POLYLINE
  5
22546
  8
0
 66
     1
 10
0.0
 20
0.0
 30
0.0
 70
   128
  0
VERTEX
  5
23CD5
  8
0
 10
66.6618589758886628
 20
142.6025645062327101
 30
0.0
  0
VERTEX
  5
23CD6
  8
0
 10
67.112089179458053
 20
142.4435169622302055
 30
0.0
  0
VERTEX
  5
23CD7
  8
0
 10
67.4652774333972047
 20
141.9743967428802875
 30
0.0
  0
VERTEX
  5
23CD8
  8
0
 10
67.6911073252572351
 20
141.292517744004698
 30
0.0
  0
VERTEX
  5
23CD9
  8
0
 10
67.7626422122139047
 20
140.4879807680844976
 30
0.0
  0
SEQEND
  5
23CDA
  8
0
  0
POLYLINE
  5
22547
  8
0
 66
     1
 10
0.0
 20
0.0
 30
0.0
 70
   128
  0
VERTEX
  5
23CDB
  8
0
 10
64.6482035964745592
 20
140.4999994859099104
 30
0.0
  0
VERTEX
  5
23CDC
  8
0
 10
63.3592252135290366
 20
139.4999993219971088
 30
0.0
  0
VERTEX
  5
23CDD
  8
0
 10
61.9651498720063501
 20
138.5000000894069103
 30
0.0
  0
SEQEND
  5
23CDE
  8
0
  0
POLYLINE
  5
22548
  8
0
 66
     1
 10
0.0
 20
0.0
 30
0.0
 70
   128
  0
VERTEX
  5
23CDF
  8
0
 10
61.9651498720063501
 20
142.4999998137353998
 30
0.0
  0
VERTEX
  5
23CE0
  8
0
 10
63.3592252135290366
 20
141.4999996498227119
 30
0.0
  0
VERTEX
  5
23CE1
  8
0
 10
64.6482035964745592
 20
140.4999994859099104
 30
0.0
  0
SEQEND
  5
23CE2
  8
0
  0
LINE
  5
22549
  8
0
 10
61.9651498720063501
 20
141.4999996498227119
 30
0.0
 11
61.9651498720063501
 21
142.4999998137353998
 31
0.0
  0
LINE
  5
2254A
  8
0
 10
58.3492462039007478
 20
141.4999996498227119
 30
0.0
 11
61.9651498720063501
 21
141.4999996498227119
 31
0.0
  0
LINE
  5
2254B
  8
0
 10
58.3492462039007478
 20
142.4999998137353998
 30
0.0
 11
58.3492462039007478
 21
141.4999996498227119
 31
0.0
  0
POLYLINE
  5
2254C
  8
0
 66
     1
 10
0.0
 20
0.0
 30
0.0
 70
   128
  0
VERTEX
  5
23CE3
  8
0
 10
55.0105623416616325
 20
140.4999994859099104
 30
0.0
  0
VERTEX
  5
23CE4
  8
0
 10
56.7016541473581128
 20
141.4999996498227119
 30
0.0
  0
VERTEX
  5
23CE5
  8
0
 10
58.3492462039007478
 20
142.4999998137353998
 30
0.0
  0
SEQEND
  5
23CE6
  8
0
  0
POLYLINE
  5
2254D
  8
0
 66
     1
 10
0.0
 20
0.0
 30
0.0
 70
   128
  0
VERTEX
  5
23CE7
  8
0
 10
58.3492462039007478
 20
138.5000000894069103
 30
0.0
  0
VERTEX
  5
23CE8
  8
0
 10
56.7016541473581128
 20
139.4999993219971088
 30
0.0
  0
VERTEX
  5
23CE9
  8
0
 10
55.0105623416616325
 20
140.4999994859099104
 30
0.0
  0
SEQEND
  5
23CEA
  8
0
  0
LINE
  5
2254E
  8
0
 10
58.3492462039007478
 20
139.4999993219971088
 30
0.0
 11
58.3492462039007478
 21
138.5000000894069103
 31
0.0
  0
LINE
  5
2254F
  8
0
 10
58.3492462039007478
 20
139.4999993219971088
 30
0.0
 11
61.9651498720063501
 21
139.4999993219971088
 31
0.0
  0
LINE
  5
22550
  8
0
 10
61.9651498720063501
 20
138.5000000894069103
 30
0.0
 11
61.9651498720063501
 21
139.4999993219971088
 31
0.0
  0
LINE
  5
22551
  8
0
 10
69.1094575896877359
 20
138.5000000894069103
 30
0.0
 11
69.1094575896877359
 21
142.4999998137353998
 31
0.0
  0
LINE
  5
22552
  8
0
 10
69.1094575896877359
 20
138.5000000894069103
 30
0.0
 11
69.3188189044608407
 21
138.5000000894069103
 31
0.0
  0
LINE
  5
22553
  8
0
 10
69.3188189044608407
 20
140.2948719635604959
 30
0.0
 11
69.3188189044608407
 21
138.5000000894069103
 31
0.0
  0
LINE
  5
22554
  8
0
 10
69.3188189044608407
 20
140.2948719635604959
 30
0.0
 11
69.6134688779725366
 21
140.2948719635604959
 31
0.0
  0
LINE
  5
22555
  8
0
 10
69.6134688779725366
 20
141.0128210857509998
 30
0.0
 11
69.6134688779725366
 21
140.2948719635604959
 31
0.0
  0
LINE
  5
22556
  8
0
 10
69.3188189044608407
 20
141.0128210857509998
 30
0.0
 11
69.6134688779725366
 21
141.0128210857509998
 31
0.0
  0
LINE
  5
22557
  8
0
 10
69.3188189044608407
 20
141.7820506915450096
 30
0.0
 11
69.3188189044608407
 21
141.0128210857509998
 31
0.0
  0
LINE
  5
22558
  8
0
 10
69.3188189044608407
 20
141.7820506915450096
 30
0.0
 11
69.6134688779725366
 21
141.7820506915450096
 31
0.0
  0
LINE
  5
22559
  8
0
 10
69.6134688779725366
 20
142.4999998137353998
 30
0.0
 11
69.6134688779725366
 21
141.7820506915450096
 31
0.0
  0
LINE
  5
2255A
  8
0
 10
69.1094575896877359
 20
142.4999998137353998
 30
0.0
 11
69.6134688779725366
 21
142.4999998137353998
 31
0.0
  0
LINE
  5
2255B
  8
0
 10
68.0966778174060892
 20
138.5000000894069103
 30
0.0
 11
68.0966778174060892
 21
142.4999998137353998
 31
0.0
  0
LINE
  5
2255C
  8
0
 10
68.0966778174060892
 20
138.5000000894069103
 30
0.0
 11
68.4051057770861917
 21
138.5000000894069103
 31
0.0
  0
LINE
  5
2255D
  8
0
 10
68.4051057770861917
 20
140.2948719635604959
 30
0.0
 11
68.4051057770861917
 21
138.5000000894069103
 31
0.0
  0
LINE
  5
2255E
  8
0
 10
68.4051057770861917
 20
140.2948719635604959
 30
0.0
 11
68.8728793039931588
 21
140.2948719635604959
 31
0.0
  0
LINE
  5
2255F
  8
0
 10
68.8728793039931588
 20
141.0128210857509998
 30
0.0
 11
68.8728793039931588
 21
140.2948719635604959
 31
0.0
  0
LINE
  5
22560
  8
0
 10
68.4051057770861917
 20
141.0128210857509998
 30
0.0
 11
68.8728793039931588
 21
141.0128210857509998
 31
0.0
  0
LINE
  5
22561
  8
0
 10
68.4051057770861917
 20
141.7820506915450096
 30
0.0
 11
68.4051057770861917
 21
141.0128210857509998
 31
0.0
  0
LINE
  5
22562
  8
0
 10
68.4051057770861917
 20
141.7820506915450096
 30
0.0
 11
68.8728793039931588
 21
141.7820506915450096
 31
0.0
  0
LINE
  5
22563
  8
0
 10
68.8728793039931588
 20
142.4999998137353998
 30
0.0
 11
68.8728793039931588
 21
141.7820506915450096
 31
0.0
  0
LINE
  5
22564
  8
0
 10
68.0966778174060892
 20
142.4999998137353998
 30
0.0
 11
68.8728793039931588
 21
142.4999998137353998
 31
0.0
  0
ARC
  5
22565
  8
0
 10
48.0718117466735677
 20
140.5377850179096981
 30
0.0
 40
1.3468476890751311
 50
358.2900681770236133
 51
89.7094039632118552
  0
ARC
  5
22566
  8
0
 10
48.0818084885336177
 20
140.5683967177972136
 30
0.0
 40
1.316222473351037
 50
90.1378067715968712
 51
183.3280079391709876
  0
ARC
  5
22567
  8
0
 10
48.0798721685810122
 20
140.4542134036780112
 30
0.0
 40
1.338890534959982
 50
270.5498378683956275
 51
1.8568060513251261
  0
POLYLINE
  5
22568
  8
0
 66
     1
 10
0.0
 20
0.0
 30
0.0
 70
   128
  0
VERTEX
  5
23CEB
  8
0
 10
47.2404454350485068
 20
139.4230767339468002
 30
0.0
  0
VERTEX
  5
23CEC
  8
0
 10
47.6390030682105134
 20
139.1919746249915022
 30
0.0
  0
VERTEX
  5
23CED
  8
0
 10
48.0927206091596418
 20
139.1153845191001039
 30
0.0
  0
SEQEND
  5
23CEE
  8
0
  0
ARC
  5
22569
  8
0
 10
48.0716283849264983
 20
140.4295492312633939
 30
0.0
 40
1.3053168136594511
 50
177.2582866927866974
 51
230.4488210506978874
  0
POLYLINE
  5
2256A
  8
0
 66
     1
 10
0.0
 20
0.0
 30
0.0
 70
   128
  0
VERTEX
  5
23CEF
  8
0
 10
66.6553490310921006
 20
141.8846153840422062
 30
0.0
  0
VERTEX
  5
23CF0
  8
0
 10
66.3409252166761689
 20
141.7849843576549915
 30
0.0
  0
VERTEX
  5
23CF1
  8
0
 10
66.1973162069934915
 20
141.6574453189969063
 30
0.0
  0
VERTEX
  5
23CF2
  8
0
 10
66.0676043927683168
 20
141.4800265058875084
 30
0.0
  0
VERTEX
  5
23CF3
  8
0
 10
65.9616180211319261
 20
141.2671671435236078
 30
0.0
  0
VERTEX
  5
23CF4
  8
0
 10
65.8849170878547739
 20
141.0250027850269987
 30
0.0
  0
VERTEX
  5
23CF5
  8
0
 10
65.8273762539042764
 20
140.4919873178004934
 30
0.0
  0
SEQEND
  5
23CF6
  8
0
  0
POLYLINE
  5
2256B
  8
0
 66
     1
 10
0.0
 20
0.0
 30
0.0
 70
   128
  0
VERTEX
  5
23CF7
  8
0
 10
67.4035363346356462
 20
140.4975957423449131
 30
0.0
  0
VERTEX
  5
23CF8
  8
0
 10
67.3533976525081926
 20
141.0271932557224943
 30
0.0
  0
VERTEX
  5
23CF9
  8
0
 10
67.1971729472293191
 20
141.4766607061029049
 30
0.0
  0
VERTEX
  5
23CFA
  8
0
 10
67.0859618559493356
 20
141.6521032527089119
 30
0.0
  0
VERTEX
  5
23CFB
  8
0
 10
66.9556325748581003
 20
141.7826281115412996
 30
0.0
  0
VERTEX
  5
23CFC
  8
0
 10
66.6553490310921006
 20
141.8846153840422062
 30
0.0
  0
SEQEND
  5
23CFD
  8
0
  0
POLYLINE
  5
2256C
  8
0
 66
     1
 10
0.0
 20
0.0
 30
0.0
 70
   128
  0
VERTEX
  5
23CFE
  8
0
 10
66.6637178957475953
 20
139.1153845191001039
 30
0.0
  0
VERTEX
  5
23CFF
  8
0
 10
66.9616470560445123
 20
139.2172898352145864
 30
0.0
  0
VERTEX
  5
23D00
  8
0
 10
67.0876931846155458
 20
139.3439832329750914
 30
0.0
  0
VERTEX
  5
23D01
  8
0
 10
67.2008311823028635
 20
139.5230234786868948
 30
0.0
  0
VERTEX
  5
23D02
  8
0
 10
67.3547704219836305
 20
139.9710483103989986
 30
0.0
  0
VERTEX
  5
23D03
  8
0
 10
67.4035363346356462
 20
140.4975957423449131
 30
0.0
  0
SEQEND
  5
23D04
  8
0
  0
POLYLINE
  5
2256D
  8
0
 66
     1
 10
0.0
 20
0.0
 30
0.0
 70
   128
  0
VERTEX
  5
23D05
  8
0
 10
66.1371546313180261
 20
139.4230767339468002
 30
0.0
  0
VERTEX
  5
23D06
  8
0
 10
66.3884599208849977
 20
139.1919746249915022
 30
0.0
  0
VERTEX
  5
23D07
  8
0
 10
66.6637178957475953
 20
139.1153845191001039
 30
0.0
  0
SEQEND
  5
23D08
  8
0
  0
ARC
  5
2256E
  8
0
 10
67.4706301680284923
 20
140.3888713882151933
 30
0.0
 40
1.646486052543132
 50
176.4093369817443033
 51
215.9146396209627028
  0
LINE
  5
2256F
  8
0
 10
140.0176384556982896
 20
196.2234771555021098
 30
0.0
 11
136.2543334605236964
 21
197.2318516898311032
 31
0.0
  0
LINE
  5
22570
  8
0
 10
113.7456672704632012
 20
197.2318516898311032
 30
0.0
 11
109.9823622752880965
 21
196.2234771555021098
 31
0.0
  0
ARC
  5
22571
  8
0
 10
141.0000003654938894
 20
169.8000000372528859
 30
0.0
 40
0.4999999999999929
 50
270.0
 51
0.0
  0
ARC
  5
22572
  8
0
 10
109.0000003654934062
 20
169.8000000372528859
 30
0.0
 40
0.4999999999999929
 50
180.0
 51
270.0
  0
LINE
  5
22573
  8
0
 10
141.5000003654934062
 20
169.8000000372528859
 30
0.0
 11
141.5000003654934062
 21
194.2916255029238073
 31
0.0
  0
LINE
  5
22574
  8
0
 10
108.5000003654934062
 20
194.2916255029238073
 30
0.0
 11
108.5000003654934062
 21
169.8000000372528859
 31
0.0
  0
ARC
  5
22575
  8
0
 10
139.5000003654938894
 20
194.2916255029238073
 30
0.0
 40
2.0000000000000582
 50
0.0
 51
75.0000000000055564
  0
ARC
  5
22576
  8
0
 10
110.5000003654934062
 20
194.2916255029238073
 30
0.0
 40
2.0000000000000582
 50
104.9999999999944009
 51
180.0
  0
ARC
  5
22577
  8
0
 10
135.736695370318813
 20
195.3000000372528859
 30
0.0
 40
1.9999999999999809
 50
75.0000000000055564
 51
90.0
  0
ARC
  5
22578
  8
0
 10
114.2633053606684967
 20
195.3000000372528859
 30
0.0
 40
1.999999999999976
 50
90.0
 51
104.9999999999944009
  0
LINE
  5
22579
  8
0
 10
107.0000003654934062
 20
132.0000000372529882
 30
0.0
 11
107.5000003654934062
 21
131.500000037252903
 31
0.0
  0
LINE
  5
2257A
  8
0
 10
142.5000003654938894
 20
131.500000037252903
 30
0.0
 11
143.0000003654934062
 21
132.0000000372529882
 31
0.0
  0
ARC
  5
2257B
  8
0
 10
108.0000003654934062
 20
143.5258966791114119
 30
0.0
 40
1.000000000000032
 50
110.0000000000036948
 51
180.0
  0
ARC
  5
2257C
  8
0
 10
142.0000003654934062
 20
143.5258966791114119
 30
0.0
 40
1.000000000000032
 50
0.0
 51
69.999999999996291
  0
LINE
  5
2257D
  8
0
 10
107.0000003654934062
 20
143.5258966791114119
 30
0.0
 11
107.0000003654934062
 21
132.0000000372529882
 31
0.0
  0
LINE
  5
2257E
  8
0
 10
143.0000003654934062
 20
132.0000000372529882
 30
0.0
 11
143.0000003654934062
 21
143.5258966791114119
 31
0.0
  0
LINE
  5
2257F
  8
0
 10
142.342020508818905
 20
144.4655892998974025
 30
0.0
 11
139.7631923081632976
 21
145.4042060042224023
 31
0.0
  0
LINE
  5
22580
  8
0
 10
110.2368084228235006
 20
145.4042060042224023
 30
0.0
 11
107.6579802221674953
 21
144.4655892998974025
 31
0.0
  0
ARC
  5
22581
  8
0
 10
139.9000003654934972
 20
145.7800830525368099
 30
0.0
 40
0.400000000000056
 50
180.0
 51
249.9999999999963052
  0
ARC
  5
22582
  8
0
 10
110.100000365493301
 20
145.7800830525368099
 30
0.0
 40
0.4000000000000487
 50
290.0000000000036948
 51
0.0
  0
LINE
  5
22583
  8
0
 10
139.5000003654938894
 20
145.7800830525368099
 30
0.0
 11
139.5000003654938894
 21
169.3000000372528859
 31
0.0
  0
LINE
  5
22584
  8
0
 10
110.5000003654934062
 20
169.3000000372528859
 30
0.0
 11
110.5000003654934062
 21
145.7800830525368099
 31
0.0
  0
LINE
  5
22585
  8
0
 10
115.0000003654934062
 20
131.500000037252903
 30
0.0
 11
115.0000003654934062
 21
126.500000037252903
 31
0.0
  0
LINE
  5
22586
  8
0
 10
135.0000003654934062
 20
126.500000037252903
 30
0.0
 11
135.0000003654934062
 21
131.500000037252903
 31
0.0
  0
LINE
  5
22587
  8
0
 10
115.0000003654934062
 20
126.500000037252903
 30
0.0
 11
115.5000003654934062
 21
126.0000000372530025
 31
0.0
  0
LINE
  5
22588
  8
0
 10
134.5000003654934062
 20
126.0000000372530025
 30
0.0
 11
135.0000003654934062
 21
126.500000037252903
 31
0.0
  0
ARC
  5
22589
  8
0
 10
119.1287827009966946
 20
200.6521206537379953
 30
0.0
 40
13.6029661752733499
 50
300.6105353040243813
 51
314.7199211629260844
  0
LINE
  5
2258A
  8
0
 10
126.0554086799309061
 20
188.9447494153434093
 30
0.0
 11
123.9445920510559063
 21
188.9447494153434093
 31
0.0
  0
ARC
  5
2258B
  8
0
 10
130.8712180299415024
 20
200.652120653675496
 30
0.0
 40
13.6029661751949096
 50
225.2800788370369958
 51
239.3894646960077921
  0
LINE
  5
2258C
  8
0
 10
128.7003982797320987
 20
190.9864668228510141
 30
0.0
 11
128.7003982797320987
 21
176.8000000372528859
 31
0.0
  0
LINE
  5
2258D
  8
0
 10
121.2996024512546995
 20
176.8000000372528859
 30
0.0
 11
121.2996024512546995
 21
190.9864668228510141
 31
0.0
  0
ARC
  5
2258E
  8
0
 10
128.2186444300039057
 20
176.7816942110771095
 30
0.0
 40
0.4821015193919676
 50
272.3554856445371115
 51
2.1760951536669451
  0
ARC
  5
2258F
  8
0
 10
121.7813563009829068
 20
176.7816942110771095
 30
0.0
 40
0.4821015193919585
 50
177.8239048463329937
 51
267.6445143554759056
  0
ARC
  5
22590
  8
0
 10
131.6284075464220962
 20
190.5106900041315896
 30
0.0
 40
2.9664122854135142
 50
129.2318368561959119
 51
170.7705844103990955
  0
ARC
  5
22591
  8
0
 10
118.3265484007846027
 20
190.4846846551087935
 30
0.0
 40
3.0151012803688388
 50
9.5799087825034732
 51
50.4176699509025923
  0
LINE
  5
22592
  8
0
 10
120.2477297324528962
 20
192.8084527204997869
 30
0.0
 11
119.3820930511813003
 21
193.3189364226286955
 31
0.0
  0
LINE
  5
22593
  8
0
 10
119.3820930511813003
 20
193.3189364226286955
 30
0.0
 11
119.3820930511813003
 21
176.8000000372528859
 31
0.0
  0
ARC
  5
22594
  8
0
 10
119.8638469009094933
 20
176.7816942110771095
 30
0.0
 40
0.482101519391948
 50
177.8239048463265135
 51
267.6445143554759056
  0
ARC
  5
22595
  8
0
 10
130.1361538300778022
 20
176.7816942110771095
 30
0.0
 40
0.4821015193919676
 50
272.3554856445371115
 51
2.1760951536669451
  0
LINE
  5
22596
  8
0
 10
130.6179076798055121
 20
193.3189364226286955
 30
0.0
 11
129.7522709985339873
 21
192.8084527204997869
 31
0.0
  0
LINE
  5
22597
  8
0
 10
130.6179076798055121
 20
176.8000000372528859
 30
0.0
 11
130.6179076798055121
 21
193.3189364226286955
 31
0.0
  0
ARC
  5
22598
  8
0
 10
115.6928756406517067
 20
186.877107745346791
 30
0.0
 40
7.4234413724098092
 50
60.2003526856390465
 51
92.8096285778701713
  0
ARC
  5
22599
  8
0
 10
134.3490742884158067
 20
186.7023096878573938
 30
0.0
 40
7.5961407048907548
 50
87.571033783971103
 51
119.4189849525120053
  0
LINE
  5
2259A
  8
0
 10
134.6710045101739013
 20
194.2916255029238073
 30
0.0
 11
134.6710045101739013
 21
176.8000000372528859
 31
0.0
  0
LINE
  5
2259B
  8
0
 10
131.6707406192460894
 20
176.3000000372528859
 30
0.0
 11
131.7715482161505065
 21
176.3105946649774012
 31
0.0
  0
LINE
  5
2259C
  8
0
 10
118.3292601117407941
 20
176.3000000372528859
 30
0.0
 11
118.2161155021051968
 21
176.3118912543330907
 31
0.0
  0
LINE
  5
2259D
  8
0
 10
131.6707406192460894
 20
176.3000000372528859
 30
0.0
 11
118.3292601117407941
 21
176.3000000372528859
 31
0.0
  0
LINE
  5
2259E
  8
0
 10
115.3289962208134938
 20
176.8000000372528859
 30
0.0
 11
115.3289962208134938
 21
194.2916255029238073
 31
0.0
  0
LINE
  5
2259F
  8
0
 10
141.0000003654938894
 20
169.3000000372528859
 30
0.0
 11
109.0000003660851036
 21
169.3000000372528859
 31
0.0
  0
LINE
  5
225A0
  8
0
 10
114.2633053747393035
 20
197.3000000372528859
 30
0.0
 11
135.736695370318813
 21
197.3000000372528859
 31
0.0
  0
LINE
  5
225A1
  8
0
 10
107.0000003654934062
 20
132.0000000372529882
 30
0.0
 11
143.0000003654934062
 21
132.0000000372529882
 31
0.0
  0
LINE
  5
225A2
  8
0
 10
142.5000003654938894
 20
131.500000037252903
 30
0.0
 11
107.5000003654934062
 21
131.500000037252903
 31
0.0
  0
CIRCLE
  5
225A3
  8
0
 10
125.0000003654934062
 20
154.500000037252704
 30
0.0
 40
0.9999999999999857
  0
LINE
  5
225A4
  8
0
 10
115.0000003654934062
 20
126.500000037252903
 30
0.0
 11
122.2500003874303047
 21
126.500000037252903
 31
0.0
  0
LINE
  5
225A5
  8
0
 10
127.7500003576279966
 20
126.500000037252903
 30
0.0
 11
135.0000003654934062
 21
126.500000037252903
 31
0.0
  0
LINE
  5
225A6
  8
0
 10
134.5000003654934062
 20
126.0000000372530025
 30
0.0
 11
115.5000003654934062
 21
126.0000000372530025
 31
0.0
  0
ARC
  5
225A7
  8
0
 10
129.769370933798001
 20
197.0059288531903974
 30
0.0
 40
20.7919592879503412
 50
275.5259026831452047
 51
283.6356359867505148
  0
ARC
  5
225A8
  8
0
 10
120.2269337929231057
 20
196.9882785186823924
 30
0.0
 40
20.7739351232267495
 50
256.3627941926009726
 51
264.4453435375040158
  0
LINE
  5
225A9
  8
0
 10
108.5000003654934062
 20
169.8000000372528859
 30
0.0
 11
141.5000003654934062
 21
169.8000000372528859
 31
0.0
  0
LINE
  5
225AA
  8
0
 10
115.3289962208134938
 20
194.2916255029238073
 30
0.0
 11
108.5000003654934062
 21
194.2916255029238073
 31
0.0
  0
LINE
  5
225AB
  8
0
 10
141.5000003654934062
 20
194.2916255029238073
 30
0.0
 11
134.6710045101739013
 21
194.2916255029238073
 31
0.0
  0
LINE
  5
225AC
  8
0
 10
107.6579802221674953
 20
144.4655892998974025
 30
0.0
 11
142.342020508818905
 21
144.4655892998974025
 31
0.0
  0
LINE
  5
225AD
  8
0
 10
139.7631923081632976
 20
145.4042060042224023
 30
0.0
 11
110.2368084228235006
 21
145.4042060042224023
 31
0.0
  0
LINE
  5
225AE
  8
1
 10
125.0000003725288025
 20
202.3000000372528859
 30
0.0
 11
125.0000003725291009
 21
121.0000000372530025
 31
0.0
  0
ARC
  5
225AF
  8
0
 10
114.7968223018228997
 20
140.7395641047091033
 30
0.0
 40
1.878212589843858
 50
97.2971017574458727
 51
187.2786925910091895
  0
ARC
  5
225B0
  8
0
 10
114.7821999190001065
 20
140.2499933838753066
 30
0.0
 40
1.8655006296686669
 50
172.2486141181560129
 51
263.2468277395190057
  0
ARC
  5
225B1
  8
0
 10
114.3774877159968071
 20
140.3264828612354052
 30
0.0
 40
1.9379306487129511
 50
275.4881525960702788
 51
4.7803100514114387
  0
ARC
  5
225B2
  8
0
 10
114.3500094671462932
 20
140.6484035565974011
 30
0.0
 40
1.965226546518539
 50
355.3177050141288191
 51
83.9170131129990011
  0
POLYLINE
  5
225B3
  8
0
 66
     1
 10
0.0
 20
0.0
 30
0.0
 70
   128
  0
VERTEX
  5
23D09
  8
0
 10
112.1928555890927015
 20
140.4999997839333048
 30
0.0
  0
VERTEX
  5
23D0A
  8
0
 10
111.0369054600600975
 20
139.4999996200205885
 30
0.0
  0
VERTEX
  5
23D0B
  8
0
 10
110.0101437419662034
 20
138.50000038743039
 30
0.0
  0
SEQEND
  5
23D0C
  8
0
  0
POLYLINE
  5
225B4
  8
0
 66
     1
 10
0.0
 20
0.0
 30
0.0
 70
   128
  0
VERTEX
  5
23D0D
  8
0
 10
110.0101437419662034
 20
142.5000001117589079
 30
0.0
  0
VERTEX
  5
23D0E
  8
0
 10
111.0369054600600975
 20
141.4999999478461064
 30
0.0
  0
VERTEX
  5
23D0F
  8
0
 10
112.1928555890927015
 20
140.4999997839333048
 30
0.0
  0
SEQEND
  5
23D10
  8
0
  0
LINE
  5
225B5
  8
0
 10
110.0101437419662034
 20
141.4999999478461064
 30
0.0
 11
110.0101437419662034
 21
142.5000001117589079
 31
0.0
  0
LINE
  5
225B6
  8
0
 10
108.1569869071250025
 20
141.4999999478461064
 30
0.0
 11
110.0101437419662034
 21
141.4999999478461064
 31
0.0
  0
LINE
  5
225B7
  8
0
 10
108.1569869071250025
 20
142.5000001117589079
 30
0.0
 11
108.1569869071250025
 21
141.4999999478461064
 31
0.0
  0
POLYLINE
  5
225B8
  8
0
 66
     1
 10
0.0
 20
0.0
 30
0.0
 70
   128
  0
VERTEX
  5
23D11
  8
0
 10
107.2535499930391012
 20
140.4999997839333048
 30
0.0
  0
VERTEX
  5
23D12
  8
0
 10
107.6248906552800975
 20
141.4999999478461064
 30
0.0
  0
VERTEX
  5
23D13
  8
0
 10
108.1569869071250025
 20
142.5000001117589079
 30
0.0
  0
SEQEND
  5
23D14
  8
0
  0
POLYLINE
  5
225B9
  8
0
 66
     1
 10
0.0
 20
0.0
 30
0.0
 70
   128
  0
VERTEX
  5
23D15
  8
0
 10
108.1569869071250025
 20
138.50000038743039
 30
0.0
  0
VERTEX
  5
23D16
  8
0
 10
107.6248906552800975
 20
139.4999996200205885
 30
0.0
  0
VERTEX
  5
23D17
  8
0
 10
107.2535499930391012
 20
140.4999997839333048
 30
0.0
  0
SEQEND
  5
23D18
  8
0
  0
LINE
  5
225BA
  8
0
 10
108.1569869071250025
 20
139.4999996200205885
 30
0.0
 11
108.1569869071250025
 21
138.50000038743039
 31
0.0
  0
LINE
  5
225BB
  8
0
 10
108.1569869071250025
 20
139.4999996200205885
 30
0.0
 11
110.0101437419662034
 21
139.4999996200205885
 31
0.0
  0
LINE
  5
225BC
  8
0
 10
110.0101437419662034
 20
138.50000038743039
 30
0.0
 11
110.0101437419662034
 21
139.4999996200205885
 31
0.0
  0
LINE
  5
225BD
  8
0
 10
119.4083554670224032
 20
138.50000038743039
 30
0.0
 11
119.4083554670224032
 21
142.5000001117589079
 31
0.0
  0
LINE
  5
225BE
  8
0
 10
119.4083554670224032
 20
138.50000038743039
 30
0.0
 11
120.0950503349314005
 21
138.50000038743039
 31
0.0
  0
LINE
  5
225BF
  8
0
 10
120.0950503349314005
 20
140.294872261584004
 30
0.0
 11
120.0950503349314005
 21
138.50000038743039
 31
0.0
  0
LINE
  5
225C0
  8
0
 10
120.0950503349314005
 20
140.294872261584004
 30
0.0
 11
121.2897819001236996
 21
140.294872261584004
 31
0.0
  0
LINE
  5
225C1
  8
0
 10
121.2897819001236996
 20
141.0128213837745079
 30
0.0
 11
121.2897819001236996
 21
140.294872261584004
 31
0.0
  0
LINE
  5
225C2
  8
0
 10
120.0950503349314005
 20
141.0128213837745079
 30
0.0
 11
121.2897819001236996
 21
141.0128213837745079
 31
0.0
  0
LINE
  5
225C3
  8
0
 10
120.0950503349314005
 20
141.782050989568404
 30
0.0
 11
120.0950503349314005
 21
141.0128213837745079
 31
0.0
  0
LINE
  5
225C4
  8
0
 10
120.0950503349314005
 20
141.782050989568404
 30
0.0
 11
121.2897819001236996
 21
141.782050989568404
 31
0.0
  0
LINE
  5
225C5
  8
0
 10
121.2897819001236996
 20
142.5000001117589079
 30
0.0
 11
121.2897819001236996
 21
141.782050989568404
 31
0.0
  0
LINE
  5
225C6
  8
0
 10
119.4083554670224032
 20
142.5000001117589079
 30
0.0
 11
121.2897819001236996
 21
142.5000001117589079
 31
0.0
  0
LINE
  5
225C7
  8
0
 10
116.9441327452664012
 20
138.50000038743039
 30
0.0
 11
116.9441327452664012
 21
142.5000001117589079
 31
0.0
  0
LINE
  5
225C8
  8
0
 10
116.9441327452664012
 20
138.50000038743039
 30
0.0
 11
117.5924026407310947
 21
138.50000038743039
 31
0.0
  0
LINE
  5
225C9
  8
0
 10
117.5924026407310947
 20
140.294872261584004
 30
0.0
 11
117.5924026407310947
 21
138.50000038743039
 31
0.0
  0
LINE
  5
225CA
  8
0
 10
117.5924026407310947
 20
140.294872261584004
 30
0.0
 11
118.7305551953619016
 21
140.294872261584004
 31
0.0
  0
LINE
  5
225CB
  8
0
 10
118.7305551953619016
 20
141.0128213837745079
 30
0.0
 11
118.7305551953619016
 21
140.294872261584004
 31
0.0
  0
LINE
  5
225CC
  8
0
 10
117.5924026407310947
 20
141.0128213837745079
 30
0.0
 11
118.7305551953619016
 21
141.0128213837745079
 31
0.0
  0
LINE
  5
225CD
  8
0
 10
117.5924026407310947
 20
141.782050989568404
 30
0.0
 11
117.5924026407310947
 21
141.0128213837745079
 31
0.0
  0
LINE
  5
225CE
  8
0
 10
117.5924026407310947
 20
141.782050989568404
 30
0.0
 11
118.7305551953619016
 21
141.782050989568404
 31
0.0
  0
LINE
  5
225CF
  8
0
 10
118.7305551953619016
 20
142.5000001117589079
 30
0.0
 11
118.7305551953619016
 21
141.782050989568404
 31
0.0
  0
LINE
  5
225D0
  8
0
 10
116.9441327452664012
 20
142.5000001117589079
 30
0.0
 11
118.7305551953619016
 21
142.5000001117589079
 31
0.0
  0
ARC
  5
225D1
  8
0
 10
114.6872362078148058
 20
140.6683733030255041
 30
0.0
 40
1.2240587076124869
 50
96.4784227283061142
 51
188.2851101986634035
  0
ARC
  5
225D2
  8
0
 10
114.4321775178501071
 20
140.6283807602247009
 30
0.0
 40
1.261666883456503
 50
354.0500159782768037
 51
84.6813726223071939
  0
ARC
  5
225D3
  8
0
 10
114.4276982944671062
 20
140.3737788205318111
 30
0.0
 40
1.2654213271479919
 50
276.0411027621714766
 51
5.6151836287149264
  0
POLYLINE
  5
225D4
  8
0
 66
     1
 10
0.0
 20
0.0
 30
0.0
 70
   128
  0
VERTEX
  5
23D19
  8
0
 10
113.858148828149794
 20
139.4230770319701946
 30
0.0
  0
VERTEX
  5
23D1A
  8
0
 10
114.1846304759393007
 20
139.1919749230148966
 30
0.0
  0
VERTEX
  5
23D1B
  8
0
 10
114.5608736202130018
 20
139.115384817123612
 30
0.0
  0
SEQEND
  5
23D1C
  8
0
  0
ARC
  5
225D5
  8
0
 10
114.8987968442588965
 20
140.3979514127678954
 30
0.0
 40
1.425948228993039
 50
176.2188034867380964
 51
223.1308990682005913
  0
LINE
  5
225D6
  8
0
 10
143.0000003654932073
 20
143.5258974283933071
 30
0.0
 11
107.0000003654937046
 21
143.5258974283933071
 31
0.0
  0
LINE
  5
225D7
  8
0
 10
110.5000003654934062
 20
145.780083626508798
 30
0.0
 11
139.5000003654938894
 21
145.7800836265085991
 31
0.0
  0
LINE
  5
225D8
  8
0
 10
112.7500003505923019
 20
125.9999999506399035
 30
0.0
 11
112.7500003505923019
 21
129.0000000931322006
 31
0.0
  0
LINE
  5
225D9
  8
0
 10
107.2500003803945958
 20
129.0000000931322006
 30
0.0
 11
107.2500003803945958
 21
125.9999999506399035
 31
0.0
  0
LINE
  5
225DA
  8
0
 10
111.5000006113625943
 20
129.0000000931322006
 30
0.0
 11
111.5000006113625943
 21
131.500000037252903
 31
0.0
  0
LINE
  5
225DB
  8
0
 10
108.5000010509469064
 20
131.500000037252903
 30
0.0
 11
108.5000010509469064
 21
129.0000000931322006
 31
0.0
  0
LINE
  5
225DC
  8
0
 10
112.7500003505923019
 20
125.9999999506399035
 30
0.0
 11
107.2500003803945958
 21
125.9999999506399035
 31
0.0
  0
LINE
  5
225DD
  8
0
 10
112.7500003505923019
 20
129.0000000931322006
 30
0.0
 11
107.2500003803945958
 21
129.0000000931322006
 31
0.0
  0
LINE
  5
225DE
  8
3
 10
111.2295003654932941
 20
130.4999999976716936
 30
0.0
 11
111.2295003654932941
 21
131.4999999999998863
 31
0.0
  0
LINE
  5
225DF
  8
3
 10
108.7705003654934046
 20
130.4999999976716936
 30
0.0
 11
108.7705003654934046
 21
131.4999999999998863
 31
0.0
  0
LINE
  5
225E0
  8
3
 10
111.2295003654941041
 20
130.4999999976714946
 30
0.0
 11
111.5000003654934062
 21
130.0314802542254995
 31
0.0
  0
LINE
  5
225E1
  8
3
 10
108.7705003654925946
 20
130.4999999976714946
 30
0.0
 11
108.5000003654934062
 21
130.0314802542254995
 31
0.0
  0
LINE
  5
225E2
  8
0
 10
108.5000003654934062
 20
130.4999999976714946
 30
0.0
 11
111.5000003654933067
 21
130.4999999976714946
 31
0.0
  0
LINE
  5
225E3
  8
1
 10
110.0000003654934062
 20
133.4999999999998863
 30
0.0
 11
110.0000003654934062
 21
123.9999999715946046
 31
0.0
  0
LINE
  5
225E4
  8
0
 10
127.7500003576278971
 20
125.9999999506399035
 30
0.0
 11
127.7500003576278971
 21
129.0000000931322006
 31
0.0
  0
LINE
  5
225E5
  8
0
 10
122.2500003874302053
 20
129.0000000931322006
 30
0.0
 11
122.2500003874302053
 21
125.9999999506399035
 31
0.0
  0
LINE
  5
225E6
  8
0
 10
126.5000006183982038
 20
129.0000000931322006
 30
0.0
 11
126.5000006183982038
 21
131.500000037252903
 31
0.0
  0
LINE
  5
225E7
  8
0
 10
123.5000010579825016
 20
131.500000037252903
 30
0.0
 11
123.5000010579825016
 21
129.0000000931322006
 31
0.0
  0
LINE
  5
225E9
  8
0
 10
127.7500003576278971
 20
129.0000000931322006
 30
0.0
 11
122.2500003874302053
 21
129.0000000931322006
 31
0.0
  0
LINE
  5
225EA
  8
3
 10
126.229500372529003
 20
130.4999999976716936
 30
0.0
 11
126.229500372529003
 21
131.4999999999998863
 31
0.0
  0
LINE
  5
225EB
  8
3
 10
123.7705003725289998
 20
130.4999999976716936
 30
0.0
 11
123.7705003725289998
 21
131.4999999999998863
 31
0.0
  0
LINE
  5
225EC
  8
3
 10
126.2295003725297988
 20
130.4999999976714946
 30
0.0
 11
126.5000003725291009
 21
130.0314802542254995
 31
0.0
  0
LINE
  5
225ED
  8
3
 10
123.770500372528204
 20
130.4999999976714946
 30
0.0
 11
123.5000003725291009
 21
130.0314802542254995
 31
0.0
  0
LINE
  5
225EE
  8
0
 10
123.5000003725291009
 20
130.4999999976714946
 30
0.0
 11
126.5000003725289019
 21
130.4999999976714946
 31
0.0
  0
LINE
  5
225EF
  8
0
 10
142.7500003505923019
 20
125.9999999506399035
 30
0.0
 11
142.7500003505923019
 21
129.0000000931322006
 31
0.0
  0
LINE
  5
225F0
  8
0
 10
137.2500003803945958
 20
129.0000000931322006
 30
0.0
 11
137.2500003803945958
 21
125.9999999506399035
 31
0.0
  0
LINE
  5
225F1
  8
0
 10
141.5000006113625943
 20
129.0000000931322006
 30
0.0
 11
141.5000006113625943
 21
131.500000037252903
 31
0.0
  0
LINE
  5
225F2
  8
0
 10
138.5000010509469064
 20
131.500000037252903
 30
0.0
 11
138.5000010509469064
 21
129.0000000931322006
 31
0.0
  0
LINE
  5
225F3
  8
0
 10
142.7500003505923019
 20
125.9999999506399035
 30
0.0
 11
137.2500003803945958
 21
125.9999999506399035
 31
0.0
  0
LINE
  5
225F4
  8
0
 10
142.7500003505923019
 20
129.0000000931322006
 30
0.0
 11
137.2500003803945958
 21
129.0000000931322006
 31
0.0
  0
LINE
  5
225F5
  8
3
 10
141.2295003654932941
 20
130.4999999976716936
 30
0.0
 11
141.2295003654932941
 21
131.4999999999998863
 31
0.0
  0
LINE
  5
225F6
  8
3
 10
138.7705003654934046
 20
130.4999999976716936
 30
0.0
 11
138.7705003654934046
 21
131.4999999999998863
 31
0.0
  0
LINE
  5
225F7
  8
3
 10
141.2295003654940899
 20
130.4999999976714946
 30
0.0
 11
141.5000003654934062
 21
130.0314802542254995
 31
0.0
  0
LINE
  5
225F8
  8
3
 10
138.7705003654926088
 20
130.4999999976714946
 30
0.0
 11
138.5000003654934062
 21
130.0314802542254995
 31
0.0
  0
LINE
  5
225F9
  8
0
 10
138.5000003654934062
 20
130.4999999976714946
 30
0.0
 11
141.5000003654932925
 21
130.4999999976714946
 31
0.0
  0
LINE
  5
225FA
  8
1
 10
140.0000003654934062
 20
133.4999999999998863
 30
0.0
 11
140.0000003654934062
 21
123.9999999715946046
 31
0.0
  0
ARC
  5
225FB
  8
0
 10
214.0000005587936869
 20
169.8000000000000114
 30
0.0
 40
0.5000000000000142
 50
270.0
 51
0.0
  0
ARC
  5
225FC
  8
0
 10
182.0000005587941985
 20
169.8000000000000114
 30
0.0
 40
0.500000000000057
 50
180.0
 51
270.0
  0
LINE
  5
225FD
  8
0
 10
214.5000005587938006
 20
169.8000000000000114
 30
0.0
 11
214.5000005587938006
 21
175.8000000000000114
 31
0.0
  0
LINE
  5
225FE
  8
0
 10
181.5000005587936869
 20
175.8000000000000114
 30
0.0
 11
181.5000005587936869
 21
169.8000000000000114
 31
0.0
  0
LINE
  5
225FF
  8
0
 10
218.5529148294091897
 20
194.7403043358249874
 30
0.0
 11
209.2543336538240055
 21
197.2318516525782002
 31
0.0
  0
LINE
  5
22600
  8
0
 10
186.7456674637639082
 20
197.2318516525782002
 30
0.0
 11
177.4470862881786957
 21
194.7403043358249874
 31
0.0
  0
ARC
  5
22601
  8
0
 10
208.7366955636190937
 20
195.3000000000000114
 30
0.0
 40
1.9999999999999809
 50
75.0000000000055564
 51
90.0
  0
ARC
  5
22602
  8
0
 10
187.2633055539687916
 20
195.3000000000000114
 30
0.0
 40
1.9999999999999809
 50
90.0
 51
104.9999999999944009
  0
ARC
  5
22603
  8
0
 10
215.0000005587941985
 20
175.8000000000000114
 30
0.0
 40
0.5000000000000142
 50
90.0
 51
180.0
  0
ARC
  5
22604
  8
0
 10
181.0000005587936869
 20
175.8000000000000114
 30
0.0
 40
0.5000000000000142
 50
0.0
 51
90.0
  0
ARC
  5
22605
  8
0
 10
217.0000005587938006
 20
188.9447493780905063
 30
0.0
 40
6.0000000000000142
 50
0.0
 51
75.0000000000055564
  0
ARC
  5
22606
  8
0
 10
179.0000005587941985
 20
188.9447493780905063
 30
0.0
 40
6.0000000000000142
 50
104.9999999999944009
 51
180.0
  0
LINE
  5
22607
  8
0
 10
223.0000005587938006
 20
176.8000000000000114
 30
0.0
 11
223.0000005587938006
 21
188.9447493780905063
 31
0.0
  0
ARC
  5
22608
  8
0
 10
222.5000005587941985
 20
176.8000000000000114
 30
0.0
 40
0.5000000000000142
 50
270.0
 51
0.0
  0
ARC
  5
22609
  8
0
 10
173.5000005587936869
 20
176.8000000000000114
 30
0.0
 40
0.5000000000000142
 50
180.0
 51
270.0
  0
LINE
  5
2260A
  8
0
 10
173.0000005587941985
 20
188.9447493780905063
 30
0.0
 11
173.0000005587941985
 21
176.8000000000000114
 31
0.0
  0
LINE
  5
2260B
  8
0
 10
214.0000005587936869
 20
169.3000000000000114
 30
0.0
 11
182.0000005587941985
 21
169.3000000000000114
 31
0.0
  0
LINE
  5
2260C
  8
0
 10
187.2633055539687916
 20
197.3000000000000114
 30
0.0
 11
208.7366955636190937
 21
197.3000000000000114
 31
0.0
  0
LINE
  5
2260D
  8
0
 10
222.5000005587941985
 20
176.3000000000000114
 30
0.0
 11
213.6365354839925033
 21
176.3000000000000114
 31
0.0
  0
LINE
  5
2260E
  8
0
 10
213.5541799412224009
 20
176.3112884999019059
 30
0.0
 11
213.6365354839925033
 21
176.3000000000000114
 31
0.0
  0
LINE
  5
2260F
  8
0
 10
182.3634656335950126
 20
176.3000000000000114
 30
0.0
 11
182.4350636296445884
 21
176.3098139596218914
 31
0.0
  0
LINE
  5
22610
  8
0
 10
182.3634656335950126
 20
176.3000000000000114
 30
0.0
 11
173.5000005587936869
 21
176.3000000000000114
 31
0.0
  0
LINE
  5
22611
  8
0
 10
181.5000005587936869
 20
169.8000000000000114
 30
0.0
 11
214.5000005587938006
 21
169.8000000000000114
 31
0.0
  0
LINE
  5
22612
  8
0
 10
184.6313177952011984
 20
194.2916254656709896
 30
0.0
 11
184.6313177952011984
 21
176.8000000000000114
 31
0.0
  0
LINE
  5
22613
  8
0
 10
211.368683322386687
 20
194.2916254656709896
 30
0.0
 11
184.6313177952011984
 21
194.2916254656709896
 31
0.0
  0
LINE
  5
22614
  8
0
 10
211.368683322386687
 20
176.8000000000000114
 30
0.0
 11
211.368683322386687
 21
194.2916254656709896
 31
0.0
  0
ARC
  5
22615
  8
0
 10
210.0350146561351892
 20
173.2403798244473876
 30
0.0
 40
21.0934495793948784
 50
72.1544131791518453
 51
86.374960418647845
  0
POLYLINE
  5
22616
  8
0
 66
     1
 10
0.0
 20
0.0
 30
0.0
 70
   128
  0
VERTEX
  5
23D1D
  8
0
 10
216.4991605075271934
 20
176.8000000000000114
 30
0.0
  0
VERTEX
  5
23D1E
  8
0
 10
216.4954839301036884
 20
176.7024548389919971
 30
0.0
  0
VERTEX
  5
23D1F
  8
0
 10
216.4845954866410978
 20
176.6086582838173911
 30
0.0
  0
VERTEX
  5
23D20
  8
0
 10
216.4669136139162049
 20
176.522214883490193
 30
0.0
  0
VERTEX
  5
23D21
  8
0
 10
216.4431178163810898
 20
176.4464466094067063
 30
0.0
  0
VERTEX
  5
23D22
  8
0
 10
216.4141225531905093
 20
176.3842651938487052
 30
0.0
  0
VERTEX
  5
23D23
  8
0
 10
216.3810420960477927
 20
176.3380602337443008
 30
0.0
  0
VERTEX
  5
23D24
  8
0
 10
216.3451477083696943
 20
176.3096073597984912
 30
0.0
  0
VERTEX
  5
23D25
  8
0
 10
216.3078187913444879
 20
176.3000000000000114
 30
0.0
  0
SEQEND
  5
23D26
  8
0
  0
ARC
  5
22617
  8
0
 10
214.8508729958595893
 20
187.2411223305792021
 30
0.0
 40
11.0064835639799803
 50
251.5560850128292998
 51
263.234170964573309
  0
LINE
  5
22618
  8
0
 10
216.4991605075271934
 20
193.3189363853757925
 30
0.0
 11
216.4991605075271934
 21
176.8000000000000114
 31
0.0
  0
ARC
  5
22619
  8
0
 10
185.7833197565657031
 20
174.1985862067367066
 30
0.0
 40
20.1260362510867488
 50
93.2813687337935136
 51
108.1892576684221012
  0
ARC
  5
2261A
  8
0
 10
181.1445859296096899
 20
187.2569318683106019
 30
0.0
 40
11.0229180891913696
 50
276.723163095064308
 51
288.4403134566073845
  0
POLYLINE
  5
2261B
  8
0
 66
     1
 10
0.0
 20
0.0
 30
0.0
 70
   128
  0
VERTEX
  5
23D27
  8
0
 10
179.5008406100606919
 20
176.8000000000000114
 30
0.0
  0
VERTEX
  5
23D28
  8
0
 10
179.5045171874841969
 20
176.7024548389919971
 30
0.0
  0
VERTEX
  5
23D29
  8
0
 10
179.5154056309463044
 20
176.6086582838173911
 30
0.0
  0
VERTEX
  5
23D2A
  8
0
 10
179.533087503671311
 20
176.522214883490193
 30
0.0
  0
VERTEX
  5
23D2B
  8
0
 10
179.5568833012063976
 20
176.4464466094067063
 30
0.0
  0
VERTEX
  5
23D2C
  8
0
 10
179.5858785643974045
 20
176.3842651938487052
 30
0.0
  0
VERTEX
  5
23D2D
  8
0
 10
179.6189590215396095
 20
176.3380602337443008
 30
0.0
  0
VERTEX
  5
23D2E
  8
0
 10
179.6548534092177931
 20
176.3096073597984912
 30
0.0
  0
VERTEX
  5
23D2F
  8
0
 10
179.6921823262433975
 20
176.3000000000000114
 30
0.0
  0
SEQEND
  5
23D30
  8
0
  0
LINE
  5
2261C
  8
0
 10
179.5008406100606919
 20
176.8000000000000114
 30
0.0
 11
179.5008406100606919
 21
193.3189363853757925
 31
0.0
  0
POLYLINE
  5
2261D
  8
0
 66
     1
 10
0.0
 20
0.0
 30
0.0
 70
   128
  0
VERTEX
  5
23D31
  8
0
 10
221.1284377071625897
 20
176.8000000000000114
 30
0.0
  0
VERTEX
  5
23D32
  8
0
 10
221.1247611297391984
 20
176.7024548389919971
 30
0.0
  0
VERTEX
  5
23D33
  8
0
 10
221.1138726862766077
 20
176.6086582838173911
 30
0.0
  0
VERTEX
  5
23D34
  8
0
 10
221.0961908135521128
 20
176.522214883490193
 30
0.0
  0
VERTEX
  5
23D35
  8
0
 10
221.0723950160164861
 20
176.4464466094067063
 30
0.0
  0
VERTEX
  5
23D36
  8
0
 10
221.0433997528259056
 20
176.3842651938487052
 30
0.0
  0
VERTEX
  5
23D37
  8
0
 10
221.0103192956833027
 20
176.3380602337443008
 30
0.0
  0
VERTEX
  5
23D38
  8
0
 10
220.9744249080050906
 20
176.3096073597984912
 30
0.0
  0
VERTEX
  5
23D39
  8
0
 10
220.9370959909799126
 20
176.3000000000000114
 30
0.0
  0
SEQEND
  5
23D3A
  8
0
  0
LINE
  5
2261E
  8
0
 10
218.5889923235405945
 20
192.8084526832469123
 30
0.0
 11
216.4991605075271934
 21
193.3189363853757925
 31
0.0
  0
ARC
  5
2261F
  8
0
 10
217.6320552321101047
 20
188.7939884535823012
 30
0.0
 40
4.1269421668122286
 50
32.0906117530780222
 51
76.5924800751046462
  0
LINE
  5
22620
  8
0
 10
221.1284377071625897
 20
176.8000000000000114
 30
0.0
 11
221.1284377071625897
 21
190.9864667855981111
 31
0.0
  0
POLYLINE
  5
22621
  8
0
 66
     1
 10
0.0
 20
0.0
 30
0.0
 70
   128
  0
VERTEX
  5
23D3B
  8
0
 10
174.8715634104252956
 20
176.8000000000000114
 30
0.0
  0
VERTEX
  5
23D3C
  8
0
 10
174.875239987848687
 20
176.7024548389919971
 30
0.0
  0
VERTEX
  5
23D3D
  8
0
 10
174.886128431311306
 20
176.6086582838173911
 30
0.0
  0
VERTEX
  5
23D3E
  8
0
 10
174.9038103040358862
 20
176.522214883490193
 30
0.0
  0
VERTEX
  5
23D3F
  8
0
 10
174.9276061015713992
 20
176.4464466094067063
 30
0.0
  0
VERTEX
  5
23D40
  8
0
 10
174.9566013647620082
 20
176.3842651938487052
 30
0.0
  0
VERTEX
  5
23D41
  8
0
 10
174.9896818219046111
 20
176.3380602337443008
 30
0.0
  0
VERTEX
  5
23D42
  8
0
 10
175.0255762095827947
 20
176.3096073597984912
 30
0.0
  0
VERTEX
  5
23D43
  8
0
 10
175.0629051266080012
 20
176.3000000000000114
 30
0.0
  0
SEQEND
  5
23D44
  8
0
  0
LINE
  5
22622
  8
0
 10
179.5008406100606919
 20
193.3189363853757925
 30
0.0
 11
177.4110087940472908
 21
192.8084526832469123
 31
0.0
  0
ARC
  5
22623
  8
0
 10
178.3709128487246005
 20
188.7898531630011121
 30
0.0
 40
4.1316531677170314
 50
103.4342457849630961
 51
147.8826623868523029
  0
LINE
  5
22624
  8
0
 10
174.8715634104252956
 20
190.9864667855981111
 30
0.0
 11
174.8715634104252956
 21
176.8000000000000114
 31
0.0
  0
ARC
  5
22625
  8
0
 10
220.0958139537576983
 20
188.1928285495816056
 30
0.0
 40
2.9783764721454249
 50
14.6231282929928295
 51
69.7139722037665308
  0
ARC
  5
22626
  8
0
 10
175.9046600372363969
 20
188.1924002468932997
 30
0.0
 40
2.9789421718183551
 50
110.2917026161988048
 51
165.3711968870443059
  0
LINE
  5
22627
  8
0
 10
223.0000005587938006
 20
188.9447493780905063
 30
0.0
 11
222.9777128897864884
 21
188.9447493780905063
 31
0.0
  0
LINE
  5
22628
  8
0
 10
173.022288227800999
 20
188.9447493780905063
 30
0.0
 11
173.0000005587941985
 21
188.9447493780905063
 31
0.0
  0
LINE
  5
22629
  8
1
 10
198.0000005587938006
 20
202.3000000000000966
 30
0.0
 11
198.0000005587936869
 21
121.0
 31
0.0
  0
LINE
  5
2262A
  8
0
 10
180.0000005584977032
 20
132.0000000000001137
 30
0.0
 11
180.5000005584977032
 21
131.4999999999998863
 31
0.0
  0
LINE
  5
2262B
  8
0
 10
215.5000005584981864
 20
131.4999999999998863
 30
0.0
 11
216.0000005584977032
 21
132.0000000000001137
 31
0.0
  0
ARC
  5
2262C
  8
0
 10
181.0000005584977032
 20
143.5258966418585942
 30
0.0
 40
1.000000000000032
 50
110.0000000000036948
 51
180.0
  0
ARC
  5
2262D
  8
0
 10
215.0000005584977032
 20
143.5258966418585942
 30
0.0
 40
1.000000000000032
 50
0.0
 51
69.999999999996291
  0
LINE
  5
2262E
  8
0
 10
180.0000005584977032
 20
143.5258966418585942
 30
0.0
 11
180.0000005584977032
 21
132.0000000000001137
 31
0.0
  0
LINE
  5
2262F
  8
0
 10
216.0000005584977032
 20
132.0000000000001137
 30
0.0
 11
216.0000005584977032
 21
143.5258966418585942
 31
0.0
  0
LINE
  5
22630
  8
0
 10
215.342020701823202
 20
144.4655892626444995
 30
0.0
 11
212.7631925011675946
 21
145.4042059669694993
 31
0.0
  0
LINE
  5
22631
  8
0
 10
183.2368086158278118
 20
145.4042059669694993
 30
0.0
 11
180.6579804151716928
 21
144.4655892626444995
 31
0.0
  0
ARC
  5
22632
  8
0
 10
212.9000005584977941
 20
145.7800830152839069
 30
0.0
 40
0.400000000000056
 50
180.0
 51
249.9999999999963052
  0
ARC
  5
22633
  8
0
 10
183.1000005584976122
 20
145.7800830152839069
 30
0.0
 40
0.4000000000000487
 50
290.0000000000036948
 51
0.0
  0
LINE
  5
22634
  8
0
 10
212.5000005584981864
 20
145.7800830152839069
 30
0.0
 11
212.5000005584981864
 21
153.4996526592831003
 31
0.0
  0
LINE
  5
22635
  8
0
 10
212.5000005584981864
 20
155.5000006778724071
 30
0.0
 11
212.5000005584981864
 21
169.3000000000000114
 31
0.0
  0
LINE
  5
22636
  8
0
 10
183.5000005584977032
 20
169.3000000000000114
 30
0.0
 11
183.5000005584977032
 21
155.5003473497910988
 31
0.0
  0
LINE
  5
22637
  8
0
 10
183.5000005584977032
 20
153.4999993132911982
 30
0.0
 11
183.5000005584977032
 21
145.7800830152839069
 31
0.0
  0
LINE
  5
22638
  8
0
 10
188.0000005584977032
 20
131.4999999999998863
 30
0.0
 11
188.0000005584977032
 21
126.4999999999999005
 31
0.0
  0
LINE
  5
22639
  8
0
 10
208.0000005584977032
 20
126.4999999999999005
 30
0.0
 11
208.0000005584977032
 21
131.4999999999998863
 31
0.0
  0
LINE
  5
2263A
  8
0
 10
188.0000005584977032
 20
126.4999999999999005
 30
0.0
 11
188.5000005584977032
 21
126.0000000000000995
 31
0.0
  0
LINE
  5
2263B
  8
0
 10
207.5000005584977032
 20
126.0000000000000995
 30
0.0
 11
208.0000005584977032
 21
126.4999999999999005
 31
0.0
  0
LINE
  5
2263C
  8
0
 10
180.0000005584977032
 20
132.0000000000001137
 30
0.0
 11
216.0000005584977032
 21
132.0000000000001137
 31
0.0
  0
LINE
  5
2263D
  8
0
 10
215.5000005584981864
 20
131.4999999999998863
 30
0.0
 11
180.5000005584977032
 21
131.4999999999998863
 31
0.0
  0
LINE
  5
2263E
  8
0
 10
188.0000005584977032
 20
126.4999999999999005
 30
0.0
 11
195.2500005736949049
 21
126.4999999999999005
 31
0.0
  0
LINE
  5
2263F
  8
0
 10
200.7500005438926109
 20
126.4999999999999005
 30
0.0
 11
208.0000005584977032
 21
126.4999999999999005
 31
0.0
  0
LINE
  5
22640
  8
0
 10
207.5000005584977032
 20
126.0000000000000995
 30
0.0
 11
188.5000005584977032
 21
126.0000000000000995
 31
0.0
  0
LINE
  5
22641
  8
0
 10
180.6579804151716928
 20
144.4655892626444995
 30
0.0
 11
215.342020701823202
 21
144.4655892626444995
 31
0.0
  0
LINE
  5
22642
  8
0
 10
212.7631925011675946
 20
145.4042059669694993
 30
0.0
 11
183.2368086158278118
 21
145.4042059669694993
 31
0.0
  0
POLYLINE
  5
22643
  8
0
 66
     1
 10
0.0
 20
0.0
 30
0.0
 70
   128
  0
VERTEX
  5
23D45
  8
0
 10
212.5000005584981864
 20
153.4996526592831003
 30
0.0
  0
VERTEX
  5
23D46
  8
0
 10
212.493435750280895
 20
153.6001868806079926
 30
0.0
  0
VERTEX
  5
23D47
  8
0
 10
212.4826525426198884
 20
153.7948698810756127
 30
0.0
  0
VERTEX
  5
23D48
  8
0
 10
212.4718844365544896
 20
154.069392323123509
 30
0.0
  0
VERTEX
  5
23D49
  8
0
 10
212.4658752464403904
 20
154.3926199334902947
 30
0.0
  0
VERTEX
  5
23D4A
  8
0
 10
212.4672629531044095
 20
154.7273349639287119
 30
0.0
  0
VERTEX
  5
23D4B
  8
0
 10
212.4754085065067102
 20
155.0361298841781945
 30
0.0
  0
VERTEX
  5
23D4C
  8
0
 10
212.4867648898537027
 20
155.2850737440959108
 30
0.0
  0
VERTEX
  5
23D4D
  8
0
 10
212.4963711312304895
 20
155.4459174241987114
 30
0.0
  0
VERTEX
  5
23D4E
  8
0
 10
212.5000005584981864
 20
155.5000006778724071
 30
0.0
  0
SEQEND
  5
23D4F
  8
0
  0
POLYLINE
  5
22644
  8
0
 66
     1
 10
0.0
 20
0.0
 30
0.0
 70
   128
  0
VERTEX
  5
23D50
  8
0
 10
183.5000005584977032
 20
155.5003473497910988
 30
0.0
  0
VERTEX
  5
23D51
  8
0
 10
183.5065653673069903
 20
155.3998131193920074
 30
0.0
  0
VERTEX
  5
23D52
  8
0
 10
183.5173485749679969
 20
155.2051301189243873
 30
0.0
  0
VERTEX
  5
23D53
  8
0
 10
183.5281166810333957
 20
154.9306076768766047
 30
0.0
  0
VERTEX
  5
23D54
  8
0
 10
183.534125871147495
 20
154.6073800665097053
 30
0.0
  0
VERTEX
  5
23D55
  8
0
 10
183.5327381644835043
 20
154.2726650360712881
 30
0.0
  0
VERTEX
  5
23D56
  8
0
 10
183.5245926110808057
 20
153.9638701158216918
 30
0.0
  0
VERTEX
  5
23D57
  8
0
 10
183.5132362277342111
 20
153.7149262559040892
 30
0.0
  0
VERTEX
  5
23D58
  8
0
 10
183.5036299863573959
 20
153.5540825758012886
 30
0.0
  0
VERTEX
  5
23D59
  8
0
 10
183.5000005584977032
 20
153.4999993132911982
 30
0.0
  0
SEQEND
  5
23D5A
  8
0
  0
LINE
  5
22645
  8
0
 10
216.0000005584973053
 20
143.5258974777534888
 30
0.0
 11
180.0000005584979874
 21
143.5258974777534888
 31
0.0
  0
LINE
  5
22646
  8
0
 10
183.5000005584977032
 20
145.7800836758690082
 30
0.0
 11
212.5000005584981864
 21
145.7800836758688092
 31
0.0
  0
LINE
  5
22647
  8
0
 10
185.7500005435965136
 20
125.9999999133869011
 30
0.0
 11
185.7500005435965136
 21
129.0000000558792976
 31
0.0
  0
LINE
  5
22648
  8
0
 10
180.2500005733988075
 20
129.0000000558792976
 30
0.0
 11
180.2500005733988075
 21
125.9999999133869011
 31
0.0
  0
LINE
  5
22649
  8
0
 10
184.5000008043668061
 20
129.0000000558792976
 30
0.0
 11
184.5000008043668061
 21
131.4999999999998863
 31
0.0
  0
LINE
  5
2264A
  8
0
 10
181.5000012439510897
 20
131.4999999999998863
 30
0.0
 11
181.5000012439510897
 21
129.0000000558792976
 31
0.0
  0
LINE
  5
2264B
  8
0
 10
185.7500005435965136
 20
125.9999999133869011
 30
0.0
 11
180.2500005733988075
 21
125.9999999133869011
 31
0.0
  0
LINE
  5
2264C
  8
0
 10
185.7500005435965136
 20
129.0000000558792976
 30
0.0
 11
180.2500005733988075
 21
129.0000000558792976
 31
0.0
  0
LINE
  5
2264D
  8
3
 10
184.2295005584975911
 20
130.4999999604187053
 30
0.0
 11
184.2295005584975911
 21
131.4999999627470118
 31
0.0
  0
LINE
  5
2264E
  8
3
 10
181.7705005584977016
 20
130.4999999604187053
 30
0.0
 11
181.7705005584977016
 21
131.4999999627470118
 31
0.0
  0
LINE
  5
2264F
  8
3
 10
184.2295005584983869
 20
130.4999999604185916
 30
0.0
 11
184.5000005584977032
 21
130.0314802169725965
 31
0.0
  0
LINE
  5
22650
  8
3
 10
181.7705005584969058
 20
130.4999999604185916
 30
0.0
 11
181.5000005584977032
 21
130.0314802169725965
 31
0.0
  0
LINE
  5
22651
  8
0
 10
181.5000005584977032
 20
130.4999999604185916
 30
0.0
 11
184.5000005584975895
 21
130.4999999604185916
 31
0.0
  0
LINE
  5
22652
  8
1
 10
183.0000005584977032
 20
133.4999999627470118
 30
0.0
 11
183.0000005584977032
 21
123.9999999343417016
 31
0.0
  0
LINE
  5
22653
  8
0
 10
200.7500005438926109
 20
125.9999999133869011
 30
0.0
 11
200.7500005438926109
 21
129.0000000558792976
 31
0.0
  0
LINE
  5
22654
  8
0
 10
195.2500005736949049
 20
129.0000000558792976
 30
0.0
 11
195.2500005736949049
 21
125.9999999133869011
 31
0.0
  0
LINE
  5
22655
  8
0
 10
199.5000008046629034
 20
129.0000000558792976
 30
0.0
 11
199.5000008046629034
 21
131.4999999999998863
 31
0.0
  0
LINE
  5
22656
  8
0
 10
196.5000012442471018
 20
131.4999999999998863
 30
0.0
 11
196.5000012442471018
 21
129.0000000558792976
 31
0.0
  0
LINE
  5
22658
  8
0
 10
200.7500005438926109
 20
129.0000000558792976
 30
0.0
 11
195.2500005736949049
 21
129.0000000558792976
 31
0.0
  0
LINE
  5
22659
  8
3
 10
199.2295005587936032
 20
130.4999999604187053
 30
0.0
 11
199.2295005587936032
 21
131.4999999627470118
 31
0.0
  0
LINE
  5
2265A
  8
3
 10
196.7705005587937137
 20
130.4999999604187053
 30
0.0
 11
196.7705005587937137
 21
131.4999999627470118
 31
0.0
  0
LINE
  5
2265B
  8
3
 10
199.229500558794399
 20
130.4999999604185916
 30
0.0
 11
199.5000005587936869
 21
130.0314802169725965
 31
0.0
  0
LINE
  5
2265C
  8
3
 10
196.7705005587928895
 20
130.4999999604185916
 30
0.0
 11
196.5000005587936869
 21
130.0314802169725965
 31
0.0
  0
LINE
  5
2265D
  8
0
 10
196.5000005587936869
 20
130.4999999604185916
 30
0.0
 11
199.5000005587936016
 21
130.4999999604185916
 31
0.0
  0
LINE
  5
2265E
  8
0
 10
215.7500005435965988
 20
125.9999999133869011
 30
0.0
 11
215.7500005435965988
 21
129.0000000558792976
 31
0.0
  0
LINE
  5
2265F
  8
0
 10
210.2500005733988928
 20
129.0000000558792976
 30
0.0
 11
210.2500005733988928
 21
125.9999999133869011
 31
0.0
  0
LINE
  5
22660
  8
0
 10
214.5000008043668913
 20
129.0000000558792976
 30
0.0
 11
214.5000008043668913
 21
131.4999999999998863
 31
0.0
  0
LINE
  5
22661
  8
0
 10
211.5000012439510897
 20
131.4999999999998863
 30
0.0
 11
211.5000012439510897
 21
129.0000000558792976
 31
0.0
  0
LINE
  5
22662
  8
0
 10
215.7500005435965988
 20
125.9999999133869011
 30
0.0
 11
210.2500005733988928
 21
125.9999999133869011
 31
0.0
  0
LINE
  5
22663
  8
0
 10
215.7500005435965988
 20
129.0000000558792976
 30
0.0
 11
210.2500005733988928
 21
129.0000000558792976
 31
0.0
  0
LINE
  5
22664
  8
3
 10
214.2295005584975911
 20
130.4999999604187053
 30
0.0
 11
214.2295005584975911
 21
131.4999999627470118
 31
0.0
  0
LINE
  5
22665
  8
3
 10
211.7705005584977016
 20
130.4999999604187053
 30
0.0
 11
211.7705005584977016
 21
131.4999999627470118
 31
0.0
  0
LINE
  5
22666
  8
3
 10
214.2295005584983869
 20
130.4999999604185916
 30
0.0
 11
214.5000005584977032
 21
130.0314802169725965
 31
0.0
  0
LINE
  5
22667
  8
3
 10
211.7705005584969058
 20
130.4999999604185916
 30
0.0
 11
211.5000005584977032
 21
130.0314802169725965
 31
0.0
  0
LINE
  5
22668
  8
0
 10
211.5000005584977032
 20
130.4999999604185916
 30
0.0
 11
214.5000005584975895
 21
130.4999999604185916
 31
0.0
  0
LINE
  5
22669
  8
1
 10
213.0000005584977032
 20
133.4999999627470118
 30
0.0
 11
213.0000005584977032
 21
123.9999999343417016
 31
0.0
  0
ARC
  5
22755
  8
0
 10
405.0000011227401728
 20
69.3292919686904838
 30
0.0
 40
3.3734000000000091
 50
240.1337862367651041
 51
299.8662137632348959
  0
ARC
  5
22756
  8
0
 10
405.0000011227401728
 20
69.3292919686904838
 30
0.0
 40
3.3733999999999962
 50
7.4584065867744123
 51
172.5415990455065014
  0
ARC
  5
22758
  8
0
 10
399.0856607879931062
 20
59.0853540156546728
 30
0.0
 40
3.3734000000000171
 50
0.1337862367647006
 51
59.8662137634057672
  0
ARC
  5
22759
  8
0
 10
399.0856607879931062
 20
59.0853540156546728
 30
0.0
 40
3.373399999999994
 50
127.4584065868595957
 51
292.5415931788086255
  0
ARC
  5
2275B
  8
0
 10
410.9143414574872963
 20
59.0853540156545591
 30
0.0
 40
3.3734000000000188
 50
120.1337862365702023
 51
179.8662137632352938
  0
ARC
  5
2275C
  8
0
 10
410.9143414574872963
 20
59.0853540156545591
 30
0.0
 40
3.3734000000000202
 50
247.458406586870808
 51
52.5415873121107282
  0
CIRCLE
  5
2275D
  8
0
 10
405.0000011227401728
 20
62.4999999999998934
 30
0.0
 40
0.9499999999999992
  0
CIRCLE
  5
2275E
  8
0
 10
405.0000011227401728
 20
62.4999999999998934
 30
0.0
 40
1.1499999999999979
  0
CIRCLE
  5
2275F
  8
0
 10
405.0000011227401728
 20
62.4999999999998934
 30
0.0
 40
3.15053519615488
  0
ARC
  5
22760
  8
0
 10
405.0000011227401728
 20
62.4999999999998934
 30
0.0
 40
4.0
 50
230.2441187066110899
 51
309.7558812934108232
  0
ARC
  5
22761
  8
0
 10
405.0000011227401728
 20
62.4999999999998934
 30
0.0
 40
3.9999999999999751
 50
110.2441187068488944
 51
189.7558812933872048
  0
ARC
  5
22762
  8
0
 10
405.0000011227401728
 20
62.4999999999998934
 30
0.0
 40
4.0000000000000089
 50
350.2441187065895178
 51
69.7558812931495424
  0
ARC
  5
22764
  8
0
 10
393.354526220807486
 20
36.4878689652798016
 30
0.0
 40
11.9999623017401404
 50
88.312890341272194
 51
97.5000208125298542
  0
ARC
  5
22765
  8
0
 10
376.6500377741916736
 20
65.4208236829183534
 30
0.0
 40
12.0000315129561308
 50
322.5000186960817814
 51
331.6870964047236043
  0
ARC
  5
22766
  8
0
 10
433.349964471252008
 20
59.5791763171042916
 30
0.0
 40
12.0000315129129707
 50
142.5000186960610051
 51
151.6870964047477059
  0
ARC
  5
22767
  8
0
 10
416.6454760246725755
 20
88.512131034728327
 30
0.0
 40
11.9999623017484804
 50
268.3128903412754198
 51
277.5000208125265999
  0
LINE
  5
22768
  8
0
 10
391.7882125131163775
 20
48.3851693570612724
 30
0.0
 11
386.8203851632151782
 21
47.7311424911020978
 31
0.0
  0
ARC
  5
22769
  8
0
 10
386.428807886744778
 20
50.7054779854231796
 30
0.0
 40
3.0000007327042142
 50
212.4195408211737117
 51
277.4999731116441808
  0
ARC
  5
2276A
  8
0
 10
405.0000011227401728
 20
62.4999999999998934
 30
0.0
 40
24.9999999999999893
 50
207.5804632629285891
 51
212.4195367370747078
  0
ARC
  5
2276B
  8
0
 10
385.5000494647579217
 20
52.3141360163578781
 30
0.0
 40
3.0000013691613772
 50
142.5000346082846079
 51
207.5804556312135105
  0
LINE
  5
2276C
  8
0
 10
383.1199872545275866
 20
54.1404196992515381
 30
0.0
 11
386.1703052423271743
 21
58.1156704574822314
 31
0.0
  0
LINE
  5
2276D
  8
0
 10
426.8800149909528727
 20
70.8595803007482345
 30
0.0
 11
423.8296970031532851
 21
66.8843295425175484
 31
0.0
  0
ARC
  5
2276E
  8
0
 10
424.4999527807228219
 20
72.6858639836417524
 30
0.0
 40
3.0000013691612
 50
322.5000346082870237
 51
27.5804556312193014
  0
ARC
  5
2276F
  8
0
 10
405.0000011227401728
 20
62.4999999999998934
 30
0.0
 40
25.0000000000000284
 50
27.5804632629286814
 51
32.4195367370720007
  0
ARC
  5
22770
  8
0
 10
423.5711943587356814
 20
74.2945220145769554
 30
0.0
 40
3.0000007327038691
 50
32.4195408211723333
 51
97.4999731116441666
  0
LINE
  5
22771
  8
0
 10
418.2117897323640818
 20
76.6148306429385002
 30
0.0
 11
423.1796170822652812
 21
77.2688575088976677
 31
0.0
  0
ARC
  5
22772
  8
0
 10
405.0000011227401728
 20
62.4999999999998934
 30
0.0
 40
10.0
 50
97.9915383352911533
 51
202.0084746744076938
  0
ARC
  5
22773
  8
0
 10
405.0000011227401728
 20
62.4999999999998934
 30
0.0
 40
10.0000000000000409
 50
337.9915383350299862
 51
82.0084616647088751
  0
ARC
  5
22774
  8
0
 10
405.0000011227401728
 20
62.4999999999998934
 30
0.0
 40
10.0
 50
217.9915383350563047
 51
322.0084616649705254
  0
ARC
  5
22777
  8
0
 10
405.0000011227401728
 20
62.4999999999998934
 30
0.0
 40
9.5000000000000053
 50
224.6998656339341949
 51
315.3001343660785096
  0
ARC
  5
22778
  8
0
 10
405.0000011227401728
 20
62.4999999999998934
 30
0.0
 40
9.5000000000000284
 50
344.6998656339198988
 51
75.3001343659296651
  0
ARC
  5
22779
  8
0
 10
405.0000011227401728
 20
62.4999999999998934
 30
0.0
 40
9.5
 50
104.6998656340703064
 51
195.3001129216771119
  0
CIRCLE
  5
2277A
  8
0
 10
405.0000011227401728
 20
62.4999999999998934
 30
0.0
 40
18.0
  0
CIRCLE
  5
2277B
  8
0
 10
405.0000011227401728
 20
62.4999999999998934
 30
0.0
 40
17.5
  0
CIRCLE
  5
22786
  8
0
 10
405.0000011227401728
 20
62.4999999999998934
 30
0.0
 40
8.0000000000000675
  0
CIRCLE
  5
22787
  8
0
 10
405.0000011227401728
 20
62.4999999999998934
 30
0.0
 40
7.1961524227066924
  0
CIRCLE
  5
22788
  8
0
 10
405.0000011227401728
 20
62.4999999999998934
 30
0.0
 40
4.2500000000000391
  0
LINE
  5
22789
  8
1
 10
405.0000011227401728
 20
92.4999999999998863
 30
0.0
 11
405.0000011227401728
 21
32.4999999999998934
 31
0.0
  0
LINE
  5
2278A
  8
1
 10
435.0000011227401728
 20
62.4999999999998295
 30
0.0
 11
375.0000011227402865
 21
62.4999999999998295
 31
0.0
  0
CIRCLE
  5
2278B
  8
1
 10
405.0000011227401728
 20
62.4999999999998295
 30
0.0
 40
15.0
  0
LINE
  5
22826
  8
1
 10
430.9807632362733898
 20
77.4999999999998863
 30
0.0
 11
379.0192390092071264
 21
47.4999999999998792
 31
0.0
  0
LINE
  5
22847
  8
0
 10
404.2783132862531943
 20
76.2499999999998295
 30
0.0
 11
405.7216889592273219
 21
76.2499999999998295
 31
0.0
  0
LINE
  5
22848
  8
0
 10
406.4433767957143004
 20
77.4999999999998295
 30
0.0
 11
405.7216889592273219
 21
76.2499999999998295
 31
0.0
  0
LINE
  5
22849
  8
0
 10
406.4433767957143004
 20
77.4999999999998295
 30
0.0
 11
405.7216889592273219
 21
78.7499999999998295
 31
0.0
  0
LINE
  5
2284A
  8
0
 10
405.7216889592273219
 20
78.7499999999998295
 30
0.0
 11
404.2783132862531943
 21
78.7499999999998295
 31
0.0
  0
LINE
  5
2284B
  8
0
 10
403.5566254497662726
 20
77.4999999999998295
 30
0.0
 11
404.2783132862531943
 21
78.7499999999998295
 31
0.0
  0
LINE
  5
2284C
  8
0
 10
403.5566254497662726
 20
77.4999999999998295
 30
0.0
 11
404.2783132862531943
 21
76.2499999999998295
 31
0.0
  0
CIRCLE
  5
2284D
  8
0
 10
405.0000011227401728
 20
77.4999999999998295
 30
0.0
 40
2.75
  0
LINE
  5
2284E
  8
0
 10
419.2783132862531943
 20
61.2499999999998295
 30
0.0
 11
420.7216889592273219
 21
61.2499999999998295
 31
0.0
  0
LINE
  5
2284F
  8
0
 10
421.4433767957143004
 20
62.4999999999998295
 30
0.0
 11
420.7216889592273219
 21
61.2499999999998295
 31
0.0
  0
LINE
  5
22850
  8
0
 10
421.4433767957143004
 20
62.4999999999998295
 30
0.0
 11
420.7216889592273219
 21
63.7499999999998295
 31
0.0
  0
LINE
  5
22851
  8
0
 10
420.7216889592273219
 20
63.7499999999998295
 30
0.0
 11
419.2783132862531943
 21
63.7499999999998295
 31
0.0
  0
LINE
  5
22852
  8
0
 10
418.5566254497662726
 20
62.4999999999998295
 30
0.0
 11
419.2783132862531943
 21
63.7499999999998295
 31
0.0
  0
LINE
  5
22853
  8
0
 10
418.5566254497662726
 20
62.4999999999998295
 30
0.0
 11
419.2783132862531943
 21
61.2499999999998295
 31
0.0
  0
CIRCLE
  5
22854
  8
0
 10
420.0000011227402865
 20
62.4999999999998295
 30
0.0
 40
2.75
  0
LINE
  5
22855
  8
0
 10
389.278313286253308
 20
61.2499999999998295
 30
0.0
 11
390.7216889592273219
 21
61.2499999999998295
 31
0.0
  0
LINE
  5
22856
  8
0
 10
391.4433767957143004
 20
62.4999999999998295
 30
0.0
 11
390.7216889592273219
 21
61.2499999999998295
 31
0.0
  0
LINE
  5
22857
  8
0
 10
391.4433767957143004
 20
62.4999999999998295
 30
0.0
 11
390.7216889592273219
 21
63.7499999999998295
 31
0.0
  0
LINE
  5
22858
  8
0
 10
390.7216889592273219
 20
63.7499999999998295
 30
0.0
 11
389.278313286253308
 21
63.7499999999998295
 31
0.0
  0
LINE
  5
22859
  8
0
 10
388.5566254497662726
 20
62.4999999999998295
 30
0.0
 11
389.278313286253308
 21
63.7499999999998295
 31
0.0
  0
LINE
  5
2285A
  8
0
 10
388.5566254497662726
 20
62.4999999999998295
 30
0.0
 11
389.278313286253308
 21
61.2499999999998295
 31
0.0
  0
CIRCLE
  5
2285B
  8
0
 10
390.0000011227402865
 20
62.4999999999998295
 30
0.0
 40
2.75
  0
LINE
  5
2285C
  8
0
 10
404.2783132862531943
 20
46.2499999999998792
 30
0.0
 11
405.7216889592273219
 21
46.2499999999998792
 31
0.0
  0
LINE
  5
2285D
  8
0
 10
406.4433767957143004
 20
47.4999999999998792
 30
0.0
 11
405.7216889592273219
 21
46.2499999999998792
 31
0.0
  0
LINE
  5
2285E
  8
0
 10
406.4433767957143004
 20
47.4999999999998792
 30
0.0
 11
405.7216889592273219
 21
48.7499999999998934
 31
0.0
  0
LINE
  5
2285F
  8
0
 10
405.7216889592273219
 20
48.7499999999998934
 30
0.0
 11
404.2783132862531943
 21
48.7499999999998934
 31
0.0
  0
LINE
  5
22860
  8
0
 10
403.5566254497662726
 20
47.4999999999998792
 30
0.0
 11
404.2783132862531943
 21
48.7499999999998934
 31
0.0
  0
LINE
  5
22861
  8
0
 10
403.5566254497662726
 20
47.4999999999998792
 30
0.0
 11
404.2783132862531943
 21
46.2499999999998792
 31
0.0
  0
CIRCLE
  5
22862
  8
0
 10
405.0000011227401728
 20
47.4999999999998792
 30
0.0
 40
2.75
  0
ARC
  5
228A5
  8
0
 10
125.0000003725290014
 20
67.0199999999999818
 30
0.0
 40
3.3734000000000082
 50
206.7957382120318925
 51
268.7033854192804938
  0
ARC
  5
228A6
  8
0
 10
125.0000003725290014
 20
67.0199999999999818
 30
0.0
 40
3.3734000000000082
 50
271.2966145807195062
 51
333.2042617879682211
  0
ARC
  5
228A7
  8
0
 10
121.0855655474233004
 20
60.240000000000002
 30
0.0
 40
3.373400000000002
 50
326.7957382120310967
 51
28.7033854188155111
  0
ARC
  5
228A8
  8
0
 10
121.0855655474233004
 20
60.240000000000002
 30
0.0
 40
3.373399999999998
 50
31.2966145811810108
 51
93.2042617879682069
  0
ARC
  5
228A9
  8
0
 10
128.9144351976347025
 20
60.2399999999999523
 30
0.0
 40
3.3734000000000011
 50
86.7957382120316936
 51
148.7033854190300985
  0
ARC
  5
228AA
  8
0
 10
128.9144351976347025
 20
60.2399999999999523
 30
0.0
 40
3.373399999999998
 50
151.2966145809672867
 51
213.2042617879671127
  0
CIRCLE
  5
228AB
  8
0
 10
125.0000003725290014
 20
62.5
 30
0.0
 40
0.9499999999999957
  0
CIRCLE
  5
228AC
  8
0
 10
125.0000003725290014
 20
62.5
 30
0.0
 40
1.150000000000005
  0
ARC
  5
228AD
  8
0
 10
125.0000003725290014
 20
62.5
 30
0.0
 40
3.1505351961548831
 50
138.218776599231802
 51
161.7812234007404868
  0
ARC
  5
228AE
  8
0
 10
125.0000003725290014
 20
62.5
 30
0.0
 40
3.15053519615488
 50
258.2187765992582058
 51
281.7812234007409984
  0
ARC
  5
228AF
  8
0
 10
125.0000003725290014
 20
62.5
 30
0.0
 40
3.1505351961548929
 50
18.2187765992201101
 51
41.7812234007410765
  0
ARC
  5
228B0
  8
0
 10
125.0000003725290014
 20
62.5
 30
0.0
 40
3.9999999999999978
 50
136.1501993657375067
 51
163.8498006342763063
  0
ARC
  5
228B1
  8
0
 10
125.0000003725290014
 20
62.5
 30
0.0
 40
4.000000000000008
 50
256.1501993657602156
 51
283.8498006342699114
  0
ARC
  5
228B2
  8
0
 10
125.0000003725290014
 20
62.5
 30
0.0
 40
4.000000000000008
 50
16.1501993657288594
 51
43.8498006342399904
  0
ARC
  5
228B3
  8
0
 10
108.2955455064603996
 20
39.4086427145930429
 30
0.0
 40
11.9999921577970792
 50
22.4999943805299303
 51
31.6871039412536
  0
ARC
  5
228B4
  8
0
 10
141.7044552386306862
 20
39.4086427145746327
 30
0.0
 40
11.9999921578347397
 50
148.3128960587563085
 51
157.5000056194488991
  0
ARC
  5
228B5
  8
0
 10
141.7044552386253997
 20
85.5913572854223474
 30
0.0
 40
11.9999921578287108
 50
202.4999943805474913
 51
211.6871039412476989
  0
ARC
  5
228B6
  8
0
 10
108.2955455064584953
 20
85.5913572854080371
 30
0.0
 40
11.9999921577993298
 50
328.3128960587463894
 51
337.5000056194696754
  0
ARC
  5
228B7
  8
0
 10
125.0000003725290014
 20
62.5
 30
0.0
 40
25.0
 50
267.580463262927708
 51
272.419536737072292
  0
ARC
  5
228B8
  8
0
 10
125.9287598045583962
 20
40.5196128078129618
 30
0.0
 40
2.99999965452173
 50
272.4195348113718183
 51
337.500009896798872
  0
ARC
  5
228B9
  8
0
 10
124.0712409405005019
 20
40.5196128078142124
 30
0.0
 40
2.9999996545230192
 50
202.4999901032153105
 51
267.58046518862011
  0
LINE
  5
228BA
  8
0
 10
121.2996024638413957
 20
39.3715631216764379
 30
0.0
 11
119.3820931017398976
 21
44.000839814543717
 31
0.0
  0
LINE
  5
228BB
  8
0
 10
130.617907643318091
 20
44.000839814543717
 30
0.0
 11
128.700398281216593
 21
39.3715631216764379
 31
0.0
  0
LINE
  5
228BC
  8
0
 10
119.3820931017398976
 20
80.9991601854562759
 30
0.0
 11
121.2996024638413957
 21
85.628436878323555
 31
0.0
  0
LINE
  5
228BD
  8
0
 10
128.7003982867680065
 20
85.6284371483686186
 30
0.0
 11
130.617907643318091
 21
80.9991601854562759
 31
0.0
  0
ARC
  5
228BE
  8
0
 10
124.0712409405005019
 20
84.4803871921857308
 30
0.0
 40
2.9999996545230552
 50
92.4195348113798758
 51
157.5000098967832116
  0
ARC
  5
228BF
  8
0
 10
125.9287596892340986
 20
84.4803868512734084
 30
0.0
 40
3.0000000000000089
 50
22.4999999999988205
 51
87.5804632629277364
  0
ARC
  5
228C0
  8
0
 10
125.0000003725290014
 20
62.5
 30
0.0
 40
25.0
 50
87.5804632629277364
 51
92.4195367370722636
  0
CIRCLE
  5
228C1
  8
0
 10
125.0000003725290014
 20
62.5
 30
0.0
 40
10.0
  0
CIRCLE
  5
228C2
  8
0
 10
125.0000003725290014
 20
62.5
 30
0.0
 40
9.5
  0
CIRCLE
  5
228C3
  8
0
 10
125.0000003725290014
 20
62.5
 30
0.0
 40
8.0
  0
CIRCLE
  5
228C4
  8
0
 10
125.0000003725290014
 20
62.5
 30
0.0
 40
17.9999999999999787
  0
CIRCLE
  5
228C5
  8
0
 10
125.0000003725290014
 20
62.5
 30
0.0
 40
17.5
  0
CIRCLE
  5
228C6
  8
0
 10
125.0000003725290014
 20
62.5
 30
0.0
 40
7.1961524227066667
  0
CIRCLE
  5
228C7
  8
0
 10
125.0000003725290014
 20
62.5
 30
0.0
 40
4.2500000000000213
  0
LINE
  5
228C8
  8
1
 10
125.0000003725290014
 20
92.5
 30
0.0
 11
125.0000003725290014
 21
32.5000000000001066
 31
0.0
  0
LINE
  5
228C9
  8
1
 10
155.0000003725290014
 20
62.5
 30
0.0
 11
95.0000003725290583
 21
62.5
 31
0.0
  0
CIRCLE
  5
228CA
  8
1
 10
125.0000003725290014
 20
62.5
 30
0.0
 40
15.0
  0
LINE
  5
228CB
  8
0
 10
124.2783125360419945
 20
76.25
 30
0.0
 11
125.7216882090160937
 21
76.25
 31
0.0
  0
LINE
  5
228CC
  8
0
 10
126.4433760455031006
 20
77.5
 30
0.0
 11
125.7216882090160937
 21
76.25
 31
0.0
  0
LINE
  5
228CD
  8
0
 10
126.4433760455031006
 20
77.5
 30
0.0
 11
125.7216882090160937
 21
78.75
 31
0.0
  0
LINE
  5
228CE
  8
0
 10
125.7216882090160937
 20
78.75
 30
0.0
 11
124.2783125360419945
 21
78.75
 31
0.0
  0
LINE
  5
228CF
  8
0
 10
123.5566246995551012
 20
77.5
 30
0.0
 11
124.2783125360419945
 21
78.75
 31
0.0
  0
LINE
  5
228D0
  8
0
 10
123.5566246995551012
 20
77.5
 30
0.0
 11
124.2783125360419945
 21
76.25
 31
0.0
  0
CIRCLE
  5
228D1
  8
0
 10
125.0000003725290014
 20
77.5
 30
0.0
 40
2.75
  0
LINE
  5
228D2
  8
0
 10
139.2783125360419945
 20
61.25
 30
0.0
 11
140.7216882090160937
 21
61.25
 31
0.0
  0
LINE
  5
228D3
  8
0
 10
141.4433760455031006
 20
62.5
 30
0.0
 11
140.7216882090160937
 21
61.25
 31
0.0
  0
LINE
  5
228D4
  8
0
 10
141.4433760455031006
 20
62.5
 30
0.0
 11
140.7216882090160937
 21
63.75
 31
0.0
  0
LINE
  5
228D5
  8
0
 10
140.7216882090160937
 20
63.75
 30
0.0
 11
139.2783125360419945
 21
63.75
 31
0.0
  0
LINE
  5
228D6
  8
0
 10
138.5566246995551012
 20
62.5
 30
0.0
 11
139.2783125360419945
 21
63.75
 31
0.0
  0
LINE
  5
228D7
  8
0
 10
138.5566246995551012
 20
62.5
 30
0.0
 11
139.2783125360419945
 21
61.25
 31
0.0
  0
CIRCLE
  5
228D8
  8
0
 10
140.0000003725290014
 20
62.5
 30
0.0
 40
2.75
  0
LINE
  5
228D9
  8
0
 10
109.2783125360419945
 20
61.25
 30
0.0
 11
110.7216882090160937
 21
61.25
 31
0.0
  0
LINE
  5
228DA
  8
0
 10
111.4433760455031006
 20
62.5
 30
0.0
 11
110.7216882090160937
 21
61.25
 31
0.0
  0
LINE
  5
228DB
  8
0
 10
111.4433760455031006
 20
62.5
 30
0.0
 11
110.7216882090160937
 21
63.75
 31
0.0
  0
LINE
  5
228DC
  8
0
 10
110.7216882090160937
 20
63.75
 30
0.0
 11
109.2783125360419945
 21
63.75
 31
0.0
  0
LINE
  5
228DD
  8
0
 10
108.5566246995551012
 20
62.5
 30
0.0
 11
109.2783125360419945
 21
63.75
 31
0.0
  0
LINE
  5
228DE
  8
0
 10
108.5566246995551012
 20
62.5
 30
0.0
 11
109.2783125360419945
 21
61.25
 31
0.0
  0
CIRCLE
  5
228DF
  8
0
 10
110.0000003725290014
 20
62.5
 30
0.0
 40
2.75
  0
LINE
  5
228E0
  8
0
 10
124.2783125360419945
 20
46.25
 30
0.0
 11
125.7216882090160937
 21
46.25
 31
0.0
  0
LINE
  5
228E1
  8
0
 10
126.4433760455031006
 20
47.5
 30
0.0
 11
125.7216882090160937
 21
46.25
 31
0.0
  0
LINE
  5
228E2
  8
0
 10
126.4433760455031006
 20
47.5
 30
0.0
 11
125.7216882090160937
 21
48.75
 31
0.0
  0
LINE
  5
228E3
  8
0
 10
125.7216882090160937
 20
48.75
 30
0.0
 11
124.2783125360419945
 21
48.75
 31
0.0
  0
LINE
  5
228E4
  8
0
 10
123.5566246995551012
 20
47.5
 30
0.0
 11
124.2783125360419945
 21
48.75
 31
0.0
  0
LINE
  5
228E5
  8
0
 10
123.5566246995551012
 20
47.5
 30
0.0
 11
124.2783125360419945
 21
46.25
 31
0.0
  0
CIRCLE
  5
228E6
  8
0
 10
125.0000003725290014
 20
47.5
 30
0.0
 40
2.75
  0
CIRCLE
  5
22A21
  8
0
 10
405.0000011227402865
 20
252.2999998753078899
 30
0.0
 40
4.1000000000000218
  0
LINE
  5
22A22
  8
0
 10
405.0000011227402865
 20
250.8566242023337907
 30
0.0
 11
406.2500011227402865
 21
251.5783120388209113
 31
0.0
  0
LINE
  5
22A23
  8
0
 10
406.2500011227402865
 20
251.5783120388209113
 30
0.0
 11
406.2500011227402865
 21
253.0216877117950105
 31
0.0
  0
LINE
  5
22A24
  8
0
 10
406.2500011227402865
 20
253.0216877117950105
 30
0.0
 11
405.0000011227402865
 21
253.743375548281989
 31
0.0
  0
LINE
  5
22A25
  8
0
 10
405.0000011227402865
 20
253.743375548281989
 30
0.0
 11
403.7500011227404002
 21
253.0216877117950105
 31
0.0
  0
LINE
  5
22A26
  8
0
 10
403.7500011227404002
 20
253.0216877117950105
 30
0.0
 11
403.7500011227404002
 21
251.5783120388209113
 31
0.0
  0
LINE
  5
22A27
  8
0
 10
403.7500011227404002
 20
251.5783120388209113
 30
0.0
 11
405.0000011227402865
 21
250.8566242023337907
 31
0.0
  0
CIRCLE
  5
22A28
  8
0
 10
405.0000011227402865
 20
252.2999998753078899
 30
0.0
 40
11.2543330950302405
  0
CIRCLE
  5
22A29
  8
0
 10
405.0000011227402865
 20
252.2999998753078899
 30
0.0
 40
10.7366950048252008
  0
CIRCLE
  5
22A2A
  8
0
 10
405.0000011227402865
 20
252.2999998753078899
 30
0.0
 40
4.450000000000002
  0
ARC
  5
22A2B
  8
0
 10
376.6500649178145181
 20
249.3791922512689041
 30
0.0
 40
12.0000000000001599
 50
5.8822558217290908
 51
37.4999999999948201
  0
ARC
  5
22A2C
  8
0
 10
433.3499373276662254
 20
255.2208074993469893
 30
0.0
 40
11.9999999999998703
 50
185.8822558217289895
 51
217.4999999999947988
  0
ARC
  5
22A2D
  8
0
 10
393.3545266222623127
 20
278.3121686364614789
 30
0.0
 40
12.0000000000003997
 50
262.5000000000043769
 51
294.1177441782706978
  0
ARC
  5
22A2E
  8
0
 10
416.645475623218374
 20
226.2878311141543008
 30
0.0
 40
12.0000000000003499
 50
82.500000000004448
 51
114.1177441782706978
  0
ARC
  5
22A2F
  8
0
 10
405.0000011227402865
 20
252.2999998753078899
 30
0.0
 40
16.4999999999999787
 50
5.8822558217290908
 51
114.1177441782706978
  0
ARC
  5
22A30
  8
0
 10
405.0000011227402865
 20
252.2999998753078899
 30
0.0
 40
16.4999999999999893
 50
185.8822558217289895
 51
294.1177441782706978
  0
LINE
  5
22A31
  8
0
 10
386.8203859595407721
 20
267.0688570473338928
 30
0.0
 11
391.7882123156218199
 21
266.4148302999752218
 31
0.0
  0
LINE
  5
22A32
  8
0
 10
386.1703050013094867
 20
256.6843293993738939
 30
0.0
 11
383.1199880453020796
 21
260.6595798516506193
 31
0.0
  0
ARC
  5
22A33
  8
0
 10
405.0000011227402865
 20
252.2999998753078899
 30
0.0
 40
25.0000000000000213
 50
147.5804632629279922
 51
152.4195367370712972
  0
LINE
  5
22A34
  8
0
 10
423.8296972441710864
 20
247.9156703512419142
 30
0.0
 11
426.8800142001786071
 21
243.9404198989651888
 31
0.0
  0
ARC
  5
22A35
  8
0
 10
405.0000011227402865
 20
252.2999998753078899
 30
0.0
 40
24.9999999999999893
 50
327.5804632629279922
 51
332.4195367370713257
  0
LINE
  5
22A36
  8
0
 10
423.1796162859400283
 20
237.531142703281887
 30
0.0
 11
418.2117899298589805
 21
238.1851694506405011
 31
0.0
  0
ARC
  5
22A37
  8
0
 10
385.5000480661764755
 20
262.485864138676618
 30
0.0
 40
3.0000000000007478
 50
152.419536737085906
 51
217.4999999999947988
  0
ARC
  5
22A38
  8
0
 10
386.4294156673714156
 20
264.0932203807341807
 30
0.0
 40
3.00121164548134
 50
82.5147579474130595
 51
147.5657053155148901
  0
ARC
  5
22A39
  8
0
 10
424.4999541793039839
 20
242.1141356119389059
 30
0.0
 40
3.000000000000794
 50
332.4195367370858776
 51
37.4999999999948201
  0
ARC
  5
22A3A
  8
0
 10
423.5705865781094985
 20
240.5067793698815137
 30
0.0
 40
3.0012116454812068
 50
262.5147579474131021
 51
327.5657053155148901
  0
ARC
  5
22A3B
  8
0
 10
405.0000011227402865
 20
252.2999998753078899
 30
0.0
 40
18.0000000000000391
 50
171.1456120992569936
 51
308.8543879007439728
  0
ARC
  5
22A3C
  8
0
 10
405.0000011227402865
 20
252.2999998753078899
 30
0.0
 40
18.0000000000000107
 50
351.1456120992569936
 51
128.8543879007438875
  0
ARC
  5
22A3D
  8
0
 10
405.0000011227402865
 20
252.2999998753078899
 30
0.0
 40
17.3420201433256693
 50
354.482948684298492
 51
125.5170513157030996
  0
ARC
  5
22A3E
  8
0
 10
405.0000011227402865
 20
252.2999998753078899
 30
0.0
 40
17.3420201433256693
 50
174.4829486842984068
 51
305.5170513157030996
  0
LINE
  5
22A3F
  8
1
 10
405.0000011227402865
 20
282.2999998753078899
 30
0.0
 11
405.0000011227402865
 21
222.2999998753080035
 31
0.0
  0
LINE
  5
22A40
  8
1
 10
435.0000011227404002
 20
252.2999998753078899
 30
0.0
 11
375.0000011227404002
 21
252.2999998753078899
 31
0.0
  0
CIRCLE
  5
22A41
  8
1
 10
405.0000011227402865
 20
252.2999998753078899
 30
0.0
 40
15.0
  0
LINE
  5
22A68
  8
1
 10
379.0192390092072969
 20
267.2999998753080035
 30
0.0
 11
430.9807632362733898
 21
237.2999998753080035
 31
0.0
  0
LINE
  5
231ED
  8
0
 10
347.5176390266807971
 20
174.7534772002053955
 30
0.0
 11
343.7543340315061187
 21
175.7618517345343889
 31
0.0
  0
LINE
  5
231EE
  8
0
 10
321.2456678414457087
 20
175.7618517345343889
 30
0.0
 11
317.4823628462709735
 21
174.7534772002053955
 31
0.0
  0
LINE
  5
231EF
  8
0
 10
349.0000009364758853
 20
148.3300000819563991
 30
0.0
 11
349.0000009364758853
 21
172.821625547627292
 31
0.0
  0
LINE
  5
231F0
  8
0
 10
316.0000009364758853
 20
172.821625547627292
 30
0.0
 11
316.0000009364758853
 21
148.3300000819563991
 31
0.0
  0
ARC
  5
231F1
  8
0
 10
348.5000009364758853
 20
148.3300000819563991
 30
0.0
 40
0.500000000000057
 50
270.0
 51
0.0
  0
ARC
  5
231F2
  8
0
 10
316.5000009364758853
 20
148.3300000819563991
 30
0.0
 40
0.500000000000057
 50
180.0
 51
270.0
  0
POLYLINE
  5
231F3
  8
0
 66
     1
 10
0.0
 20
0.0
 30
0.0
 70
   128
  0
VERTEX
  5
23D5B
  8
0
 10
317.7229163552667046
 20
169.6846734017634049
 30
0.0
  0
VERTEX
  5
23D5C
  8
0
 10
317.7179082313564891
 20
169.6451034706290955
 30
0.0
  0
VERTEX
  5
23D5D
  8
0
 10
317.7054783485710914
 20
169.3114036897715096
 30
0.0
  0
SEQEND
  5
23D5E
  8
0
  0
ARC
  5
231F4
  8
0
 10
318.2054783485710914
 20
155.3300000819563991
 30
0.0
 40
0.500000000000057
 50
179.9999999999934914
 51
270.0
  0
LINE
  5
231F5
  8
0
 10
317.7054783485710914
 20
169.3114036897715096
 30
0.0
 11
317.7054783485710914
 21
155.3300000819563991
 31
0.0
  0
ARC
  5
231F6
  8
0
 10
324.6189620061724099
 20
169.4683061269099085
 30
0.0
 40
6.89943913785776
 50
155.4981203143177879
 51
178.2029025400904061
  0
ARC
  5
231F7
  8
0
 10
347.0000009364758853
 20
172.821625547627292
 30
0.0
 40
2.000000000000056
 50
0.0
 51
75.0000000000055564
  0
POLYLINE
  5
231F8
  8
0
 66
     1
 10
0.0
 20
0.0
 30
0.0
 70
   128
  0
VERTEX
  5
23D5F
  8
0
 10
318.4007534148814784
 20
172.4438116696877898
 30
0.0
  0
VERTEX
  5
23D60
  8
0
 10
318.3408334682578129
 20
172.3296628817423937
 30
0.0
  0
SEQEND
  5
23D61
  8
0
  0
ARC
  5
231F9
  8
0
 10
343.2366959413013205
 20
173.8300000819563991
 30
0.0
 40
2.0000000000000142
 50
75.0000000000055564
 51
90.0
  0
ARC
  5
231FA
  8
0
 10
321.7633059316505069
 20
173.8300000819563991
 30
0.0
 40
2.0000000000000222
 50
90.0
 51
104.9999999999944009
  0
ARC
  5
231FB
  8
0
 10
318.0000009364758853
 20
172.821625547627292
 30
0.0
 40
2.000000000000056
 50
104.9999999999944009
 51
180.0
  0
LINE
  5
231FC
  8
0
 10
314.5000009364758853
 20
132.5000000819565003
 30
0.0
 11
315.0000009364758853
 21
132.0000000819563013
 31
0.0
  0
LINE
  5
231FD
  8
0
 10
350.0000009364758853
 20
132.0000000819563013
 30
0.0
 11
350.5000009364758853
 21
132.5000000819565003
 31
0.0
  0
LINE
  5
231FE
  8
0
 10
314.5000009364758853
 20
144.0258967238148955
 30
0.0
 11
314.5000009364758853
 21
132.5000000819565003
 31
0.0
  0
LINE
  5
231FF
  8
0
 10
350.5000009364758853
 20
132.5000000819565003
 30
0.0
 11
350.5000009364758853
 21
144.0258967238148955
 31
0.0
  0
ARC
  5
23200
  8
0
 10
315.5000009364758853
 20
144.0258967238148955
 30
0.0
 40
1.000000000000032
 50
110.0000000000036948
 51
180.0
  0
ARC
  5
23201
  8
0
 10
349.5000009364758853
 20
144.0258967238148955
 30
0.0
 40
1.000000000000113
 50
0.0
 51
69.999999999996291
  0
LINE
  5
23202
  8
0
 10
349.8420210798013841
 20
144.9655893446008861
 30
0.0
 11
347.2631928791457767
 21
145.9042060489258859
 31
0.0
  0
LINE
  5
23203
  8
0
 10
317.7368089938059939
 20
145.9042060489258859
 30
0.0
 11
315.1579807931503865
 21
144.9655893446008861
 31
0.0
  0
ARC
  5
23204
  8
0
 10
347.4000009364759762
 20
146.2800830972402935
 30
0.0
 40
0.4000000000000998
 50
180.0
 51
249.9999999999963052
  0
ARC
  5
23205
  8
0
 10
317.6000009364757943
 20
146.2800830972402935
 30
0.0
 40
0.400000000000056
 50
290.0000000000036948
 51
0.0
  0
LINE
  5
23206
  8
0
 10
347.0000009364758853
 20
146.2800830972402935
 30
0.0
 11
347.0000009364758853
 21
147.8300000819563991
 31
0.0
  0
LINE
  5
23207
  8
0
 10
318.0000009364758853
 20
147.8300000819563991
 30
0.0
 11
318.0000009364758853
 21
146.2800830972402935
 31
0.0
  0
LINE
  5
23208
  8
0
 10
322.5000009364758853
 20
132.0000000819563013
 30
0.0
 11
322.5000009364758853
 21
127.0000000819563013
 31
0.0
  0
LINE
  5
23209
  8
0
 10
342.5000009364758853
 20
127.0000000819563013
 30
0.0
 11
342.5000009364758853
 21
132.0000000819563013
 31
0.0
  0
LINE
  5
2320A
  8
0
 10
322.5000009364758853
 20
127.0000000819563013
 30
0.0
 11
323.0000009364758853
 21
126.5000000819564008
 31
0.0
  0
LINE
  5
2320B
  8
0
 10
342.0000009364758853
 20
126.5000000819564008
 30
0.0
 11
342.5000009364758853
 21
127.0000000819563013
 31
0.0
  0
LINE
  5
2320C
  8
0
 10
324.5000009364758853
 20
126.5000000819564008
 30
0.0
 11
324.5000009364758853
 21
113.5000000819563013
 31
0.0
  0
LINE
  5
2320D
  8
0
 10
340.5000009364758853
 20
121.2513769484265964
 30
0.0
 11
340.5000009364758853
 21
126.5000000819564008
 31
0.0
  0
LINE
  5
2320E
  8
0
 10
340.5000009364758853
 20
113.5000000819563013
 30
0.0
 11
340.5000009364758853
 21
114.5500000819563979
 31
0.0
  0
LINE
  5
2320F
  8
0
 10
324.5000009364758853
 20
113.5000000819563013
 30
0.0
 11
325.3038485137690827
 21
110.5000000819563013
 31
0.0
  0
LINE
  5
23210
  8
0
 10
339.6961533591825741
 20
110.5000000819563013
 30
0.0
 11
340.5000009364758853
 21
113.5000000819563013
 31
0.0
  0
ARC
  5
23211
  8
0
 10
359.1375532315997816
 20
110.8509761105359956
 30
0.0
 40
68.3113392709316685
 50
120.8183577520856034
 51
124.0133372963047975
  0
LINE
  5
23212
  8
0
 10
324.1404209601333832
 20
169.5164668675544988
 30
0.0
 11
324.1404209601333832
 21
155.3300000819563991
 31
0.0
  0
POLYLINE
  5
23213
  8
0
 66
     1
 10
0.0
 20
0.0
 30
0.0
 70
   128
  0
VERTEX
  5
23D62
  8
0
 10
323.8360402456283964
 20
154.8300000819563991
 30
0.0
  0
VERTEX
  5
23D63
  8
0
 10
323.8954219772368788
 20
154.8396074417547084
 30
0.0
  0
VERTEX
  5
23D64
  8
0
 10
323.9525217022011248
 20
154.8680603157006885
 30
0.0
  0
VERTEX
  5
23D65
  8
0
 10
324.0051451101127213
 20
154.9142652758050929
 30
0.0
  0
VERTEX
  5
23D66
  8
0
 10
324.0512699129172915
 20
154.976446691363094
 30
0.0
  0
VERTEX
  5
23D67
  8
0
 10
324.0891235603099858
 20
155.0522149654466091
 30
0.0
  0
VERTEX
  5
23D68
  8
0
 10
324.1172513578504777
 20
155.1386583657738925
 30
0.0
  0
VERTEX
  5
23D69
  8
0
 10
324.1345723700533767
 20
155.2324549209482996
 30
0.0
  0
VERTEX
  5
23D6A
  8
0
 10
324.1404209601333832
 20
155.3300000819563991
 30
0.0
  0
SEQEND
  5
23D6B
  8
0
  0
LINE
  5
23214
  8
0
 10
320.9251551826474724
 20
167.474749460046894
 30
0.0
 11
319.0971343593114966
 21
167.474749460046894
 31
0.0
  0
ARC
  5
23215
  8
0
 10
327.3714517198806107
 20
167.8653366539033129
 30
0.0
 40
3.6284694780122222
 50
106.8266657293629009
 51
152.9319341514652137
  0
POLYLINE
  5
23216
  8
0
 66
     1
 10
0.0
 20
0.0
 30
0.0
 70
   128
  0
VERTEX
  5
23D6C
  8
0
 10
327.8112906979055197
 20
154.8300000819563991
 30
0.0
  0
VERTEX
  5
23D6D
  8
0
 10
327.8706724295134904
 20
154.8396074417547084
 30
0.0
  0
VERTEX
  5
23D6E
  8
0
 10
327.9277721544777933
 20
154.8680603157006885
 30
0.0
  0
VERTEX
  5
23D6F
  8
0
 10
327.9803955623893899
 20
154.9142652758050929
 30
0.0
  0
VERTEX
  5
23D70
  8
0
 10
328.0265203651940169
 20
154.976446691363094
 30
0.0
  0
VERTEX
  5
23D71
  8
0
 10
328.0643740125867112
 20
155.0522149654466091
 30
0.0
  0
VERTEX
  5
23D72
  8
0
 10
328.0925018101270894
 20
155.1386583657738925
 30
0.0
  0
VERTEX
  5
23D73
  8
0
 10
328.1098228223301021
 20
155.2324549209482996
 30
0.0
  0
VERTEX
  5
23D74
  8
0
 10
328.1156714124099949
 20
155.3300000819563991
 30
0.0
  0
SEQEND
  5
23D75
  8
0
  0
LINE
  5
23217
  8
0
 10
328.1156714124099949
 20
171.8489364673322086
 30
0.0
 11
326.3210921479745821
 21
171.3384527652033
 31
0.0
  0
LINE
  5
23218
  8
0
 10
328.1156714124099949
 20
155.3300000819563991
 30
0.0
 11
328.1156714124099949
 21
171.8489364673322086
 31
0.0
  0
LINE
  5
23219
  8
0
 10
334.1909948240768813
 20
172.821625547627292
 30
0.0
 11
334.1909948240768813
 21
155.3300000819563991
 31
0.0
  0
LINE
  5
2321A
  8
0
 10
348.5000009364758853
 20
147.8300000819563991
 30
0.0
 11
316.5000009364758853
 21
147.8300000819563991
 31
0.0
  0
LINE
  5
2321B
  8
0
 10
330.4587639956736211
 20
154.8300000819563991
 30
0.0
 11
318.2054783485710914
 21
154.8300000819563991
 31
0.0
  0
ARC
  5
2321C
  8
0
 10
334.2289450898625773
 20
153.1253013799600069
 30
0.0
 40
19.6963607283301414
 50
90.1103955921678477
 51
108.0818792715560051
  0
LINE
  5
2321D
  8
0
 10
330.4587639956736211
 20
154.8300000819563991
 30
0.0
 11
330.6313867832565165
 21
154.8445208764362064
 31
0.0
  0
LINE
  5
2321E
  8
0
 10
321.7633059316505069
 20
175.8300000819563991
 30
0.0
 11
343.2366959413013205
 21
175.8300000819563991
 31
0.0
  0
LINE
  5
2321F
  8
0
 10
314.5000009364758853
 20
132.5000000819565003
 30
0.0
 11
350.5000009364758853
 21
132.5000000819565003
 31
0.0
  0
LINE
  5
23220
  8
0
 10
350.0000009364758853
 20
132.0000000819563013
 30
0.0
 11
315.0000009364758853
 21
132.0000000819563013
 31
0.0
  0
LINE
  5
23221
  8
0
 10
322.5000009364758853
 20
127.0000000819563013
 30
0.0
 11
329.7500009513769896
 21
127.0000000819563013
 31
0.0
  0
LINE
  5
23222
  8
0
 10
335.2500009215747241
 20
127.0000000819563013
 30
0.0
 11
342.5000009364758853
 21
127.0000000819563013
 31
0.0
  0
LINE
  5
23223
  8
0
 10
342.0000009364758853
 20
126.5000000819564008
 30
0.0
 11
323.0000009364758853
 21
126.5000000819564008
 31
0.0
  0
ARC
  5
23224
  8
0
 10
351.4134283639414775
 20
119.1222891621509063
 30
0.0
 40
11.8325282863567995
 50
200.7716709974951925
 51
202.7317323005044045
  0
POLYLINE
  5
23225
  8
0
 66
     1
 10
0.0
 20
0.0
 30
0.0
 70
   128
  0
VERTEX
  5
23D76
  8
0
 10
340.5000009364758853
 20
121.2513769484265964
 30
0.0
  0
VERTEX
  5
23D77
  8
0
 10
340.367411797734519
 20
120.9197109389508
 30
0.0
  0
VERTEX
  5
23D78
  8
0
 10
340.3500009364757943
 20
120.8740545535490014
 30
0.0
  0
SEQEND
  5
23D79
  8
0
  0
LINE
  5
23226
  8
0
 10
340.3500009364757943
 20
120.8740545535490014
 30
0.0
 11
340.3500009364757943
 21
120.9021867850112955
 31
0.0
  0
ARC
  5
23227
  8
0
 10
347.8110455603329001
 20
117.9000000819564065
 30
0.0
 40
8.0424070948435382
 50
158.0810554906204004
 51
201.9189445093794859
  0
LINE
  5
23228
  8
0
 10
340.3500009364757943
 20
114.8978133789014038
 30
0.0
 11
340.3500009364757943
 21
114.9259456103636978
 31
0.0
  0
LINE
  5
23229
  8
0
 10
324.5000009364758853
 20
113.5000000819563013
 30
0.0
 11
340.5000009364758853
 21
113.5000000819563013
 31
0.0
  0
LINE
  5
2322A
  8
0
 10
339.6961533591825741
 20
110.5000000819563013
 30
0.0
 11
325.3038485137690827
 21
110.5000000819563013
 31
0.0
  0
LINE
  5
2322B
  8
0
 10
349.0000009364758853
 20
172.821625547627292
 30
0.0
 11
334.1909948240768813
 21
172.821625547627292
 31
0.0
  0
LINE
  5
2322C
  8
0
 10
317.4403242852819176
 20
172.821625547627292
 30
0.0
 11
316.0000009364758853
 21
172.821625547627292
 31
0.0
  0
LINE
  5
2322D
  8
0
 10
316.0000009364758853
 20
148.3300000819563991
 30
0.0
 11
349.0000009364758853
 21
148.3300000819563991
 31
0.0
  0
ARC
  5
2322E
  8
0
 10
320.4978861936747876
 20
169.9816814896186941
 30
0.0
 40
2.8717266413023501
 50
193.4976717472808048
 51
240.8056623761912078
  0
ARC
  5
2322F
  8
0
 10
328.3057688050321872
 20
185.1888446276776961
 30
0.0
 40
30.4333120593340105
 50
274.3826357487831729
 51
281.150164877939801
  0
POLYLINE
  5
23230
  8
0
 66
     1
 10
0.0
 20
0.0
 30
0.0
 70
   128
  0
VERTEX
  5
23D7A
  8
0
 10
318.4007534148814784
 20
172.4438116696877898
 30
0.0
  0
VERTEX
  5
23D7B
  8
0
 10
318.3451315286353065
 20
172.569406352109695
 30
0.0
  0
VERTEX
  5
23D7C
  8
0
 10
318.0013887275759998
 20
172.7548853119280921
 30
0.0
  0
VERTEX
  5
23D7D
  8
0
 10
317.4403242852819176
 20
172.821625547627292
 30
0.0
  0
SEQEND
  5
23D7E
  8
0
  0
LINE
  5
23231
  8
0
 10
315.1579807931503865
 20
144.9655893446008861
 30
0.0
 11
349.8420210798013841
 21
144.9655893446008861
 31
0.0
  0
LINE
  5
23232
  8
0
 10
347.2631928791457767
 20
145.9042060489258859
 30
0.0
 11
317.7368089938059939
 21
145.9042060489258859
 31
0.0
  0
LINE
  5
23233
  8
1
 10
332.5000009364758853
 20
180.8300000819563991
 30
0.0
 11
332.5000009364758853
 21
105.5000000819563013
 31
0.0
  0
LINE
  5
23234
  8
0
 10
331.991722968439376
 20
142.9999998211860088
 30
0.0
 11
333.805412157005378
 21
140.3677879273892017
 31
0.0
  0
LINE
  5
23235
  8
0
 10
333.871734431511527
 20
139.0000000968574909
 30
0.0
 11
332.0630124227934061
 21
141.6241979598997887
 31
0.0
  0
ARC
  5
23236
  8
0
 10
328.6204597820192816
 20
141.0665056183331103
 30
0.0
 40
2.0362928523853041
 50
90.868539800176805
 51
181.8265133954278099
  0
ARC
  5
23237
  8
0
 10
328.6070173028343788
 20
140.9208287399104051
 30
0.0
 40
2.0234286186487549
 50
177.7121930339378082
 51
269.6616410439784204
  0
ARC
  5
23238
  8
0
 10
328.5861090909057793
 20
140.9422675157435947
 30
0.0
 40
2.044851737134413
 50
270.2510268681209027
 51
1.28097065177102
  0
ARC
  5
23239
  8
0
 10
328.5608886896712875
 20
141.0327189297186123
 30
0.0
 40
2.070044608596417
 50
358.7616175049208778
 51
89.2054802960674635
  0
LINE
  5
2323A
  8
0
 10
331.3458131025873854
 20
139.0000000968574909
 30
0.0
 11
331.3458131025873854
 21
142.9999998211860088
 31
0.0
  0
LINE
  5
2323B
  8
0
 10
331.3458131025873854
 20
139.0000000968574909
 30
0.0
 11
332.0630124227934061
 21
139.0000000968574909
 31
0.0
  0
LINE
  5
2323C
  8
0
 10
332.0630124227934061
 20
141.6241979598997887
 30
0.0
 11
332.0630124227934061
 21
139.0000000968574909
 31
0.0
  0
LINE
  5
2323D
  8
0
 10
333.871734431511527
 20
139.0000000968574909
 30
0.0
 11
334.5202421634782013
 21
139.0000000968574909
 31
0.0
  0
LINE
  5
2323E
  8
0
 10
334.5202421634782013
 20
142.9999998211860088
 30
0.0
 11
334.5202421634782013
 21
139.0000000968574909
 31
0.0
  0
LINE
  5
2323F
  8
0
 10
333.805412157005378
 20
142.9999998211860088
 30
0.0
 11
334.5202421634782013
 21
142.9999998211860088
 31
0.0
  0
LINE
  5
23240
  8
0
 10
333.805412157005378
 20
140.3677879273892017
 30
0.0
 11
333.805412157005378
 21
142.9999998211860088
 31
0.0
  0
LINE
  5
23241
  8
0
 10
331.3458131025873854
 20
142.9999998211860088
 30
0.0
 11
331.991722968439376
 21
142.9999998211860088
 31
0.0
  0
POLYLINE
  5
23242
  8
0
 66
     1
 10
0.0
 20
0.0
 30
0.0
 70
   128
  0
VERTEX
  5
23D7F
  8
0
 10
345.8568523503237202
 20
141.0016022995114895
 30
0.0
  0
VERTEX
  5
23D80
  8
0
 10
345.9595818869162258
 20
141.8045876920222952
 30
0.0
  0
VERTEX
  5
23D81
  8
0
 10
346.2544944933940201
 20
142.48674981296071
 30
0.0
  0
VERTEX
  5
23D82
  8
0
 10
346.6825806401063232
 20
142.9425036907194908
 30
0.0
  0
VERTEX
  5
23D83
  8
0
 10
347.1618597260999763
 20
143.1025645136832907
 30
0.0
  0
SEQEND
  5
23D84
  8
0
  0
POLYLINE
  5
23243
  8
0
 66
     1
 10
0.0
 20
0.0
 30
0.0
 70
   128
  0
VERTEX
  5
23D85
  8
0
 10
347.1651128358532219
 20
138.8974354043602091
 30
0.0
  0
VERTEX
  5
23D86
  8
0
 10
346.682315213172501
 20
139.0469396859407993
 30
0.0
  0
VERTEX
  5
23D87
  8
0
 10
346.455925596444672
 20
139.2426738888026136
 30
0.0
  0
VERTEX
  5
23D88
  8
0
 10
346.2553373403239902
 20
139.5099699869753067
 30
0.0
  0
VERTEX
  5
23D89
  8
0
 10
345.9584661624722912
 20
140.194682069122905
 30
0.0
  0
VERTEX
  5
23D8A
  8
0
 10
345.8568523503237202
 20
141.0016022995114895
 30
0.0
  0
SEQEND
  5
23D8B
  8
0
  0
POLYLINE
  5
23244
  8
0
 66
     1
 10
0.0
 20
0.0
 30
0.0
 70
   128
  0
VERTEX
  5
23D8C
  8
0
 10
348.2626429624252751
 20
140.987980775534993
 30
0.0
  0
VERTEX
  5
23D8D
  8
0
 10
348.1912459112101033
 20
140.1882531493903059
 30
0.0
  0
VERTEX
  5
23D8E
  8
0
 10
347.966423710375409
 20
139.5109441503882124
 30
0.0
  0
VERTEX
  5
23D8F
  8
0
 10
347.6133425585318264
 20
139.0502440184353929
 30
0.0
  0
VERTEX
  5
23D90
  8
0
 10
347.1651128358532219
 20
138.8974354043602091
 30
0.0
  0
SEQEND
  5
23D91
  8
0
  0
POLYLINE
  5
23245
  8
0
 66
     1
 10
0.0
 20
0.0
 30
0.0
 70
   128
  0
VERTEX
  5
23D92
  8
0
 10
347.1618597260999763
 20
143.1025645136832907
 30
0.0
  0
VERTEX
  5
23D93
  8
0
 10
347.6120899296694233
 20
142.9435169696807009
 30
0.0
  0
VERTEX
  5
23D94
  8
0
 10
347.9652781836085751
 20
142.4743967503308966
 30
0.0
  0
VERTEX
  5
23D95
  8
0
 10
348.1911080754686054
 20
141.7925177514551933
 30
0.0
  0
VERTEX
  5
23D96
  8
0
 10
348.2626429624252751
 20
140.987980775534993
 30
0.0
  0
SEQEND
  5
23D97
  8
0
  0
POLYLINE
  5
23246
  8
0
 66
     1
 10
0.0
 20
0.0
 30
0.0
 70
   128
  0
VERTEX
  5
23D98
  8
0
 10
345.1482043466858727
 20
140.999999493360491
 30
0.0
  0
VERTEX
  5
23D99
  8
0
 10
343.859225963740414
 20
139.9999993294476894
 30
0.0
  0
VERTEX
  5
23D9A
  8
0
 10
342.4651506222177204
 20
139.0000000968574909
 30
0.0
  0
SEQEND
  5
23D9B
  8
0
  0
POLYLINE
  5
23247
  8
0
 66
     1
 10
0.0
 20
0.0
 30
0.0
 70
   128
  0
VERTEX
  5
23D9C
  8
0
 10
342.4651506222177204
 20
142.9999998211860088
 30
0.0
  0
VERTEX
  5
23D9D
  8
0
 10
343.859225963740414
 20
141.9999996572732073
 30
0.0
  0
VERTEX
  5
23D9E
  8
0
 10
345.1482043466858727
 20
140.999999493360491
 30
0.0
  0
SEQEND
  5
23D9F
  8
0
  0
LINE
  5
23248
  8
0
 10
342.4651506222177204
 20
141.9999996572732073
 30
0.0
 11
342.4651506222177204
 21
142.9999998211860088
 31
0.0
  0
LINE
  5
23249
  8
0
 10
338.8492469541121181
 20
141.9999996572732073
 30
0.0
 11
342.4651506222177204
 21
141.9999996572732073
 31
0.0
  0
LINE
  5
2324A
  8
0
 10
338.8492469541121181
 20
142.9999998211860088
 30
0.0
 11
338.8492469541121181
 21
141.9999996572732073
 31
0.0
  0
POLYLINE
  5
2324B
  8
0
 66
     1
 10
0.0
 20
0.0
 30
0.0
 70
   128
  0
VERTEX
  5
23DA0
  8
0
 10
335.5105630918729958
 20
140.999999493360491
 30
0.0
  0
VERTEX
  5
23DA1
  8
0
 10
337.2016548975694832
 20
141.9999996572732073
 30
0.0
  0
VERTEX
  5
23DA2
  8
0
 10
338.8492469541121181
 20
142.9999998211860088
 30
0.0
  0
SEQEND
  5
23DA3
  8
0
  0
POLYLINE
  5
2324C
  8
0
 66
     1
 10
0.0
 20
0.0
 30
0.0
 70
   128
  0
VERTEX
  5
23DA4
  8
0
 10
338.8492469541121181
 20
139.0000000968574909
 30
0.0
  0
VERTEX
  5
23DA5
  8
0
 10
337.2016548975694832
 20
139.9999993294476894
 30
0.0
  0
VERTEX
  5
23DA6
  8
0
 10
335.5105630918729958
 20
140.999999493360491
 30
0.0
  0
SEQEND
  5
23DA7
  8
0
  0
LINE
  5
2324D
  8
0
 10
338.8492469541121181
 20
139.9999993294476894
 30
0.0
 11
338.8492469541121181
 21
139.0000000968574909
 31
0.0
  0
LINE
  5
2324E
  8
0
 10
338.8492469541121181
 20
139.9999993294476894
 30
0.0
 11
342.4651506222177204
 21
139.9999993294476894
 31
0.0
  0
LINE
  5
2324F
  8
0
 10
342.4651506222177204
 20
139.0000000968574909
 30
0.0
 11
342.4651506222177204
 21
139.9999993294476894
 31
0.0
  0
LINE
  5
23250
  8
0
 10
349.6094583398991062
 20
139.0000000968574909
 30
0.0
 11
349.6094583398991062
 21
142.9999998211860088
 31
0.0
  0
LINE
  5
23251
  8
0
 10
349.6094583398991062
 20
139.0000000968574909
 30
0.0
 11
349.8188196546722111
 21
139.0000000968574909
 31
0.0
  0
LINE
  5
23252
  8
0
 10
349.8188196546722111
 20
140.794871971011105
 30
0.0
 11
349.8188196546722111
 21
139.0000000968574909
 31
0.0
  0
LINE
  5
23253
  8
0
 10
349.8188196546722111
 20
140.794871971011105
 30
0.0
 11
350.1134696281839069
 21
140.794871971011105
 31
0.0
  0
LINE
  5
23254
  8
0
 10
350.1134696281839069
 20
141.5128210932016088
 30
0.0
 11
350.1134696281839069
 21
140.794871971011105
 31
0.0
  0
LINE
  5
23255
  8
0
 10
349.8188196546722111
 20
141.5128210932016088
 30
0.0
 11
350.1134696281839069
 21
141.5128210932016088
 31
0.0
  0
LINE
  5
23256
  8
0
 10
349.8188196546722111
 20
142.2820506989955049
 30
0.0
 11
349.8188196546722111
 21
141.5128210932016088
 31
0.0
  0
LINE
  5
23257
  8
0
 10
349.8188196546722111
 20
142.2820506989955049
 30
0.0
 11
350.1134696281839069
 21
142.2820506989955049
 31
0.0
  0
LINE
  5
23258
  8
0
 10
350.1134696281839069
 20
142.9999998211860088
 30
0.0
 11
350.1134696281839069
 21
142.2820506989955049
 31
0.0
  0
LINE
  5
23259
  8
0
 10
349.6094583398991062
 20
142.9999998211860088
 30
0.0
 11
350.1134696281839069
 21
142.9999998211860088
 31
0.0
  0
LINE
  5
2325A
  8
0
 10
348.5966785676175164
 20
139.0000000968574909
 30
0.0
 11
348.5966785676175164
 21
142.9999998211860088
 31
0.0
  0
LINE
  5
2325B
  8
0
 10
348.5966785676175164
 20
139.0000000968574909
 30
0.0
 11
348.9051065272976189
 21
139.0000000968574909
 31
0.0
  0
LINE
  5
2325C
  8
0
 10
348.9051065272976189
 20
140.794871971011105
 30
0.0
 11
348.9051065272976189
 21
139.0000000968574909
 31
0.0
  0
LINE
  5
2325D
  8
0
 10
348.9051065272976189
 20
140.794871971011105
 30
0.0
 11
349.3728800542044723
 21
140.794871971011105
 31
0.0
  0
LINE
  5
2325E
  8
0
 10
349.3728800542044723
 20
141.5128210932016088
 30
0.0
 11
349.3728800542044723
 21
140.794871971011105
 31
0.0
  0
LINE
  5
2325F
  8
0
 10
348.9051065272976189
 20
141.5128210932016088
 30
0.0
 11
349.3728800542044723
 21
141.5128210932016088
 31
0.0
  0
LINE
  5
23260
  8
0
 10
348.9051065272976189
 20
142.2820506989955049
 30
0.0
 11
348.9051065272976189
 21
141.5128210932016088
 31
0.0
  0
LINE
  5
23261
  8
0
 10
348.9051065272976189
 20
142.2820506989955049
 30
0.0
 11
349.3728800542044723
 21
142.2820506989955049
 31
0.0
  0
LINE
  5
23262
  8
0
 10
349.3728800542044723
 20
142.9999998211860088
 30
0.0
 11
349.3728800542044723
 21
142.2820506989955049
 31
0.0
  0
LINE
  5
23263
  8
0
 10
348.5966785676175164
 20
142.9999998211860088
 30
0.0
 11
349.3728800542044723
 21
142.9999998211860088
 31
0.0
  0
ARC
  5
23264
  8
0
 10
328.571812496885002
 20
141.0377850253603071
 30
0.0
 40
1.3468476890751311
 50
358.2900681770236133
 51
89.7094039632118552
  0
ARC
  5
23265
  8
0
 10
328.5818092387449951
 20
141.0683967252477089
 30
0.0
 40
1.316222473351037
 50
90.1378067715968712
 51
183.3280079391711013
  0
ARC
  5
23266
  8
0
 10
328.5798729187923755
 20
140.9542134111285918
 30
0.0
 40
1.338890534959982
 50
270.5498378683956275
 51
1.8568060513251261
  0
POLYLINE
  5
23267
  8
0
 66
     1
 10
0.0
 20
0.0
 30
0.0
 70
   128
  0
VERTEX
  5
23DA8
  8
0
 10
327.7404461852598843
 20
139.9230767413972956
 30
0.0
  0
VERTEX
  5
23DA9
  8
0
 10
328.1390038184218838
 20
139.6919746324421112
 30
0.0
  0
VERTEX
  5
23DAA
  8
0
 10
328.5927213593710121
 20
139.615384526550713
 30
0.0
  0
SEQEND
  5
23DAB
  8
0
  0
ARC
  5
23268
  8
0
 10
328.5716291351379255
 20
140.9295492387138893
 30
0.0
 40
1.3053168136594511
 50
177.2582866927866974
 51
230.4488210506972905
  0
POLYLINE
  5
23269
  8
0
 66
     1
 10
0.0
 20
0.0
 30
0.0
 70
   128
  0
VERTEX
  5
23DAC
  8
0
 10
347.1553497813035278
 20
142.3846153914927868
 30
0.0
  0
VERTEX
  5
23DAD
  8
0
 10
346.8409259668875961
 20
142.2849843651056005
 30
0.0
  0
VERTEX
  5
23DAE
  8
0
 10
346.6973169572049187
 20
142.1574453264474016
 30
0.0
  0
VERTEX
  5
23DAF
  8
0
 10
346.5676051429796871
 20
141.9800265133380037
 30
0.0
  0
VERTEX
  5
23DB0
  8
0
 10
346.4616187713432964
 20
141.7671671509741884
 30
0.0
  0
VERTEX
  5
23DB1
  8
0
 10
346.3849178380660874
 20
141.525002792477494
 30
0.0
  0
VERTEX
  5
23DB2
  8
0
 10
346.3273770041157036
 20
140.9919873252509888
 30
0.0
  0
SEQEND
  5
23DB3
  8
0
  0
POLYLINE
  5
2326A
  8
0
 66
     1
 10
0.0
 20
0.0
 30
0.0
 70
   128
  0
VERTEX
  5
23DB4
  8
0
 10
347.9035370848470166
 20
140.9975957497954937
 30
0.0
  0
VERTEX
  5
23DB5
  8
0
 10
347.8533984027196198
 20
141.5271932631729896
 30
0.0
  0
VERTEX
  5
23DB6
  8
0
 10
347.6971736974406895
 20
141.9766607135535139
 30
0.0
  0
VERTEX
  5
23DB7
  8
0
 10
347.5859626061607059
 20
142.1521032601594072
 30
0.0
  0
VERTEX
  5
23DB8
  8
0
 10
347.4556333250695275
 20
142.2826281189919087
 30
0.0
  0
VERTEX
  5
23DB9
  8
0
 10
347.1553497813035278
 20
142.3846153914927868
 30
0.0
  0
SEQEND
  5
23DBA
  8
0
  0
POLYLINE
  5
2326B
  8
0
 66
     1
 10
0.0
 20
0.0
 30
0.0
 70
   128
  0
VERTEX
  5
23DBB
  8
0
 10
347.1637186459590225
 20
139.615384526550713
 30
0.0
  0
VERTEX
  5
23DBC
  8
0
 10
347.4616478062558826
 20
139.7172898426651102
 30
0.0
  0
VERTEX
  5
23DBD
  8
0
 10
347.5876939348269161
 20
139.8439832404257004
 30
0.0
  0
VERTEX
  5
23DBE
  8
0
 10
347.700831932514177
 20
140.0230234861375038
 30
0.0
  0
VERTEX
  5
23DBF
  8
0
 10
347.8547711721950009
 20
140.4710483178496077
 30
0.0
  0
VERTEX
  5
23DC0
  8
0
 10
347.9035370848470166
 20
140.9975957497954937
 30
0.0
  0
SEQEND
  5
23DC1
  8
0
  0
POLYLINE
  5
2326C
  8
0
 66
     1
 10
0.0
 20
0.0
 30
0.0
 70
   128
  0
VERTEX
  5
23DC2
  8
0
 10
346.6371553815293964
 20
139.9230767413972956
 30
0.0
  0
VERTEX
  5
23DC3
  8
0
 10
346.8884606710964249
 20
139.6919746324421112
 30
0.0
  0
VERTEX
  5
23DC4
  8
0
 10
347.1637186459590225
 20
139.615384526550713
 30
0.0
  0
SEQEND
  5
23DC5
  8
0
  0
ARC
  5
2326D
  8
0
 10
347.9706309182398059
 20
140.8888713956658023
 30
0.0
 40
1.646486052543132
 50
176.4093369817443033
 51
215.9146396209627028
  0
LINE
  5
2326E
  8
0
 10
350.5000009294399774
 20
144.0258975597099038
 30
0.0
 11
314.500000929440489
 21
144.0258975597099038
 31
0.0
  0
LINE
  5
2326F
  8
0
 10
318.0000009294403185
 20
146.2800837578253947
 30
0.0
 11
347.0000009294407164
 21
146.2800837578251105
 31
0.0
  0
LINE
  5
23270
  8
0
 10
320.2500009212786836
 20
126.4999999953433019
 30
0.0
 11
320.2500009212786836
 21
129.5000001378357126
 31
0.0
  0
LINE
  5
23271
  8
0
 10
314.750000951081006
 20
129.5000001378357126
 30
0.0
 11
314.750000951081006
 21
126.4999999953433019
 31
0.0
  0
LINE
  5
23272
  8
0
 10
319.0000011820490045
 20
129.5000001378357126
 30
0.0
 11
319.0000011820490045
 21
132.0000000819563013
 31
0.0
  0
LINE
  5
23273
  8
0
 10
316.0000016216333165
 20
132.0000000819563013
 30
0.0
 11
316.0000016216333165
 21
129.5000001378357126
 31
0.0
  0
LINE
  5
23274
  8
0
 10
320.2500009212786836
 20
126.4999999953433019
 30
0.0
 11
314.750000951081006
 21
126.4999999953433019
 31
0.0
  0
LINE
  5
23275
  8
0
 10
320.2500009212786836
 20
129.5000001378357126
 30
0.0
 11
314.750000951081006
 21
129.5000001378357126
 31
0.0
  0
LINE
  5
23276
  8
3
 10
318.7295009361798179
 20
131.0000000423750919
 30
0.0
 11
318.7295009361798179
 21
132.0000000447033983
 31
0.0
  0
LINE
  5
23277
  8
3
 10
316.2705009361798147
 20
131.0000000423750919
 30
0.0
 11
316.2705009361798147
 21
132.0000000447033983
 31
0.0
  0
LINE
  5
23278
  8
3
 10
318.7295009361806137
 20
131.0000000423750066
 30
0.0
 11
319.0000009361797879
 21
130.5314802989290115
 31
0.0
  0
LINE
  5
23279
  8
3
 10
316.2705009361790189
 20
131.0000000423750066
 30
0.0
 11
316.0000009361799016
 21
130.5314802989290115
 31
0.0
  0
LINE
  5
2327A
  8
0
 10
316.0000009361799016
 20
131.0000000423750066
 30
0.0
 11
319.0000009361796742
 21
131.0000000423750066
 31
0.0
  0
LINE
  5
2327B
  8
1
 10
317.5000009361799016
 20
134.0000000447033983
 30
0.0
 11
317.5000009361799016
 21
124.5000000162981024
 31
0.0
  0
LINE
  5
2327C
  8
0
 10
335.2500009215747241
 20
126.4999999953433019
 30
0.0
 11
335.2500009215747241
 21
129.5000001378357126
 31
0.0
  0
LINE
  5
2327D
  8
0
 10
329.7500009513769896
 20
129.5000001378357126
 30
0.0
 11
329.7500009513769896
 21
126.4999999953433019
 31
0.0
  0
LINE
  5
2327E
  8
0
 10
334.0000011823449881
 20
129.5000001378357126
 30
0.0
 11
334.0000011823449881
 21
132.0000000819563013
 31
0.0
  0
LINE
  5
2327F
  8
0
 10
331.0000016219293002
 20
132.0000000819563013
 30
0.0
 11
331.0000016219293002
 21
129.5000001378357126
 31
0.0
  0
LINE
  5
23281
  8
0
 10
335.2500009215747241
 20
129.5000001378357126
 30
0.0
 11
329.7500009513769896
 21
129.5000001378357126
 31
0.0
  0
LINE
  5
23282
  8
3
 10
333.7295009364758016
 20
131.0000000423750919
 30
0.0
 11
333.7295009364758016
 21
132.0000000447033983
 31
0.0
  0
LINE
  5
23283
  8
3
 10
331.2705009364757984
 20
131.0000000423750919
 30
0.0
 11
331.2705009364757984
 21
132.0000000447033983
 31
0.0
  0
LINE
  5
23284
  8
3
 10
333.7295009364765974
 20
131.0000000423750066
 30
0.0
 11
334.0000009364758853
 21
130.5314802989290115
 31
0.0
  0
LINE
  5
23285
  8
3
 10
331.2705009364750026
 20
131.0000000423750066
 30
0.0
 11
331.0000009364758853
 21
130.5314802989290115
 31
0.0
  0
LINE
  5
23286
  8
0
 10
331.0000009364758853
 20
131.0000000423750066
 30
0.0
 11
334.0000009364757716
 21
131.0000000423750066
 31
0.0
  0
LINE
  5
23287
  8
0
 10
350.2500009212786836
 20
126.4999999953433019
 30
0.0
 11
350.2500009212786836
 21
129.5000001378357126
 31
0.0
  0
LINE
  5
23288
  8
0
 10
344.750000951081006
 20
129.5000001378357126
 30
0.0
 11
344.750000951081006
 21
126.4999999953433019
 31
0.0
  0
LINE
  5
23289
  8
0
 10
349.0000011820490045
 20
129.5000001378357126
 30
0.0
 11
349.0000011820490045
 21
132.0000000819563013
 31
0.0
  0
LINE
  5
2328A
  8
0
 10
346.0000016216333165
 20
132.0000000819563013
 30
0.0
 11
346.0000016216333165
 21
129.5000001378357126
 31
0.0
  0
LINE
  5
2328B
  8
0
 10
350.2500009212786836
 20
126.4999999953433019
 30
0.0
 11
344.750000951081006
 21
126.4999999953433019
 31
0.0
  0
LINE
  5
2328C
  8
0
 10
350.2500009212786836
 20
129.5000001378357126
 30
0.0
 11
344.750000951081006
 21
129.5000001378357126
 31
0.0
  0
LINE
  5
2328D
  8
3
 10
348.7295009361798179
 20
131.0000000423750919
 30
0.0
 11
348.7295009361798179
 21
132.0000000447033983
 31
0.0
  0
LINE
  5
2328E
  8
3
 10
346.2705009361798147
 20
131.0000000423750919
 30
0.0
 11
346.2705009361798147
 21
132.0000000447033983
 31
0.0
  0
LINE
  5
2328F
  8
3
 10
348.7295009361806137
 20
131.0000000423750066
 30
0.0
 11
349.0000009361799016
 21
130.5314802989290115
 31
0.0
  0
LINE
  5
23290
  8
3
 10
346.2705009361790189
 20
131.0000000423750066
 30
0.0
 11
346.0000009361797879
 21
130.5314802989290115
 31
0.0
  0
LINE
  5
23291
  8
0
 10
346.0000009361797879
 20
131.0000000423750066
 30
0.0
 11
349.0000009361796742
 21
131.0000000423750066
 31
0.0
  0
LINE
  5
23292
  8
1
 10
347.5000009361797879
 20
134.0000000447033983
 30
0.0
 11
347.5000009361797879
 21
124.5000000162981024
 31
0.0
  0
ARC
  5
23293
  8
0
 10
339.329292905166426
 20
117.900000081956307
 30
0.0
 40
3.3734000000000219
 50
289.1044211853385946
 51
70.8773253761077058
  0
ARC
  5
23294
  8
0
 10
329.0853549521306149
 20
117.900000081956307
 30
0.0
 40
3.3734000000000068
 50
96.1371007473717896
 51
263.1426110737002091
  0
ARC
  5
23295
  8
0
 10
328.5750009364758739
 20
117.0990641205992944
 30
0.0
 40
2.5506017053881269
 50
238.430122644394288
 51
301.5698773556130163
  0
LINE
  5
23296
  8
0
 10
329.9103379725833065
 20
114.9259456103636978
 30
0.0
 11
329.9103379725833065
 21
114.8978133789013043
 31
0.0
  0
ARC
  5
23297
  8
0
 10
328.4007366463654876
 20
117.900000081956307
 30
0.0
 40
3.3603602729645701
 50
296.6948014693103914
 51
63.3051985306895801
  0
LINE
  5
23298
  8
0
 10
329.9103379725833065
 20
120.9021867850112955
 30
0.0
 11
329.9103379725833065
 21
120.8740545535490014
 31
0.0
  0
ARC
  5
23299
  8
0
 10
328.5750009364758739
 20
118.7474099894463961
 30
0.0
 40
2.5111236731844091
 50
57.8749614202196128
 51
122.1250385797803943
  0
LINE
  5
2329A
  8
0
 10
327.2396639003686118
 20
120.8740545535490014
 30
0.0
 11
327.2396639003686118
 21
120.9021867850112955
 31
0.0
  0
ARC
  5
2329B
  8
0
 10
328.6524019384374924
 20
118.8182292887337042
 30
0.0
 40
2.5176790126023652
 50
124.1337832677269972
 51
153.5640695569973104
  0
POLYLINE
  5
2329C
  8
0
 66
     1
 10
0.0
 20
0.0
 30
0.0
 70
   128
  0
VERTEX
  5
23DC6
  8
0
 10
326.5653414937340244
 20
115.6573766785513016
 30
0.0
  0
VERTEX
  5
23DC7
  8
0
 10
326.7852803152164824
 20
115.2983540395188982
 30
0.0
  0
VERTEX
  5
23DC8
  8
0
 10
327.2396639003686118
 20
114.8978133789013043
 30
0.0
  0
SEQEND
  5
23DC9
  8
0
  0
LINE
  5
2329D
  8
0
 10
327.2396639003686118
 20
114.8978133789013043
 30
0.0
 11
327.2396639003686118
 21
114.9259456103636978
 31
0.0
  0
LINE
  5
235B9
  8
0
 10
492.5176393940565731
 20
174.7534771135923108
 30
0.0
 11
488.7543343988820084
 21
175.7618516479213042
 31
0.0
  0
LINE
  5
235BA
  8
0
 10
466.2456682088214848
 20
175.7618516479213042
 30
0.0
 11
462.48236321364692
 21
174.7534771135923108
 31
0.0
  0
LINE
  5
235BB
  8
0
 10
494.000001303851775
 20
148.3299999953432859
 30
0.0
 11
494.000001303851775
 21
172.8216254610142073
 31
0.0
  0
LINE
  5
235BC
  8
0
 10
461.000001303851775
 20
172.8216254610142073
 30
0.0
 11
461.000001303851775
 21
148.3299999953432859
 31
0.0
  0
ARC
  5
235BD
  8
0
 10
493.500001303851775
 20
148.3299999953432859
 30
0.0
 40
0.500000000000057
 50
270.0
 51
0.0
  0
ARC
  5
235BE
  8
0
 10
461.500001303851775
 20
148.3299999953432859
 30
0.0
 40
0.500000000000057
 50
180.0
 51
270.0
  0
POLYLINE
  5
235BF
  8
0
 66
     1
 10
0.0
 20
0.0
 30
0.0
 70
   128
  0
VERTEX
  5
23DCA
  8
0
 10
462.7229167226425943
 20
169.6846733151502917
 30
0.0
  0
VERTEX
  5
23DCB
  8
0
 10
462.7179085987323788
 20
169.6451033840160108
 30
0.0
  0
VERTEX
  5
23DCC
  8
0
 10
462.7054787159469811
 20
169.3114036031583112
 30
0.0
  0
SEQEND
  5
23DCD
  8
0
  0
ARC
  5
235C0
  8
0
 10
463.2054787159469811
 20
155.3299999953432859
 30
0.0
 40
0.500000000000057
 50
179.9999999999934914
 51
270.0
  0
LINE
  5
235C1
  8
0
 10
462.7054787159469811
 20
169.3114036031583112
 30
0.0
 11
462.7054787159469811
 21
155.3299999953432859
 31
0.0
  0
ARC
  5
235C2
  8
0
 10
469.6189623735484133
 20
169.4683060402967953
 30
0.0
 40
6.89943913785776
 50
155.4981203143177879
 51
178.2029025400904061
  0
ARC
  5
235C3
  8
0
 10
492.000001303851775
 20
172.8216254610142073
 30
0.0
 40
2.000000000000056
 50
0.0
 51
75.0000000000055564
  0
POLYLINE
  5
235C4
  8
0
 66
     1
 10
0.0
 20
0.0
 30
0.0
 70
   128
  0
VERTEX
  5
23DCE
  8
0
 10
463.400753782257425
 20
172.4438115830747051
 30
0.0
  0
VERTEX
  5
23DCF
  8
0
 10
463.3408338356335889
 20
172.329662795129309
 30
0.0
  0
SEQEND
  5
23DD0
  8
0
  0
ARC
  5
235C5
  8
0
 10
488.2366963086772103
 20
173.8299999953432859
 30
0.0
 40
2.0000000000000142
 50
75.0000000000055564
 51
90.0
  0
ARC
  5
235C6
  8
0
 10
466.7633062990263966
 20
173.8299999953432859
 30
0.0
 40
2.0000000000000222
 50
90.0
 51
104.9999999999944009
  0
ARC
  5
235C7
  8
0
 10
463.000001303851775
 20
172.8216254610142073
 30
0.0
 40
2.000000000000056
 50
104.9999999999944009
 51
180.0
  0
LINE
  5
235C8
  8
0
 10
459.500001303851775
 20
132.4999999953433019
 30
0.0
 11
460.000001303851775
 21
131.9999999953431882
 31
0.0
  0
LINE
  5
235C9
  8
0
 10
495.0000013038517181
 20
131.9999999953431882
 30
0.0
 11
495.500001303851775
 21
132.4999999953433019
 31
0.0
  0
LINE
  5
235CA
  8
0
 10
459.500001303851775
 20
144.0258966372018108
 30
0.0
 11
459.500001303851775
 21
132.4999999953433019
 31
0.0
  0
LINE
  5
235CB
  8
0
 10
495.500001303851775
 20
132.4999999953433019
 30
0.0
 11
495.500001303851775
 21
144.0258966372018108
 31
0.0
  0
ARC
  5
235CC
  8
0
 10
460.500001303851775
 20
144.0258966372018108
 30
0.0
 40
1.000000000000032
 50
110.0000000000036948
 51
180.0
  0
ARC
  5
235CD
  8
0
 10
494.500001303851775
 20
144.0258966372018108
 30
0.0
 40
1.000000000000113
 50
0.0
 51
69.999999999996291
  0
LINE
  5
235CE
  8
0
 10
494.8420214471772738
 20
144.9655892579878014
 30
0.0
 11
492.2631932465217233
 21
145.9042059623128011
 31
0.0
  0
LINE
  5
235CF
  8
0
 10
462.7368093611818836
 20
145.9042059623128011
 30
0.0
 11
460.1579811605262762
 21
144.9655892579878014
 31
0.0
  0
ARC
  5
235D0
  8
0
 10
492.4000013038519228
 20
146.2800830106272088
 30
0.0
 40
0.4000000000000998
 50
180.0
 51
249.9999999999963052
  0
ARC
  5
235D1
  8
0
 10
462.600001303851684
 20
146.2800830106272088
 30
0.0
 40
0.400000000000056
 50
290.0000000000036948
 51
0.0
  0
LINE
  5
235D2
  8
0
 10
492.000001303851775
 20
146.2800830106272088
 30
0.0
 11
492.000001303851775
 21
147.8299999953432859
 31
0.0
  0
LINE
  5
235D3
  8
0
 10
463.000001303851775
 20
147.8299999953432859
 30
0.0
 11
463.000001303851775
 21
146.2800830106272088
 31
0.0
  0
LINE
  5
235D4
  8
0
 10
467.500001303851775
 20
131.9999999953431882
 30
0.0
 11
467.500001303851775
 21
126.9999999953432024
 31
0.0
  0
LINE
  5
235D5
  8
0
 10
487.500001303851775
 20
126.9999999953432024
 30
0.0
 11
487.500001303851775
 21
131.9999999953431882
 31
0.0
  0
LINE
  5
235D6
  8
0
 10
467.500001303851775
 20
126.9999999953432024
 30
0.0
 11
468.000001303851775
 21
126.4999999953433019
 31
0.0
  0
LINE
  5
235D7
  8
0
 10
487.000001303851775
 20
126.4999999953433019
 30
0.0
 11
487.500001303851775
 21
126.9999999953432024
 31
0.0
  0
ARC
  5
235D8
  8
0
 10
504.1375535989756145
 20
110.8509760239228967
 30
0.0
 40
68.3113392709316685
 50
120.8183577520833012
 51
124.0133372963070997
  0
LINE
  5
235D9
  8
0
 10
469.1404213275092729
 20
169.5164667809414141
 30
0.0
 11
469.1404213275092729
 21
155.3299999953432859
 31
0.0
  0
POLYLINE
  5
235DA
  8
0
 66
     1
 10
0.0
 20
0.0
 30
0.0
 70
   128
  0
VERTEX
  5
23DD1
  8
0
 10
468.8360406130042861
 20
154.8299999953432859
 30
0.0
  0
VERTEX
  5
23DD2
  8
0
 10
468.8954223446128253
 20
154.8396073551415952
 30
0.0
  0
VERTEX
  5
23DD3
  8
0
 10
468.9525220695770145
 20
154.8680602290876038
 30
0.0
  0
VERTEX
  5
23DD4
  8
0
 10
469.005145477488611
 20
154.9142651891920082
 30
0.0
  0
VERTEX
  5
23DD5
  8
0
 10
469.0512702802931813
 20
154.9764466047498956
 30
0.0
  0
VERTEX
  5
23DD6
  8
0
 10
469.0891239276858755
 20
155.052214878833496
 30
0.0
  0
VERTEX
  5
23DD7
  8
0
 10
469.1172517252264242
 20
155.1386582791608078
 30
0.0
  0
VERTEX
  5
23DD8
  8
0
 10
469.1345727374293801
 20
155.2324548343351864
 30
0.0
  0
VERTEX
  5
23DD9
  8
0
 10
469.1404213275092729
 20
155.3299999953432859
 30
0.0
  0
SEQEND
  5
23DDA
  8
0
  0
LINE
  5
235DB
  8
0
 10
465.925155550023419
 20
167.4747493734338093
 30
0.0
 11
464.0971347266875
 21
167.4747493734338093
 31
0.0
  0
ARC
  5
235DC
  8
0
 10
472.3714520872565004
 20
167.8653365672901998
 30
0.0
 40
3.6284694780122222
 50
106.8266657293629009
 51
152.9319341514652137
  0
POLYLINE
  5
235DD
  8
0
 66
     1
 10
0.0
 20
0.0
 30
0.0
 70
   128
  0
VERTEX
  5
23DDB
  8
0
 10
472.8112910652814094
 20
154.8299999953432859
 30
0.0
  0
VERTEX
  5
23DDC
  8
0
 10
472.8706727968893802
 20
154.8396073551415952
 30
0.0
  0
VERTEX
  5
23DDD
  8
0
 10
472.927772521853683
 20
154.8680602290876038
 30
0.0
  0
VERTEX
  5
23DDE
  8
0
 10
472.9803959297652796
 20
154.9142651891920082
 30
0.0
  0
VERTEX
  5
23DDF
  8
0
 10
473.0265207325697929
 20
154.9764466047498956
 30
0.0
  0
VERTEX
  5
23DE0
  8
0
 10
473.0643743799626009
 20
155.052214878833496
 30
0.0
  0
VERTEX
  5
23DE1
  8
0
 10
473.0925021775029791
 20
155.1386582791608078
 30
0.0
  0
VERTEX
  5
23DE2
  8
0
 10
473.1098231897059918
 20
155.2324548343351864
 30
0.0
  0
VERTEX
  5
23DE3
  8
0
 10
473.1156717797858846
 20
155.3299999953432859
 30
0.0
  0
SEQEND
  5
23DE4
  8
0
  0
LINE
  5
235DE
  8
0
 10
473.1156717797858846
 20
171.8489363807190955
 30
0.0
 11
471.3210925153504718
 21
171.3384526785901869
 31
0.0
  0
LINE
  5
235DF
  8
0
 10
473.1156717797858846
 20
155.3299999953432859
 30
0.0
 11
473.1156717797858846
 21
171.8489363807190955
 31
0.0
  0
LINE
  5
235E0
  8
0
 10
479.1909951914528278
 20
172.8216254610142073
 30
0.0
 11
479.1909951914528278
 21
155.3299999953432859
 31
0.0
  0
LINE
  5
235E1
  8
0
 10
493.500001303851775
 20
147.8299999953432859
 30
0.0
 11
461.500001303851775
 21
147.8299999953432859
 31
0.0
  0
LINE
  5
235E2
  8
0
 10
475.4587643630495108
 20
154.8299999953432859
 30
0.0
 11
463.2054787159469811
 21
154.8299999953432859
 31
0.0
  0
ARC
  5
235E3
  8
0
 10
479.2289454572385239
 20
153.1253012933468938
 30
0.0
 40
19.6963607283301414
 50
90.1103955921678477
 51
108.0818792715560051
  0
LINE
  5
235E4
  8
0
 10
475.4587643630495108
 20
154.8299999953432859
 30
0.0
 11
475.6313871506324062
 21
154.8445207898230933
 31
0.0
  0
LINE
  5
235E5
  8
0
 10
466.7633062990263966
 20
175.8299999953432859
 30
0.0
 11
488.2366963086772103
 21
175.8299999953432859
 31
0.0
  0
LINE
  5
235E6
  8
0
 10
459.500001303851775
 20
132.4999999953433019
 30
0.0
 11
495.500001303851775
 21
132.4999999953433019
 31
0.0
  0
LINE
  5
235E7
  8
0
 10
495.0000013038517181
 20
131.9999999953431882
 30
0.0
 11
460.000001303851775
 21
131.9999999953431882
 31
0.0
  0
LINE
  5
235E8
  8
0
 10
467.500001303851775
 20
126.9999999953432024
 30
0.0
 11
474.7500013187528793
 21
126.9999999953432024
 31
0.0
  0
LINE
  5
235E9
  8
0
 10
480.2500012889506138
 20
126.9999999953432024
 30
0.0
 11
487.500001303851775
 21
126.9999999953432024
 31
0.0
  0
LINE
  5
235EA
  8
0
 10
487.000001303851775
 20
126.4999999953433019
 30
0.0
 11
468.000001303851775
 21
126.4999999953433019
 31
0.0
  0
LINE
  5
235EB
  8
0
 10
494.000001303851775
 20
172.8216254610142073
 30
0.0
 11
479.1909951914528278
 21
172.8216254610142073
 31
0.0
  0
LINE
  5
235EC
  8
0
 10
462.4403246526578073
 20
172.8216254610142073
 30
0.0
 11
461.000001303851775
 21
172.8216254610142073
 31
0.0
  0
LINE
  5
235ED
  8
0
 10
461.000001303851775
 20
148.3299999953432859
 30
0.0
 11
494.000001303851775
 21
148.3299999953432859
 31
0.0
  0
ARC
  5
235EE
  8
0
 10
465.497886561050791
 20
169.9816814030056094
 30
0.0
 40
2.8717266413023501
 50
193.4976717472808048
 51
240.8056623761904973
  0
ARC
  5
235EF
  8
0
 10
473.3057691724081906
 20
185.1888445410646113
 30
0.0
 40
30.4333120593340105
 50
274.3826357487831729
 51
281.150164877939801
  0
POLYLINE
  5
235F0
  8
0
 66
     1
 10
0.0
 20
0.0
 30
0.0
 70
   128
  0
VERTEX
  5
23DE5
  8
0
 10
463.400753782257425
 20
172.4438115830747051
 30
0.0
  0
VERTEX
  5
23DE6
  8
0
 10
463.3451318960111962
 20
172.5694062654966103
 30
0.0
  0
VERTEX
  5
23DE7
  8
0
 10
463.0013890949518895
 20
172.7548852253150073
 30
0.0
  0
VERTEX
  5
23DE8
  8
0
 10
462.4403246526578073
 20
172.8216254610142073
 30
0.0
  0
SEQEND
  5
23DE9
  8
0
  0
LINE
  5
235F1
  8
0
 10
460.1579811605262762
 20
144.9655892579878014
 30
0.0
 11
494.8420214471772738
 21
144.9655892579878014
 31
0.0
  0
LINE
  5
235F2
  8
0
 10
492.2631932465217233
 20
145.9042059623128011
 30
0.0
 11
462.7368093611818836
 21
145.9042059623128011
 31
0.0
  0
LINE
  5
235F3
  8
1
 10
477.500001303851775
 20
180.8300000819563991
 30
0.0
 11
477.500001303851775
 21
105.5000000819563013
 31
0.0
  0
LINE
  5
235F4
  8
0
 10
495.500001296815924
 20
144.0258974730967907
 30
0.0
 11
459.5000012968163787
 21
144.0258974730967907
 31
0.0
  0
LINE
  5
235F5
  8
0
 10
463.0000012968162082
 20
146.28008367121231
 30
0.0
 11
492.0000012968166061
 21
146.2800836712119974
 31
0.0
  0
LINE
  5
235F6
  8
0
 10
465.2500012886545733
 20
126.4999999087302029
 30
0.0
 11
465.2500012886545733
 21
129.5000000512225995
 31
0.0
  0
LINE
  5
235F7
  8
0
 10
459.7500013184570093
 20
129.5000000512225995
 30
0.0
 11
459.7500013184570093
 21
126.4999999087302029
 31
0.0
  0
LINE
  5
235F8
  8
0
 10
464.0000015494250079
 20
129.5000000512225995
 30
0.0
 11
464.0000015494250079
 21
131.9999999953431882
 31
0.0
  0
LINE
  5
235F9
  8
0
 10
461.0000019890092062
 20
131.9999999953431882
 30
0.0
 11
461.0000019890092062
 21
129.5000000512225995
 31
0.0
  0
LINE
  5
235FA
  8
0
 10
465.2500012886545733
 20
126.4999999087302029
 30
0.0
 11
459.7500013184570093
 21
126.4999999087302029
 31
0.0
  0
LINE
  5
235FB
  8
0
 10
465.2500012886545733
 20
129.5000000512225995
 30
0.0
 11
459.7500013184570093
 21
129.5000000512225995
 31
0.0
  0
LINE
  5
235FC
  8
3
 10
463.7295013035557076
 20
130.9999999557620072
 30
0.0
 11
463.7295013035557076
 21
131.9999999580903136
 31
0.0
  0
LINE
  5
235FD
  8
3
 10
461.2705013035557045
 20
130.9999999557620072
 30
0.0
 11
461.2705013035557045
 21
131.9999999580903136
 31
0.0
  0
LINE
  5
235FE
  8
3
 10
463.7295013035565034
 20
130.9999999557618935
 30
0.0
 11
464.0000013035557913
 21
130.5314802123158984
 31
0.0
  0
LINE
  5
235FF
  8
3
 10
461.2705013035549086
 20
130.9999999557618935
 30
0.0
 11
461.0000013035556776
 21
130.5314802123158984
 31
0.0
  0
LINE
  5
23600
  8
0
 10
461.0000013035556776
 20
130.9999999557618935
 30
0.0
 11
464.0000013035556776
 21
130.9999999557618935
 31
0.0
  0
LINE
  5
23601
  8
1
 10
462.5000013035557913
 20
133.9999999580903136
 30
0.0
 11
462.5000013035557913
 21
124.4999999296850035
 31
0.0
  0
LINE
  5
23602
  8
0
 10
480.2500012889506138
 20
126.4999999087302029
 30
0.0
 11
480.2500012889506138
 21
129.5000000512225995
 31
0.0
  0
LINE
  5
23603
  8
0
 10
474.7500013187528793
 20
129.5000000512225995
 30
0.0
 11
474.7500013187528793
 21
126.4999999087302029
 31
0.0
  0
LINE
  5
23604
  8
0
 10
479.0000015497208778
 20
129.5000000512225995
 30
0.0
 11
479.0000015497208778
 21
131.9999999953431882
 31
0.0
  0
LINE
  5
23605
  8
0
 10
476.0000019893051899
 20
131.9999999953431882
 30
0.0
 11
476.0000019893051899
 21
129.5000000512225995
 31
0.0
  0
LINE
  5
23606
  8
0
 10
480.2500012889506138
 20
129.5000000512225995
 30
0.0
 11
474.7500013187528793
 21
129.5000000512225995
 31
0.0
  0
LINE
  5
23607
  8
3
 10
478.7295013038516913
 20
130.9999999557620072
 30
0.0
 11
478.7295013038516913
 21
131.9999999580903136
 31
0.0
  0
LINE
  5
23608
  8
3
 10
476.2705013038518018
 20
130.9999999557620072
 30
0.0
 11
476.2705013038518018
 21
131.9999999580903136
 31
0.0
  0
LINE
  5
23609
  8
3
 10
478.7295013038524871
 20
130.9999999557618935
 30
0.0
 11
479.000001303851775
 21
130.5314802123158984
 31
0.0
  0
LINE
  5
2360A
  8
3
 10
476.270501303851006
 20
130.9999999557618935
 30
0.0
 11
476.000001303851775
 21
130.5314802123158984
 31
0.0
  0
LINE
  5
2360B
  8
0
 10
476.000001303851775
 20
130.9999999557618935
 30
0.0
 11
479.0000013038516045
 21
130.9999999557618935
 31
0.0
  0
LINE
  5
2360C
  8
0
 10
495.2500012886545733
 20
126.4999999087302029
 30
0.0
 11
495.2500012886545733
 21
129.5000000512225995
 31
0.0
  0
LINE
  5
2360D
  8
0
 10
489.7500013184568957
 20
129.5000000512225995
 30
0.0
 11
489.7500013184568957
 21
126.4999999087302029
 31
0.0
  0
LINE
  5
2360E
  8
0
 10
494.0000015494248942
 20
129.5000000512225995
 30
0.0
 11
494.0000015494248942
 21
131.9999999953431882
 31
0.0
  0
LINE
  5
2360F
  8
0
 10
491.0000019890092062
 20
131.9999999953431882
 30
0.0
 11
491.0000019890092062
 21
129.5000000512225995
 31
0.0
  0
LINE
  5
23610
  8
0
 10
495.2500012886545733
 20
126.4999999087302029
 30
0.0
 11
489.7500013184568957
 21
126.4999999087302029
 31
0.0
  0
LINE
  5
23611
  8
0
 10
495.2500012886545733
 20
129.5000000512225995
 30
0.0
 11
489.7500013184568957
 21
129.5000000512225995
 31
0.0
  0
LINE
  5
23612
  8
3
 10
493.7295013035557076
 20
130.9999999557620072
 30
0.0
 11
493.7295013035557076
 21
131.9999999580903136
 31
0.0
  0
LINE
  5
23613
  8
3
 10
491.2705013035557045
 20
130.9999999557620072
 30
0.0
 11
491.2705013035557045
 21
131.9999999580903136
 31
0.0
  0
LINE
  5
23614
  8
3
 10
493.7295013035565034
 20
130.9999999557618935
 30
0.0
 11
494.0000013035556776
 21
130.5314802123158984
 31
0.0
  0
LINE
  5
23615
  8
3
 10
491.2705013035549086
 20
130.9999999557618935
 30
0.0
 11
491.0000013035556776
 21
130.5314802123158984
 31
0.0
  0
LINE
  5
23616
  8
0
 10
491.0000013035556776
 20
130.9999999557618935
 30
0.0
 11
494.0000013035556776
 21
130.9999999557618935
 31
0.0
  0
LINE
  5
23617
  8
1
 10
492.5000013035557913
 20
133.9999999580903136
 30
0.0
 11
492.5000013035557913
 21
124.4999999296850035
 31
0.0
  0
ARC
  5
23618
  8
0
 10
480.9146472881971022
 20
117.8999999087301944
 30
0.0
 40
3.3734000000000051
 50
277.6152621689170132
 51
81.7002689430110678
  0
ARC
  5
23619
  8
0
 10
470.6707093351612912
 20
117.8999999087301944
 30
0.0
 40
3.3734000000000042
 50
109.1064737988518942
 51
250.8955438940417935
  0
LINE
  5
2361A
  8
0
 10
469.500001303851775
 20
113.4999999087303024
 30
0.0
 11
470.3038488811451998
 21
110.4999999087302029
 31
0.0
  0
LINE
  5
2361B
  8
0
 10
484.696153726558407
 20
110.4999999087302029
 30
0.0
 11
485.500001303851775
 21
113.4999999087303024
 31
0.0
  0
LINE
  5
2361C
  8
0
 10
469.500001303851775
 20
114.5499999087302001
 30
0.0
 11
469.500001303851775
 21
113.4999999087303024
 31
0.0
  0
LINE
  5
2361D
  8
0
 10
469.5000013038518887
 20
126.4999999953433019
 30
0.0
 11
469.500001303851775
 21
121.2432610831415047
 31
0.0
  0
LINE
  5
2361E
  8
0
 10
485.500001303851775
 20
113.4999999087303024
 30
0.0
 11
485.5000013038518887
 21
126.4999999953433019
 31
0.0
  0
LINE
  5
2361F
  8
0
 10
469.500001303851775
 20
113.4999999087303024
 30
0.0
 11
485.500001303851775
 21
113.4999999087303024
 31
0.0
  0
LINE
  5
23620
  8
0
 10
484.696153726558407
 20
110.4999999087302029
 30
0.0
 11
470.3038488811450861
 21
110.4999999087302029
 31
0.0
  0
ARC
  5
23621
  8
0
 10
481.4250013038517864
 20
117.148008013369207
 30
0.0
 40
2.5924288018553092
 50
238.9964547210134924
 51
301.0035452789865076
  0
LINE
  5
23622
  8
0
 10
482.7603383399591053
 20
114.9259454371375995
 30
0.0
 11
482.7603383399591053
 21
114.8978132056752059
 31
0.0
  0
ARC
  5
23623
  8
0
 10
481.4872902613569181
 20
116.8132912200540972
 30
0.0
 40
2.2999363978166509
 50
303.6084560744017722
 51
333.6125434530629263
  0
POLYLINE
  5
23624
  8
0
 66
     1
 10
0.0
 20
0.0
 30
0.0
 70
   128
  0
VERTEX
  5
23DEA
  8
0
 10
483.4346607465939201
 20
120.1426233121350009
 30
0.0
  0
VERTEX
  5
23DEB
  8
0
 10
483.2147219251111778
 20
120.5016459511676032
 30
0.0
  0
VERTEX
  5
23DEC
  8
0
 10
482.7603383399591053
 20
120.9021866117851971
 30
0.0
  0
SEQEND
  5
23DED
  8
0
  0
LINE
  5
23625
  8
0
 10
482.7603383399591053
 20
120.9021866117851971
 30
0.0
 11
482.7603383399591053
 21
120.8740543803228036
 31
0.0
  0
ARC
  5
23626
  8
0
 10
481.4250013038517864
 20
118.6075637938818943
 30
0.0
 40
2.6306091648942349
 50
59.4948945073149602
 51
120.5051054926850043
  0
LINE
  5
23627
  8
0
 10
480.0896642677445243
 20
120.8740543803228036
 30
0.0
 11
480.0896642677445243
 21
120.9021866117851971
 31
0.0
  0
ARC
  5
23628
  8
0
 10
481.5992655939621727
 20
117.8999999087301944
 30
0.0
 40
3.3603602729645572
 50
116.6948014693031013
 51
243.3051985306969129
  0
LINE
  5
23629
  8
0
 10
480.0896642677445243
 20
114.8978132056752059
 30
0.0
 11
480.0896642677445243
 21
114.9259454371375995
 31
0.0
  0
ARC
  5
2362A
  8
0
 10
458.573285038096401
 20
119.1275911553083944
 30
0.0
 40
11.8468337530781298
 50
337.2694512360702106
 51
339.2271454659565961
  0
LINE
  5
2362B
  8
0
 10
469.6500013038518091
 20
114.9259454371375995
 30
0.0
 11
469.6500013038518091
 21
114.8978132056752059
 31
0.0
  0
ARC
  5
2362C
  8
0
 10
462.1889566799943054
 20
117.8999999087301944
 30
0.0
 40
8.0424070948436945
 50
338.0810554906241236
 51
21.918944509375919
  0
LINE
  5
2362D
  8
0
 10
469.6500013038518091
 20
120.9021866117851971
 30
0.0
 11
469.6500013038518091
 21
120.8740543803228036
 31
0.0
  0
POLYLINE
  5
2362E
  8
0
 66
     1
 10
0.0
 20
0.0
 30
0.0
 70
   128
  0
VERTEX
  5
23DEE
  8
0
 10
469.6500013038518091
 20
120.8740543803228036
 30
0.0
  0
VERTEX
  5
23DEF
  8
0
 10
469.576889898817285
 20
121.0619920555560043
 30
0.0
  0
VERTEX
  5
23DF0
  8
0
 10
469.5252701943314833
 20
121.1891998523563956
 30
0.0
  0
VERTEX
  5
23DF1
  8
0
 10
469.500001303851775
 20
121.2432610831415047
 30
0.0
  0
SEQEND
  5
23DF2
  8
0
  0
ARC
  5
2383E
  8
0
 10
410.914341462936477
 20
117.8999999087301944
 30
0.0
 40
3.3733999999999802
 50
308.1896435376532963
 51
51.8103564623467108
  0
ARC
  5
2383F
  8
0
 10
399.0856607934421731
 20
117.8999999087301944
 30
0.0
 40
3.3733999999999909
 50
128.189643537648692
 51
231.810356462351308
  0
LINE
  5
23840
  8
0
 10
420.1786128209477056
 20
174.7103442801723077
 30
0.0
 11
416.2543342232195869
 21
175.7618515613083048
 31
0.0
  0
LINE
  5
23841
  8
0
 10
393.745668033159177
 20
175.7618515613083048
 30
0.0
 11
389.8213894354308877
 21
174.7103442801723077
 31
0.0
  0
ARC
  5
23842
  8
0
 10
421.0000011281894103
 20
148.3299999087300876
 30
0.0
 40
0.5
 50
270.0
 51
0.0
  0
ARC
  5
23843
  8
0
 10
389.0000011281894103
 20
148.3299999087300876
 30
0.0
 40
0.5
 50
180.0
 51
270.0
  0
LINE
  5
23844
  8
0
 10
421.5000011281894103
 20
148.3299999087300876
 30
0.0
 11
421.500001128189524
 21
154.8299999087300876
 31
0.0
  0
LINE
  5
23845
  8
0
 10
388.5000011281894103
 20
154.6072268682700894
 30
0.0
 11
388.5000011281894103
 21
148.3299999087300876
 31
0.0
  0
ARC
  5
23846
  8
0
 10
415.7366961330145045
 20
173.8299999087300876
 30
0.0
 40
2.0000000000000049
 50
74.9999999999984084
 51
90.0
  0
ARC
  5
23847
  8
0
 10
394.2633061233640888
 20
173.8299999087300876
 30
0.0
 40
2.0
 50
90.0
 51
105.0000000000016058
  0
ARC
  5
23848
  8
0
 10
423.0522011254159906
 20
168.5034560111766098
 30
0.0
 40
4.4489975643678079
 50
358.644763784782981
 51
23.2986848006721097
  0
ARC
  5
23849
  8
0
 10
426.9999541847540172
 20
155.3299999087300876
 30
0.0
 40
0.5
 50
270.0
 51
0.0
  0
LINE
  5
2384A
  8
0
 10
427.4999541847539035
 20
155.3299999087300876
 30
0.0
 11
427.4999541847539035
 21
168.3982321978004109
 31
0.0
  0
ARC
  5
2384B
  8
0
 10
422.5311700590006012
 20
168.6762331360251892
 30
0.0
 40
4.8728757323450891
 50
19.0056818914440804
 51
68.3857948260742745
  0
POLYLINE
  5
2384C
  8
0
 66
     1
 10
0.0
 20
0.0
 30
0.0
 70
   128
  0
VERTEX
  5
23DF3
  8
0
 10
424.3261184825763053
 20
173.2064735335738135
 30
0.0
  0
VERTEX
  5
23DF4
  8
0
 10
424.0246247993813995
 20
173.3231741026829127
 30
0.0
  0
VERTEX
  5
23DF5
  8
0
 10
422.9334047545463022
 20
173.7303497692265069
 30
0.0
  0
SEQEND
  5
23DF6
  8
0
  0
POLYLINE
  5
2384D
  8
0
 66
     1
 10
0.0
 20
0.0
 30
0.0
 70
   128
  0
VERTEX
  5
23DF7
  8
0
 10
422.9334047545463022
 20
173.7303497692265069
 30
0.0
  0
VERTEX
  5
23DF8
  8
0
 10
422.5573533776340014
 20
173.8664512750276003
 30
0.0
  0
VERTEX
  5
23DF9
  8
0
 10
421.9426480097943113
 20
174.0926238621408118
 30
0.0
  0
VERTEX
  5
23DFA
  8
0
 10
421.4021559502704122
 20
174.2928693236094944
 30
0.0
  0
VERTEX
  5
23DFB
  8
0
 10
420.9129939098049249
 20
174.4707250765254116
 30
0.0
  0
VERTEX
  5
23DFC
  8
0
 10
420.6493372419856769
 20
174.5572066413330106
 30
0.0
  0
SEQEND
  5
23DFD
  8
0
  0
ARC
  5
2384E
  8
0
 10
458.3053176872531935
 20
-21.788417704731561
 30
0.0
 40
208.0924098407795952
 50
109.2272381314294023
 51
110.0185030074083983
  0
POLYLINE
  5
2384F
  8
0
 66
     1
 10
0.0
 20
0.0
 30
0.0
 70
   128
  0
VERTEX
  5
23DFE
  8
0
 10
388.1229945289281886
 20
154.8299999087300876
 30
0.0
  0
VERTEX
  5
23DFF
  8
0
 10
388.1690954462720811
 20
154.8275825790674105
 30
0.0
  0
VERTEX
  5
23E00
  8
0
 10
388.3507767756042881
 20
154.7666876568721932
 30
0.0
  0
VERTEX
  5
23E01
  8
0
 10
388.4560827172912241
 20
154.6761133449747945
 30
0.0
  0
VERTEX
  5
23E02
  8
0
 10
388.4987662733632874
 20
154.610287871924811
 30
0.0
  0
VERTEX
  5
23E03
  8
0
 10
388.5000011281894103
 20
154.6072268682700894
 30
0.0
  0
SEQEND
  5
23E04
  8
0
  0
POLYLINE
  5
23850
  8
0
 66
     1
 10
0.0
 20
0.0
 30
0.0
 70
   128
  0
VERTEX
  5
23E05
  8
0
 10
387.0703772487980814
 20
173.7314899621673874
 30
0.0
  0
VERTEX
  5
23E06
  8
0
 10
386.2289894594503039
 20
173.4179617688394046
 30
0.0
  0
VERTEX
  5
23E07
  8
0
 10
385.6746372023799267
 20
173.2046924714387046
 30
0.0
  0
SEQEND
  5
23E08
  8
0
  0
ARC
  5
23851
  8
0
 10
387.586438011624125
 20
168.547725863371511
 30
0.0
 40
5.0341156445674633
 50
112.3193715859558068
 51
160.0016296916045064
  0
ARC
  5
23852
  8
0
 10
386.7769244254639034
 20
168.5543237600969917
 30
0.0
 40
4.2797238137348659
 50
156.3758448879509046
 51
182.090174999843498
  0
LINE
  5
23853
  8
0
 10
382.5000480716246898
 20
168.3982321978004109
 30
0.0
 11
382.5000480716246898
 21
155.3299999087300876
 31
0.0
  0
ARC
  5
23854
  8
0
 10
383.0000480716246898
 20
155.3299999087300876
 30
0.0
 40
0.5
 50
180.0
 51
270.0
  0
LINE
  5
23855
  8
0
 10
397.0000011281894103
 20
126.4999999953433019
 30
0.0
 11
397.0000011281894103
 21
113.4999999087302029
 31
0.0
  0
LINE
  5
23856
  8
0
 10
413.0000011281894103
 20
113.4999999087302029
 30
0.0
 11
413.0000011281894103
 21
126.4999999953433019
 31
0.0
  0
LINE
  5
23857
  8
0
 10
397.0000011281894103
 20
113.4999999087302029
 30
0.0
 11
397.8038487054827215
 21
110.4999999087302029
 31
0.0
  0
LINE
  5
23858
  8
0
 10
412.1961535508959855
 20
110.4999999087302029
 30
0.0
 11
413.0000011281894103
 21
113.4999999087302029
 31
0.0
  0
POLYLINE
  5
23859
  8
0
 66
     1
 10
0.0
 20
0.0
 30
0.0
 70
   128
  0
VERTEX
  5
23E09
  8
0
 10
420.2392042460240873
 20
174.6913003024963018
 30
0.0
  0
VERTEX
  5
23E0A
  8
0
 10
420.1867516653832126
 20
174.7081383174630957
 30
0.0
  0
VERTEX
  5
23E0B
  8
0
 10
420.1786128209477056
 20
174.7103442801723077
 30
0.0
  0
SEQEND
  5
23E0C
  8
0
  0
POLYLINE
  5
2385A
  8
0
 66
     1
 10
0.0
 20
0.0
 30
0.0
 70
   128
  0
VERTEX
  5
23E0D
  8
0
 10
389.7772489100657936
 20
174.6965812723202021
 30
0.0
  0
VERTEX
  5
23E0E
  8
0
 10
389.813250590995608
 20
174.7081383174630957
 30
0.0
  0
VERTEX
  5
23E0F
  8
0
 10
389.8213894354308877
 20
174.7103442801723077
 30
0.0
  0
SEQEND
  5
23E10
  8
0
  0
LINE
  5
2385B
  8
0
 10
421.0000011281894103
 20
147.8299999087300876
 30
0.0
 11
389.0000011281894103
 21
147.8299999087300876
 31
0.0
  0
LINE
  5
2385C
  8
0
 10
388.5868801674429278
 20
172.8216253744010942
 30
0.0
 11
388.5868801674429278
 21
155.3299999087300876
 31
0.0
  0
LINE
  5
2385D
  8
0
 10
411.7421179442554831
 20
172.8216253744010942
 30
0.0
 11
388.5868801674429278
 21
172.8216253744010942
 31
0.0
  0
LINE
  5
2385E
  8
0
 10
411.7421179442554831
 20
155.3299999087300876
 30
0.0
 11
411.7421179442554831
 21
172.8216253744010942
 31
0.0
  0
ARC
  5
2385F
  8
0
 10
411.110942608499272
 20
146.6211798601790122
 30
0.0
 40
26.2080469979774087
 50
74.2797012830061334
 51
88.6199971469970222
  0
ARC
  5
23860
  8
0
 10
417.170220775906273
 20
180.6871876864506987
 30
0.0
 40
25.9316654371745905
 50
257.9172987787529792
 51
265.6565039198258091
  0
ARC
  5
23861
  8
0
 10
419.218399454333678
 20
155.2071295445871897
 30
0.0
 40
1.014080790754851
 50
173.0406990308769082
 51
201.8324163320750131
  0
LINE
  5
23862
  8
0
 10
418.2770530314178927
 20
154.8299999087300876
 30
0.0
 11
415.2062674736977215
 21
154.8299999087300876
 31
0.0
  0
LINE
  5
23863
  8
0
 10
418.2117899353078201
 20
171.8489362941058971
 30
0.0
 11
418.2117899353078201
 21
155.3299999087300876
 31
0.0
  0
ARC
  5
23864
  8
0
 10
424.1862258104155217
 20
155.2071295445873034
 30
0.0
 40
1.014080790755624
 50
173.0406990308900106
 51
201.832416332064696
  0
LINE
  5
23865
  8
0
 10
423.2448793874988837
 20
154.8299999087300876
 30
0.0
 11
418.2770530314178927
 21
154.8299999087300876
 31
0.0
  0
LINE
  5
23866
  8
0
 10
420.4544557182480844
 20
171.3384525919771022
 30
0.0
 11
418.2117899353078201
 21
171.8489362941058971
 31
0.0
  0
ARC
  5
23867
  8
0
 10
419.535248358249703
 20
167.014569489209407
 30
0.0
 40
4.4205098413051171
 50
34.4700110746275499
 51
77.9982550526607383
  0
LINE
  5
23868
  8
0
 10
423.1796162913889248
 20
155.3299999087300876
 30
0.0
 11
423.1796162913889248
 21
169.5164666943281873
 31
0.0
  0
ARC
  5
23869
  8
0
 10
419.4346585453802732
 20
161.0385336977959128
 30
0.0
 40
9.2682283319456715
 50
43.9824984548185896
 51
66.1675118917133034
  0
LINE
  5
2386A
  8
0
 10
426.1036303780298908
 20
167.4747492868208099
 30
0.0
 11
426.1036303780298908
 21
155.3299999087300876
 31
0.0
  0
ARC
  5
2386B
  8
0
 10
425.6389971437820918
 20
155.2940725422330956
 30
0.0
 40
0.4660201905829615
 50
275.240005282873085
 51
4.4215488553525182
  0
LINE
  5
2386C
  8
0
 10
425.6815577930332211
 20
154.8299999087300876
 30
0.0
 11
423.2448793874988837
 21
154.8299999087300876
 31
0.0
  0
LINE
  5
2386D
  8
0
 10
427.1590386924672771
 20
167.4747492868208099
 30
0.0
 11
426.1036303780298908
 21
167.4747492868208099
 31
0.0
  0
LINE
  5
2386E
  8
0
 10
394.2633061233640888
 20
175.8299999087300876
 30
0.0
 11
415.7366961330145045
 21
175.8299999087300876
 31
0.0
  0
LINE
  5
2386F
  8
0
 10
426.7158579411816959
 20
154.8299999087300876
 30
0.0
 11
425.6815577930332211
 21
154.8299999087300876
 31
0.0
  0
LINE
  5
23870
  8
0
 10
426.9999541847540172
 20
154.8299999087300876
 30
0.0
 11
426.7158579411816959
 21
154.8299999087300876
 31
0.0
  0
ARC
  5
23871
  8
0
 10
393.4610908705184897
 20
157.2237569522820877
 30
0.0
 40
16.3417082733633805
 50
107.3536124171695008
 51
116.4966753476114008
  0
LINE
  5
23872
  8
0
 10
386.1703050067584968
 20
155.3299999087300876
 30
0.0
 11
386.1703050067584968
 21
171.8489362941058971
 31
0.0
  0
LINE
  5
23873
  8
0
 10
388.1229945289281886
 20
154.8299999087300876
 30
0.0
 11
386.56698167690422
 21
154.8299999087300876
 31
0.0
  0
ARC
  5
23874
  8
0
 10
386.625371561118925
 20
155.2836760990489893
 30
0.0
 40
0.4574182596276788
 50
174.1875588125164995
 51
262.6661281828839947
  0
LINE
  5
23875
  8
0
 10
386.1703050067584968
 20
171.8489362941058971
 30
0.0
 11
384.7932759050897857
 21
171.3384525919771022
 31
0.0
  0
ARC
  5
23876
  8
0
 10
383.5750546051115748
 20
155.2836760990491882
 30
0.0
 40
0.4574182596278697
 50
174.1875588125394927
 51
262.6661281828576762
  0
LINE
  5
23877
  8
0
 10
386.56698167690422
 20
154.8299999087300876
 30
0.0
 11
383.5166647208965855
 21
154.8299999087300876
 31
0.0
  0
ARC
  5
23878
  8
0
 10
386.0605963550730166
 20
168.4952064666632054
 30
0.0
 40
3.112900520745622
 50
114.0239728941321005
 51
160.8481124308509038
  0
LINE
  5
23879
  8
0
 10
383.1199880507509761
 20
169.5164666943281873
 30
0.0
 11
383.1199880507509761
 21
155.3299999087300876
 31
0.0
  0
LINE
  5
2387A
  8
0
 10
383.5166647208965855
 20
154.8299999087300876
 30
0.0
 11
383.0000480716246898
 21
154.8299999087300876
 31
0.0
  0
ARC
  5
2387B
  8
0
 10
405.0000011281894103
 20
117.8999999087302939
 30
0.0
 40
3.3500000000001831
 50
242.5952778999532029
 51
297.4047221000467971
  0
LINE
  5
2387C
  8
0
 10
406.5419155227003216
 20
114.9259454371375
 30
0.0
 11
406.5419155227003216
 21
114.8978132056752059
 31
0.0
  0
ARC
  5
2387D
  8
0
 10
404.9997029277109277
 20
117.8999999087301944
 30
0.0
 40
3.3751362473452851
 50
297.189403925033389
 51
62.8105960749665968
  0
LINE
  5
2387E
  8
0
 10
406.5419155227003216
 20
120.9021866117851971
 30
0.0
 11
406.5419155227003216
 21
120.8740543803228036
 31
0.0
  0
ARC
  5
2387F
  8
0
 10
405.0000011281894103
 20
117.899999908729697
 30
0.0
 40
3.3500000000005361
 50
62.59527789995321
 51
117.4047221000467971
  0
LINE
  5
23880
  8
0
 10
403.4580867336783854
 20
120.8740543803228036
 30
0.0
 11
403.4580867336783854
 21
120.9021866117851971
 31
0.0
  0
ARC
  5
23881
  8
0
 10
405.0002993286677793
 20
117.8999999087301944
 30
0.0
 40
3.3751362473453761
 50
117.1894039250334032
 51
242.810596074966611
  0
LINE
  5
23882
  8
0
 10
403.4580867336783854
 20
114.8978132056752059
 30
0.0
 11
403.4580867336783854
 21
114.9259454371375995
 31
0.0
  0
LINE
  5
23883
  8
0
 10
397.0000011281894103
 20
113.4999999087302029
 30
0.0
 11
413.0000011281894103
 21
113.4999999087302029
 31
0.0
  0
LINE
  5
23884
  8
0
 10
412.1961535508959855
 20
110.4999999087302029
 30
0.0
 11
397.8038487054827215
 21
110.4999999087302029
 31
0.0
  0
ARC
  5
23885
  8
0
 10
423.123891946278718
 20
182.8200254584305924
 30
0.0
 40
8.6254040942277435
 50
250.4614585085946885
 51
253.3280570124788085
  0
LINE
  5
23886
  8
0
 10
388.5000011281894103
 20
148.3299999087300876
 30
0.0
 11
421.5000011281894103
 21
148.3299999087300876
 31
0.0
  0
ARC
  5
23887
  8
0
 10
391.3311071040752722
 20
154.6335292473918912
 30
0.0
 40
2.8312281543253031
 50
165.7593010532474125
 51
180.5322909037710133
  0
ARC
  5
23888
  8
0
 10
425.7622690033302888
 20
168.515052734385705
 30
0.0
 40
1.741607541183491
 50
323.3215392475764247
 51
356.1539251140505939
  0
ARC
  5
23889
  8
0
 10
383.8810008736678014
 20
168.363605410734209
 30
0.0
 40
1.3813868595921159
 50
123.4291167092534067
 51
178.5636343871790075
  0
LINE
  5
2388A
  8
0
 10
387.0000011278934267
 20
132.4999999953433019
 30
0.0
 11
387.5000011278934267
 21
131.9999999953431882
 31
0.0
  0
LINE
  5
2388B
  8
0
 10
422.5000011278938246
 20
131.9999999953431882
 30
0.0
 11
423.000001127893313
 21
132.4999999953433019
 31
0.0
  0
ARC
  5
2388C
  8
0
 10
388.0000011278934267
 20
144.0258966372018108
 30
0.0
 40
1.000000000000032
 50
110.0000000000036948
 51
180.0
  0
ARC
  5
2388D
  8
0
 10
422.000001127893313
 20
144.0258966372018108
 30
0.0
 40
1.000000000000032
 50
0.0
 51
69.999999999996291
  0
LINE
  5
2388E
  8
0
 10
387.0000011278934267
 20
144.0258966372018108
 30
0.0
 11
387.0000011278934267
 21
132.4999999953433019
 31
0.0
  0
LINE
  5
2388F
  8
0
 10
423.000001127893313
 20
132.4999999953433019
 30
0.0
 11
423.000001127893313
 21
144.0258966372018108
 31
0.0
  0
LINE
  5
23890
  8
0
 10
422.3420212712189254
 20
144.9655892579878014
 30
0.0
 11
419.7631930705632044
 21
145.9042059623128011
 31
0.0
  0
LINE
  5
23891
  8
0
 10
390.2368091852234784
 20
145.9042059623128011
 30
0.0
 11
387.6579809845674163
 21
144.9655892579878014
 31
0.0
  0
ARC
  5
23892
  8
0
 10
419.9000011278934039
 20
146.2800830106270951
 30
0.0
 40
0.400000000000056
 50
180.0
 51
249.9999999999963052
  0
ARC
  5
23893
  8
0
 10
390.1000011278932789
 20
146.2800830106270951
 30
0.0
 40
0.4000000000000487
 50
290.0000000000036948
 51
0.0
  0
LINE
  5
23894
  8
0
 10
419.5000011278938246
 20
146.2800830106270951
 30
0.0
 11
419.5000011278938246
 21
147.8299999087300876
 31
0.0
  0
LINE
  5
23895
  8
0
 10
390.5000011278934267
 20
147.8299999087300876
 30
0.0
 11
390.5000011278934267
 21
146.2800830106270951
 31
0.0
  0
LINE
  5
23896
  8
0
 10
395.0000011278934267
 20
131.9999999953431882
 30
0.0
 11
395.0000011278934267
 21
126.9999999953432024
 31
0.0
  0
LINE
  5
23897
  8
0
 10
415.000001127893313
 20
126.9999999953432024
 30
0.0
 11
415.000001127893313
 21
131.9999999953431882
 31
0.0
  0
LINE
  5
23898
  8
0
 10
395.0000011278934267
 20
126.9999999953432024
 30
0.0
 11
395.5000011278934267
 21
126.4999999953433019
 31
0.0
  0
LINE
  5
23899
  8
0
 10
414.500001127893313
 20
126.4999999953433019
 30
0.0
 11
415.000001127893313
 21
126.9999999953432024
 31
0.0
  0
LINE
  5
2389A
  8
0
 10
387.0000011278934267
 20
132.4999999953433019
 30
0.0
 11
423.000001127893313
 21
132.4999999953433019
 31
0.0
  0
LINE
  5
2389B
  8
0
 10
422.5000011278938246
 20
131.9999999953431882
 30
0.0
 11
387.5000011278934267
 21
131.9999999953431882
 31
0.0
  0
LINE
  5
2389C
  8
0
 10
395.0000011278934267
 20
126.9999999953432024
 30
0.0
 11
402.2500011430905147
 21
126.9999999953432024
 31
0.0
  0
LINE
  5
2389D
  8
0
 10
407.7500011132881923
 20
126.9999999953432024
 30
0.0
 11
415.000001127893313
 21
126.9999999953432024
 31
0.0
  0
LINE
  5
2389E
  8
0
 10
414.500001127893313
 20
126.4999999953433019
 30
0.0
 11
395.5000011278934267
 21
126.4999999953433019
 31
0.0
  0
LINE
  5
2389F
  8
0
 10
387.6579809845674163
 20
144.9655892579878014
 30
0.0
 11
422.3420212712189254
 21
144.9655892579878014
 31
0.0
  0
LINE
  5
238A0
  8
0
 10
419.7631930705632044
 20
145.9042059623128011
 30
0.0
 11
390.2368091852234784
 21
145.9042059623128011
 31
0.0
  0
LINE
  5
238A1
  8
0
 10
423.0000011278930856
 20
144.0258974730967907
 30
0.0
 11
387.0000011278938246
 21
144.0258974730967907
 31
0.0
  0
LINE
  5
238A2
  8
0
 10
390.5000011278934267
 20
146.2800836712121964
 30
0.0
 11
419.5000011278938246
 21
146.2800836712119974
 31
0.0
  0
LINE
  5
238A3
  8
0
 10
392.7500011129922086
 20
126.4999999087302029
 30
0.0
 11
392.7500011129922086
 21
129.5000000512224858
 31
0.0
  0
LINE
  5
238A4
  8
0
 10
387.2500011427944742
 20
129.5000000512224858
 30
0.0
 11
387.2500011427944742
 21
126.4999999087302029
 31
0.0
  0
LINE
  5
238A5
  8
0
 10
391.5000013737624727
 20
129.5000000512224858
 30
0.0
 11
391.5000013737624727
 21
131.9999999953431882
 31
0.0
  0
LINE
  5
238A6
  8
0
 10
388.5000018133467847
 20
131.9999999953431882
 30
0.0
 11
388.5000018133467847
 21
129.5000000512224858
 31
0.0
  0
LINE
  5
238A7
  8
0
 10
392.7500011129922086
 20
126.4999999087302029
 30
0.0
 11
387.2500011427944742
 21
126.4999999087302029
 31
0.0
  0
LINE
  5
238A8
  8
0
 10
392.7500011129922086
 20
129.5000000512224858
 30
0.0
 11
387.2500011427944742
 21
129.5000000512224858
 31
0.0
  0
LINE
  5
238A9
  8
3
 10
391.2295011278932861
 20
130.9999999557620072
 30
0.0
 11
391.2295011278932861
 21
131.9999999580903136
 31
0.0
  0
LINE
  5
238AA
  8
3
 10
388.7705011278935103
 20
130.9999999557620072
 30
0.0
 11
388.7705011278935103
 21
131.9999999580903136
 31
0.0
  0
LINE
  5
238AB
  8
3
 10
391.2295011278941956
 20
130.9999999557618935
 30
0.0
 11
391.5000011278934267
 21
130.5314802123158984
 31
0.0
  0
LINE
  5
238AC
  8
3
 10
388.7705011278924871
 20
130.9999999557618935
 30
0.0
 11
388.5000011278934267
 21
130.5314802123158984
 31
0.0
  0
LINE
  5
238AD
  8
0
 10
388.5000011278934267
 20
130.9999999557618935
 30
0.0
 11
391.5000011278934267
 21
130.9999999557618935
 31
0.0
  0
LINE
  5
238AE
  8
1
 10
390.0000011278934267
 20
133.9999999580903136
 30
0.0
 11
390.0000011278934267
 21
124.499999929684904
 31
0.0
  0
LINE
  5
238AF
  8
0
 10
407.7500011132881923
 20
126.4999999087302029
 30
0.0
 11
407.7500011132881923
 21
129.5000000512224858
 31
0.0
  0
LINE
  5
238B0
  8
0
 10
402.2500011430905147
 20
129.5000000512224858
 30
0.0
 11
402.2500011430905147
 21
126.4999999087302029
 31
0.0
  0
LINE
  5
238B1
  8
0
 10
406.5000013740585132
 20
129.5000000512224858
 30
0.0
 11
406.5000013740585132
 21
131.9999999953431882
 31
0.0
  0
LINE
  5
238B2
  8
0
 10
403.5000018136428253
 20
131.9999999953431882
 30
0.0
 11
403.5000018136428253
 21
129.5000000512224858
 31
0.0
  0
LINE
  5
238B3
  8
0
 10
407.7500011132881923
 20
129.5000000512224858
 30
0.0
 11
402.2500011430905147
 21
129.5000000512224858
 31
0.0
  0
LINE
  5
238B4
  8
3
 10
406.2295011281893267
 20
130.9999999557620072
 30
0.0
 11
406.2295011281893267
 21
131.9999999580903136
 31
0.0
  0
LINE
  5
238B5
  8
3
 10
403.770501128189494
 20
130.9999999557620072
 30
0.0
 11
403.770501128189494
 21
131.9999999580903136
 31
0.0
  0
LINE
  5
238B6
  8
3
 10
406.2295011281901793
 20
130.9999999557618935
 30
0.0
 11
406.5000011281894103
 21
130.5314802123158984
 31
0.0
  0
LINE
  5
238B7
  8
3
 10
403.7705011281885277
 20
130.9999999557618935
 30
0.0
 11
403.5000011281892967
 21
130.5314802123158984
 31
0.0
  0
LINE
  5
238B8
  8
0
 10
403.5000011281892967
 20
130.9999999557618935
 30
0.0
 11
406.5000011281894103
 21
130.9999999557618935
 31
0.0
  0
LINE
  5
238B9
  8
0
 10
422.7500011129920949
 20
126.4999999087302029
 30
0.0
 11
422.7500011129920949
 21
129.5000000512224858
 31
0.0
  0
LINE
  5
238BA
  8
0
 10
417.2500011427944742
 20
129.5000000512224858
 30
0.0
 11
417.2500011427944742
 21
126.4999999087302029
 31
0.0
  0
LINE
  5
238BB
  8
0
 10
421.5000013737624727
 20
129.5000000512224858
 30
0.0
 11
421.5000013737624727
 21
131.9999999953431882
 31
0.0
  0
LINE
  5
238BC
  8
0
 10
418.5000018133467279
 20
131.9999999953431882
 30
0.0
 11
418.5000018133467279
 21
129.5000000512224858
 31
0.0
  0
LINE
  5
238BD
  8
0
 10
422.7500011129920949
 20
126.4999999087302029
 30
0.0
 11
417.2500011427944742
 21
126.4999999087302029
 31
0.0
  0
LINE
  5
238BE
  8
0
 10
422.7500011129920949
 20
129.5000000512224858
 30
0.0
 11
417.2500011427944742
 21
129.5000000512224858
 31
0.0
  0
LINE
  5
238BF
  8
3
 10
421.2295011278931725
 20
130.9999999557620072
 30
0.0
 11
421.2295011278931725
 21
131.9999999580903136
 31
0.0
  0
LINE
  5
238C0
  8
3
 10
418.7705011278933966
 20
130.9999999557620072
 30
0.0
 11
418.7705011278933966
 21
131.9999999580903136
 31
0.0
  0
LINE
  5
238C1
  8
3
 10
421.2295011278941956
 20
130.9999999557618935
 30
0.0
 11
421.5000011278934267
 21
130.5314802123158984
 31
0.0
  0
LINE
  5
238C2
  8
3
 10
418.7705011278924871
 20
130.9999999557618935
 30
0.0
 11
418.500001127893313
 21
130.5314802123158984
 31
0.0
  0
LINE
  5
238C3
  8
0
 10
418.500001127893313
 20
130.9999999557618935
 30
0.0
 11
421.5000011278934267
 21
130.9999999557618935
 31
0.0
  0
LINE
  5
238C4
  8
1
 10
420.000001127893313
 20
133.9999999580903136
 30
0.0
 11
420.000001127893313
 21
124.499999929684904
 31
0.0
  0
LINE
  5
238C5
  8
1
 10
405.0000011281892967
 20
180.8300000819563991
 30
0.0
 11
405.0000011281894103
 21
105.5000000819563013
 31
0.0
  0
LINE
  5
23A0A
  8
0
 10
165.2500000739651114
 20
-112.144764941913607
 30
0.0
 11
165.2500000739651114
 21
-109.1447647994212957
 31
0.0
  0
LINE
  5
23A0B
  8
0
 10
159.7499991724448876
 20
-109.1447647994212957
 30
0.0
 11
159.7499991724448876
 21
-112.144764941913607
 31
0.0
  0
LINE
  5
23A0C
  8
0
 10
163.9999994034128861
 20
-109.1447647994212957
 30
0.0
 11
163.9999994034128861
 21
-106.6447648553005934
 31
0.0
  0
LINE
  5
23A0D
  8
0
 10
160.9999998429971129
 20
-106.6447648553005934
 30
0.0
 11
160.9999998429971129
 21
-109.1447647994212957
 31
0.0
  0
LINE
  5
23A0E
  8
0
 10
195.2500003347354891
 20
-112.144764941913607
 30
0.0
 11
195.2500003347354891
 21
-109.1447647994212957
 31
0.0
  0
LINE
  5
23A0F
  8
0
 10
189.7499994332152085
 20
-109.1447647994212957
 30
0.0
 11
189.7499994332152085
 21
-112.144764941913607
 31
0.0
  0
LINE
  5
23A10
  8
0
 10
193.999999664183207
 20
-109.1447647994212957
 30
0.0
 11
193.999999664183207
 21
-106.6447648553005934
 31
0.0
  0
LINE
  5
23A11
  8
0
 10
191.0000001037674906
 20
-106.6447648553005934
 30
0.0
 11
191.0000001037674906
 21
-109.1447647994212957
 31
0.0
  0
LINE
  5
23A13
  8
0
 10
189.2499993512587935
 20
-109.1447647994212957
 30
0.0
 11
189.2499993512587935
 21
-112.3447650096208008
 31
0.0
  0
LINE
  5
23A14
  8
0
 10
195.7499994853693011
 20
-112.3447650096208008
 30
0.0
 11
195.7499994853693011
 21
-109.1447647994212957
 31
0.0
  0
LINE
  5
23A15
  8
0
 10
189.2499993512587935
 20
-112.3447650096208008
 30
0.0
 11
195.7499994853693011
 21
-112.3447650096208008
 31
0.0
  0
LINE
  5
23A16
  8
0
 10
160.8000001827435881
 20
-106.9447648113421963
 30
0.0
 11
160.8000001827435881
 21
-109.1447647994212957
 31
0.0
  0
LINE
  5
23A17
  8
0
 10
160.8000001827435881
 20
-106.9447648113421963
 30
0.0
 11
160.9999998429971129
 21
-106.9447648113421963
 31
0.0
  0
LINE
  5
23A18
  8
0
 10
163.9999994034128861
 20
-106.9447648113421963
 30
0.0
 11
164.1999999949890139
 21
-106.9447648113421963
 31
0.0
  0
LINE
  5
23A19
  8
0
 10
164.1999999949890139
 20
-109.1447647994212957
 30
0.0
 11
164.1999999949890139
 21
-106.9447648113421963
 31
0.0
  0
LINE
  5
23A1A
  8
0
 10
190.7999995121913912
 20
-106.9447648113421963
 30
0.0
 11
190.7999995121913912
 21
-109.1447647994212957
 31
0.0
  0
LINE
  5
23A1B
  8
0
 10
190.7999995121913912
 20
-106.9447648113421963
 30
0.0
 11
191.0000001037674906
 21
-106.9447648113421963
 31
0.0
  0
LINE
  5
23A1C
  8
0
 10
193.999999664183207
 20
-106.9447648113421963
 30
0.0
 11
194.1999993244367033
 21
-106.9447648113421963
 31
0.0
  0
LINE
  5
23A1D
  8
0
 10
194.1999993244367033
 20
-109.1447647994212957
 30
0.0
 11
194.1999993244367033
 21
-106.9447648113421963
 31
0.0
  0
LINE
  5
23A1E
  8
0
 10
190.500000021811104
 20
-106.6447648553005934
 30
0.0
 11
190.7999995121913912
 21
-106.9447648113421963
 31
0.0
  0
LINE
  5
23A1F
  8
0
 10
189.2499993512587935
 20
-112.3447650096208008
 30
0.0
 11
188.9499998608785063
 21
-112.6447649656623042
 31
0.0
  0
LINE
  5
23A20
  8
0
 10
187.4999995300728131
 20
-111.6447649763724996
 30
0.0
 11
188.4999996939855009
 21
-112.6447649656623042
 31
0.0
  0
LINE
  5
23A21
  8
0
 10
188.4999996939855009
 20
-106.6447648553005934
 30
0.0
 11
187.4999995300728131
 21
-107.6447650192133949
 31
0.0
  0
LINE
  5
23A22
  8
0
 10
195.7499994853693011
 20
-109.1447647994212957
 30
0.0
 11
189.2499993512587935
 21
-109.1447647994212957
 31
0.0
  0
LINE
  5
23A23
  8
0
 10
194.1999993244367033
 20
-106.9447648113421963
 30
0.0
 11
194.5000006774621966
 21
-106.6447648553005934
 31
0.0
  0
LINE
  5
23A24
  8
0
 10
166.4999998131947905
 20
-112.6447649656623042
 30
0.0
 11
167.499999977107592
 21
-111.6447649763724996
 31
0.0
  0
LINE
  5
23A25
  8
0
 10
164.1999999949890139
 20
-106.9447648113421963
 30
0.0
 11
164.4999994853693011
 21
-106.6447648553005934
 31
0.0
  0
LINE
  5
23A26
  8
0
 10
160.4999988297182085
 20
-106.6447648553005934
 30
0.0
 11
160.8000001827435881
 21
-106.9447648113421963
 31
0.0
  0
LINE
  5
23A27
  8
0
 10
166.0499996463018135
 20
-112.6447649656623042
 30
0.0
 11
165.7500001559214979
 21
-112.3447650096208008
 31
0.0
  0
LINE
  5
23A28
  8
0
 10
165.7500001559214979
 20
-112.3447650096208008
 30
0.0
 11
165.7500001559214979
 21
-109.1447647994212957
 31
0.0
  0
LINE
  5
23A29
  8
0
 10
167.499999977107592
 20
-107.6447650192133949
 30
0.0
 11
166.4999998131947905
 21
-106.6447648553005934
 31
0.0
  0
LINE
  5
23A2A
  8
0
 10
159.250000021811104
 20
-109.1447647994212957
 30
0.0
 11
159.250000021811104
 21
-112.3447650096208008
 31
0.0
  0
LINE
  5
23A2B
  8
0
 10
159.250000021811104
 20
-112.3447650096208008
 30
0.0
 11
165.7500001559214979
 21
-112.3447650096208008
 31
0.0
  0
LINE
  5
23A2C
  8
0
 10
159.250000021811104
 20
-112.3447650096208008
 30
0.0
 11
158.9500005314307884
 21
-112.6447649656623042
 31
0.0
  0
LINE
  5
23A2D
  8
0
 10
196.0499989757495882
 20
-112.6447649656623042
 30
0.0
 11
195.7499994853693011
 21
-112.3447650096208008
 31
0.0
  0
LINE
  5
23A2F
  8
0
 10
202.500000126119204
 20
-112.6447649656623042
 30
0.0
 11
152.4999993810610874
 21
-112.6447649656623042
 31
0.0
  0
LINE
  5
23A31
  8
0
 10
165.7500001559214979
 20
-109.1447647994212957
 30
0.0
 11
159.250000021811104
 21
-109.1447647994212957
 31
0.0
  0
LINE
  5
23A32
  8
0
 10
202.500000126119204
 20
-106.6447648553005934
 30
0.0
 11
152.4999993810610874
 21
-106.6447648553005934
 31
0.0
  0
LINE
  5
23A33
  8
0
 10
165.2500000739651114
 20
-112.144764941913607
 30
0.0
 11
159.7499991724448876
 21
-112.144764941913607
 31
0.0
  0
LINE
  5
23A34
  8
0
 10
195.2500003347354891
 20
-112.144764941913607
 30
0.0
 11
189.7499994332152085
 21
-112.144764941913607
 31
0.0
  0
LINE
  5
23A35
  8
0
 10
167.499999977107592
 20
-111.6447649763724996
 30
0.0
 11
187.4999995300728131
 21
-111.6447649763724996
 31
0.0
  0
LINE
  5
23A36
  8
1
 10
177.4999997606252862
 20
-35.8447648553005607
 30
0.0
 11
177.4999997606255988
 21
-117.1447648553004939
 31
0.0
  0
LINE
  5
23A37
  8
1
 10
162.500000088866301
 20
-114.144764941913607
 30
0.0
 11
162.5000000888661873
 21
-104.6447648553005934
 31
0.0
  0
LINE
  5
23A38
  8
1
 10
192.4999997535902025
 20
-114.144764941913607
 30
0.0
 11
192.4999997535900889
 21
-104.6447648553005934
 31
0.0
  0
LINE
  5
23A39
  8
0
 10
192.517637850830198
 20
-41.9212877370514221
 30
0.0
 11
188.7543328556556048
 21
-40.9129132027223577
 31
0.0
  0
LINE
  5
23A3A
  8
0
 10
166.2456666655951096
 20
-40.9129132027223577
 30
0.0
 11
162.4823616704200049
 21
-41.9212877370514221
 31
0.0
  0
ARC
  5
23A3B
  8
0
 10
193.4999997606257978
 20
-68.3447648553005536
 30
0.0
 40
0.4999999999999929
 50
270.0
 51
0.0
  0
ARC
  5
23A3C
  8
0
 10
161.4999997606252862
 20
-68.3447648553005536
 30
0.0
 40
0.4999999999999929
 50
180.0
 51
270.0
  0
LINE
  5
23A3D
  8
0
 10
193.9999997606253999
 20
-68.3447648553005536
 30
0.0
 11
193.9999997606253999
 21
-43.8531393896297175
 31
0.0
  0
LINE
  5
23A3E
  8
0
 10
160.9999997606252862
 20
-43.8531393896297175
 30
0.0
 11
160.9999997606252862
 21
-68.3447648553005536
 31
0.0
  0
ARC
  5
23A3F
  8
0
 10
191.9999997606257978
 20
-43.8531393896297175
 30
0.0
 40
2.0000000000000582
 50
0.0
 51
74.999999999992113
  0
ARC
  5
23A40
  8
0
 10
162.9999997606253999
 20
-43.8531393896297175
 30
0.0
 40
2.0000000000000582
 50
105.0000000000079012
 51
180.0
  0
ARC
  5
23A41
  8
0
 10
188.236694765450693
 20
-42.8447648553005465
 30
0.0
 40
1.9999999999999809
 50
74.999999999992113
 51
90.0
  0
ARC
  5
23A42
  8
0
 10
166.7633047558003909
 20
-42.8447648553005465
 30
0.0
 40
1.999999999999976
 50
90.0
 51
105.0000000000079012
  0
LINE
  5
23A43
  8
0
 10
159.4999997606252862
 20
-106.1447648553004939
 30
0.0
 11
159.9999997606252862
 21
-106.6447648553005934
 31
0.0
  0
LINE
  5
23A44
  8
0
 10
194.9999997606257978
 20
-106.6447648553005934
 30
0.0
 11
195.4999997606253999
 21
-106.1447648553004939
 31
0.0
  0
ARC
  5
23A45
  8
0
 10
160.4999997606252862
 20
-94.6188682134420276
 30
0.0
 40
1.000000000000032
 50
109.9999999999897966
 51
180.0
  0
ARC
  5
23A46
  8
0
 10
194.4999997606252862
 20
-94.6188682134420276
 30
0.0
 40
1.000000000000032
 50
0.0
 51
70.0000000000102034
  0
LINE
  5
23A47
  8
0
 10
159.4999997606252862
 20
-94.6188682134420276
 30
0.0
 11
159.4999997606252862
 21
-106.1447648553004939
 31
0.0
  0
LINE
  5
23A48
  8
0
 10
195.4999997606253999
 20
-106.1447648553004939
 30
0.0
 11
195.4999997606253999
 21
-94.6188682134420276
 31
0.0
  0
LINE
  5
23A49
  8
0
 10
194.8420199039508134
 20
-93.679175592656037
 30
0.0
 11
192.263191703295206
 21
-92.740558888331023
 31
0.0
  0
LINE
  5
23A4A
  8
0
 10
162.7368078179553947
 20
-92.740558888331023
 30
0.0
 11
160.1579796172993895
 21
-93.679175592656037
 31
0.0
  0
ARC
  5
23A4B
  8
0
 10
192.3999997606254055
 20
-92.3646818400166865
 30
0.0
 40
0.400000000000056
 50
180.0
 51
250.0000000000102034
  0
ARC
  5
23A4C
  8
0
 10
162.5999997606253089
 20
-92.3646818400166865
 30
0.0
 40
0.4000000000000487
 50
289.999999999989825
 51
0.0
  0
LINE
  5
23A4D
  8
0
 10
191.9999997606257978
 20
-92.3646818400166865
 30
0.0
 11
191.9999997606257978
 21
-68.8447648553005536
 31
0.0
  0
LINE
  5
23A4E
  8
0
 10
162.9999997606253999
 20
-68.8447648553005536
 30
0.0
 11
162.9999997606253999
 21
-92.3646818400166865
 31
0.0
  0
LINE
  5
23A4F
  8
0
 10
167.4999997606252862
 20
-106.6447648553005934
 30
0.0
 11
167.4999997606252862
 21
-111.6447648553005934
 31
0.0
  0
LINE
  5
23A50
  8
0
 10
187.4999997606252862
 20
-111.6447648553005934
 30
0.0
 11
187.4999997606252862
 21
-106.6447648553005934
 31
0.0
  0
LINE
  5
23A51
  8
0
 10
167.4999997606252862
 20
-111.6447648553005934
 30
0.0
 11
167.9999997606253999
 21
-112.1447648553004939
 31
0.0
  0
LINE
  5
23A52
  8
0
 10
186.9999997606252862
 20
-112.1447648553004939
 30
0.0
 11
187.4999997606252862
 21
-111.6447648553005934
 31
0.0
  0
ARC
  5
23A53
  8
0
 10
171.6287820961285888
 20
-37.4926442388154726
 30
0.0
 40
13.6029661752733499
 50
300.6105353040229033
 51
314.7199211629260844
  0
LINE
  5
23A54
  8
0
 10
178.5554080750627861
 20
-49.2000154772100302
 30
0.0
 11
176.4445914461877862
 21
-49.2000154772100302
 31
0.0
  0
ARC
  5
23A55
  8
0
 10
183.3712174250734108
 20
-37.4926442388780004
 30
0.0
 40
13.6029661751949096
 50
225.2800788370369958
 51
239.3894646960231114
  0
LINE
  5
23A56
  8
0
 10
181.2003976748640071
 20
-47.1582980697024468
 30
0.0
 11
181.2003976748640071
 21
-61.3447648553005465
 31
0.0
  0
LINE
  5
23A57
  8
0
 10
173.7996018463865937
 20
-61.3447648553005465
 30
0.0
 11
173.7996018463865937
 21
-47.1582980697024468
 31
0.0
  0
ARC
  5
23A58
  8
0
 10
180.718643825135814
 20
-61.3630706814763869
 30
0.0
 40
0.4821015193919676
 50
272.3554856445371115
 51
2.1760951536669699
  0
ARC
  5
23A59
  8
0
 10
174.2813556961147867
 20
-61.3630706814763869
 30
0.0
 40
0.4821015193919585
 50
177.8239048463329937
 51
267.6445143554759056
  0
ARC
  5
23A5A
  8
0
 10
184.1284069415540046
 20
-47.6340748884218499
 30
0.0
 40
2.9664122854135142
 50
129.2318368561971056
 51
170.7705844103992945
  0
ARC
  5
23A5B
  8
0
 10
170.8265477959164969
 20
-47.6600802374447028
 30
0.0
 40
3.0151012803688388
 50
9.5799087825034484
 51
50.4176699509025497
  0
LINE
  5
23A5C
  8
0
 10
172.7477291275847904
 20
-45.3363121720536526
 30
0.0
 11
171.8820924463132087
 21
-44.8258284699247369
 31
0.0
  0
LINE
  5
23A5D
  8
0
 10
171.8820924463132087
 20
-44.8258284699247369
 30
0.0
 11
171.8820924463132087
 21
-61.3447648553005465
 31
0.0
  0
ARC
  5
23A5E
  8
0
 10
172.3638462960414017
 20
-61.3630706814763869
 30
0.0
 40
0.482101519391948
 50
177.8239048463265135
 51
267.6445143554759056
  0
ARC
  5
23A5F
  8
0
 10
182.6361532252097106
 20
-61.3630706814763869
 30
0.0
 40
0.4821015193919676
 50
272.3554856445371115
 51
2.1760951536669699
  0
LINE
  5
23A60
  8
0
 10
183.1179070749375057
 20
-44.8258284699247369
 30
0.0
 11
182.2522703936658957
 21
-45.3363121720536526
 31
0.0
  0
LINE
  5
23A61
  8
0
 10
183.1179070749375057
 20
-61.3447648553005465
 30
0.0
 11
183.1179070749375057
 21
-44.8258284699247369
 31
0.0
  0
ARC
  5
23A62
  8
0
 10
168.1928750357836009
 20
-51.2676571472066769
 30
0.0
 40
7.4234413724098092
 50
60.2003526856404676
 51
92.8096285778701713
  0
ARC
  5
23A63
  8
0
 10
186.8490736835476866
 20
-51.442455204696067
 30
0.0
 40
7.5961407048907548
 50
87.5710337839580433
 51
119.4189849525120053
  0
LINE
  5
23A64
  8
0
 10
187.1710039053058097
 20
-43.8531393896297175
 30
0.0
 11
187.1710039053058097
 21
-61.3447648553005465
 31
0.0
  0
LINE
  5
23A65
  8
0
 10
184.1707400143779978
 20
-61.8447648553005465
 30
0.0
 11
184.2715476112823865
 21
-61.8341702275760881
 31
0.0
  0
LINE
  5
23A66
  8
0
 10
170.8292595068726882
 20
-61.8447648553005465
 30
0.0
 11
170.7161148972371052
 21
-61.8328736382203203
 31
0.0
  0
LINE
  5
23A67
  8
0
 10
184.1707400143779978
 20
-61.8447648553005465
 30
0.0
 11
170.8292595068726882
 21
-61.8447648553005465
 31
0.0
  0
LINE
  5
23A68
  8
0
 10
167.828995615945388
 20
-61.3447648553005465
 30
0.0
 11
167.828995615945388
 21
-43.8531393896297175
 31
0.0
  0
LINE
  5
23A69
  8
0
 10
193.4999997606257978
 20
-68.8447648553005536
 30
0.0
 11
161.4999997612169977
 21
-68.8447648553005536
 31
0.0
  0
LINE
  5
23A6A
  8
0
 10
166.7633047698712119
 20
-40.8447648553005465
 30
0.0
 11
188.236694765450693
 21
-40.8447648553005465
 31
0.0
  0
LINE
  5
23A6B
  8
0
 10
159.4999997606252862
 20
-106.1447648553004939
 30
0.0
 11
195.4999997606253999
 21
-106.1447648553004939
 31
0.0
  0
CIRCLE
  5
23A6C
  8
0
 10
177.4999997606252862
 20
-83.6447648553007355
 30
0.0
 40
0.9999999999999857
  0
LINE
  5
23A6D
  8
0
 10
186.9999997606252862
 20
-112.1447648553004939
 30
0.0
 11
167.9999997606253999
 21
-112.1447648553004939
 31
0.0
  0
ARC
  5
23A6E
  8
0
 10
182.2693703289299094
 20
-41.138836039363099
 30
0.0
 40
20.7919592879503412
 50
275.5259026831452047
 51
283.6356359867505148
  0
ARC
  5
23A6F
  8
0
 10
172.7269331880549998
 20
-41.1564863738710471
 30
0.0
 40
20.7739351232267495
 50
256.3627941926009726
 51
264.4453435374909986
  0
LINE
  5
23A70
  8
0
 10
160.9999997606252862
 20
-68.3447648553005536
 30
0.0
 11
193.9999997606253999
 21
-68.3447648553005536
 31
0.0
  0
LINE
  5
23A71
  8
0
 10
167.828995615945388
 20
-43.8531393896297175
 30
0.0
 11
160.9999997606252862
 21
-43.8531393896297175
 31
0.0
  0
LINE
  5
23A72
  8
0
 10
193.9999997606253999
 20
-43.8531393896297175
 30
0.0
 11
187.1710039053058097
 21
-43.8531393896297175
 31
0.0
  0
LINE
  5
23A73
  8
0
 10
160.1579796172993895
 20
-93.679175592656037
 30
0.0
 11
194.8420199039508134
 21
-93.679175592656037
 31
0.0
  0
LINE
  5
23A74
  8
0
 10
192.263191703295206
 20
-92.740558888331023
 30
0.0
 11
162.7368078179553947
 21
-92.740558888331023
 31
0.0
  0
ARC
  5
23A75
  8
0
 10
167.2968216899193976
 20
-97.4052007878443504
 30
0.0
 40
1.878212589843858
 50
97.2971017574458727
 51
187.2786925910091043
  0
ARC
  5
23A76
  8
0
 10
167.2821993070965902
 20
-97.8947715086781898
 30
0.0
 40
1.8655006296686669
 50
172.2486141181560129
 51
263.2468277395190057
  0
ARC
  5
23A77
  8
0
 10
166.8774871040932908
 20
-97.8182820313180343
 30
0.0
 40
1.9379306487129511
 50
275.4881525960702788
 51
4.780310051411198
  0
ARC
  5
23A78
  8
0
 10
166.8500088552428053
 20
-97.4963613359560384
 30
0.0
 40
1.965226546518539
 50
355.3177050141285918
 51
83.9170131129990011
  0
POLYLINE
  5
23A79
  8
0
 66
     1
 10
0.0
 20
0.0
 30
0.0
 70
   128
  0
VERTEX
  5
23E11
  8
0
 10
164.6928549771891994
 20
-97.6447651086201347
 30
0.0
  0
VERTEX
  5
23E12
  8
0
 10
163.5369048481566097
 20
-98.6447652725329078
 30
0.0
  0
VERTEX
  5
23E13
  8
0
 10
162.5101431300628008
 20
-99.6447645051231063
 30
0.0
  0
SEQEND
  5
23E14
  8
0
  0
POLYLINE
  5
23A7A
  8
0
 66
     1
 10
0.0
 20
0.0
 30
0.0
 70
   128
  0
VERTEX
  5
23E15
  8
0
 10
162.5101431300628008
 20
-95.6447647807945884
 30
0.0
  0
VERTEX
  5
23E16
  8
0
 10
163.5369048481566097
 20
-96.6447649447073616
 30
0.0
  0
VERTEX
  5
23E17
  8
0
 10
164.6928549771891994
 20
-97.6447651086201347
 30
0.0
  0
SEQEND
  5
23E18
  8
0
  0
LINE
  5
23A7B
  8
0
 10
162.5101431300628008
 20
-96.6447649447073616
 30
0.0
 11
162.5101431300628008
 21
-95.6447647807945884
 31
0.0
  0
LINE
  5
23A7C
  8
0
 10
160.6569862952214862
 20
-96.6447649447073616
 30
0.0
 11
162.5101431300628008
 21
-96.6447649447073616
 31
0.0
  0
LINE
  5
23A7D
  8
0
 10
160.6569862952214862
 20
-95.6447647807945884
 30
0.0
 11
160.6569862952214862
 21
-96.6447649447073616
 31
0.0
  0
POLYLINE
  5
23A7E
  8
0
 66
     1
 10
0.0
 20
0.0
 30
0.0
 70
   128
  0
VERTEX
  5
23E19
  8
0
 10
159.7535493811355991
 20
-97.6447651086201347
 30
0.0
  0
VERTEX
  5
23E1A
  8
0
 10
160.1248900433766096
 20
-96.6447649447073616
 30
0.0
  0
VERTEX
  5
23E1B
  8
0
 10
160.6569862952214862
 20
-95.6447647807945884
 30
0.0
  0
SEQEND
  5
23E1C
  8
0
  0
POLYLINE
  5
23A7F
  8
0
 66
     1
 10
0.0
 20
0.0
 30
0.0
 70
   128
  0
VERTEX
  5
23E1D
  8
0
 10
160.6569862952214862
 20
-99.6447645051231063
 30
0.0
  0
VERTEX
  5
23E1E
  8
0
 10
160.1248900433766096
 20
-98.6447652725329078
 30
0.0
  0
VERTEX
  5
23E1F
  8
0
 10
159.7535493811355991
 20
-97.6447651086201347
 30
0.0
  0
SEQEND
  5
23E20
  8
0
  0
LINE
  5
23A80
  8
0
 10
160.6569862952214862
 20
-98.6447652725329078
 30
0.0
 11
160.6569862952214862
 21
-99.6447645051231063
 31
0.0
  0
LINE
  5
23A81
  8
0
 10
160.6569862952214862
 20
-98.6447652725329078
 30
0.0
 11
162.5101431300628008
 21
-98.6447652725329078
 31
0.0
  0
LINE
  5
23A82
  8
0
 10
162.5101431300628008
 20
-99.6447645051231063
 30
0.0
 11
162.5101431300628008
 21
-98.6447652725329078
 31
0.0
  0
LINE
  5
23A83
  8
0
 10
171.9083548551188869
 20
-99.6447645051231063
 30
0.0
 11
171.9083548551188869
 21
-95.6447647807945884
 31
0.0
  0
LINE
  5
23A84
  8
0
 10
171.9083548551188869
 20
-99.6447645051231063
 30
0.0
 11
172.5950497230278984
 21
-99.6447645051231063
 31
0.0
  0
LINE
  5
23A85
  8
0
 10
172.5950497230278984
 20
-97.8498926309694923
 30
0.0
 11
172.5950497230278984
 21
-99.6447645051231063
 31
0.0
  0
LINE
  5
23A86
  8
0
 10
172.5950497230278984
 20
-97.8498926309694923
 30
0.0
 11
173.7897812882202118
 21
-97.8498926309694923
 31
0.0
  0
LINE
  5
23A87
  8
0
 10
173.7897812882202118
 20
-97.1319435087790168
 30
0.0
 11
173.7897812882202118
 21
-97.8498926309694923
 31
0.0
  0
LINE
  5
23A88
  8
0
 10
172.5950497230278984
 20
-97.1319435087790168
 30
0.0
 11
173.7897812882202118
 21
-97.1319435087790168
 31
0.0
  0
LINE
  5
23A89
  8
0
 10
172.5950497230278984
 20
-96.3627139029850639
 30
0.0
 11
172.5950497230278984
 21
-97.1319435087790168
 31
0.0
  0
LINE
  5
23A8A
  8
0
 10
172.5950497230278984
 20
-96.3627139029850639
 30
0.0
 11
173.7897812882202118
 21
-96.3627139029850639
 31
0.0
  0
LINE
  5
23A8B
  8
0
 10
173.7897812882202118
 20
-95.6447647807945884
 30
0.0
 11
173.7897812882202118
 21
-96.3627139029850639
 31
0.0
  0
LINE
  5
23A8C
  8
0
 10
171.9083548551188869
 20
-95.6447647807945884
 30
0.0
 11
173.7897812882202118
 21
-95.6447647807945884
 31
0.0
  0
LINE
  5
23A8D
  8
0
 10
169.4441321333630128
 20
-99.6447645051231063
 30
0.0
 11
169.4441321333630128
 21
-95.6447647807945884
 31
0.0
  0
LINE
  5
23A8E
  8
0
 10
169.4441321333630128
 20
-99.6447645051231063
 30
0.0
 11
170.0924020288275926
 21
-99.6447645051231063
 31
0.0
  0
LINE
  5
23A8F
  8
0
 10
170.0924020288275926
 20
-97.8498926309694923
 30
0.0
 11
170.0924020288275926
 21
-99.6447645051231063
 31
0.0
  0
LINE
  5
23A90
  8
0
 10
170.0924020288275926
 20
-97.8498926309694923
 30
0.0
 11
171.2305545834583995
 21
-97.8498926309694923
 31
0.0
  0
LINE
  5
23A91
  8
0
 10
171.2305545834583995
 20
-97.1319435087790168
 30
0.0
 11
171.2305545834583995
 21
-97.8498926309694923
 31
0.0
  0
LINE
  5
23A92
  8
0
 10
170.0924020288275926
 20
-97.1319435087790168
 30
0.0
 11
171.2305545834583995
 21
-97.1319435087790168
 31
0.0
  0
LINE
  5
23A93
  8
0
 10
170.0924020288275926
 20
-96.3627139029850639
 30
0.0
 11
170.0924020288275926
 21
-97.1319435087790168
 31
0.0
  0
LINE
  5
23A94
  8
0
 10
170.0924020288275926
 20
-96.3627139029850639
 30
0.0
 11
171.2305545834583995
 21
-96.3627139029850639
 31
0.0
  0
LINE
  5
23A95
  8
0
 10
171.2305545834583995
 20
-95.6447647807945884
 30
0.0
 11
171.2305545834583995
 21
-96.3627139029850639
 31
0.0
  0
LINE
  5
23A96
  8
0
 10
169.4441321333630128
 20
-95.6447647807945884
 30
0.0
 11
171.2305545834583995
 21
-95.6447647807945884
 31
0.0
  0
ARC
  5
23A97
  8
0
 10
167.1872355959112895
 20
-97.4763915895280064
 30
0.0
 40
1.2240587076124869
 50
96.4784227283061142
 51
188.2851101986628919
  0
ARC
  5
23A98
  8
0
 10
166.9321769059465908
 20
-97.5163841323287528
 30
0.0
 40
1.261666883456503
 50
354.0500159782765763
 51
84.6813726223071939
  0
ARC
  5
23A99
  8
0
 10
166.9276976825636041
 20
-97.7709860720217137
 30
0.0
 40
1.2654213271479919
 50
276.0411027621714766
 51
5.6151836287149672
  0
POLYLINE
  5
23A9A
  8
0
 66
     1
 10
0.0
 20
0.0
 30
0.0
 70
   128
  0
VERTEX
  5
23E21
  8
0
 10
166.3581482162462919
 20
-98.7216878605832733
 30
0.0
  0
VERTEX
  5
23E22
  8
0
 10
166.6846298640357986
 20
-98.9527899695385571
 30
0.0
  0
VERTEX
  5
23E23
  8
0
 10
167.0608730083094997
 20
-99.0293800754298843
 30
0.0
  0
SEQEND
  5
23E24
  8
0
  0
ARC
  5
23A9B
  8
0
 10
167.3987962323554086
 20
-97.7468134797855726
 30
0.0
 40
1.425948228993039
 50
176.2188034867382953
 51
223.1308990681982038
  0
LINE
  5
23A9C
  8
0
 10
195.4999997606250872
 20
-94.6188674641601608
 30
0.0
 11
159.4999997606255988
 21
-94.6188674641601608
 31
0.0
  0
LINE
  5
23A9D
  8
0
 10
162.9999997606253999
 20
-92.3646812660447125
 30
0.0
 11
191.9999997606257978
 21
-92.3646812660449257
 31
0.0
  0
LINE
  5
23A9F
  8
0
 10
257.4999993047698013
 20
-107.6447651011695967
 30
0.0
 11
237.4999997518046086
 21
-107.6447651011695967
 31
0.0
  0
LINE
  5
23AA1
  8
0
 10
257.4999993047698013
 20
-107.6447651011695967
 30
0.0
 11
257.4999993047698013
 21
-111.6447649419134933
 31
0.0
  0
LINE
  5
23AA2
  8
0
 10
237.4999997518046086
 20
-111.6447649419134933
 30
0.0
 11
257.4999993047698013
 21
-111.6447649419134933
 31
0.0
  0
LINE
  5
23AA3
  8
0
 10
237.4999997518046086
 20
-111.6447649419134933
 30
0.0
 11
237.4999997518046086
 21
-107.6447651011695967
 31
0.0
  0
LINE
  5
23AA4
  8
0
 10
260.7999992868884078
 20
-106.9447648932983981
 30
0.0
 11
264.1999990991337768
 21
-106.9447648932983981
 31
0.0
  0
LINE
  5
23AA5
  8
0
 10
260.7999992868884078
 20
-106.9447648932983981
 30
0.0
 11
260.4999997965081207
 21
-106.6447649372568947
 31
0.0
  0
LINE
  5
23AA6
  8
0
 10
264.5000004521592132
 20
-106.6447649372568947
 30
0.0
 11
264.1999990991337768
 21
-106.9447648932983981
 31
0.0
  0
LINE
  5
23AA7
  8
0
 10
264.1999990991337768
 20
-106.9447648932983981
 30
0.0
 11
264.1999990991337768
 21
-109.1447648813774975
 31
0.0
  0
LINE
  5
23AA8
  8
0
 10
260.7999992868884078
 20
-109.1447648813774975
 30
0.0
 11
260.7999992868884078
 21
-106.9447648932983981
 31
0.0
  0
LINE
  5
23AA9
  8
0
 10
265.7499992600663177
 20
-109.1447648813774975
 30
0.0
 11
265.7499992600663177
 21
-112.344764975161695
 31
0.0
  0
LINE
  5
23AAA
  8
0
 10
259.2499991259558101
 20
-112.344764975161695
 30
0.0
 11
265.7499992600663177
 21
-112.344764975161695
 31
0.0
  0
LINE
  5
23AAB
  8
0
 10
259.2499991259558101
 20
-112.344764975161695
 30
0.0
 11
259.2499991259558101
 21
-109.1447648813774975
 31
0.0
  0
LINE
  5
23AAC
  8
0
 10
265.7499992600663177
 20
-112.344764975161695
 30
0.0
 11
266.0499987504466048
 21
-112.644764989410902
 31
0.0
  0
LINE
  5
23AAD
  8
0
 10
258.9499996355755798
 20
-112.644764989410902
 30
0.0
 11
259.2499991259558101
 21
-112.344764975161695
 31
0.0
  0
LINE
  5
23AAE
  8
0
 10
258.4999994686825744
 20
-112.644764989410902
 30
0.0
 11
257.4999993047698013
 21
-111.6447649419134933
 31
0.0
  0
LINE
  5
23AAF
  8
0
 10
237.4999997518046086
 20
-111.6447649419134933
 30
0.0
 11
236.4999995878918071
 21
-112.644764989410902
 31
0.0
  0
LINE
  5
23AB0
  8
0
 10
236.4999995878918071
 20
-106.6447649372568947
 30
0.0
 11
237.4999997518046086
 21
-107.6447651011695967
 31
0.0
  0
LINE
  5
23AB1
  8
0
 10
257.4999993047698013
 20
-107.6447651011695967
 30
0.0
 11
258.4999994686825744
 21
-106.6447649372568947
 31
0.0
  0
LINE
  5
23AB2
  8
0
 10
230.7999999574406047
 20
-106.9447648932983981
 30
0.0
 11
234.1999997696860021
 21
-106.9447648932983981
 31
0.0
  0
LINE
  5
23AB3
  8
0
 10
230.7999999574406047
 20
-106.9447648932983981
 30
0.0
 11
230.4999986044151967
 21
-106.6447649372568947
 31
0.0
  0
LINE
  5
23AB4
  8
0
 10
234.4999992600662893
 20
-106.6447649372568947
 30
0.0
 11
234.1999997696860021
 21
-106.9447648932983981
 31
0.0
  0
LINE
  5
23AB5
  8
0
 10
234.1999997696860021
 20
-106.9447648932983981
 30
0.0
 11
234.1999997696860021
 21
-109.1447648813774975
 31
0.0
  0
LINE
  5
23AB6
  8
0
 10
230.7999999574406047
 20
-109.1447648813774975
 30
0.0
 11
230.7999999574406047
 21
-106.9447648932983981
 31
0.0
  0
LINE
  5
23AB7
  8
0
 10
235.7499999306185998
 20
-109.1447648813774975
 30
0.0
 11
235.7499999306185998
 21
-112.344764975161695
 31
0.0
  0
LINE
  5
23AB8
  8
0
 10
229.2499997965080922
 20
-112.344764975161695
 30
0.0
 11
235.7499999306185998
 21
-112.344764975161695
 31
0.0
  0
LINE
  5
23AB9
  8
0
 10
229.2499997965080922
 20
-112.344764975161695
 30
0.0
 11
229.2499997965080922
 21
-109.1447648813774975
 31
0.0
  0
LINE
  5
23ABA
  8
0
 10
235.7499999306185998
 20
-112.344764975161695
 30
0.0
 11
236.0499994209988017
 21
-112.644764989410902
 31
0.0
  0
LINE
  5
23ABB
  8
0
 10
228.9500003061278051
 20
-112.644764989410902
 30
0.0
 11
229.2499997965080922
 21
-112.344764975161695
 31
0.0
  0
LINE
  5
23ABC
  8
0
 10
229.2499997965080922
 20
-109.1447648813774975
 30
0.0
 11
235.7499999306185998
 21
-109.1447648813774975
 31
0.0
  0
LINE
  5
23ABD
  8
0
 10
272.4999995282868213
 20
-106.6447649372568947
 30
0.0
 11
222.4999995282867928
 21
-106.6447649372568947
 31
0.0
  0
LINE
  5
23ABE
  8
0
 10
222.4999995282867076
 20
-112.644764989410902
 30
0.0
 11
272.4999995282867076
 21
-112.644764989410902
 31
0.0
  0
LINE
  5
23AC0
  8
0
 10
259.2499991259558101
 20
-109.1447648813774975
 30
0.0
 11
265.7499992600663177
 21
-109.1447648813774975
 31
0.0
  0
LINE
  5
23AC2
  8
1
 10
262.4999995282868213
 20
-114.644764989410902
 30
0.0
 11
262.4999995282868781
 21
-104.6447649372568947
 31
0.0
  0
LINE
  5
23AC3
  8
1
 10
232.4999998635634029
 20
-114.644764989410902
 30
0.0
 11
232.4999998635634881
 21
-104.6447649372568947
 31
0.0
  0
LINE
  5
23AC4
  8
1
 10
247.4999995282871907
 20
-117.644764989410902
 30
0.0
 11
247.4999995282873897
 21
-101.6447649372568947
 31
0.0
  0
LINE
  5
23AC7
  8
0
 10
320.2500005331311854
 20
-126.1447654560034977
 30
0.0
 11
320.2500005331311854
 21
-123.1447653135112006
 31
0.0
  0
LINE
  5
23AC8
  8
0
 10
314.7499996316108763
 20
-123.1447653135112006
 30
0.0
 11
314.7499996316108763
 21
-126.1447654560034977
 31
0.0
  0
LINE
  5
23AC9
  8
0
 10
318.9999998625793864
 20
-123.1447653135112006
 30
0.0
 11
318.9999998625793864
 21
-120.6447653693904982
 31
0.0
  0
LINE
  5
23ACA
  8
0
 10
316.0000003021635848
 20
-120.6447653693904982
 30
0.0
 11
316.0000003021635848
 21
-123.1447653135112006
 31
0.0
  0
LINE
  5
23ACB
  8
0
 10
350.2500007939020179
 20
-126.1447654560034977
 30
0.0
 11
350.2500007939020179
 21
-123.1447653135112006
 31
0.0
  0
LINE
  5
23ACC
  8
0
 10
344.7499998923817088
 20
-123.1447653135112006
 30
0.0
 11
344.7499998923817088
 21
-126.1447654560034977
 31
0.0
  0
LINE
  5
23ACD
  8
0
 10
349.0000001233497073
 20
-123.1447653135112006
 30
0.0
 11
349.0000001233497073
 21
-120.6447653693904982
 31
0.0
  0
LINE
  5
23ACE
  8
0
 10
346.0000005629335078
 20
-120.6447653693904982
 30
0.0
 11
346.0000005629335078
 21
-123.1447653135112006
 31
0.0
  0
LINE
  5
23AD0
  8
0
 10
344.2499998104253223
 20
-123.1447653135112006
 30
0.0
 11
344.2499998104253223
 21
-126.3447655237107057
 31
0.0
  0
LINE
  5
23AD1
  8
0
 10
350.7499999445353183
 20
-126.3447655237107057
 30
0.0
 11
350.7499999445353183
 21
-123.1447653135112006
 31
0.0
  0
LINE
  5
23AD2
  8
0
 10
344.2499998104253223
 20
-126.3447655237107057
 30
0.0
 11
350.7499999445353183
 21
-126.3447655237107057
 31
0.0
  0
LINE
  5
23AD3
  8
0
 10
314.250000480977576
 20
-123.1447653135112006
 30
0.0
 11
314.250000480977576
 21
-126.3447655237107057
 31
0.0
  0
LINE
  5
23AD4
  8
0
 10
320.750000615087572
 20
-126.3447655237107057
 30
0.0
 11
320.750000615087572
 21
-123.1447653135112006
 31
0.0
  0
LINE
  5
23AD5
  8
0
 10
314.250000480977576
 20
-126.3447655237107057
 30
0.0
 11
320.750000615087572
 21
-126.3447655237107057
 31
0.0
  0
LINE
  5
23AD6
  8
0
 10
350.9999994378962924
 20
-120.6447653693904982
 30
0.0
 11
350.9999994378962924
 21
-107.6447651011695967
 31
0.0
  0
LINE
  5
23AD7
  8
0
 10
314.0000009876166018
 20
-107.6447651011695967
 30
0.0
 11
314.0000009876166018
 21
-120.6447653693904982
 31
0.0
  0
LINE
  5
23AD8
  8
0
 10
350.9999994378962924
 20
-107.6447651011695967
 30
0.0
 11
349.7474777590908843
 21
-107.6447651011695967
 31
0.0
  0
LINE
  5
23AD9
  8
0
 10
315.2525226664220099
 20
-107.6447651011695967
 30
0.0
 11
314.0000009876166018
 21
-107.6447651011695967
 31
0.0
  0
LINE
  5
23ADA
  8
0
 10
347.1144248810086879
 20
-106.6447649372568947
 30
0.0
 11
357.5000005852857043
 21
-106.6447649372568947
 31
0.0
  0
LINE
  5
23ADB
  8
0
 10
351.9999996018090087
 20
-106.6447649372568947
 30
0.0
 11
350.9999994378962924
 21
-107.6447651011695967
 31
0.0
  0
LINE
  5
23ADC
  8
0
 10
314.0000009876166018
 20
-107.6447651011695967
 30
0.0
 11
313.0000008237037719
 21
-106.6447649372568947
 31
0.0
  0
LINE
  5
23ADE
  8
0
 10
351.0499994349156054
 20
-126.6447654797522944
 30
0.0
 11
350.7499999445353183
 21
-126.3447655237107057
 31
0.0
  0
LINE
  5
23ADF
  8
0
 10
349.1999997836031753
 20
-123.1447653135112006
 30
0.0
 11
349.1999997836031753
 21
-120.9447653254321011
 31
0.0
  0
LINE
  5
23AE0
  8
0
 10
349.1999997836031753
 20
-120.9447653254321011
 30
0.0
 11
349.5000011366282138
 21
-120.6447653693904982
 31
0.0
  0
LINE
  5
23AE1
  8
0
 10
315.800000641909719
 20
-120.9447653254321011
 30
0.0
 11
315.800000641909719
 21
-123.1447653135112006
 31
0.0
  0
LINE
  5
23AE2
  8
0
 10
315.800000641909719
 20
-120.9447653254321011
 30
0.0
 11
316.0000003021635848
 21
-120.9447653254321011
 31
0.0
  0
LINE
  5
23AE3
  8
0
 10
318.9999998625793864
 20
-120.9447653254321011
 30
0.0
 11
319.2000004541554858
 21
-120.9447653254321011
 31
0.0
  0
LINE
  5
23AE4
  8
0
 10
319.2000004541554858
 20
-123.1447653135112006
 30
0.0
 11
319.2000004541554858
 21
-120.9447653254321011
 31
0.0
  0
LINE
  5
23AE5
  8
0
 10
321.5000002723613193
 20
-126.6447654797522944
 30
0.0
 11
322.5000004362740924
 21
-125.644765490462504
 31
0.0
  0
LINE
  5
23AE6
  8
0
 10
342.4999999892388018
 20
-125.644765490462504
 30
0.0
 11
343.500000153151575
 21
-126.6447654797522944
 31
0.0
  0
LINE
  5
23AE7
  8
0
 10
314.250000480977576
 20
-126.3447655237107057
 30
0.0
 11
313.9500009905972888
 21
-126.6447654797522944
 31
0.0
  0
LINE
  5
23AE8
  8
0
 10
321.050000105467916
 20
-126.6447654797522944
 30
0.0
 11
320.750000615087572
 21
-126.3447655237107057
 31
0.0
  0
LINE
  5
23AE9
  8
0
 10
343.500000153151575
 20
-120.6447653693904982
 30
0.0
 11
342.4999999892388018
 21
-121.6447655333032998
 31
0.0
  0
LINE
  5
23AEA
  8
0
 10
322.5000004362740924
 20
-121.6447655333032998
 30
0.0
 11
321.5000002723613193
 21
-120.6447653693904982
 31
0.0
  0
LINE
  5
23AEB
  8
0
 10
345.7999999713574084
 20
-120.9447653254321011
 30
0.0
 11
345.7999999713574084
 21
-123.1447653135112006
 31
0.0
  0
LINE
  5
23AEC
  8
0
 10
345.7999999713574084
 20
-120.9447653254321011
 30
0.0
 11
346.0000005629335078
 21
-120.9447653254321011
 31
0.0
  0
LINE
  5
23AED
  8
0
 10
349.0000001233497073
 20
-120.9447653254321011
 30
0.0
 11
349.1999997836031753
 21
-120.9447653254321011
 31
0.0
  0
LINE
  5
23AEE
  8
0
 10
319.2000004541554858
 20
-120.9447653254321011
 30
0.0
 11
319.499999944535773
 21
-120.6447653693904982
 31
0.0
  0
LINE
  5
23AEF
  8
0
 10
315.4999992888846805
 20
-120.6447653693904982
 30
0.0
 11
315.800000641909719
 21
-120.9447653254321011
 31
0.0
  0
LINE
  5
23AF0
  8
0
 10
344.2499998104253223
 20
-126.3447655237107057
 30
0.0
 11
343.9500003200449783
 21
-126.6447654797522944
 31
0.0
  0
LINE
  5
23AF1
  8
0
 10
345.5000004809771212
 20
-120.6447653693904982
 30
0.0
 11
345.7999999713574084
 21
-120.9447653254321011
 31
0.0
  0
LINE
  5
23AF2
  8
0
 10
350.7499999445353183
 20
-123.1447653135112006
 30
0.0
 11
344.2499998104253223
 21
-123.1447653135112006
 31
0.0
  0
LINE
  5
23AF4
  8
0
 10
317.8855755445042064
 20
-106.6447649372568947
 30
0.0
 11
307.4999998402271899
 21
-106.6447649372568947
 31
0.0
  0
LINE
  5
23AF5
  8
0
 10
357.5000005852857043
 20
-126.6447654797522944
 30
0.0
 11
307.4999998402271899
 21
-126.6447654797522944
 31
0.0
  0
LINE
  5
23AF6
  8
0
 10
320.750000615087572
 20
-123.1447653135112006
 30
0.0
 11
314.250000480977576
 21
-123.1447653135112006
 31
0.0
  0
LINE
  5
23AF7
  8
0
 10
350.9999994378962924
 20
-120.6447653693904982
 30
0.0
 11
314.0000009876166018
 21
-120.6447653693904982
 31
0.0
  0
LINE
  5
23AF8
  8
0
 10
320.2500005331311854
 20
-126.1447654560034977
 30
0.0
 11
314.7499996316108763
 21
-126.1447654560034977
 31
0.0
  0
LINE
  5
23AF9
  8
0
 10
350.2500007939020179
 20
-126.1447654560034977
 30
0.0
 11
344.7499998923817088
 21
-126.1447654560034977
 31
0.0
  0
LINE
  5
23AFA
  8
0
 10
322.5000004362740924
 20
-125.644765490462504
 30
0.0
 11
342.4999999892388018
 21
-125.644765490462504
 31
0.0
  0
LINE
  5
23AFB
  8
1
 10
332.5000002197917865
 20
-49.8447653693905082
 30
0.0
 11
332.5000002197921276
 21
-131.1447653693905124
 31
0.0
  0
LINE
  5
23AFC
  8
1
 10
317.5000002127544008
 20
-128.1447654560035119
 30
0.0
 11
317.5000002127541734
 21
-118.6447653693904982
 31
0.0
  0
LINE
  5
23AFD
  8
1
 10
347.5000002127544008
 20
-128.1447654560035119
 30
0.0
 11
347.5000002127541734
 21
-118.6447653693904982
 31
0.0
  0
LINE
  5
23AFE
  8
0
 10
347.5176383029613021
 20
-55.9212882511413625
 30
0.0
 11
343.7543333077866805
 21
-54.9129137168123123
 31
0.0
  0
LINE
  5
23AFF
  8
0
 10
321.2456671177262137
 20
-54.9129137168123123
 30
0.0
 11
317.4823621225510806
 21
-55.9212882511413625
 31
0.0
  0
ARC
  5
23B00
  8
0
 10
348.5000002127569019
 20
-82.3447653693905011
 30
0.0
 40
0.4999999999999929
 50
270.0
 51
0.0
  0
ARC
  5
23B01
  8
0
 10
316.5000002127563903
 20
-82.3447653693905011
 30
0.0
 40
0.4999999999999929
 50
180.0
 51
270.0
  0
LINE
  5
23B02
  8
0
 10
349.000000212756504
 20
-82.3447653693905011
 30
0.0
 11
349.000000212756504
 21
-57.8531399037196721
 31
0.0
  0
LINE
  5
23B03
  8
0
 10
316.0000002127563903
 20
-57.8531399037196721
 30
0.0
 11
316.0000002127563903
 21
-82.3447653693905011
 31
0.0
  0
ARC
  5
23B04
  8
0
 10
347.0000002127569019
 20
-57.8531399037196721
 30
0.0
 40
2.0000000000000582
 50
0.0
 51
74.999999999992113
  0
ARC
  5
23B05
  8
0
 10
318.0000002127563903
 20
-57.8531399037196721
 30
0.0
 40
2.0000000000000582
 50
105.0000000000079012
 51
180.0
  0
ARC
  5
23B06
  8
0
 10
343.2366952175818255
 20
-56.8447653693905011
 30
0.0
 40
1.9999999999999809
 50
74.999999999992113
 51
90.0
  0
ARC
  5
23B07
  8
0
 10
321.7633052079315235
 20
-56.8447653693905011
 30
0.0
 40
1.999999999999976
 50
90.0
 51
105.0000000000079012
  0
LINE
  5
23B08
  8
0
 10
314.5000002127563903
 20
-120.1447653693903987
 30
0.0
 11
315.000000212756504
 21
-120.6447653693904982
 31
0.0
  0
LINE
  5
23B09
  8
0
 10
350.0000002127569019
 20
-120.6447653693904982
 30
0.0
 11
350.500000212756504
 21
-120.1447653693903987
 31
0.0
  0
ARC
  5
23B0A
  8
0
 10
315.500000212756504
 20
-108.618868727531904
 30
0.0
 40
1.000000000000032
 50
109.9999999999897966
 51
180.0
  0
ARC
  5
23B0B
  8
0
 10
349.5000002127563903
 20
-108.618868727531904
 30
0.0
 40
1.000000000000032
 50
0.0
 51
70.0000000000102034
  0
LINE
  5
23B0C
  8
0
 10
314.5000002127563903
 20
-108.618868727531904
 30
0.0
 11
314.5000002127563903
 21
-120.1447653693903987
 31
0.0
  0
LINE
  5
23B0D
  8
0
 10
350.500000212756504
 20
-120.1447653693903987
 30
0.0
 11
350.500000212756504
 21
-108.618868727531904
 31
0.0
  0
LINE
  5
23B0E
  8
0
 10
349.8420203560820028
 20
-107.6791761067458992
 30
0.0
 11
347.2631921554262817
 21
-106.7405594024209989
 31
0.0
  0
LINE
  5
23B0F
  8
0
 10
317.7368082700866125
 20
-106.7405594024209989
 30
0.0
 11
315.1579800694304936
 21
-107.6791761067458992
 31
0.0
  0
ARC
  5
23B10
  8
0
 10
347.4000002127564812
 20
-106.3646823541066055
 30
0.0
 40
0.400000000000056
 50
180.0
 51
250.0000000000102034
  0
ARC
  5
23B11
  8
0
 10
317.600000212756413
 20
-106.3646823541066055
 30
0.0
 40
0.4000000000000487
 50
289.999999999989825
 51
0.0
  0
LINE
  5
23B12
  8
0
 10
347.0000002127569019
 20
-106.3646823541066055
 30
0.0
 11
347.0000002127569019
 21
-82.8447653693905153
 31
0.0
  0
LINE
  5
23B13
  8
0
 10
318.0000002127563903
 20
-82.8447653693905153
 30
0.0
 11
318.0000002127563903
 21
-106.3646823541066055
 31
0.0
  0
LINE
  5
23B14
  8
0
 10
322.5000002127563903
 20
-120.6447653693904982
 30
0.0
 11
322.5000002127563903
 21
-125.6447653693904982
 31
0.0
  0
LINE
  5
23B15
  8
0
 10
342.500000212756504
 20
-125.6447653693904982
 30
0.0
 11
342.500000212756504
 21
-120.6447653693904982
 31
0.0
  0
LINE
  5
23B16
  8
0
 10
322.5000002127563903
 20
-125.6447653693904982
 30
0.0
 11
323.0000002127563903
 21
-126.1447653693903987
 31
0.0
  0
LINE
  5
23B17
  8
0
 10
342.000000212756504
 20
-126.1447653693903987
 30
0.0
 11
342.500000212756504
 21
-125.6447653693904982
 31
0.0
  0
ARC
  5
23B18
  8
0
 10
326.6287825482597214
 20
-51.4926447529054201
 30
0.0
 40
13.6029661752733499
 50
300.6105353040229033
 51
314.7199211629260844
  0
LINE
  5
23B19
  8
0
 10
333.5554085271938902
 20
-63.2000159912999777
 30
0.0
 11
331.444591898319004
 21
-63.2000159912999777
 31
0.0
  0
ARC
  5
23B1A
  8
0
 10
338.3712178772045149
 20
-51.4926447529679479
 30
0.0
 40
13.6029661751949096
 50
225.2800788370369958
 51
239.3894646960231114
  0
LINE
  5
23B1B
  8
0
 10
336.2003981269951964
 20
-61.1582985837924014
 30
0.0
 11
336.2003981269951964
 21
-75.3447653693905011
 31
0.0
  0
LINE
  5
23B1C
  8
0
 10
328.7996022985176978
 20
-75.3447653693905011
 30
0.0
 11
328.7996022985176978
 21
-61.1582985837924014
 31
0.0
  0
ARC
  5
23B1D
  8
0
 10
335.7186442772670034
 20
-75.3630711955663344
 30
0.0
 40
0.4821015193919676
 50
272.3554856445371115
 51
2.1760951536669699
  0
ARC
  5
23B1E
  8
0
 10
329.2813561482458908
 20
-75.3630711955663344
 30
0.0
 40
0.4821015193919585
 50
177.8239048463329937
 51
267.6445143554759056
  0
ARC
  5
23B1F
  8
0
 10
339.1284073936851087
 20
-61.6340754025117974
 30
0.0
 40
2.9664122854135142
 50
129.2318368561971056
 51
170.7705844103992945
  0
ARC
  5
23B20
  8
0
 10
325.8265482480475725
 20
-61.6600807515346503
 30
0.0
 40
3.0151012803688388
 50
9.5799087825034484
 51
50.4176699509025497
  0
LINE
  5
23B21
  8
0
 10
327.7477295797158945
 20
-59.3363126861436001
 30
0.0
 11
326.8820928984442844
 21
-58.8258289840146915
 31
0.0
  0
LINE
  5
23B22
  8
0
 10
326.8820928984442844
 20
-58.8258289840146915
 30
0.0
 11
326.8820928984442844
 21
-75.3447653693905011
 31
0.0
  0
ARC
  5
23B23
  8
0
 10
327.3638467481724774
 20
-75.3630711955663344
 30
0.0
 40
0.482101519391948
 50
177.8239048463265135
 51
267.6445143554759056
  0
ARC
  5
23B24
  8
0
 10
337.6361536773408147
 20
-75.3630711955663344
 30
0.0
 40
0.4821015193919676
 50
272.3554856445371115
 51
2.1760951536669699
  0
LINE
  5
23B25
  8
0
 10
338.1179075270686099
 20
-58.8258289840146915
 30
0.0
 11
337.2522708457969998
 21
-59.3363126861436001
 31
0.0
  0
LINE
  5
23B26
  8
0
 10
338.1179075270686099
 20
-75.3447653693905011
 30
0.0
 11
338.1179075270686099
 21
-58.8258289840146915
 31
0.0
  0
ARC
  5
23B27
  8
0
 10
323.192875487914705
 20
-65.2676576612966244
 30
0.0
 40
7.4234413724098092
 50
60.2003526856404676
 51
92.8096285778701713
  0
ARC
  5
23B28
  8
0
 10
341.8490741356787908
 20
-65.4424557187860216
 30
0.0
 40
7.5961407048907548
 50
87.5710337839580433
 51
119.4189849525120053
  0
LINE
  5
23B29
  8
0
 10
342.1710043574369138
 20
-57.8531399037196721
 30
0.0
 11
342.1710043574369138
 21
-75.3447653693905011
 31
0.0
  0
LINE
  5
23B2A
  8
0
 10
339.1707404665090735
 20
-75.8447653693905011
 30
0.0
 11
339.2715480634134906
 21
-75.8341707416660427
 31
0.0
  0
LINE
  5
23B2B
  8
0
 10
325.8292599590038208
 20
-75.8447653693905011
 30
0.0
 11
325.7161153493681809
 21
-75.8328741523102536
 31
0.0
  0
LINE
  5
23B2C
  8
0
 10
339.1707404665090735
 20
-75.8447653693905011
 30
0.0
 11
325.8292599590038208
 21
-75.8447653693905011
 31
0.0
  0
LINE
  5
23B2D
  8
0
 10
322.8289960680764921
 20
-75.3447653693905011
 30
0.0
 11
322.8289960680764921
 21
-57.8531399037196721
 31
0.0
  0
LINE
  5
23B2E
  8
0
 10
348.5000002127569019
 20
-82.8447653693905153
 30
0.0
 11
316.5000002133480734
 21
-82.8447653693905153
 31
0.0
  0
LINE
  5
23B2F
  8
0
 10
321.763305222002316
 20
-54.8447653693905011
 30
0.0
 11
343.2366952175818255
 21
-54.8447653693905011
 31
0.0
  0
LINE
  5
23B30
  8
0
 10
314.5000002127563903
 20
-120.1447653693903987
 30
0.0
 11
350.500000212756504
 21
-120.1447653693903987
 31
0.0
  0
CIRCLE
  5
23B31
  8
0
 10
332.5000002127563903
 20
-97.644765369390683
 30
0.0
 40
0.9999999999999857
  0
LINE
  5
23B32
  8
0
 10
342.000000212756504
 20
-126.1447653693903987
 30
0.0
 11
323.0000002127563903
 21
-126.1447653693903987
 31
0.0
  0
ARC
  5
23B33
  8
0
 10
337.2693707810610135
 20
-55.1388365534530465
 30
0.0
 40
20.7919592879503412
 50
275.5259026831452047
 51
283.6356359867505148
  0
ARC
  5
23B34
  8
0
 10
327.7269336401860755
 20
-55.1564868879609875
 30
0.0
 40
20.7739351232267495
 50
256.3627941926009726
 51
264.4453435374909986
  0
LINE
  5
23B35
  8
0
 10
316.0000002127563903
 20
-82.3447653693905011
 30
0.0
 11
349.000000212756504
 21
-82.3447653693905011
 31
0.0
  0
LINE
  5
23B36
  8
0
 10
322.8289960680764921
 20
-57.8531399037196721
 30
0.0
 11
316.0000002127563903
 21
-57.8531399037196721
 31
0.0
  0
LINE
  5
23B37
  8
0
 10
349.000000212756504
 20
-57.8531399037196721
 30
0.0
 11
342.1710043574369138
 21
-57.8531399037196721
 31
0.0
  0
LINE
  5
23B38
  8
0
 10
315.1579800694304936
 20
-107.6791761067458992
 30
0.0
 11
349.8420203560820028
 21
-107.6791761067458992
 31
0.0
  0
LINE
  5
23B39
  8
0
 10
347.2631921554262817
 20
-106.7405594024209989
 30
0.0
 11
317.7368082700866125
 21
-106.7405594024209989
 31
0.0
  0
ARC
  5
23B3A
  8
0
 10
322.2968221490859264
 20
-111.4052013019341985
 30
0.0
 40
1.878212589843858
 50
97.2971017574458727
 51
187.2786925910091043
  0
ARC
  5
23B3B
  8
0
 10
322.2821997662630906
 20
-111.8947720227680946
 30
0.0
 40
1.8655006296686669
 50
172.2486141181560129
 51
263.2468277395190057
  0
ARC
  5
23B3C
  8
0
 10
321.8774875632598196
 20
-111.8182825454078966
 30
0.0
 40
1.9379306487129511
 50
275.4881525960702788
 51
4.780310051411198
  0
ARC
  5
23B3D
  8
0
 10
321.8500093144093057
 20
-111.4963618500460001
 30
0.0
 40
1.965226546518539
 50
355.3177050141285918
 51
83.9170131129990011
  0
POLYLINE
  5
23B3E
  8
0
 66
     1
 10
0.0
 20
0.0
 30
0.0
 70
   128
  0
VERTEX
  5
23E25
  8
0
 10
319.6928554363557282
 20
-111.6447656227100964
 30
0.0
  0
VERTEX
  5
23E26
  8
0
 10
318.5369053073230816
 20
-112.6447657866227985
 30
0.0
  0
VERTEX
  5
23E27
  8
0
 10
317.5101435892293011
 20
-113.644765019212997
 30
0.0
  0
SEQEND
  5
23E28
  8
0
  0
POLYLINE
  5
23B3F
  8
0
 66
     1
 10
0.0
 20
0.0
 30
0.0
 70
   128
  0
VERTEX
  5
23E29
  8
0
 10
317.5101435892293011
 20
-109.6447652948844933
 30
0.0
  0
VERTEX
  5
23E2A
  8
0
 10
318.5369053073230816
 20
-110.6447654587972949
 30
0.0
  0
VERTEX
  5
23E2B
  8
0
 10
319.6928554363557282
 20
-111.6447656227100964
 30
0.0
  0
SEQEND
  5
23E2C
  8
0
  0
LINE
  5
23B40
  8
0
 10
317.5101435892293011
 20
-110.6447654587972949
 30
0.0
 11
317.5101435892293011
 21
-109.6447652948844933
 31
0.0
  0
LINE
  5
23B41
  8
0
 10
315.656986754388015
 20
-110.6447654587972949
 30
0.0
 11
317.5101435892293011
 21
-110.6447654587972949
 31
0.0
  0
LINE
  5
23B42
  8
0
 10
315.656986754388015
 20
-109.6447652948844933
 30
0.0
 11
315.656986754388015
 21
-110.6447654587972949
 31
0.0
  0
POLYLINE
  5
23B43
  8
0
 66
     1
 10
0.0
 20
0.0
 30
0.0
 70
   128
  0
VERTEX
  5
23E2D
  8
0
 10
314.7535498403021279
 20
-111.6447656227100964
 30
0.0
  0
VERTEX
  5
23E2E
  8
0
 10
315.12489050254311
 20
-110.6447654587972949
 30
0.0
  0
VERTEX
  5
23E2F
  8
0
 10
315.656986754388015
 20
-109.6447652948844933
 30
0.0
  0
SEQEND
  5
23E30
  8
0
  0
POLYLINE
  5
23B44
  8
0
 66
     1
 10
0.0
 20
0.0
 30
0.0
 70
   128
  0
VERTEX
  5
23E31
  8
0
 10
315.656986754388015
 20
-113.644765019212997
 30
0.0
  0
VERTEX
  5
23E32
  8
0
 10
315.12489050254311
 20
-112.6447657866227985
 30
0.0
  0
VERTEX
  5
23E33
  8
0
 10
314.7535498403021279
 20
-111.6447656227100964
 30
0.0
  0
SEQEND
  5
23E34
  8
0
  0
LINE
  5
23B45
  8
0
 10
315.656986754388015
 20
-112.6447657866227985
 30
0.0
 11
315.656986754388015
 21
-113.644765019212997
 31
0.0
  0
LINE
  5
23B46
  8
0
 10
315.656986754388015
 20
-112.6447657866227985
 30
0.0
 11
317.5101435892293011
 21
-112.6447657866227985
 31
0.0
  0
LINE
  5
23B47
  8
0
 10
317.5101435892293011
 20
-113.644765019212997
 30
0.0
 11
317.5101435892293011
 21
-112.6447657866227985
 31
0.0
  0
LINE
  5
23B48
  8
0
 10
326.9083553142854157
 20
-113.644765019212997
 30
0.0
 11
326.9083553142854157
 21
-109.6447652948844933
 31
0.0
  0
LINE
  5
23B49
  8
0
 10
326.9083553142854157
 20
-113.644765019212997
 30
0.0
 11
327.5950501821944272
 21
-113.644765019212997
 31
0.0
  0
LINE
  5
23B4A
  8
0
 10
327.5950501821944272
 20
-111.8498931450593972
 30
0.0
 11
327.5950501821944272
 21
-113.644765019212997
 31
0.0
  0
LINE
  5
23B4B
  8
0
 10
327.5950501821944272
 20
-111.8498931450593972
 30
0.0
 11
328.7897817473867121
 21
-111.8498931450593972
 31
0.0
  0
LINE
  5
23B4C
  8
0
 10
328.7897817473867121
 20
-111.1319440228688933
 30
0.0
 11
328.7897817473867121
 21
-111.8498931450593972
 31
0.0
  0
LINE
  5
23B4D
  8
0
 10
327.5950501821944272
 20
-111.1319440228688933
 30
0.0
 11
328.7897817473867121
 21
-111.1319440228688933
 31
0.0
  0
LINE
  5
23B4E
  8
0
 10
327.5950501821944272
 20
-110.3627144170749972
 30
0.0
 11
327.5950501821944272
 21
-111.1319440228688933
 31
0.0
  0
LINE
  5
23B4F
  8
0
 10
327.5950501821944272
 20
-110.3627144170749972
 30
0.0
 11
328.7897817473867121
 21
-110.3627144170749972
 31
0.0
  0
LINE
  5
23B50
  8
0
 10
328.7897817473867121
 20
-109.6447652948844933
 30
0.0
 11
328.7897817473867121
 21
-110.3627144170749972
 31
0.0
  0
LINE
  5
23B51
  8
0
 10
326.9083553142854157
 20
-109.6447652948844933
 30
0.0
 11
328.7897817473867121
 21
-109.6447652948844933
 31
0.0
  0
LINE
  5
23B52
  8
0
 10
324.4441325925293995
 20
-113.644765019212997
 30
0.0
 11
324.4441325925293995
 21
-109.6447652948844933
 31
0.0
  0
LINE
  5
23B53
  8
0
 10
324.4441325925293995
 20
-113.644765019212997
 30
0.0
 11
325.092402487994093
 21
-113.644765019212997
 31
0.0
  0
LINE
  5
23B54
  8
0
 10
325.092402487994093
 20
-111.8498931450593972
 30
0.0
 11
325.092402487994093
 21
-113.644765019212997
 31
0.0
  0
LINE
  5
23B55
  8
0
 10
325.092402487994093
 20
-111.8498931450593972
 30
0.0
 11
326.2305550426249283
 21
-111.8498931450593972
 31
0.0
  0
LINE
  5
23B56
  8
0
 10
326.2305550426249283
 20
-111.1319440228688933
 30
0.0
 11
326.2305550426249283
 21
-111.8498931450593972
 31
0.0
  0
LINE
  5
23B57
  8
0
 10
325.092402487994093
 20
-111.1319440228688933
 30
0.0
 11
326.2305550426249283
 21
-111.1319440228688933
 31
0.0
  0
LINE
  5
23B58
  8
0
 10
325.092402487994093
 20
-110.3627144170749972
 30
0.0
 11
325.092402487994093
 21
-111.1319440228688933
 31
0.0
  0
LINE
  5
23B59
  8
0
 10
325.092402487994093
 20
-110.3627144170749972
 30
0.0
 11
326.2305550426249283
 21
-110.3627144170749972
 31
0.0
  0
LINE
  5
23B5A
  8
0
 10
326.2305550426249283
 20
-109.6447652948844933
 30
0.0
 11
326.2305550426249283
 21
-110.3627144170749972
 31
0.0
  0
LINE
  5
23B5B
  8
0
 10
324.4441325925293995
 20
-109.6447652948844933
 30
0.0
 11
326.2305550426249283
 21
-109.6447652948844933
 31
0.0
  0
ARC
  5
23B5C
  8
0
 10
322.1872360550777898
 20
-111.4763921036178971
 30
0.0
 40
1.2240587076124869
 50
96.4784227283061142
 51
188.2851101986628919
  0
ARC
  5
23B5D
  8
0
 10
321.9321773651130911
 20
-111.5163846464187003
 30
0.0
 40
1.261666883456503
 50
354.0500159782765763
 51
84.6813726223071939
  0
ARC
  5
23B5E
  8
0
 10
321.9276981417301045
 20
-111.7709865861116043
 30
0.0
 40
1.2654213271479919
 50
276.0411027621714766
 51
5.6151836287149672
  0
POLYLINE
  5
23B5F
  8
0
 66
     1
 10
0.0
 20
0.0
 30
0.0
 70
   128
  0
VERTEX
  5
23E35
  8
0
 10
321.3581486754127923
 20
-112.7216883746732066
 30
0.0
  0
VERTEX
  5
23E36
  8
0
 10
321.6846303232023274
 20
-112.9527904836285046
 30
0.0
  0
VERTEX
  5
23E37
  8
0
 10
322.0608734674759717
 20
-113.0293805895198034
 30
0.0
  0
SEQEND
  5
23E38
  8
0
  0
ARC
  5
23B60
  8
0
 10
322.398796691521909
 20
-111.7468139938755058
 30
0.0
 40
1.425948228993039
 50
176.2188034867382953
 51
223.1308990681982038
  0
LINE
  5
23B61
  8
0
 10
350.5000002127562198
 20
-108.6188679782500941
 30
0.0
 11
314.5000002127566745
 21
-108.6188679782500941
 31
0.0
  0
LINE
  5
23B62
  8
0
 10
318.0000002127563903
 20
-106.3646817801346032
 30
0.0
 11
347.0000002127567882
 21
-106.3646817801348021
 31
0.0
  0
LINE
  5
23B64
  8
0
 10
414.2499977638702262
 20
-126.344764475972795
 30
0.0
 11
414.2499977638702262
 21
-123.1447643821885976
 31
0.0
  0
LINE
  5
23B65
  8
0
 10
413.9499982734898822
 20
-126.644764490222002
 30
0.0
 11
414.2499977638702262
 21
-126.344764475972795
 31
0.0
  0
LINE
  5
23B66
  8
0
 10
413.4999981065972747
 20
-126.644764490222002
 30
0.0
 11
412.4999979426846153
 21
-125.6447644427245933
 31
0.0
  0
LINE
  5
23B67
  8
0
 10
412.4999979426846153
 20
-121.6447646019806967
 30
0.0
 11
412.4999979426846153
 21
-125.6447644427245933
 31
0.0
  0
LINE
  5
23B68
  8
0
 10
412.4999979426846153
 20
-121.6447646019806967
 30
0.0
 11
413.4999981065972747
 21
-120.6447644380679947
 31
0.0
  0
LINE
  5
23B69
  8
0
 10
415.7999979248032218
 20
-120.9447643941094981
 30
0.0
 11
415.4999984344228778
 21
-120.6447644380679947
 31
0.0
  0
LINE
  5
23B6A
  8
0
 10
415.7999979248032218
 20
-123.1447643821885976
 30
0.0
 11
415.7999979248032218
 21
-120.9447643941094981
 31
0.0
  0
LINE
  5
23B6B
  8
0
 10
414.2499977638702262
 20
-123.1447643821885976
 30
0.0
 11
420.7499978979810749
 21
-123.1447643821885976
 31
0.0
  0
LINE
  5
23B6C
  8
0
 10
385.7999985953554756
 20
-120.9447643941094981
 30
0.0
 11
389.1999984076003898
 21
-120.9447643941094981
 31
0.0
  0
LINE
  5
23B6D
  8
0
 10
389.1999984076003898
 20
-120.9447643941094981
 30
0.0
 11
389.1999984076003898
 21
-123.1447643821885976
 31
0.0
  0
LINE
  5
23B6E
  8
0
 10
385.7999985953554756
 20
-123.1447643821885976
 30
0.0
 11
385.7999985953554756
 21
-120.9447643941094981
 31
0.0
  0
LINE
  5
23B6F
  8
0
 10
385.7999985953554756
 20
-123.1447643821885976
 30
0.0
 11
390.7499985685333854
 21
-123.1447643821885976
 31
0.0
  0
LINE
  5
23B70
  8
0
 10
385.7999985953554756
 20
-120.9447643941094981
 30
0.0
 11
385.4999972423295844
 21
-120.6447644380679947
 31
0.0
  0
LINE
  5
23B71
  8
0
 10
385.4999972423295844
 20
-120.6447644380679947
 30
0.0
 11
420.9999973913410827
 21
-120.6447644380679947
 31
0.0
  0
LINE
  5
23B72
  8
0
 10
389.499997897980677
 20
-120.6447644380679947
 30
0.0
 11
389.1999984076003898
 21
-120.9447643941094981
 31
0.0
  0
LINE
  5
23B73
  8
0
 10
382.999998777149699
 20
-106.6447649372568947
 30
0.0
 11
383.9999989410624153
 21
-107.6447651011695967
 31
0.0
  0
LINE
  5
23B74
  8
0
 10
420.9999973913410827
 20
-107.6447651011695967
 30
0.0
 11
421.9999975552539127
 21
-106.6447649372568947
 31
0.0
  0
LINE
  5
23B75
  8
0
 10
420.9999973913410827
 20
-107.6447651011695967
 30
0.0
 11
383.9999989410624153
 21
-107.6447651011695967
 31
0.0
  0
LINE
  5
23B76
  8
0
 10
383.9999989410624153
 20
-120.6447644380679947
 30
0.0
 11
383.9999989410624153
 21
-107.6447651011695967
 31
0.0
  0
LINE
  5
23B77
  8
0
 10
420.9999973913410827
 20
-107.6447651011695967
 30
0.0
 11
420.9999973913410827
 21
-120.6447644380679947
 31
0.0
  0
LINE
  5
23B78
  8
0
 10
392.4999983897189963
 20
-125.6447644427245933
 30
0.0
 11
391.4999982258062232
 21
-126.644764490222002
 31
0.0
  0
LINE
  5
23B79
  8
0
 10
392.4999983897189963
 20
-125.6447644427245933
 30
0.0
 11
412.4999979426846153
 21
-125.6447644427245933
 31
0.0
  0
LINE
  5
23B7A
  8
0
 10
414.2499977638702262
 20
-126.344764475972795
 30
0.0
 11
420.7499978979810749
 21
-126.344764475972795
 31
0.0
  0
LINE
  5
23B7B
  8
0
 10
420.7499978979810749
 20
-126.344764475972795
 30
0.0
 11
421.0499973883614189
 21
-126.644764490222002
 31
0.0
  0
LINE
  5
23B7C
  8
0
 10
420.7499978979810749
 20
-123.1447643821885976
 30
0.0
 11
420.7499978979810749
 21
-126.344764475972795
 31
0.0
  0
LINE
  5
23B7D
  8
0
 10
415.7999979248032218
 20
-120.9447643941094981
 30
0.0
 11
419.1999977370480792
 21
-120.9447643941094981
 31
0.0
  0
LINE
  5
23B7E
  8
0
 10
419.1999977370480792
 20
-120.9447643941094981
 30
0.0
 11
419.1999977370480792
 21
-123.1447643821885976
 31
0.0
  0
LINE
  5
23B7F
  8
0
 10
419.4999990900740272
 20
-120.6447644380679947
 30
0.0
 11
419.1999977370480792
 21
-120.9447643941094981
 31
0.0
  0
LINE
  5
23B80
  8
0
 10
391.4999982258062232
 20
-120.6447644380679947
 30
0.0
 11
392.4999983897189963
 21
-121.6447646019806967
 31
0.0
  0
LINE
  5
23B81
  8
0
 10
412.4999979426846153
 20
-121.6447646019806967
 30
0.0
 11
392.4999983897189963
 21
-121.6447646019806967
 31
0.0
  0
LINE
  5
23B82
  8
0
 10
384.2499984344224799
 20
-126.344764475972795
 30
0.0
 11
390.7499985685333854
 21
-126.344764475972795
 31
0.0
  0
LINE
  5
23B83
  8
0
 10
390.7499985685333854
 20
-126.344764475972795
 30
0.0
 11
391.0499980589136726
 21
-126.644764490222002
 31
0.0
  0
LINE
  5
23B84
  8
0
 10
383.9499989440421928
 20
-126.644764490222002
 30
0.0
 11
384.2499984344224799
 21
-126.344764475972795
 31
0.0
  0
LINE
  5
23B85
  8
0
 10
390.7499985685333854
 20
-123.1447643821885976
 30
0.0
 11
390.7499985685333854
 21
-126.344764475972795
 31
0.0
  0
LINE
  5
23B86
  8
0
 10
384.2499984344224799
 20
-126.344764475972795
 30
0.0
 11
384.2499984344224799
 21
-123.1447643821885976
 31
0.0
  0
LINE
  5
23B87
  8
0
 10
392.4999983897189963
 20
-125.6447644427245933
 30
0.0
 11
392.4999983897189963
 21
-121.6447646019806967
 31
0.0
  0
LINE
  5
23B88
  8
0
 10
427.4999974956497226
 20
-106.6447649372568947
 30
0.0
 11
377.4999988367540027
 21
-106.6447649372568947
 31
0.0
  0
LINE
  5
23B8A
  8
0
 10
377.4999988367542869
 20
-126.644764490222002
 30
0.0
 11
427.4999974956497226
 21
-126.644764490222002
 31
0.0
  0
LINE
  5
23B8B
  8
0
 10
383.9999989410624153
 20
-120.6447644380679947
 30
0.0
 11
385.4999972423295844
 21
-120.6447644380679947
 31
0.0
  0
LINE
  5
23B8C
  8
0
 10
384.2499984344224799
 20
-123.1447643821885976
 30
0.0
 11
385.7999985953554756
 21
-123.1447643821885976
 31
0.0
  0
LINE
  5
23B8E
  8
0
 10
419.4999990900740272
 20
-120.6447644380679947
 30
0.0
 11
420.9999973913410827
 21
-120.6447644380679947
 31
0.0
  0
LINE
  5
23B8F
  8
1
 10
387.4999981662019763
 20
-128.6447644902220873
 30
0.0
 11
387.4999981662019195
 21
-118.6447644380679947
 31
0.0
  0
LINE
  5
23B90
  8
1
 10
402.4999981662019763
 20
-131.644764490222002
 30
0.0
 11
402.4999981662018058
 21
-101.6447649372568947
 31
0.0
  0
LINE
  5
23B91
  8
1
 10
417.4999981662019763
 20
-128.644764490222002
 30
0.0
 11
417.4999981662018058
 21
-118.6447644380679947
 31
0.0
  0
LINE
  5
23B94
  8
3
 10
163.7295000888663026
 20
-107.6447648017496022
 30
0.0
 11
163.7295000888663026
 21
-106.6447647994211962
 31
0.0
  0
LINE
  5
23B95
  8
3
 10
161.2705000888662994
 20
-107.6447648017496022
 30
0.0
 11
161.2705000888662994
 21
-106.6447647994211962
 31
0.0
  0
LINE
  5
23B96
  8
3
 10
163.7295000888670984
 20
-107.6447648017497016
 30
0.0
 11
164.0000000888663862
 21
-108.1132845451956968
 31
0.0
  0
LINE
  5
23B97
  8
3
 10
161.2705000888655036
 20
-107.6447648017497016
 30
0.0
 11
161.0000000888663862
 21
-108.1132845451956968
 31
0.0
  0
LINE
  5
23B98
  8
0
 10
161.0000000888663862
 20
-107.6447648017497016
 30
0.0
 11
164.000000088866301
 21
-107.6447648017497016
 31
0.0
  0
LINE
  5
23B99
  8
3
 10
193.7294997535902041
 20
-107.6447648017496022
 30
0.0
 11
193.7294997535902041
 21
-106.6447647994211962
 31
0.0
  0
LINE
  5
23B9A
  8
3
 10
191.270499753590201
 20
-107.6447648017496022
 30
0.0
 11
191.270499753590201
 21
-106.6447647994211962
 31
0.0
  0
LINE
  5
23B9B
  8
3
 10
193.7294997535908863
 20
-107.6447648017497016
 30
0.0
 11
193.9999997535902025
 21
-108.1132845451956968
 31
0.0
  0
LINE
  5
23B9C
  8
3
 10
191.2704997535894051
 20
-107.6447648017497016
 30
0.0
 11
190.9999997535902025
 21
-108.1132845451956968
 31
0.0
  0
LINE
  5
23B9D
  8
0
 10
190.9999997535902025
 20
-107.6447648017497016
 30
0.0
 11
193.9999997535900889
 21
-107.6447648017497016
 31
0.0
  0
LINE
  5
23B9E
  8
3
 10
318.7295002127543171
 20
-121.644765315839507
 30
0.0
 11
318.7295002127543171
 21
-120.6447653135112006
 31
0.0
  0
LINE
  5
23B9F
  8
3
 10
316.2705002127543139
 20
-121.644765315839507
 30
0.0
 11
316.2705002127543139
 21
-120.6447653135112006
 31
0.0
  0
LINE
  5
23BA0
  8
3
 10
318.7295002127551129
 20
-121.6447653158396065
 30
0.0
 11
319.0000002127542871
 21
-122.1132850592856016
 31
0.0
  0
LINE
  5
23BA1
  8
3
 10
316.2705002127535181
 20
-121.6447653158396065
 30
0.0
 11
316.0000002127544008
 21
-122.1132850592856016
 31
0.0
  0
LINE
  5
23BA2
  8
0
 10
316.0000002127544008
 20
-121.6447653158396065
 30
0.0
 11
319.0000002127541734
 21
-121.6447653158396065
 31
0.0
  0
LINE
  5
23BA3
  8
3
 10
348.7294998774801797
 20
-121.644765315839507
 30
0.0
 11
348.7294998774801797
 21
-120.6447653135112006
 31
0.0
  0
LINE
  5
23BA4
  8
3
 10
346.2704998774801766
 20
-121.644765315839507
 30
0.0
 11
346.2704998774801766
 21
-120.6447653135112006
 31
0.0
  0
LINE
  5
23BA5
  8
3
 10
348.7294998774809756
 20
-121.6447653158396065
 30
0.0
 11
348.9999998774802066
 21
-122.1132850592856016
 31
0.0
  0
LINE
  5
23BA6
  8
3
 10
346.2704998774793808
 20
-121.6447653158396065
 30
0.0
 11
345.9999998774803203
 21
-122.1132850592856016
 31
0.0
  0
LINE
  5
23BA7
  8
0
 10
345.9999998774803203
 20
-121.6447653158396065
 30
0.0
 11
348.9999998774802066
 21
-121.6447653158396065
 31
0.0
  0
CIRCLE
  5
23BCC
  8
0
 10
247.4999995353232976
 20
-53.0947648553005465
 30
0.0
 40
10.0000000000000302
  0
LINE
  5
23BCD
  8
1
 10
247.4999995353232976
 20
-29.8447648553005607
 30
0.0
 11
247.4999995353232976
 21
-76.3447648553005536
 31
0.0
  0
LINE
  5
23BCE
  8
1
 10
270.7499995353232976
 20
-53.0947648553005465
 30
0.0
 11
224.2499995353232123
 21
-53.0947648553005465
 31
0.0
  0
CIRCLE
  5
23BCF
  8
1
 10
247.4999995353232976
 20
-53.0947648553005465
 30
0.0
 40
15.0
  0
CIRCLE
  5
23BD0
  8
0
 10
247.4999995353232976
 20
-38.0947648553005465
 30
0.0
 40
1.699999999999988
  0
CIRCLE
  5
23BD1
  8
2
 10
247.4999995353232976
 20
-38.0947648553005465
 30
0.0
 40
3.25
  0
CIRCLE
  5
23BD2
  8
0
 10
262.4999995353232976
 20
-53.0947648553005465
 30
0.0
 40
1.699999999999988
  0
CIRCLE
  5
23BD3
  8
2
 10
262.4999995353232976
 20
-53.0947648553005465
 30
0.0
 40
3.25
  0
CIRCLE
  5
23BD4
  8
0
 10
247.4999995353232976
 20
-68.0947648553005536
 30
0.0
 40
1.699999999999988
  0
CIRCLE
  5
23BD5
  8
2
 10
247.4999995353232976
 20
-68.0947648553005536
 30
0.0
 40
3.25
  0
CIRCLE
  5
23BD6
  8
0
 10
232.4999995353232123
 20
-53.0947648553005465
 30
0.0
 40
1.699999999999988
  0
CIRCLE
  5
23BD7
  8
2
 10
232.4999995353232123
 20
-53.0947648553005465
 30
0.0
 40
3.25
  0
CIRCLE
  5
23BDC
  8
0
 10
402.4999986114514741
 20
-53.0947648553004967
 30
0.0
 40
10.0000000000000302
  0
LINE
  5
23BDD
  8
1
 10
402.4999986114514741
 20
-29.5947648553005003
 30
0.0
 11
402.4999986114514741
 21
-76.5947648553004967
 31
0.0
  0
LINE
  5
23BDE
  8
1
 10
425.9999986114514741
 20
-53.0947648553004967
 30
0.0
 11
378.9999986114515877
 21
-53.0947648553004967
 31
0.0
  0
CIRCLE
  5
23BDF
  8
1
 10
402.4999986114514741
 20
-53.0947648553004967
 30
0.0
 40
15.0
  0
CIRCLE
  5
23BE0
  8
0
 10
402.4999986114514741
 20
-38.0947648553004967
 30
0.0
 40
1.699999999999988
  0
CIRCLE
  5
23BE1
  8
2
 10
402.4999986114514741
 20
-38.0947648553004967
 30
0.0
 40
3.25
  0
CIRCLE
  5
23BE2
  8
0
 10
417.4999986114514741
 20
-53.0947648553004967
 30
0.0
 40
1.699999999999988
  0
CIRCLE
  5
23BE3
  8
2
 10
417.4999986114514741
 20
-53.0947648553004967
 30
0.0
 40
3.25
  0
CIRCLE
  5
23BE4
  8
0
 10
402.4999986114514741
 20
-68.0947648553004967
 30
0.0
 40
1.699999999999988
  0
CIRCLE
  5
23BE5
  8
2
 10
402.4999986114514741
 20
-68.0947648553004967
 30
0.0
 40
3.25
  0
CIRCLE
  5
23BE6
  8
0
 10
387.4999986114515877
 20
-53.0947648553004967
 30
0.0
 40
1.699999999999988
  0
CIRCLE
  5
23BE7
  8
2
 10
387.4999986114515877
 20
-53.0947648553004967
 30
0.0
 40
3.25
  0
CIRCLE
  5
23BE8
  8
0
 10
402.4999986114514741
 20
-53.0947648553004967
 30
0.0
 40
18.5
  0
ARC
  5
23BF5
  8
0
 10
394.7968230571872255
 20
141.2395640627995022
 30
0.0
 40
1.878212589843858
 50
97.2971017574457733
 51
187.2786925910091043
  0
ARC
  5
23BF6
  8
0
 10
394.7822006743643897
 20
140.7499933419655918
 30
0.0
 40
1.8655006296686669
 50
172.2486141181558992
 51
263.2468277395190057
  0
ARC
  5
23BF7
  8
0
 10
394.3774884713611186
 20
140.826482819325804
 30
0.0
 40
1.9379306487129511
 50
275.488152596070222
 51
4.7803100514114769
  0
ARC
  5
23BF8
  8
0
 10
394.3500102225106048
 20
141.1484035146878
 30
0.0
 40
1.965226546518539
 50
355.317705014128876
 51
83.9170131129990153
  0
POLYLINE
  5
23BF9
  8
0
 66
     1
 10
0.0
 20
0.0
 30
0.0
 70
   128
  0
VERTEX
  5
23E39
  8
0
 10
392.1928563444570273
 20
140.9999997420237037
 30
0.0
  0
VERTEX
  5
23E3A
  8
0
 10
391.0369062154244943
 20
139.9999995781109021
 30
0.0
  0
VERTEX
  5
23E3B
  8
0
 10
390.0101444973304865
 20
139.0000003455207036
 30
0.0
  0
SEQEND
  5
23E3C
  8
0
  0
POLYLINE
  5
23BFA
  8
0
 66
     1
 10
0.0
 20
0.0
 30
0.0
 70
   128
  0
VERTEX
  5
23E3D
  8
0
 10
390.0101444973304865
 20
143.0000000698491931
 30
0.0
  0
VERTEX
  5
23E3E
  8
0
 10
391.0369062154244943
 20
141.9999999059363915
 30
0.0
  0
VERTEX
  5
23E3F
  8
0
 10
392.1928563444570273
 20
140.9999997420237037
 30
0.0
  0
SEQEND
  5
23E40
  8
0
  0
LINE
  5
23BFB
  8
0
 10
390.0101444973304865
 20
141.9999999059363915
 30
0.0
 11
390.0101444973304865
 21
143.0000000698491931
 31
0.0
  0
LINE
  5
23BFC
  8
0
 10
388.1569876624893141
 20
141.9999999059363915
 30
0.0
 11
390.0101444973304865
 21
141.9999999059363915
 31
0.0
  0
LINE
  5
23BFD
  8
0
 10
388.1569876624893141
 20
143.0000000698491931
 30
0.0
 11
388.1569876624893141
 21
141.9999999059363915
 31
0.0
  0
POLYLINE
  5
23BFE
  8
0
 66
     1
 10
0.0
 20
0.0
 30
0.0
 70
   128
  0
VERTEX
  5
23E41
  8
0
 10
387.253550748403427
 20
140.9999997420237037
 30
0.0
  0
VERTEX
  5
23E42
  8
0
 10
387.624891410644409
 20
141.9999999059363915
 30
0.0
  0
VERTEX
  5
23E43
  8
0
 10
388.1569876624893141
 20
143.0000000698491931
 30
0.0
  0
SEQEND
  5
23E44
  8
0
  0
POLYLINE
  5
23BFF
  8
0
 66
     1
 10
0.0
 20
0.0
 30
0.0
 70
   128
  0
VERTEX
  5
23E45
  8
0
 10
388.1569876624893141
 20
139.0000003455207036
 30
0.0
  0
VERTEX
  5
23E46
  8
0
 10
387.624891410644409
 20
139.9999995781109021
 30
0.0
  0
VERTEX
  5
23E47
  8
0
 10
387.253550748403427
 20
140.9999997420237037
 30
0.0
  0
SEQEND
  5
23E48
  8
0
  0
LINE
  5
23C00
  8
0
 10
388.1569876624893141
 20
139.9999995781109021
 30
0.0
 11
388.1569876624893141
 21
139.0000003455207036
 31
0.0
  0
LINE
  5
23C01
  8
0
 10
388.1569876624893141
 20
139.9999995781109021
 30
0.0
 11
390.0101444973304865
 21
139.9999995781109021
 31
0.0
  0
LINE
  5
23C02
  8
0
 10
390.0101444973304865
 20
139.0000003455207036
 30
0.0
 11
390.0101444973304865
 21
139.9999995781109021
 31
0.0
  0
LINE
  5
23C03
  8
0
 10
399.4083562223867148
 20
139.0000003455207036
 30
0.0
 11
399.4083562223867148
 21
143.0000000698491931
 31
0.0
  0
LINE
  5
23C04
  8
0
 10
399.4083562223867148
 20
139.0000003455207036
 30
0.0
 11
400.0950510902956125
 21
139.0000003455207036
 31
0.0
  0
LINE
  5
23C05
  8
0
 10
400.0950510902956125
 20
140.7948722196742892
 30
0.0
 11
400.0950510902956125
 21
139.0000003455207036
 31
0.0
  0
LINE
  5
23C06
  8
0
 10
400.0950510902956125
 20
140.7948722196742892
 30
0.0
 11
401.2897826554880112
 21
140.7948722196742892
 31
0.0
  0
LINE
  5
23C07
  8
0
 10
401.2897826554880112
 20
141.5128213418647931
 30
0.0
 11
401.2897826554880112
 21
140.7948722196742892
 31
0.0
  0
LINE
  5
23C08
  8
0
 10
400.0950510902956125
 20
141.5128213418647931
 30
0.0
 11
401.2897826554880112
 21
141.5128213418647931
 31
0.0
  0
LINE
  5
23C09
  8
0
 10
400.0950510902956125
 20
142.2820509476586892
 30
0.0
 11
400.0950510902956125
 21
141.5128213418647931
 31
0.0
  0
LINE
  5
23C0A
  8
0
 10
400.0950510902956125
 20
142.2820509476586892
 30
0.0
 11
401.2897826554880112
 21
142.2820509476586892
 31
0.0
  0
LINE
  5
23C0B
  8
0
 10
401.2897826554880112
 20
143.0000000698491931
 30
0.0
 11
401.2897826554880112
 21
142.2820509476586892
 31
0.0
  0
LINE
  5
23C0C
  8
0
 10
399.4083562223867148
 20
143.0000000698491931
 30
0.0
 11
401.2897826554880112
 21
143.0000000698491931
 31
0.0
  0
LINE
  5
23C0D
  8
0
 10
396.9441335006308123
 20
139.0000003455207036
 30
0.0
 11
396.9441335006308123
 21
143.0000000698491931
 31
0.0
  0
LINE
  5
23C0E
  8
0
 10
396.9441335006308123
 20
139.0000003455207036
 30
0.0
 11
397.5924033960953921
 21
139.0000003455207036
 31
0.0
  0
LINE
  5
23C0F
  8
0
 10
397.5924033960953921
 20
140.7948722196742892
 30
0.0
 11
397.5924033960953921
 21
139.0000003455207036
 31
0.0
  0
LINE
  5
23C10
  8
0
 10
397.5924033960953921
 20
140.7948722196742892
 30
0.0
 11
398.7305559507262274
 21
140.7948722196742892
 31
0.0
  0
LINE
  5
23C11
  8
0
 10
398.7305559507262274
 20
141.5128213418647931
 30
0.0
 11
398.7305559507262274
 21
140.7948722196742892
 31
0.0
  0
LINE
  5
23C12
  8
0
 10
397.5924033960953921
 20
141.5128213418647931
 30
0.0
 11
398.7305559507262274
 21
141.5128213418647931
 31
0.0
  0
LINE
  5
23C13
  8
0
 10
397.5924033960953921
 20
142.2820509476586892
 30
0.0
 11
397.5924033960953921
 21
141.5128213418647931
 31
0.0
  0
LINE
  5
23C14
  8
0
 10
397.5924033960953921
 20
142.2820509476586892
 30
0.0
 11
398.7305559507262274
 21
142.2820509476586892
 31
0.0
  0
LINE
  5
23C15
  8
0
 10
398.7305559507262274
 20
143.0000000698491931
 30
0.0
 11
398.7305559507262274
 21
142.2820509476586892
 31
0.0
  0
LINE
  5
23C16
  8
0
 10
396.9441335006308123
 20
143.0000000698491931
 30
0.0
 11
398.7305559507262274
 21
143.0000000698491931
 31
0.0
  0
ARC
  5
23C17
  8
0
 10
394.6872369631790889
 20
141.1683732611157893
 30
0.0
 40
1.2240587076124869
 50
96.4784227283061568
 51
188.2851101986634035
  0
ARC
  5
23C18
  8
0
 10
394.4321782732143902
 20
141.1283807183150998
 30
0.0
 40
1.261666883456503
 50
354.0500159782768037
 51
84.6813726223072649
  0
ARC
  5
23C19
  8
0
 10
394.4276990498314035
 20
140.8737787786220963
 30
0.0
 40
1.2654213271479919
 50
276.0411027621714766
 51
5.6151836287148873
  0
POLYLINE
  5
23C1A
  8
0
 66
     1
 10
0.0
 20
0.0
 30
0.0
 70
   128
  0
VERTEX
  5
23E49
  8
0
 10
393.8581495835140913
 20
139.9230769900605083
 30
0.0
  0
VERTEX
  5
23E4A
  8
0
 10
394.1846312313036265
 20
139.6919748811052955
 30
0.0
  0
VERTEX
  5
23E4B
  8
0
 10
394.5608743755773276
 20
139.6153847752138972
 30
0.0
  0
SEQEND
  5
23E4C
  8
0
  0
ARC
  5
23C1B
  8
0
 10
394.898797599623208
 20
140.897951370858209
 30
0.0
 40
1.425948228993039
 50
176.2188034867380964
 51
223.1308990682013871
  0
ENDSEC
  0
EOF
