  0
SECTION
  2
HEADER
  9
$ACADVER
  1
AC1009
  9
$INSBASE
 10
0.0
 20
0.0
 30
0.0
  9
$EXTMIN
 10
0.0
 20
-2.960436562073669
 30
0.0
  9
$EXTMAX
 10
281.50801109052878
 20
245.2751312169249
 30
0.0
  9
$LIMMIN
 10
0.0
 20
0.0
  9
$LIMMAX
 10
770.0
 20
540.0
  9
$ORTHOMODE
 70
     1
  9
$REGENMODE
 70
     1
  9
$FILLMODE
 70
     1
  9
$QTEXTMODE
 70
     0
  9
$MIRRTEXT
 70
     0
  9
$DRAGMODE
 70
     2
  9
$LTSCALE
 40
10.0
  9
$OSMODE
 70
    37
  9
$ATTMODE
 70
     1
  9
$TEXTSIZE
 40
4.000000000000048
  9
$TRACEWID
 40
0.05
  9
$TEXTSTYLE
  7
STANDARD
  9
$CLAYER
  8
0
  9
$CELTYPE
  6
BYLAYER
  9
$CECOLOR
 62
   256
  9
$DIMSCALE
 40
2.0
  9
$DIMASZ
 40
3.0
  9
$DIMEXO
 40
2.0
  9
$DIMDLI
 40
0.38
  9
$DIMRND
 40
0.0
  9
$DIMDLE
 40
0.0
  9
$DIMEXE
 40
2.0
  9
$DIMTP
 40
0.0
  9
$DIMTM
 40
0.0
  9
$DIMTXT
 40
3.0
  9
$DIMCEN
 40
0.0
  9
$DIMTSZ
 40
0.0
  9
$DIMTOL
 70
     0
  9
$DIMLIM
 70
     0
  9
$DIMTIH
 70
     0
  9
$DIMTOH
 70
     0
  9
$DIMSE1
 70
     0
  9
$DIMSE2
 70
     0
  9
$DIMTAD
 70
     1
  9
$DIMZIN
 70
     0
  9
$DIMBLK
  1

  9
$DIMASO
 70
     0
  9
$DIMSHO
 70
     0
  9
$DIMPOST
  1

  9
$DIMAPOST
  1

  9
$DIMALT
 70
     0
  9
$DIMALTD
 70
     2
  9
$DIMALTF
 40
25.399999999999999
  9
$DIMLFAC
 40
1.0
  9
$DIMTOFL
 70
     0
  9
$DIMTVP
 40
1.6000000000000001
  9
$DIMTIX
 70
     1
  9
$DIMSOXD
 70
     0
  9
$DIMSAH
 70
     0
  9
$DIMBLK1
  1

  9
$DIMBLK2
  1

  9
$DIMSTYLE
  2
STANDARD
  9
$DIMCLRD
 70
     4
  9
$DIMCLRE
 70
     4
  9
$DIMCLRT
 70
     4
  9
$DIMTFAC
 40
1.0
  9
$DIMGAP
 40
0.09
  9
$LUNITS
 70
     2
  9
$LUPREC
 70
     1
  9
$SKETCHINC
 40
0.1
  9
$FILLETRAD
 40
0.0
  9
$AUNITS
 70
     0
  9
$AUPREC
 70
     0
  9
$MENU
  1
E:\r13\win\SUPPORT\ACAD
  9
$ELEVATION
 40
0.0
  9
$PELEVATION
 40
0.0
  9
$THICKNESS
 40
0.0
  9
$LIMCHECK
 70
     0
  9
$BLIPMODE
 70
     0
  9
$CHAMFERA
 40
1.1999999999999991
  9
$CHAMFERB
 40
1.1999999999999991
  9
$SKPOLY
 70
     0
  9
$TDCREATE
 40
2450158.583426042
  9
$TDUPDATE
 40
2457162.4637215971
  9
$TDINDWG
 40
0.1759871875
  9
$TDUSRTIMER
 40
0.1759871875
  9
$USRTIMER
 70
     1
  9
$ANGBASE
 50
0.0
  9
$ANGDIR
 70
     0
  9
$PDMODE
 70
     0
  9
$PDSIZE
 40
0.0
  9
$PLINEWID
 40
0.0
  9
$COORDS
 70
     1
  9
$SPLFRAME
 70
     0
  9
$SPLINETYPE
 70
     6
  9
$SPLINESEGS
 70
     8
  9
$ATTDIA
 70
     0
  9
$ATTREQ
 70
     1
  9
$HANDLING
 70
     1
  9
$HANDSEED
  5
1F64
  9
$SURFTAB1
 70
     6
  9
$SURFTAB2
 70
     6
  9
$SURFTYPE
 70
     6
  9
$SURFU
 70
     6
  9
$SURFV
 70
     6
  9
$UCSNAME
  2

  9
$UCSORG
 10
0.0
 20
0.0
 30
0.0
  9
$UCSXDIR
 10
1.0
 20
0.0
 30
0.0
  9
$UCSYDIR
 10
0.0
 20
1.0
 30
0.0
  9
$PUCSNAME
  2

  9
$PUCSORG
 10
0.0
 20
0.0
 30
0.0
  9
$PUCSXDIR
 10
1.0
 20
0.0
 30
0.0
  9
$PUCSYDIR
 10
0.0
 20
1.0
 30
0.0
  9
$USERI1
 70
     3
  9
$USERI2
 70
     1
  9
$USERI3
 70
     0
  9
$USERI4
 70
     0
  9
$USERI5
 70
     0
  9
$USERR1
 40
2.0
  9
$USERR2
 40
3.0
  9
$USERR3
 40
3.0
  9
$USERR4
 40
3.0
  9
$USERR5
 40
10.0
  9
$WORLDVIEW
 70
     1
  9
$SHADEDGE
 70
     3
  9
$SHADEDIF
 70
    70
  9
$TILEMODE
 70
     1
  9
$MAXACTVP
 70
    16
  9
$PLIMCHECK
 70
     0
  9
$PEXTMIN
 10
1.0000000000000000E+020
 20
1.0000000000000000E+020
 30
1.0000000000000000E+020
  9
$PEXTMAX
 10
-1.0000000000000000E+020
 20
-1.0000000000000000E+020
 30
-1.0000000000000000E+020
  9
$PLIMMIN
 10
0.0
 20
0.0
  9
$PLIMMAX
 10
12.0
 20
9.0
  9
$UNITMODE
 70
     0
  9
$VISRETAIN
 70
     0
  9
$PLINEGEN
 70
     0
  9
$PSLTSCALE
 70
     0
  0
ENDSEC
  0
SECTION
  2
TABLES
  0
TABLE
  2
VPORT
 70
     1
  0
VPORT
  2
*ACTIVE
 70
     0
 10
0.0
 20
0.0
 11
1.0
 21
1.0
 12
142.29280787101499
 22
121.14733655966219
 13
0.0
 23
0.0
 14
10.0
 24
10.0
 15
10.0
 25
10.0
 16
0.0
 26
0.0
 36
1.0
 17
0.0
 27
0.0
 37
0.0
 40
250.3552533894572
 41
1.368715083798882
 42
50.0
 43
0.0
 44
0.0
 50
0.0
 51
0.0
 71
     0
 72
   500
 73
     1
 74
     0
 75
     0
 76
     0
 77
     0
 78
     2
  0
ENDTAB
  0
TABLE
  2
LTYPE
 70
     4
  0
LTYPE
  2
CONTINUOUS
 70
     0
  3
Solid Line
 72
    65
 73
     0
 40
0.0
  0
LTYPE
  2
CENTER
 70
     0
  3
____ _ ____ _ ____ _ ____ _ ____ _ ____ _ ____
 72
    65
 73
     4
 40
2.0
 49
1.25
 49
-0.25
 49
0.25
 49
-0.25
  0
LTYPE
  2
HIDDEN
 70
     0
  3
_ _ _ _ _ _ _ _ _ _ _ _ _ _ _ _ _ _ _ _ _ _ _
 72
    65
 73
     2
 40
0.375
 49
0.25
 49
-0.125
  0
LTYPE
  2
PHANTOM2
 70
     0
  3
___ _ _ ___ _ _ ___ _ _ ___ _ _
 72
    65
 73
     6
 40
1.25
 49
0.625
 49
-0.125
 49
0.125
 49
-0.125
 49
0.125
 49
-0.125
  0
ENDTAB
  0
TABLE
  2
LAYER
 70
     4
  0
LAYER
  2
0
 70
     0
 62
     7
  6
CONTINUOUS
  0
LAYER
  2
1
 70
     0
 62
     1
  6
CENTER
  0
LAYER
  2
2
 70
     0
 62
     2
  6
HIDDEN
  0
LAYER
  2
3
 70
     0
 62
     3
  6
CONTINUOUS
  0
ENDTAB
  0
TABLE
  2
STYLE
 70
     2
  0
STYLE
  2
STANDARD
 70
     0
 40
0.0
 41
1.0
 50
0.0
 71
     0
 42
4.000000000000048
  3
SIMPLEX
  4
BIGFONT
  0
STYLE
  2
STANDARD1
 70
     0
 40
0.0
 41
1.0
 50
0.0
 71
     0
 42
3.0
  3
txt
  4

  0
ENDTAB
  0
TABLE
  2
VIEW
 70
     1
  0
VIEW
  2
ALL
 70
     0
 40
179.5384664489153
 10
146.94997169852391
 20
89.769233224457665
 41
0.0
 11
0.0
 21
0.0
 31
1.0
 12
0.0
 22
0.0
 32
0.0
 42
50.0
 43
0.0
 44
0.0
 50
0.0
 71
     0
  0
ENDTAB
  0
TABLE
  2
UCS
 70
     0
  0
ENDTAB
  0
TABLE
  2
APPID
 70
     4
  0
APPID
  2
ACAD
 70
     0
  0
APPID
  2
ACAD_MLEADERVER
 70
     0
  0
APPID
  2
ACAD_EXEMPT_FROM_CAD_STANDARDS
 70
     0
  0
APPID
  2
ACAD_NAV_VCDISPLAY
 70
     0
  0
ENDTAB
  0
TABLE
  2
DIMSTYLE
 70
     2
  0
DIMSTYLE
  2
STANDARD
 70
     0
  3

  4

  5

  6

  7

 40
1.0
 41
0.18
 42
0.0625
 43
0.38
 44
0.18
 45
0.0
 46
0.0
 47
0.0
 48
0.0
140
0.18
141
0.09
142
0.0
143
25.399999999999999
144
1.0
145
0.0
146
1.0
147
0.09
 71
     0
 72
     0
 73
     1
 74
     1
 75
     0
 76
     0
 77
     0
 78
     0
170
     0
171
     2
172
     0
173
     0
174
     0
175
     0
176
     0
177
     0
178
     0
  0
DIMSTYLE
  2
ISO-25
 70
     0
  3

  4

  5

  6

  7

 40
1.0
 41
2.5
 42
0.625
 43
3.75
 44
1.25
 45
0.0
 46
0.0
 47
0.0
 48
0.0
140
2.5
141
2.5
142
0.0
143
0.0393700787
144
1.0
145
0.0
146
1.0
147
0.625
 71
     0
 72
     0
 73
     0
 74
     0
 75
     0
 76
     0
 77
     1
 78
     8
170
     0
171
     3
172
     1
173
     0
174
     0
175
     0
176
     0
177
     0
178
     0
  0
ENDTAB
  0
ENDSEC
  0
SECTION
  2
BLOCKS
  0
BLOCK
  8
0
  2
$MODEL_SPACE
 70
     0
 10
0.0
 20
0.0
 30
0.0
  3
$MODEL_SPACE
  1

  0
ENDBLK
  5
644
  8
0
  0
BLOCK
 67
     1
  8
0
  2
$PAPER_SPACE
 70
     0
 10
0.0
 20
0.0
 30
0.0
  3
$PAPER_SPACE
  1

  0
ENDBLK
  5
642
 67
     1
  8
0
  0
ENDSEC
  0
SECTION
  2
ENTITIES
  0
LINE
  5
1096
  8
1
 10
129.50134017361211
 20
232.7751312169249
 30
0.0
 11
229.50134017361199
 21
232.7751312169249
 31
0.0
  0
LINE
  5
1098
  8
1
 10
129.50134017361211
 20
52.775131216924919
 30
0.0
 11
229.50134017361191
 21
52.775131216924947
 31
0.0
  0
LINE
  5
1099
  8
1
 10
154.50134017361211
 20
155.9833812169249
 30
0.0
 11
134.50134017361219
 21
155.9833812169249
 31
0.0
  0
LINE
  5
109C
  8
0
 10
137.00134017361211
 20
42.775131216924933
 30
0.0
 11
152.00134017361211
 21
42.775131216924933
 31
0.0
  0
LINE
  5
109E
  8
0
 10
137.00134017361211
 20
62.775131216924933
 30
0.0
 11
152.00134017361211
 21
62.775131216924933
 31
0.0
  0
CIRCLE
  5
109F
  8
0
 10
144.50134017361211
 20
52.775131216924919
 30
0.0
 40
10.000000000000011
  0
LINE
  5
10A1
  8
0
 10
144.50134017361171
 20
228.2751312169249
 30
0.0
 11
132.2930901736118
 21
228.2751312169249
 31
0.0
  0
LINE
  5
10A2
  8
0
 10
144.50134017361171
 20
237.2751312169249
 30
0.0
 11
132.2930901736118
 21
237.27513121692499
 31
0.0
  0
LINE
  5
10A3
  8
0
 10
132.2691696269018
 20
241.7751312169249
 30
0.0
 11
184.50134017361179
 21
241.7751312169249
 31
0.0
  0
LINE
  5
10A4
  8
0
 10
132.2691696269018
 20
223.7751312169249
 30
0.0
 11
184.50134017361179
 21
223.7751312169249
 31
0.0
  0
LINE
  5
10A5
  8
0
 10
146.50134017361179
 20
222.2751312169249
 30
0.0
 11
142.50134017361179
 21
222.2751312169249
 31
0.0
  0
LINE
  5
10A7
  8
0
 10
152.00134017361179
 20
222.77513121692499
 30
0.0
 11
137.00134017361179
 21
222.77513121692499
 31
0.0
  0
LINE
  5
10A8
  8
0
 10
152.00134017361179
 20
242.77513121692499
 30
0.0
 11
137.00134017361179
 21
242.77513121692499
 31
0.0
  0
POLYLINE
  5
10A9
  8
0
 66
     1
 10
0.0
 20
0.0
 30
0.0
 70
   128
  0
VERTEX
  5
1E86
  8
0
 10
158.1272841266055
 20
151.40350420771949
 30
0.0
  0
VERTEX
  5
1E87
  8
0
 10
157.1603677683384
 20
149.42574480735249
 30
0.0
  0
VERTEX
  5
1E88
  8
0
 10
155.9113313924156
 20
147.63491451555851
 30
0.0
  0
VERTEX
  5
1E89
  8
0
 10
154.41541918758591
 20
146.06930220295141
 30
0.0
  0
VERTEX
  5
1E8A
  8
0
 10
152.67113830226009
 20
144.73895844158099
 30
0.0
  0
VERTEX
  5
1E8B
  8
0
 10
150.75674179730811
 20
143.70656209902961
 30
0.0
  0
VERTEX
  5
1E8C
  8
0
 10
148.72194151301071
 20
142.9940610165898
 30
0.0
  0
VERTEX
  5
1E8D
  8
0
 10
146.6190715386376
 20
142.61351428162621
 30
0.0
  0
VERTEX
  5
1E8E
  8
0
 10
144.50134017361231
 20
142.56688121692491
 30
0.0
  0
VERTEX
  5
1E8F
  8
0
 10
142.42175176337631
 20
142.85210740057181
 30
0.0
  0
VERTEX
  5
1E90
  8
0
 10
140.43023658879281
 20
143.45366436348411
 30
0.0
  0
VERTEX
  5
1E91
  8
0
 10
138.5751784267448
 20
144.3523954052321
 30
0.0
  0
VERTEX
  5
1E92
  8
0
 10
136.89995524348359
 20
145.520714381701
 30
0.0
  0
VERTEX
  5
1E93
  8
0
 10
135.44162292800721
 20
146.9236639713198
 30
0.0
  0
VERTEX
  5
1E94
  8
0
 10
134.23435529272541
 20
148.52373595716099
 30
0.0
  0
VERTEX
  5
1E95
  8
0
 10
133.30105388119941
 20
150.27649723726739
 30
0.0
  0
VERTEX
  5
1E96
  8
0
 10
132.6611041800457
 20
152.13614299289489
 30
0.0
  0
VERTEX
  5
1E97
  8
0
 10
132.3247801109398
 20
154.05464890599171
 30
0.0
  0
VERTEX
  5
1E98
  8
0
 10
132.29309017361209
 20
155.98338121692481
 30
0.0
  0
VERTEX
  5
1E99
  8
0
 10
132.5633732298854
 20
157.87397057306839
 30
0.0
  0
VERTEX
  5
1E9A
  8
0
 10
133.12070752694001
 20
159.6811216863756
 30
0.0
  0
VERTEX
  5
1E9B
  8
0
 10
133.94688718740201
 20
161.36102531975379
 30
0.0
  0
VERTEX
  5
1E9C
  8
0
 10
135.01611123284539
 20
162.87461327816931
 30
0.0
  0
VERTEX
  5
1E9D
  8
0
 10
136.29598469637571
 20
164.18873669416121
 30
0.0
  0
VERTEX
  5
1E9E
  8
0
 10
137.75184778273231
 20
165.2729282033545
 30
0.0
  0
VERTEX
  5
1E9F
  8
0
 10
139.34297383799299
 20
166.10713468385501
 30
0.0
  0
VERTEX
  5
1EA0
  8
0
 10
141.0274650649508
 20
166.67453300372259
 30
0.0
  0
VERTEX
  5
1EA1
  8
0
 10
142.76160691677131
 20
166.96663440697091
 30
0.0
  0
VERTEX
  5
1EA2
  8
0
 10
144.50134017361199
 20
166.9833812169249
 30
0.0
  0
SEQEND
  5
1EA3
  8
0
  0
CIRCLE
  5
10AA
  8
0
 10
144.50134017361211
 20
155.9833812169249
 30
0.0
 40
7.4999999999999707
  0
LINE
  5
10AB
  8
0
 10
134.50134017361211
 20
139.56688121692491
 30
0.0
 11
154.50134017361211
 21
139.56688121692491
 31
0.0
  0
LINE
  5
10AC
  8
0
 10
134.50134017361211
 20
142.56688121692491
 30
0.0
 11
154.50134017361211
 21
142.56688121692491
 31
0.0
  0
LINE
  5
10AD
  8
0
 10
132.26916962690211
 20
48.27513121692494
 30
0.0
 11
132.26916962690211
 21
43.775131216924933
 31
0.0
  0
LINE
  5
10AE
  8
0
 10
140.2504967338478
 20
43.775131216924933
 30
0.0
 11
132.30559879996909
 21
43.775131216924933
 31
0.0
  0
LINE
  5
10AF
  8
0
 10
137.00134017361211
 20
43.775131216924933
 30
0.0
 11
137.00134017361211
 21
42.775131216924933
 31
0.0
  0
LINE
  5
10B1
  8
0
 10
140.22596817405349
 20
61.775131216924933
 30
0.0
 11
132.30559879996909
 21
61.775131216924933
 31
0.0
  0
LINE
  5
10B2
  8
0
 10
132.30559879996909
 20
57.275131216924933
 30
0.0
 11
135.6284727380164
 21
57.275131216924933
 31
0.0
  0
LINE
  5
10B3
  8
0
 10
135.58904201924869
 20
48.27513121692494
 30
0.0
 11
132.30559879996909
 21
48.27513121692494
 31
0.0
  0
LINE
  5
10B4
  8
0
 10
132.26916962690211
 20
61.775131216924933
 30
0.0
 11
132.26916962690211
 21
57.275131216924933
 31
0.0
  0
LINE
  5
10B5
  8
0
 10
137.00134017361211
 20
62.775131216924933
 30
0.0
 11
137.00134017361211
 21
61.775131216924933
 31
0.0
  0
LINE
  5
10B6
  8
1
 10
102.0068201293093
 20
155.97718474312029
 30
0.0
 11
77.006823198406479
 21
155.98957243238411
 31
0.0
  0
LINE
  5
10B7
  8
0
 10
100.00648134334151
 20
155.2939653159419
 30
0.0
 11
101.4825988699307
 21
155.29323388844259
 31
0.0
  0
POLYLINE
  5
10B8
  8
0
 66
     1
 10
0.0
 20
0.0
 30
0.0
 70
   128
  0
VERTEX
  5
1EA4
  8
0
 10
101.4825988699307
 20
155.29323388844259
 30
0.0
  0
VERTEX
  5
1EA5
  8
0
 10
101.4439587737231
 20
154.99855335601089
 30
0.0
  0
VERTEX
  5
1EA6
  8
0
 10
101.2984489636154
 20
154.51071790296839
 30
0.0
  0
VERTEX
  5
1EA7
  8
0
 10
101.18631239307309
 20
154.3226010052984
 30
0.0
  0
VERTEX
  5
1EA8
  8
0
 10
101.0524168722723
 20
154.1804288306796
 30
0.0
  0
VERTEX
  5
1EA9
  8
0
 10
100.7010750949442
 20
154.0086753059197
 30
0.0
  0
VERTEX
  5
1EAA
  8
0
 10
100.48280830970511
 20
153.9794741411485
 30
0.0
  0
VERTEX
  5
1EAB
  8
0
 10
100.4115526238118
 20
153.9815657601084
 30
0.0
  0
SEQEND
  5
1EAC
  8
0
  0
POLYLINE
  5
10B9
  8
0
 66
     1
 10
0.0
 20
0.0
 30
0.0
 70
   128
  0
VERTEX
  5
1EAD
  8
0
 10
101.32311230918241
 20
170.95195145100939
 30
0.0
  0
VERTEX
  5
1EAE
  8
0
 10
101.4692238360565
 20
170.9333223847739
 30
0.0
  0
VERTEX
  5
1EAF
  8
0
 10
101.5113999539378
 20
170.83197511070441
 30
0.0
  0
VERTEX
  5
1EB0
  8
0
 10
101.51269250763789
 20
170.7472944140323
 30
0.0
  0
SEQEND
  5
1EB1
  8
0
  0
POLYLINE
  5
10BA
  8
0
 66
     1
 10
0.0
 20
0.0
 30
0.0
 70
   128
  0
VERTEX
  5
1EB2
  8
0
 10
101.4825988699307
 20
155.29323388844259
 30
0.0
  0
VERTEX
  5
1EB3
  8
0
 10
101.47761589498231
 20
156.28606799746319
 30
0.0
  0
VERTEX
  5
1EB4
  8
0
 10
101.235014748864
 20
157.14380396211101
 30
0.0
  0
SEQEND
  5
1EB5
  8
0
  0
POLYLINE
  5
10BB
  8
0
 66
     1
 10
0.0
 20
0.0
 30
0.0
 70
   128
  0
VERTEX
  5
1EB6
  8
0
 10
101.2415154489116
 20
170.2630772808362
 30
0.0
  0
VERTEX
  5
1EB7
  8
0
 10
101.4349216958276
 20
170.4985576200053
 30
0.0
  0
VERTEX
  5
1EB8
  8
0
 10
101.51269250763789
 20
170.7472944140323
 30
0.0
  0
SEQEND
  5
1EB9
  8
0
  0
LINE
  5
10BC
  8
0
 10
101.51415635048291
 20
170.78277418473351
 30
0.0
 11
101.5067144416729
 21
155.76401697777339
 31
0.0
  0
LINE
  5
10BD
  8
1
 10
89.506470721250935
 20
175.9833812169249
 30
0.0
 11
89.496209625973151
 21
109.5668812169249
 31
0.0
  0
LINE
  5
10BE
  8
0
 10
80.512269719225515
 20
166.980505367468
 30
0.0
 11
80.500174791412547
 21
142.57133980294881
 31
0.0
  0
LINE
  5
10BF
  8
0
 10
85.012269166788016
 20
166.9782755834004
 30
0.0
 11
85.000174238975063
 21
142.5691100188813
 31
0.0
  0
LINE
  5
10C0
  8
0
 10
98.512267509475606
 20
166.97158623119799
 30
0.0
 11
98.500172581662639
 21
142.5624206666788
 31
0.0
  0
LINE
  5
10C1
  8
0
 10
94.012268061913062
 20
166.9738160152655
 30
0.0
 11
94.000173134100095
 21
142.56465045074631
 31
0.0
  0
LINE
  5
10C2
  8
0
 10
77.506717388006166
 20
155.77590915946661
 30
0.0
 11
77.514158203299885
 21
170.79245950585781
 31
0.0
  0
LINE
  5
10C3
  8
0
 10
77.530366394793887
 20
155.30510240242279
 30
0.0
 11
79.506483860001126
 21
155.3041232211383
 31
0.0
  0
POLYLINE
  5
10C4
  8
0
 66
     1
 10
0.0
 20
0.0
 30
0.0
 70
   128
  0
VERTEX
  5
1EBA
  8
0
 10
77.779784337020629
 20
157.155426207776
 30
0.0
  0
VERTEX
  5
1EBB
  8
0
 10
78.119573230956121
 20
157.80123857604161
 30
0.0
  0
VERTEX
  5
1EBC
  8
0
 10
78.447761047178773
 20
158.3140866320683
 30
0.0
  0
VERTEX
  5
1EBD
  8
0
 10
78.764482670599961
 20
158.69138998387299
 30
0.0
  0
VERTEX
  5
1EBE
  8
0
 10
79.060941188897615
 20
158.91809633876849
 30
0.0
  0
VERTEX
  5
1EBF
  8
0
 10
79.317463005811746
 20
158.9884278610179
 30
0.0
  0
SEQEND
  5
1EC0
  8
0
  0
LINE
  5
10C5
  8
0
 10
79.505831876355657
 20
153.98833390898551
 30
0.0
 11
78.602002934867102
 21
153.98878176312351
 31
0.0
  0
LINE
  5
10C6
  8
0
 10
99.498685936187087
 20
139.56192552740001
 30
0.0
 11
79.498688391464754
 21
139.571835678811
 31
0.0
  0
LINE
  5
10C7
  8
0
 10
99.500172458898746
 20
142.56192515910831
 30
0.0
 11
79.500174914176426
 21
142.57183531051939
 31
0.0
  0
LINE
  5
10C8
  8
0
 10
99.500172458898746
 20
142.56192515910831
 30
0.0
 11
99.498685936187087
 21
139.56192552740001
 31
0.0
  0
LINE
  5
10CB
  8
0
 10
79.498688391464754
 20
139.571835678811
 30
0.0
 11
79.500174914176426
 21
142.57183531051939
 31
0.0
  0
LINE
  5
10D0
  8
0
 10
100.0078113899782
 20
157.9781755127336
 30
0.0
 11
100.00582935969599
 21
153.97817600378909
 31
0.0
  0
LINE
  5
10D1
  8
0
 10
99.510536742998241
 20
163.4784225913175
 30
0.0
 11
99.503104129439933
 21
148.4784244327758
 31
0.0
  0
LINE
  5
10D2
  8
0
 10
99.503104129439933
 20
148.4784244327758
 30
0.0
 11
98.503104252203826
 21
148.47891994034629
 31
0.0
  0
LINE
  5
10D3
  8
0
 10
100.4115508445458
 20
153.9779749656972
 30
0.0
 11
100.00582935969599
 21
153.97817600378909
 31
0.0
  0
LINE
  5
10D4
  8
0
 10
100.00582935969599
 20
153.97817600378909
 30
0.0
 11
99.505829421077976
 21
153.9784237575744
 31
0.0
  0
LINE
  5
10D6
  8
0
 10
99.699153367327455
 20
158.9783285779032
 30
0.0
 11
99.50830695893076
 21
158.97842314375501
 31
0.0
  0
POLYLINE
  5
10D7
  8
0
 66
     1
 10
0.0
 20
0.0
 30
0.0
 70
   128
  0
VERTEX
  5
1EC1
  8
0
 10
101.2350147488639
 20
157.14380396211101
 30
0.0
  0
VERTEX
  5
1EC2
  8
0
 10
100.89586603154039
 20
157.78995274914431
 30
0.0
  0
VERTEX
  5
1EC3
  8
0
 10
100.5681866166023
 20
158.30312579238921
 30
0.0
  0
VERTEX
  5
1EC4
  8
0
 10
100.2518390619976
 20
158.68074283480269
 30
0.0
  0
VERTEX
  5
1EC5
  8
0
 10
99.955605358680245
 20
158.9077428732171
 30
0.0
  0
VERTEX
  5
1EC6
  8
0
 10
99.699153367327455
 20
158.9783285779032
 30
0.0
  0
SEQEND
  5
1EC7
  8
0
  0
LINE
  5
10D8
  8
0
 10
99.507811451360183
 20
157.97842326651889
 30
0.0
 11
100.0078113899782
 21
157.9781755127336
 31
0.0
  0
LINE
  5
10D9
  8
0
 10
98.510536865762134
 20
163.4789180988881
 30
0.0
 11
99.510536742998241
 21
163.4784225913175
 31
0.0
  0
LINE
  5
10DD
  8
0
 10
79.510539198275922
 20
163.4883327427286
 30
0.0
 11
79.503106584717614
 21
148.48833458418679
 31
0.0
  0
LINE
  5
10DF
  8
0
 10
80.503106461953735
 20
148.4878390766163
 30
0.0
 11
79.503106584717614
 21
148.48833458418679
 31
0.0
  0
LINE
  5
10E1
  8
0
 10
79.317463005811746
 20
158.9884278610179
 30
0.0
 11
79.508309414208426
 21
158.98833329516609
 31
0.0
  0
LINE
  5
10E2
  8
0
 10
79.510539198275922
 20
163.4883327427286
 30
0.0
 11
80.510539075512057
 21
163.487837235158
 31
0.0
  0
POLYLINE
  5
10E3
  8
0
 66
     1
 10
0.0
 20
0.0
 30
0.0
 70
   128
  0
VERTEX
  5
1EC8
  8
0
 10
77.530366394793887
 20
155.30510240242279
 30
0.0
  0
VERTEX
  5
1EC9
  8
0
 10
77.536333280809245
 20
156.29793108570371
 30
0.0
  0
VERTEX
  5
1ECA
  8
0
 10
77.779784337020629
 20
157.155426207776
 30
0.0
  0
SEQEND
  5
1ECB
  8
0
  0
POLYLINE
  5
10E4
  8
0
 66
     1
 10
0.0
 20
0.0
 30
0.0
 70
   128
  0
VERTEX
  5
1ECC
  8
0
 10
78.602005843885038
 20
153.99465254642621
 30
0.0
  0
VERTEX
  5
1ECD
  8
0
 10
78.456205244985824
 20
153.99566885588811
 30
0.0
  0
VERTEX
  5
1ECE
  8
0
 10
78.225419574522036
 20
154.04402806879841
 30
0.0
  0
VERTEX
  5
1ECF
  8
0
 10
77.856384432285822
 20
154.29540206269129
 30
0.0
  0
VERTEX
  5
1ED0
  8
0
 10
77.721630970081009
 20
154.5059982777193
 30
0.0
  0
VERTEX
  5
1ED1
  8
0
 10
77.599968630046249
 20
154.85776109717929
 30
0.0
  0
VERTEX
  5
1ED2
  8
0
 10
77.530366394793887
 20
155.30510240242279
 30
0.0
  0
SEQEND
  5
1ED3
  8
0
  0
ARC
  5
10E5
  8
0
 10
72.385237878318364
 20
162.77750557163239
 30
0.0
 40
9.240088073604074
 50
28.411764783039612
 51
54.230676574147672
  0
LINE
  5
10E6
  8
0
 10
77.684861385546455
 20
170.98923830074651
 30
0.0
 11
101.3231249812498
 21
170.97752536074211
 31
0.0
  0
LINE
  5
10E7
  8
0
 10
94.012271694696537
 20
166.98114745328201
 30
0.0
 11
85.012272799571505
 21
166.985607021417
 31
0.0
  0
LINE
  5
10E8
  8
0
 10
94.012284842943188
 20
167.00768235572221
 30
0.0
 11
98.512284290505733
 21
167.0054525716547
 31
0.0
  0
ARC
  5
10E9
  8
0
 10
106.6351301236293
 20
162.76053448865551
 30
0.0
 40
9.2400880735972049
 50
125.7125424385015
 51
151.53145422962811
  0
LINE
  5
10EA
  8
0
 10
98.512271142259095
 20
166.9789176692145
 30
0.0
 11
98.512363379626095
 21
167.1650648870461
 31
0.0
  0
LINE
  5
10EB
  8
0
 10
80.512286500255641
 20
167.01437170792471
 30
0.0
 11
85.012285947818157
 21
167.0121419238572
 31
0.0
  0
LINE
  5
10EC
  8
0
 10
80.512273352009004
 20
166.98783680548451
 30
0.0
 11
80.512365589376003
 21
167.17398402331611
 31
0.0
  0
POLYLINE
  5
10ED
  8
0
 66
     1
 10
0.0
 20
0.0
 30
0.0
 70
   128
  0
VERTEX
  5
1ED4
  8
0
 10
77.515587977956628
 20
170.7591851624579
 30
0.0
  0
VERTEX
  5
1ED5
  8
0
 10
77.52442235210647
 20
170.8809228343429
 30
0.0
  0
VERTEX
  5
1ED6
  8
0
 10
77.664757668082999
 20
170.9887189569383
 30
0.0
  0
VERTEX
  5
1ED7
  8
0
 10
77.684859888374177
 20
170.98621680888971
 30
0.0
  0
SEQEND
  5
1ED8
  8
0
  0
POLYLINE
  5
10EE
  8
0
 66
     1
 10
0.0
 20
0.0
 30
0.0
 70
   128
  0
VERTEX
  5
1ED9
  8
0
 10
77.786285037068282
 20
170.27469952650111
 30
0.0
  0
VERTEX
  5
1EDA
  8
0
 10
77.59311224967837
 20
170.510371418532
 30
0.0
  0
VERTEX
  5
1EDB
  8
0
 10
77.515587977956628
 20
170.7591851624579
 30
0.0
  0
SEQEND
  5
1EDC
  8
0
  0
LINE
  5
10EF
  8
0
 10
134.50134017361211
 20
142.56688121692491
 30
0.0
 11
134.50134017361211
 21
139.56688121692491
 31
0.0
  0
LINE
  5
10F3
  8
0
 10
132.2691696269018
 20
241.7751312169249
 30
0.0
 11
132.2691696269018
 21
237.27513121692499
 31
0.0
  0
LINE
  5
10F4
  8
0
 10
132.2691696269018
 20
228.2751312169249
 30
0.0
 11
132.2691696269018
 21
223.7751312169249
 31
0.0
  0
ARC
  5
10F5
  8
0
 10
144.50134017361179
 20
232.77513121692499
 30
0.0
 40
10.0
 50
153.20469071761659
 51
206.89123838147179
  0
LINE
  5
10F6
  8
0
 10
137.00134017361179
 20
237.2751312169249
 30
0.0
 11
137.00134017361179
 21
228.2751312169249
 31
0.0
  0
LINE
  5
10F7
  8
0
 10
137.00134017361179
 20
223.7751312169249
 30
0.0
 11
137.00134017361179
 21
222.77513121692499
 31
0.0
  0
LINE
  5
10F8
  8
0
 10
137.00134017361179
 20
242.77513121692499
 30
0.0
 11
137.00134017361179
 21
241.7751312169249
 31
0.0
  0
LINE
  5
10F9
  8
0
 10
142.50134017361179
 20
222.2751312169249
 30
0.0
 11
142.50134017361179
 21
222.7751312169249
 31
0.0
  0
ARC
  5
10FA
  8
0
 10
184.50134017361211
 20
-76.391535449741284
 30
0.0
 40
120.1666666666662
 50
81.927039833329061
 51
90.0
  0
ARC
  5
10FB
  8
0
 10
184.50134017361211
 20
181.94179788359111
 30
0.0
 40
120.1666666666662
 50
270.0000000000008
 51
278.07296016667169
  0
LINE
  5
10FC
  8
1
 10
144.50134017361211
 20
65.275131216924933
 30
0.0
 11
144.50134017361211
 21
40.275131216924898
 31
0.0
  0
LINE
  5
10FD
  8
0
 10
184.50134017361211
 20
43.775131216924919
 30
0.0
 11
148.86023911715279
 21
43.775131216924919
 31
0.0
  0
LINE
  5
10FE
  8
0
 10
184.50134017361211
 20
61.775131216924912
 30
0.0
 11
148.86023911715279
 21
61.775131216924912
 31
0.0
  0
LINE
  5
10FF
  8
0
 10
158.12728412660539
 20
57.275131216924933
 30
0.0
 11
169.2835609583378
 21
57.275131216924933
 31
0.0
  0
LINE
  5
1100
  8
0
 10
169.2835609583378
 20
48.27513121692494
 30
0.0
 11
158.12728412660539
 21
48.275131216924919
 31
0.0
  0
LINE
  5
1101
  8
0
 10
158.12728412660539
 20
43.775131216924933
 30
0.0
 11
158.12728412660539
 21
48.275131216924919
 31
0.0
  0
LINE
  5
1103
  8
0
 10
152.00134017361211
 20
42.775131216924933
 30
0.0
 11
152.00134017361211
 21
43.775131216924933
 31
0.0
  0
LINE
  5
1104
  8
0
 10
153.37519908299649
 20
57.275131216924933
 30
0.0
 11
158.12728412660539
 21
57.275131216924933
 31
0.0
  0
LINE
  5
1105
  8
0
 10
158.12728412660539
 20
48.275131216924919
 30
0.0
 11
153.4224318009029
 21
48.275131216924919
 31
0.0
  0
LINE
  5
1106
  8
0
 10
152.00134017361211
 20
61.775131216924933
 30
0.0
 11
152.00134017361211
 21
62.775131216924933
 31
0.0
  0
LINE
  5
1107
  8
0
 10
156.50134017361211
 20
57.275131216924933
 30
0.0
 11
156.50134017361211
 21
48.275131216924919
 31
0.0
  0
LINE
  5
1108
  8
0
 10
158.12728412660539
 20
57.275131216924933
 30
0.0
 11
158.12728412660539
 21
61.775131216924933
 31
0.0
  0
ARC
  5
1109
  8
0
 10
184.5013401736191
 20
181.9417978835547
 30
0.0
 40
120.1666666666291
 50
278.07296016667101
 51
282.23100713257207
  0
ARC
  5
110A
  8
0
 10
212.50134017361191
 20
52.775131216924947
 30
0.0
 40
12.000000000000041
 50
273.61540591915889
 51
86.384594080841865
  0
ARC
  5
110B
  8
0
 10
212.50134017361441
 20
52.775131216953149
 30
0.0
 40
12.00000000002807
 50
257.76899286744788
 51
273.61540591913848
  0
ARC
  5
110C
  8
0
 10
184.5013401736052
 20
-76.391535449783561
 30
0.0
 40
120.16666666670901
 50
77.768992867430384
 51
81.927039833328635
  0
ARC
  5
110D
  8
0
 10
212.50134017361319
 20
52.775131216911049
 30
0.0
 40
12.000000000013779
 50
86.384594080852096
 51
102.2310071325621
  0
ARC
  5
110E
  8
0
 10
176.50134017361279
 20
338.98338121691978
 30
0.0
 40
171.9999999999948
 50
272.66588176484942
 51
281.2167917957745
  0
LINE
  5
110F
  8
0
 10
201.37682467701501
 20
158.9833812169249
 30
0.0
 11
169.28356095833789
 21
158.9833812169249
 31
0.0
  0
LINE
  5
1110
  8
1
 10
144.50134017361211
 20
109.5668812169249
 30
0.0
 11
144.50134017361211
 21
171.9833812169249
 31
0.0
  0
ARC
  5
1111
  8
0
 10
169.28356095833789
 20
146.9833812169251
 30
0.0
 40
12.00000000000003
 50
90.0
 51
158.3865020535537
  0
LINE
  5
1113
  8
0
 10
154.50134017361211
 20
139.56688121692491
 30
0.0
 11
154.50134017361211
 21
142.56688121692491
 31
0.0
  0
LINE
  5
1116
  8
0
 10
144.50134017361199
 20
166.9833812169249
 30
0.0
 11
176.50134017361211
 21
166.9833812169249
 31
0.0
  0
ARC
  5
1117
  8
0
 10
176.50134017361211
 20
338.9833812169249
 30
0.0
 40
171.99999999999989
 50
270.0000000000008
 51
272.66588176484942
  0
ARC
  5
1118
  8
0
 10
214.5000099342308
 20
160.48108778060461
 30
0.0
 40
10.501966338486531
 50
17.762493818072869
 51
102.0083082588627
  0
POLYLINE
  5
1119
  8
0
 66
     1
 10
0.0
 20
0.0
 30
0.0
 70
   128
  0
VERTEX
  5
1EDD
  8
0
 10
213.25804662187599
 20
155.29917069060909
 30
0.0
  0
VERTEX
  5
1EDE
  8
0
 10
211.6624650256563
 20
156.29200220864359
 30
0.0
  0
VERTEX
  5
1EDF
  8
0
 10
209.9590955330068
 20
157.14961785728789
 30
0.0
  0
SEQEND
  5
1EE0
  8
0
  0
ARC
  5
111A
  8
0
 10
201.3754489434715
 20
137.97694259013261
 30
0.0
 40
21.006438671841469
 50
65.881838294296287
 51
89.996247639732601
  0
ARC
  5
111B
  8
0
 10
217.50134017361179
 20
161.4833812169249
 30
0.0
 40
7.5000000000003162
 50
235.54404953870991
 51
338.96053021868511
  0
LINE
  5
111C
  8
0
 10
224.50134017361219
 20
158.7907988133577
 30
0.0
 11
224.50134017361219
 21
163.68494333564129
 31
0.0
  0
POLYLINE
  5
111D
  8
0
 66
     1
 10
0.0
 20
0.0
 30
0.0
 70
   128
  0
VERTEX
  5
1EE1
  8
0
 10
209.9590955330068
 20
170.26889278658621
 30
0.0
  0
VERTEX
  5
1EE2
  8
0
 10
211.12584183049501
 20
170.5044689311064
 30
0.0
  0
VERTEX
  5
1EE3
  8
0
 10
212.31503880374919
 20
170.75324423062361
 30
0.0
  0
SEQEND
  5
1EE4
  8
0
  0
ARC
  5
111E
  8
0
 10
184.50134017361179
 20
361.9417978835906
 30
0.0
 40
120.16666666666571
 50
270.0000000000008
 51
282.23100713257162
  0
ARC
  5
111F
  8
0
 10
184.50134017361091
 20
103.608464550249
 30
0.0
 40
120.16666666667589
 50
77.76899286742956
 51
89.999999999999588
  0
LINE
  5
1120
  8
1
 10
144.50134017361211
 20
245.2751312169249
 30
0.0
 11
144.50134017361211
 21
220.2751312169249
 31
0.0
  0
LINE
  5
1122
  8
0
 10
144.50134017361171
 20
237.2751312169249
 30
0.0
 11
156.50134017361179
 21
237.2751312169249
 31
0.0
  0
LINE
  5
1123
  8
0
 10
156.50134017361179
 20
228.2751312169249
 30
0.0
 11
144.50134017361171
 21
228.2751312169249
 31
0.0
  0
ARC
  5
1124
  8
0
 10
144.50134017361179
 20
232.77513121692499
 30
0.0
 40
10.0
 50
333.25631604959682
 51
26.743683950402279
  0
LINE
  5
1125
  8
0
 10
152.00134017361179
 20
228.2751312169249
 30
0.0
 11
152.00134017361179
 21
237.2751312169249
 31
0.0
  0
LINE
  5
1127
  8
0
 10
152.00134017361179
 20
222.77513121692499
 30
0.0
 11
152.00134017361179
 21
223.7751312169249
 31
0.0
  0
LINE
  5
1128
  8
0
 10
156.50134017361179
 20
237.2751312169249
 30
0.0
 11
156.50134017361179
 21
228.2751312169249
 31
0.0
  0
LINE
  5
1129
  8
0
 10
146.50134017361179
 20
222.7751312169249
 30
0.0
 11
146.50134017361179
 21
222.2751312169249
 31
0.0
  0
LINE
  5
112A
  8
0
 10
152.00134017361179
 20
241.7751312169249
 30
0.0
 11
152.00134017361179
 21
242.77513121692499
 31
0.0
  0
ARC
  5
112B
  8
0
 10
212.50134017361191
 20
232.7751312169249
 30
0.0
 40
12.00000000000005
 50
269.1104407450502
 51
90.889559254950626
  0
POLYLINE
  5
112C
  8
0
 66
     1
 10
0.0
 20
0.0
 30
0.0
 70
   128
  0
VERTEX
  5
1EE5
  8
0
 10
209.95909553300649
 20
221.04751457127551
 30
0.0
  0
VERTEX
  5
1EE6
  8
0
 10
211.12584183049469
 20
220.85422503039351
 30
0.0
  0
VERTEX
  5
1EE7
  8
0
 10
212.31503880374879
 20
220.77657747909521
 30
0.0
  0
SEQEND
  5
1EE8
  8
0
  0
POLYLINE
  5
112D
  8
0
 66
     1
 10
0.0
 20
0.0
 30
0.0
 70
   128
  0
VERTEX
  5
1EE9
  8
0
 10
209.95909553300649
 20
244.5027478625743
 30
0.0
  0
VERTEX
  5
1EEA
  8
0
 10
211.12584183049469
 20
244.6960374034563
 30
0.0
  0
VERTEX
  5
1EEB
  8
0
 10
212.31503880374879
 20
244.7736849547546
 30
0.0
  0
SEQEND
  5
1EEC
  8
0
  0
POLYLINE
  5
112E
  8
0
 66
     1
 10
0.0
 20
0.0
 30
0.0
 70
   128
  0
VERTEX
  5
1EED
  8
0
 10
257.52790029478939
 20
155.3022596821437
 30
0.0
  0
VERTEX
  5
1EEE
  8
0
 10
257.62622584975782
 20
154.7469483475584
 30
0.0
  0
VERTEX
  5
1EEF
  8
0
 10
257.82345532107479
 20
154.3314038243322
 30
0.0
  0
VERTEX
  5
1EF0
  8
0
 10
258.11785018131309
 20
154.08460623531101
 30
0.0
  0
VERTEX
  5
1EF1
  8
0
 10
258.526700660556
 20
153.9877469711854
 30
0.0
  0
VERTEX
  5
1EF2
  8
0
 10
259.02709206336618
 20
154.03458501566891
 30
0.0
  0
VERTEX
  5
1EF3
  8
0
 10
259.62596916347559
 20
154.2085917360387
 30
0.0
  0
VERTEX
  5
1EF4
  8
0
 10
260.61859756776221
 20
154.64077013095351
 30
0.0
  0
VERTEX
  5
1EF5
  8
0
 10
261.76219556113551
 20
155.2506167865258
 30
0.0
  0
VERTEX
  5
1EF6
  8
0
 10
262.59643813311339
 20
155.732727724504
 30
0.0
  0
VERTEX
  5
1EF7
  8
0
 10
263.4757956673825
 20
156.25515599604711
 30
0.0
  0
VERTEX
  5
1EF8
  8
0
 10
265.38852890667141
 20
157.3720450702634
 30
0.0
  0
VERTEX
  5
1EF9
  8
0
 10
266.47815928608838
 20
157.94430285683859
 30
0.0
  0
VERTEX
  5
1EFA
  8
0
 10
267.64523776884511
 20
158.4410891795965
 30
0.0
  0
VERTEX
  5
1EFB
  8
0
 10
268.5426787152681
 20
158.69266809670299
 30
0.0
  0
VERTEX
  5
1EFC
  8
0
 10
269.50491839835792
 20
158.79079800721911
 30
0.0
  0
VERTEX
  5
1EFD
  8
0
 10
270.42368154855211
 20
158.7007137677935
 30
0.0
  0
VERTEX
  5
1EFE
  8
0
 10
271.3424027117033
 20
158.4478807931055
 30
0.0
  0
VERTEX
  5
1EFF
  8
0
 10
272.83654360260761
 20
157.79022062288709
 30
0.0
  0
VERTEX
  5
1F00
  8
0
 10
274.25859828916032
 20
157.00636603811461
 30
0.0
  0
VERTEX
  5
1F01
  8
0
 10
275.80410787981759
 20
156.08995269909161
 30
0.0
  0
VERTEX
  5
1F02
  8
0
 10
277.27104735817687
 20
155.23238052914721
 30
0.0
  0
VERTEX
  5
1F03
  8
0
 10
278.33584249457499
 20
154.66260273346049
 30
0.0
  0
VERTEX
  5
1F04
  8
0
 10
279.31487325887508
 20
154.22801065226591
 30
0.0
  0
VERTEX
  5
1F05
  8
0
 10
279.98162850344357
 20
154.0289053006783
 30
0.0
  0
VERTEX
  5
1F06
  8
0
 10
280.55330967505751
 20
153.98734475878311
 30
0.0
  0
VERTEX
  5
1F07
  8
0
 10
280.9837009137155
 20
154.13312013884891
 30
0.0
  0
VERTEX
  5
1F08
  8
0
 10
281.28826827180632
 20
154.4971205381249
 30
0.0
  0
VERTEX
  5
1F09
  8
0
 10
281.41019562862618
 20
154.84879158583291
 30
0.0
  0
VERTEX
  5
1F0A
  8
0
 10
281.48013491329829
 20
155.29608031919051
 30
0.0
  0
SEQEND
  5
1F0B
  8
0
  0
POLYLINE
  5
112F
  8
0
 66
     1
 10
0.0
 20
0.0
 30
0.0
 70
   128
  0
VERTEX
  5
1F0C
  8
0
 10
281.49879498521631
 20
170.77703972315371
 30
0.0
  0
VERTEX
  5
1F0D
  8
0
 10
281.44922445877899
 20
170.94876135266011
 30
0.0
  0
VERTEX
  5
1F0E
  8
0
 10
281.22261677374939
 20
170.96310023217279
 30
0.0
  0
VERTEX
  5
1F0F
  8
0
 10
280.84682260754789
 20
170.8018732584656
 30
0.0
  0
VERTEX
  5
1F10
  8
0
 10
280.31728528344303
 20
170.47746009423139
 30
0.0
  0
VERTEX
  5
1F11
  8
0
 10
279.47094619391447
 20
169.87594073740431
 30
0.0
  0
VERTEX
  5
1F12
  8
0
 10
278.43800582389952
 20
169.08714295492811
 30
0.0
  0
VERTEX
  5
1F13
  8
0
 10
277.67836787000198
 20
168.49171903181301
 30
0.0
  0
VERTEX
  5
1F14
  8
0
 10
276.87060270639768
 20
167.8550835713788
 30
0.0
  0
VERTEX
  5
1F15
  8
0
 10
275.99652266183688
 20
167.17020987143911
 30
0.0
  0
VERTEX
  5
1F16
  8
0
 10
275.08088606528707
 20
166.4674970871406
 30
0.0
  0
VERTEX
  5
1F17
  8
0
 10
273.60821842753018
 20
165.39985984915219
 30
0.0
  0
VERTEX
  5
1F18
  8
0
 10
271.98517007293998
 20
164.40182573685269
 30
0.0
  0
VERTEX
  5
1F19
  8
0
 10
271.22255259521143
 20
164.0469434755164
 30
0.0
  0
VERTEX
  5
1F1A
  8
0
 10
270.40048771174799
 20
163.78712624607911
 30
0.0
  0
VERTEX
  5
1F1B
  8
0
 10
269.50618102352928
 20
163.68494236663241
 30
0.0
  0
VERTEX
  5
1F1C
  8
0
 10
268.65788159437187
 20
163.77746614141819
 30
0.0
  0
VERTEX
  5
1F1D
  8
0
 10
267.80962602517349
 20
164.03999838387881
 30
0.0
  0
VERTEX
  5
1F1E
  8
0
 10
266.52608383103802
 20
164.68278366715779
 30
0.0
  0
VERTEX
  5
1F1F
  8
0
 10
265.31522876253882
 20
165.46389258817561
 30
0.0
  0
VERTEX
  5
1F20
  8
0
 10
264.22709019846781
 20
166.2485660921879
 30
0.0
  0
VERTEX
  5
1F21
  8
0
 10
263.19295668713391
 20
167.03755138843209
 30
0.0
  0
VERTEX
  5
1F22
  8
0
 10
262.1809506752989
 20
167.82952597454809
 30
0.0
  0
VERTEX
  5
1F23
  8
0
 10
261.22827106340088
 20
168.58123750559221
 30
0.0
  0
VERTEX
  5
1F24
  8
0
 10
260.11325899547882
 20
169.45073394294661
 30
0.0
  0
VERTEX
  5
1F25
  8
0
 10
259.1211729526056
 20
170.1902923875175
 30
0.0
  0
VERTEX
  5
1F26
  8
0
 10
258.47510044841363
 20
170.62787946234491
 30
0.0
  0
VERTEX
  5
1F27
  8
0
 10
257.966411370694
 20
170.90744072509119
 30
0.0
  0
VERTEX
  5
1F28
  8
0
 10
257.64561640050232
 20
170.98475221191299
 30
0.0
  0
VERTEX
  5
1F29
  8
0
 10
257.51080757379401
 20
170.8410181947709
 30
0.0
  0
VERTEX
  5
1F2A
  8
0
 10
257.51001952160232
 20
170.79181884232531
 30
0.0
  0
SEQEND
  5
1F2B
  8
0
  0
LINE
  5
1131
  8
0
 10
279.50073250737142
 20
142.56430108169999
 30
0.0
 11
259.5007331729438
 21
142.5694608196919
 31
0.0
  0
LINE
  5
1132
  8
0
 10
279.49995854667259
 20
139.56430118153591
 30
0.0
 11
259.49995921224507
 21
139.5694609195277
 31
0.0
  0
LINE
  5
1133
  8
0
 10
280.39727521374391
 20
153.98057016534449
 30
0.0
 11
258.60216197983817
 21
153.9861930192211
 31
0.0
  0
LINE
  5
1134
  8
0
 10
257.6864858743487
 20
170.98642981740511
 30
0.0
 11
281.318957061182
 21
170.9803329492309
 31
0.0
  0
LINE
  5
1135
  8
1
 10
269.4986689449608
 20
109.5668812169249
 30
0.0
 11
269.5040114022633
 21
175.9833812169249
 31
0.0
  0
LINE
  5
1136
  8
0
 10
281.50801109052878
 20
170.7770373455192
 30
0.0
 11
281.50413866363778
 21
155.7668691231884
 31
0.0
  0
LINE
  5
1137
  8
0
 10
278.50367784808918
 20
153.9810586886741
 30
0.0
 11
278.50073686380051
 21
142.58131631673589
 31
0.0
  0
LINE
  5
1138
  8
0
 10
274.00073701355439
 20
142.58247725778409
 30
0.0
 11
274.00367799784311
 21
153.98221962972241
 31
0.0
  0
LINE
  5
1139
  8
0
 10
279.50073250737142
 20
142.56430108169999
 30
0.0
 11
279.49995854667259
 21
139.56430118153591
 31
0.0
  0
LINE
  5
113B
  8
0
 10
274.00301242337213
 20
151.4023427063718
 30
0.0
 11
278.50301227361831
 21
151.4011817653236
 31
0.0
  0
LINE
  5
113C
  8
0
 10
279.50225888686282
 20
148.480800884807
 30
0.0
 11
279.5036778148106
 21
153.9808007017746
 31
0.0
  0
LINE
  5
113D
  8
0
 10
279.50225888686282
 20
148.480800884807
 30
0.0
 11
278.50225892014129
 21
148.48105887170661
 31
0.0
  0
LINE
  5
113E
  8
0
 10
281.48013491329829
 20
155.29608031919051
 30
0.0
 11
281.47766019153852
 21
155.7668759542876
 31
0.0
  0
LINE
  5
1140
  8
0
 10
257.50413946232487
 20
155.77306080877869
 30
0.0
 11
257.50801410540811
 21
170.7918193596964
 31
0.0
  0
LINE
  5
1141
  8
0
 10
260.50367844710451
 20
153.98570245286689
 30
0.0
 11
260.50073746281578
 21
142.5859600809286
 31
0.0
  0
LINE
  5
1142
  8
0
 10
265.00367829735069
 20
153.98454151181869
 30
0.0
 11
265.00073731306202
 21
142.58479913988049
 31
0.0
  0
LINE
  5
1144
  8
0
 10
259.49995921224507
 20
139.5694609195277
 30
0.0
 11
259.5007331729438
 21
142.5694608196919
 31
0.0
  0
LINE
  5
1145
  8
0
 10
260.50301287263352
 20
151.40582552951631
 30
0.0
 11
265.00301272287982
 21
151.40466458846811
 31
0.0
  0
LINE
  5
1147
  8
0
 10
259.50225955243531
 20
148.4859606227989
 30
0.0
 11
259.5036784803832
 21
153.9859604397665
 31
0.0
  0
LINE
  5
1148
  8
0
 10
260.50225951915672
 20
148.48570263589929
 30
0.0
 11
259.50225955243531
 21
148.4859606227989
 31
0.0
  0
LINE
  5
1149
  8
0
 10
257.52790029478939
 20
155.3022596821437
 30
0.0
 11
257.53061793442407
 21
155.77305397767961
 31
0.0
  0
TEXT
  5
125F
  8
0
 62
     3
 10
0.0
 20
0.0
 30
0.0
 40
10.0
  1
QLCA-08X25-NP
  7
STANDARD1
  0
LINE
  5
12D1
  8
0
 10
142.50134017361211
 20
63.275131216924912
 30
0.0
 11
146.50134017361199
 21
63.275131216924912
 31
0.0
  0
LINE
  5
12D2
  8
0
 10
142.50134017361211
 20
62.775131216924898
 30
0.0
 11
142.50134017361211
 21
63.275131216924912
 31
0.0
  0
LINE
  5
12D3
  8
0
 10
146.50134017361199
 20
63.275131216924912
 30
0.0
 11
146.50134017361199
 21
62.775131216924898
 31
0.0
  0
LINE
  5
17EE
  8
0
 10
143.5013401261121
 20
156.56073231622489
 30
0.0
 11
143.5013401261121
 21
155.40603015942489
 31
0.0
  0
LINE
  5
17EF
  8
0
 10
144.50134017361211
 20
154.82868094372489
 30
0.0
 11
145.50134022111209
 21
155.40603015942489
 31
0.0
  0
LINE
  5
17F0
  8
0
 10
145.50134022111209
 20
155.40603015942489
 30
0.0
 11
145.50134022111209
 21
156.56073231622489
 31
0.0
  0
LINE
  5
17F1
  8
0
 10
145.50134022111209
 20
156.56073231622489
 30
0.0
 11
144.50134017361211
 21
157.13808153192491
 31
0.0
  0
CIRCLE
  5
17F2
  8
0
 10
144.50134017361211
 20
155.9833812169249
 30
0.0
 40
2.0
  0
LINE
  5
17F3
  8
0
 10
143.5013401261121
 20
155.40603015942489
 30
0.0
 11
144.50134017361211
 21
154.82868094372489
 31
0.0
  0
LINE
  5
17F4
  8
0
 10
144.50134017361211
 20
157.13808153192491
 30
0.0
 11
143.5013401261121
 21
156.56073231622489
 31
0.0
  0
LINE
  5
1950
  8
0
 10
85.498686973825968
 20
143.56688153810549
 30
0.0
 11
85.498686973825926
 21
142.56688062920551
 31
0.0
  0
LINE
  5
1951
  8
0
 10
85.498686973825926
 20
139.56688060310549
 30
0.0
 11
85.498686973825968
 21
115.81688313630551
 31
0.0
  0
LINE
  5
1952
  8
0
 10
93.498687353825943
 20
115.81688313630551
 30
0.0
 11
93.498687353825886
 21
139.56688060310549
 31
0.0
  0
LINE
  5
1953
  8
0
 10
93.498687353825943
 20
142.56688062920551
 30
0.0
 11
93.498687353825943
 21
143.56688153810549
 31
0.0
  0
LINE
  5
1954
  8
0
 10
85.498686973825968
 20
164.81688222730551
 30
0.0
 11
85.498686973825968
 21
162.80812922448101
 31
0.0
  0
LINE
  5
1955
  8
0
 10
85.498686973825968
 20
149.20277255000701
 30
0.0
 11
85.498686973825968
 21
148.5668809607055
 31
0.0
  0
LINE
  5
1956
  8
0
 10
93.498687353825943
 20
148.5668809607055
 30
0.0
 11
93.498687353825986
 21
149.20327826798999
 31
0.0
  0
LINE
  5
1957
  8
0
 10
93.498687353825943
 20
162.80702332414199
 30
0.0
 11
93.498687353825943
 21
164.81688222730551
 31
0.0
  0
LINE
  5
1958
  8
0
 10
85.498686973825968
 20
115.81688313630551
 30
0.0
 11
86.74868717872593
 21
114.5668806031055
 31
0.0
  0
LINE
  5
1959
  8
0
 10
92.248687148925924
 20
114.5668806031055
 30
0.0
 11
93.498687353825943
 21
115.81688313630551
 31
0.0
  0
LINE
  5
195A
  8
0
 10
86.248687096825918
 20
165.56688188460549
 30
0.0
 11
85.498686973825968
 21
164.81688222730551
 31
0.0
  0
LINE
  5
195B
  8
0
 10
93.498687353825943
 20
164.81688222730551
 30
0.0
 11
92.748687230925924
 21
165.56688188460549
 31
0.0
  0
LINE
  5
195C
  8
0
 10
85.79868716272594
 20
148.5668809607055
 30
0.0
 11
85.79868716272594
 21
146.0668814822055
 31
0.0
  0
LINE
  5
195D
  8
0
 10
93.198687164925914
 20
146.0668814822055
 30
0.0
 11
93.198687164925914
 21
148.5668809607055
 31
0.0
  0
LINE
  5
195E
  8
0
 10
85.948687140725923
 20
146.0668814822055
 30
0.0
 11
85.948687140725923
 21
143.56688153810549
 31
0.0
  0
LINE
  5
195F
  8
0
 10
93.048687186925946
 20
143.56688153810549
 30
0.0
 11
93.048687186925946
 21
146.0668814822055
 31
0.0
  0
LINE
  5
19E8
  8
0
 10
85.498686973825968
 20
143.56688153810549
 30
0.0
 11
93.498687353825943
 21
143.56688153810549
 31
0.0
  0
LINE
  5
19E9
  8
0
 10
85.498686973825968
 20
115.81688313630551
 30
0.0
 11
93.498687353825943
 21
115.81688313630551
 31
0.0
  0
LINE
  5
19EA
  8
0
 10
85.498686973825968
 20
148.5668809607055
 30
0.0
 11
93.498687353825943
 21
148.5668809607055
 31
0.0
  0
LINE
  5
19EB
  8
0
 10
93.498687353825943
 20
164.81688222730551
 30
0.0
 11
85.498686973825968
 21
164.81688222730551
 31
0.0
  0
LINE
  5
19F0
  8
0
 10
92.248687148925924
 20
114.5668806031055
 30
0.0
 11
86.74868717872593
 21
114.5668806031055
 31
0.0
  0
LINE
  5
19F1
  8
0
 10
86.248687096825918
 20
165.56688188460549
 30
0.0
 11
92.748687230925924
 21
165.56688188460549
 31
0.0
  0
LINE
  5
19F5
  8
0
 10
85.79868716272594
 20
146.0668814822055
 30
0.0
 11
93.198687164925914
 21
146.0668814822055
 31
0.0
  0
ARC
  5
19FC
  8
0
 10
89.500272659825924
 20
174.27693581390551
 30
0.0
 40
12.14686019463575
 50
248.2475830662006
 51
291.73631381359922
  0
ARC
  5
19FD
  8
0
 10
89.49941222432588
 20
137.73322510680549
 30
0.0
 40
12.147276282436231
 50
68.260099470301256
 51
111.7472643276988
  0
CIRCLE
  5
1AB5
  8
0
 10
144.50134017361211
 20
52.775131216924919
 30
0.0
 40
4.0
  0
CIRCLE
  5
1AB6
  8
0
 10
144.50134017361211
 20
52.775131216924919
 30
0.0
 40
2.75
  0
ARC
  5
1B6E
  8
0
 10
144.50134017361211
 20
232.7751312169249
 30
0.0
 40
3.2500000000000222
 50
101.53695903279809
 51
258.46304096720178
  0
LINE
  5
1B71
  8
0
 10
143.85134017191211
 20
236.7219654607249
 30
0.0
 11
143.85134017191211
 21
228.82829704283171
 31
0.0
  0
ARC
  5
1B73
  8
0
 10
144.50134017361211
 20
232.7751312169249
 30
0.0
 40
3.2500000000000111
 50
281.53695903279822
 51
78.463040967201835
  0
LINE
  5
1B74
  8
0
 10
145.151340175412
 20
228.82829704284819
 30
0.0
 11
145.15134017541209
 21
236.7219654607249
 31
0.0
  0
CIRCLE
  5
1C03
  8
0
 10
144.50134017361211
 20
232.7751312169249
 30
0.0
 40
4.0000000687965063
  0
LINE
  5
1C50
  8
3
 10
92.82218735382601
 20
115.1403818762298
 30
0.0
 11
92.822187353825996
 21
139.56523378339841
 31
0.0
  0
LINE
  5
1C51
  8
3
 10
86.175187353825777
 20
115.1403814962292
 30
0.0
 11
86.175187353825777
 21
139.5685274226243
 31
0.0
  0
LINE
  5
1C53
  8
3
 10
92.822187353825996
 20
162.59313954069819
 30
0.0
 11
92.822187353825996
 21
165.49338180733429
 31
0.0
  0
LINE
  5
1C54
  8
3
 10
86.175187353825763
 20
162.59404146807461
 30
0.0
 11
86.175187353825777
 21
165.49338218724381
 31
0.0
  0
LINE
  5
1C55
  8
3
 10
86.175187353825763
 20
148.5668809607055
 30
0.0
 11
86.175187353825763
 21
149.4167969105043
 31
0.0
  0
LINE
  5
1C56
  8
3
 10
92.822187353825996
 20
148.5668809607055
 30
0.0
 11
92.82218735382601
 21
149.41720929545511
 31
0.0
  0
LINE
  5
1C57
  8
3
 10
92.822187353825996
 20
142.56523415169011
 30
0.0
 11
92.822187353825996
 21
143.56688153810549
 31
0.0
  0
LINE
  5
1C58
  8
3
 10
86.175187353825777
 20
142.56852779091599
 30
0.0
 11
86.175187353825777
 21
143.56688153810549
 31
0.0
  0
LINE
  5
1C59
  8
0
 10
140.50133998361221
 20
143.4321868759981
 30
0.0
 11
140.50133998361221
 21
142.56688124302491
 31
0.0
  0
LINE
  5
1C5A
  8
0
 10
140.50133998361221
 20
139.56688121692491
 30
0.0
 11
140.50133998361221
 21
115.8168837501249
 31
0.0
  0
LINE
  5
1C5B
  8
0
 10
148.5013403636122
 20
115.8168837501249
 30
0.0
 11
148.50134036361209
 21
139.56688121692491
 31
0.0
  0
LINE
  5
1C5C
  8
0
 10
148.5013403636122
 20
142.56688124302491
 30
0.0
 11
148.5013403636122
 21
142.95413983831639
 31
0.0
  0
LINE
  5
1C5F
  8
0
 10
140.50133998361221
 20
115.8168837501249
 30
0.0
 11
141.75134018851219
 21
114.5668812169249
 31
0.0
  0
LINE
  5
1C60
  8
0
 10
147.2513401587122
 20
114.5668812169249
 30
0.0
 11
148.5013403636122
 21
115.8168837501249
 31
0.0
  0
LINE
  5
1C66
  8
0
 10
140.50133998361221
 20
115.8168837501249
 30
0.0
 11
148.5013403636122
 21
115.8168837501249
 31
0.0
  0
LINE
  5
1C68
  8
0
 10
147.2513401587122
 20
114.5668812169249
 30
0.0
 11
141.75134018851219
 21
114.5668812169249
 31
0.0
  0
LINE
  5
1C6B
  8
3
 10
147.8248403636122
 20
115.14038249004921
 30
0.0
 11
147.8248403636122
 21
139.56523439721781
 31
0.0
  0
LINE
  5
1C6C
  8
3
 10
147.8248403636122
 20
142.5652347655095
 30
0.0
 11
147.8248403636122
 21
142.83171673591809
 31
0.0
  0
LINE
  5
1C6E
  8
3
 10
141.17784036361201
 20
115.14038211004861
 30
0.0
 11
141.17784036361201
 21
139.56852803644369
 31
0.0
  0
LINE
  5
1C6F
  8
3
 10
141.17784036361201
 20
142.5685284047353
 30
0.0
 11
141.17784036361201
 21
143.2278432088267
 31
0.0
  0
LINE
  5
1C71
  8
0
 10
265.50188300127422
 20
143.56688148908461
 30
0.0
 11
265.50188300127411
 21
142.5668805801846
 31
0.0
  0
LINE
  5
1C72
  8
0
 10
265.50188300127411
 20
139.56688055408449
 30
0.0
 11
265.50188300127422
 21
115.81688308728449
 31
0.0
  0
LINE
  5
1C73
  8
0
 10
273.50188338127413
 20
115.81688308728449
 30
0.0
 11
273.50188338127413
 21
139.56688055408449
 31
0.0
  0
LINE
  5
1C74
  8
0
 10
273.50188338127413
 20
142.5668805801846
 30
0.0
 11
273.50188338127413
 21
143.56688148908461
 31
0.0
  0
LINE
  5
1C75
  8
0
 10
265.50188300127422
 20
149.2027725009861
 30
0.0
 11
265.50188300127422
 21
148.56688091168459
 31
0.0
  0
LINE
  5
1C76
  8
0
 10
273.50188338127413
 20
148.56688091168459
 30
0.0
 11
273.50188338127418
 21
149.2032782189691
 31
0.0
  0
LINE
  5
1C77
  8
0
 10
265.50188300127422
 20
115.81688308728449
 30
0.0
 11
266.75188320617411
 21
114.56688055408451
 31
0.0
  0
LINE
  5
1C78
  8
0
 10
272.25188317637412
 20
114.56688055408451
 30
0.0
 11
273.50188338127413
 21
115.81688308728449
 31
0.0
  0
LINE
  5
1C79
  8
0
 10
265.80188319017412
 20
148.56688091168459
 30
0.0
 11
265.80188319017412
 21
146.06688143318451
 31
0.0
  0
LINE
  5
1C7A
  8
0
 10
273.20188319237411
 20
146.06688143318451
 30
0.0
 11
273.20188319237411
 21
148.56688091168459
 31
0.0
  0
LINE
  5
1C7B
  8
0
 10
265.95188316817411
 20
146.06688143318451
 30
0.0
 11
265.95188316817411
 21
143.56688148908461
 31
0.0
  0
LINE
  5
1C7C
  8
0
 10
273.05188321437407
 20
143.56688148908461
 30
0.0
 11
273.05188321437407
 21
146.06688143318451
 31
0.0
  0
LINE
  5
1C7D
  8
0
 10
265.50188300127422
 20
143.56688148908461
 30
0.0
 11
273.50188338127413
 21
143.56688148908461
 31
0.0
  0
LINE
  5
1C7E
  8
0
 10
265.50188300127422
 20
115.81688308728449
 30
0.0
 11
273.50188338127413
 21
115.81688308728449
 31
0.0
  0
LINE
  5
1C7F
  8
0
 10
265.50188300127422
 20
148.56688091168459
 30
0.0
 11
273.50188338127413
 21
148.56688091168459
 31
0.0
  0
LINE
  5
1C80
  8
0
 10
272.25188317637412
 20
114.56688055408451
 30
0.0
 11
266.75188320617411
 21
114.56688055408451
 31
0.0
  0
LINE
  5
1C81
  8
0
 10
265.80188319017412
 20
146.06688143318451
 30
0.0
 11
273.20188319237411
 21
146.06688143318451
 31
0.0
  0
ARC
  5
1C82
  8
0
 10
269.50260825177412
 20
137.73322505778461
 30
0.0
 40
12.147276282436231
 50
68.260099470301256
 51
111.7472643276988
  0
LINE
  5
1C83
  8
3
 10
272.82538338127421
 20
115.1403818272089
 30
0.0
 11
272.82538338127421
 21
139.5652337343775
 31
0.0
  0
LINE
  5
1C84
  8
3
 10
272.82538338127421
 20
142.56523410266919
 30
0.0
 11
272.82538338127421
 21
143.56688148908461
 31
0.0
  0
LINE
  5
1C85
  8
3
 10
272.82538338127421
 20
148.56688091168451
 30
0.0
 11
272.82538338127421
 21
149.41720924643411
 31
0.0
  0
LINE
  5
1C86
  8
3
 10
266.17838338127399
 20
115.1403814472083
 30
0.0
 11
266.17838338127399
 21
139.5685273736033
 31
0.0
  0
LINE
  5
1C87
  8
3
 10
266.17838338127399
 20
142.568527741895
 30
0.0
 11
266.17838338127399
 21
143.56688148908449
 31
0.0
  0
LINE
  5
1C88
  8
3
 10
266.17838338127387
 20
148.56688091168459
 30
0.0
 11
266.17838338127387
 21
149.41679686148339
 31
0.0
  0
CIRCLE
  5
1CCC
  8
3
 10
144.4995641706592
 20
52.775131216924919
 30
0.0
 40
3.325276192952912
  0
ARC
  5
1CCD
  8
3
 10
144.49956417065931
 20
232.7751312169249
 30
0.0
 40
3.325276192952912
 50
101.24112473118549
 51
258.75887526881439
  0
ARC
  5
1CCE
  8
3
 10
144.49956417065931
 20
232.7751312169249
 30
0.0
 40
3.325276192952912
 50
281.30353102357662
 51
78.696468976422381
  0
ENDSEC
  0
EOF
