  0
SECTION
  2
HEADER
  9
$ACADVER
  1
AC1009
  9
$INSBASE
 10
0.0
 20
0.0
 30
0.0
  9
$EXTMIN
 10
0.0
 20
-2.960436562073669
 30
0.0
  9
$EXTMAX
 10
281.50801109052878
 20
245.2751312169249
 30
0.0
  9
$LIMMIN
 10
0.0
 20
0.0
  9
$LIMMAX
 10
770.0
 20
540.0
  9
$ORTHOMODE
 70
     1
  9
$REGENMODE
 70
     1
  9
$FILLMODE
 70
     1
  9
$QTEXTMODE
 70
     0
  9
$MIRRTEXT
 70
     0
  9
$DRAGMODE
 70
     2
  9
$LTSCALE
 40
10.0
  9
$OSMODE
 70
    37
  9
$ATTMODE
 70
     1
  9
$TEXTSIZE
 40
4.000000000000048
  9
$TRACEWID
 40
0.05
  9
$TEXTSTYLE
  7
STANDARD
  9
$CLAYER
  8
0
  9
$CELTYPE
  6
BYLAYER
  9
$CECOLOR
 62
   256
  9
$DIMSCALE
 40
2.0
  9
$DIMASZ
 40
3.0
  9
$DIMEXO
 40
2.0
  9
$DIMDLI
 40
0.38
  9
$DIMRND
 40
0.0
  9
$DIMDLE
 40
0.0
  9
$DIMEXE
 40
2.0
  9
$DIMTP
 40
0.0
  9
$DIMTM
 40
0.0
  9
$DIMTXT
 40
3.0
  9
$DIMCEN
 40
0.0
  9
$DIMTSZ
 40
0.0
  9
$DIMTOL
 70
     0
  9
$DIMLIM
 70
     0
  9
$DIMTIH
 70
     0
  9
$DIMTOH
 70
     0
  9
$DIMSE1
 70
     0
  9
$DIMSE2
 70
     0
  9
$DIMTAD
 70
     1
  9
$DIMZIN
 70
     0
  9
$DIMBLK
  1

  9
$DIMASO
 70
     0
  9
$DIMSHO
 70
     0
  9
$DIMPOST
  1

  9
$DIMAPOST
  1

  9
$DIMALT
 70
     0
  9
$DIMALTD
 70
     2
  9
$DIMALTF
 40
25.399999999999999
  9
$DIMLFAC
 40
1.0
  9
$DIMTOFL
 70
     0
  9
$DIMTVP
 40
1.6000000000000001
  9
$DIMTIX
 70
     1
  9
$DIMSOXD
 70
     0
  9
$DIMSAH
 70
     0
  9
$DIMBLK1
  1

  9
$DIMBLK2
  1

  9
$DIMSTYLE
  2
STANDARD
  9
$DIMCLRD
 70
     4
  9
$DIMCLRE
 70
     4
  9
$DIMCLRT
 70
     4
  9
$DIMTFAC
 40
1.0
  9
$DIMGAP
 40
0.09
  9
$LUNITS
 70
     2
  9
$LUPREC
 70
     1
  9
$SKETCHINC
 40
0.1
  9
$FILLETRAD
 40
0.0
  9
$AUNITS
 70
     0
  9
$AUPREC
 70
     0
  9
$MENU
  1
E:\r13\win\SUPPORT\ACAD
  9
$ELEVATION
 40
0.0
  9
$PELEVATION
 40
0.0
  9
$THICKNESS
 40
0.0
  9
$LIMCHECK
 70
     0
  9
$BLIPMODE
 70
     0
  9
$CHAMFERA
 40
1.1999999999999991
  9
$CHAMFERB
 40
1.1999999999999991
  9
$SKPOLY
 70
     0
  9
$TDCREATE
 40
2450158.583426042
  9
$TDUPDATE
 40
2457162.4637560761
  9
$TDINDWG
 40
0.1719220833
  9
$TDUSRTIMER
 40
0.1719220833
  9
$USRTIMER
 70
     1
  9
$ANGBASE
 50
0.0
  9
$ANGDIR
 70
     0
  9
$PDMODE
 70
     0
  9
$PDSIZE
 40
0.0
  9
$PLINEWID
 40
0.0
  9
$COORDS
 70
     1
  9
$SPLFRAME
 70
     0
  9
$SPLINETYPE
 70
     6
  9
$SPLINESEGS
 70
     8
  9
$ATTDIA
 70
     0
  9
$ATTREQ
 70
     1
  9
$HANDLING
 70
     1
  9
$HANDSEED
  5
1E91
  9
$SURFTAB1
 70
     6
  9
$SURFTAB2
 70
     6
  9
$SURFTYPE
 70
     6
  9
$SURFU
 70
     6
  9
$SURFV
 70
     6
  9
$UCSNAME
  2

  9
$UCSORG
 10
0.0
 20
0.0
 30
0.0
  9
$UCSXDIR
 10
1.0
 20
0.0
 30
0.0
  9
$UCSYDIR
 10
0.0
 20
1.0
 30
0.0
  9
$PUCSNAME
  2

  9
$PUCSORG
 10
0.0
 20
0.0
 30
0.0
  9
$PUCSXDIR
 10
1.0
 20
0.0
 30
0.0
  9
$PUCSYDIR
 10
0.0
 20
1.0
 30
0.0
  9
$USERI1
 70
     3
  9
$USERI2
 70
     1
  9
$USERI3
 70
     0
  9
$USERI4
 70
     0
  9
$USERI5
 70
     0
  9
$USERR1
 40
2.0
  9
$USERR2
 40
3.0
  9
$USERR3
 40
3.0
  9
$USERR4
 40
3.0
  9
$USERR5
 40
10.0
  9
$WORLDVIEW
 70
     1
  9
$SHADEDGE
 70
     3
  9
$SHADEDIF
 70
    70
  9
$TILEMODE
 70
     1
  9
$MAXACTVP
 70
    16
  9
$PLIMCHECK
 70
     0
  9
$PEXTMIN
 10
1.0000000000000000E+020
 20
1.0000000000000000E+020
 30
1.0000000000000000E+020
  9
$PEXTMAX
 10
-1.0000000000000000E+020
 20
-1.0000000000000000E+020
 30
-1.0000000000000000E+020
  9
$PLIMMIN
 10
0.0
 20
0.0
  9
$PLIMMAX
 10
12.0
 20
9.0
  9
$UNITMODE
 70
     0
  9
$VISRETAIN
 70
     0
  9
$PLINEGEN
 70
     0
  9
$PSLTSCALE
 70
     0
  0
ENDSEC
  0
SECTION
  2
TABLES
  0
TABLE
  2
VPORT
 70
     1
  0
VPORT
  2
*ACTIVE
 70
     0
 10
0.0
 20
0.0
 11
1.0
 21
1.0
 12
142.29280787101499
 22
121.14733655966219
 13
0.0
 23
0.0
 14
10.0
 24
10.0
 15
10.0
 25
10.0
 16
0.0
 26
0.0
 36
1.0
 17
0.0
 27
0.0
 37
0.0
 40
250.3552533894572
 41
1.368715083798882
 42
50.0
 43
0.0
 44
0.0
 50
0.0
 51
0.0
 71
     0
 72
   500
 73
     1
 74
     0
 75
     0
 76
     0
 77
     0
 78
     2
  0
ENDTAB
  0
TABLE
  2
LTYPE
 70
     4
  0
LTYPE
  2
CONTINUOUS
 70
     0
  3
Solid Line
 72
    65
 73
     0
 40
0.0
  0
LTYPE
  2
CENTER
 70
     0
  3
____ _ ____ _ ____ _ ____ _ ____ _ ____ _ ____
 72
    65
 73
     4
 40
2.0
 49
1.25
 49
-0.25
 49
0.25
 49
-0.25
  0
LTYPE
  2
HIDDEN
 70
     0
  3
_ _ _ _ _ _ _ _ _ _ _ _ _ _ _ _ _ _ _ _ _ _ _
 72
    65
 73
     2
 40
0.375
 49
0.25
 49
-0.125
  0
LTYPE
  2
PHANTOM2
 70
     0
  3
___ _ _ ___ _ _ ___ _ _ ___ _ _
 72
    65
 73
     6
 40
1.25
 49
0.625
 49
-0.125
 49
0.125
 49
-0.125
 49
0.125
 49
-0.125
  0
ENDTAB
  0
TABLE
  2
LAYER
 70
     4
  0
LAYER
  2
0
 70
     0
 62
     7
  6
CONTINUOUS
  0
LAYER
  2
1
 70
     0
 62
     1
  6
CENTER
  0
LAYER
  2
2
 70
     0
 62
     2
  6
HIDDEN
  0
LAYER
  2
3
 70
     0
 62
     3
  6
CONTINUOUS
  0
ENDTAB
  0
TABLE
  2
STYLE
 70
     2
  0
STYLE
  2
STANDARD
 70
     0
 40
0.0
 41
1.0
 50
0.0
 71
     0
 42
4.000000000000048
  3
SIMPLEX
  4
BIGFONT
  0
STYLE
  2
STANDARD1
 70
     0
 40
0.0
 41
1.0
 50
0.0
 71
     0
 42
3.0
  3
txt
  4

  0
ENDTAB
  0
TABLE
  2
VIEW
 70
     1
  0
VIEW
  2
ALL
 70
     0
 40
179.5384664489153
 10
146.94997169852391
 20
89.769233224457665
 41
0.0
 11
0.0
 21
0.0
 31
1.0
 12
0.0
 22
0.0
 32
0.0
 42
50.0
 43
0.0
 44
0.0
 50
0.0
 71
     0
  0
ENDTAB
  0
TABLE
  2
UCS
 70
     0
  0
ENDTAB
  0
TABLE
  2
APPID
 70
     4
  0
APPID
  2
ACAD
 70
     0
  0
APPID
  2
ACAD_MLEADERVER
 70
     0
  0
APPID
  2
ACAD_EXEMPT_FROM_CAD_STANDARDS
 70
     0
  0
APPID
  2
ACAD_NAV_VCDISPLAY
 70
     0
  0
ENDTAB
  0
TABLE
  2
DIMSTYLE
 70
     2
  0
DIMSTYLE
  2
STANDARD
 70
     0
  3

  4

  5

  6

  7

 40
1.0
 41
0.18
 42
0.0625
 43
0.38
 44
0.18
 45
0.0
 46
0.0
 47
0.0
 48
0.0
140
0.18
141
0.09
142
0.0
143
25.399999999999999
144
1.0
145
0.0
146
1.0
147
0.09
 71
     0
 72
     0
 73
     1
 74
     1
 75
     0
 76
     0
 77
     0
 78
     0
170
     0
171
     2
172
     0
173
     0
174
     0
175
     0
176
     0
177
     0
178
     0
  0
DIMSTYLE
  2
ISO-25
 70
     0
  3

  4

  5

  6

  7

 40
1.0
 41
2.5
 42
0.625
 43
3.75
 44
1.25
 45
0.0
 46
0.0
 47
0.0
 48
0.0
140
2.5
141
2.5
142
0.0
143
0.0393700787
144
1.0
145
0.0
146
1.0
147
0.625
 71
     0
 72
     0
 73
     0
 74
     0
 75
     0
 76
     0
 77
     1
 78
     8
170
     0
171
     3
172
     1
173
     0
174
     0
175
     0
176
     0
177
     0
178
     0
  0
ENDTAB
  0
ENDSEC
  0
SECTION
  2
BLOCKS
  0
BLOCK
  8
0
  2
$MODEL_SPACE
 70
     0
 10
0.0
 20
0.0
 30
0.0
  3
$MODEL_SPACE
  1

  0
ENDBLK
  5
644
  8
0
  0
BLOCK
 67
     1
  8
0
  2
$PAPER_SPACE
 70
     0
 10
0.0
 20
0.0
 30
0.0
  3
$PAPER_SPACE
  1

  0
ENDBLK
  5
642
 67
     1
  8
0
  0
ENDSEC
  0
SECTION
  2
ENTITIES
  0
LINE
  5
1096
  8
1
 10
129.50134017361211
 20
232.7751312169249
 30
0.0
 11
229.50134017361199
 21
232.7751312169249
 31
0.0
  0
LINE
  5
1098
  8
1
 10
129.50134017361211
 20
52.775131216924919
 30
0.0
 11
229.50134017361191
 21
52.775131216924947
 31
0.0
  0
LINE
  5
1099
  8
1
 10
154.50134017361211
 20
168.4833812169249
 30
0.0
 11
134.50134017361219
 21
168.4833812169249
 31
0.0
  0
LINE
  5
109C
  8
0
 10
137.00134017361211
 20
42.775131216924933
 30
0.0
 11
152.00134017361211
 21
42.775131216924933
 31
0.0
  0
LINE
  5
109E
  8
0
 10
137.00134017361211
 20
62.775131216924933
 30
0.0
 11
152.00134017361211
 21
62.775131216924933
 31
0.0
  0
CIRCLE
  5
109F
  8
0
 10
144.50134017361211
 20
52.775131216924919
 30
0.0
 40
10.000000000000011
  0
LINE
  5
10A1
  8
0
 10
144.50134017361171
 20
228.2751312169249
 30
0.0
 11
132.2930901736118
 21
228.2751312169249
 31
0.0
  0
LINE
  5
10A2
  8
0
 10
144.50134017361171
 20
237.2751312169249
 30
0.0
 11
132.2930901736118
 21
237.27513121692499
 31
0.0
  0
LINE
  5
10A3
  8
0
 10
132.2691696269018
 20
241.7751312169249
 30
0.0
 11
184.50134017361179
 21
241.7751312169249
 31
0.0
  0
LINE
  5
10A4
  8
0
 10
132.2691696269018
 20
223.7751312169249
 30
0.0
 11
184.50134017361179
 21
223.7751312169249
 31
0.0
  0
LINE
  5
10A5
  8
0
 10
146.50134017361179
 20
222.2751312169249
 30
0.0
 11
142.50134017361179
 21
222.2751312169249
 31
0.0
  0
LINE
  5
10A7
  8
0
 10
152.00134017361179
 20
222.77513121692499
 30
0.0
 11
137.00134017361179
 21
222.77513121692499
 31
0.0
  0
LINE
  5
10A8
  8
0
 10
152.00134017361179
 20
242.77513121692499
 30
0.0
 11
137.00134017361179
 21
242.77513121692499
 31
0.0
  0
POLYLINE
  5
10A9
  8
0
 66
     1
 10
0.0
 20
0.0
 30
0.0
 70
   128
  0
VERTEX
  5
1DB3
  8
0
 10
158.1272841266055
 20
163.90350420771949
 30
0.0
  0
VERTEX
  5
1DB4
  8
0
 10
157.1603677683384
 20
161.92574480735249
 30
0.0
  0
VERTEX
  5
1DB5
  8
0
 10
155.9113313924156
 20
160.13491451555851
 30
0.0
  0
VERTEX
  5
1DB6
  8
0
 10
154.41541918758591
 20
158.56930220295141
 30
0.0
  0
VERTEX
  5
1DB7
  8
0
 10
152.67113830226009
 20
157.23895844158099
 30
0.0
  0
VERTEX
  5
1DB8
  8
0
 10
150.75674179730811
 20
156.20656209902961
 30
0.0
  0
VERTEX
  5
1DB9
  8
0
 10
148.72194151301071
 20
155.4940610165898
 30
0.0
  0
VERTEX
  5
1DBA
  8
0
 10
146.6190715386376
 20
155.11351428162621
 30
0.0
  0
VERTEX
  5
1DBB
  8
0
 10
144.50134017361231
 20
155.06688121692491
 30
0.0
  0
VERTEX
  5
1DBC
  8
0
 10
142.42175176337631
 20
155.35210740057181
 30
0.0
  0
VERTEX
  5
1DBD
  8
0
 10
140.43023658879281
 20
155.95366436348411
 30
0.0
  0
VERTEX
  5
1DBE
  8
0
 10
138.5751784267448
 20
156.8523954052321
 30
0.0
  0
VERTEX
  5
1DBF
  8
0
 10
136.89995524348359
 20
158.020714381701
 30
0.0
  0
VERTEX
  5
1DC0
  8
0
 10
135.44162292800721
 20
159.4236639713198
 30
0.0
  0
VERTEX
  5
1DC1
  8
0
 10
134.23435529272541
 20
161.02373595716099
 30
0.0
  0
VERTEX
  5
1DC2
  8
0
 10
133.30105388119941
 20
162.77649723726739
 30
0.0
  0
VERTEX
  5
1DC3
  8
0
 10
132.6611041800457
 20
164.63614299289489
 30
0.0
  0
VERTEX
  5
1DC4
  8
0
 10
132.3247801109398
 20
166.55464890599171
 30
0.0
  0
VERTEX
  5
1DC5
  8
0
 10
132.29309017361209
 20
168.48338121692481
 30
0.0
  0
VERTEX
  5
1DC6
  8
0
 10
132.5633732298854
 20
170.37397057306839
 30
0.0
  0
VERTEX
  5
1DC7
  8
0
 10
133.12070752694001
 20
172.1811216863756
 30
0.0
  0
VERTEX
  5
1DC8
  8
0
 10
133.94688718740201
 20
173.86102531975379
 30
0.0
  0
VERTEX
  5
1DC9
  8
0
 10
135.01611123284539
 20
175.37461327816931
 30
0.0
  0
VERTEX
  5
1DCA
  8
0
 10
136.29598469637571
 20
176.68873669416121
 30
0.0
  0
VERTEX
  5
1DCB
  8
0
 10
137.75184778273231
 20
177.7729282033545
 30
0.0
  0
VERTEX
  5
1DCC
  8
0
 10
139.34297383799299
 20
178.60713468385501
 30
0.0
  0
VERTEX
  5
1DCD
  8
0
 10
141.0274650649508
 20
179.17453300372259
 30
0.0
  0
VERTEX
  5
1DCE
  8
0
 10
142.76160691677131
 20
179.46663440697091
 30
0.0
  0
VERTEX
  5
1DCF
  8
0
 10
144.50134017361199
 20
179.4833812169249
 30
0.0
  0
SEQEND
  5
1DD0
  8
0
  0
CIRCLE
  5
10AA
  8
0
 10
144.50134017361211
 20
168.4833812169249
 30
0.0
 40
7.4999999999999707
  0
LINE
  5
10AB
  8
0
 10
134.50134017361211
 20
152.06688121692491
 30
0.0
 11
154.50134017361211
 21
152.06688121692491
 31
0.0
  0
LINE
  5
10AC
  8
0
 10
134.50134017361211
 20
155.06688121692491
 30
0.0
 11
154.50134017361211
 21
155.06688121692491
 31
0.0
  0
LINE
  5
10AD
  8
0
 10
132.26916962690211
 20
48.27513121692494
 30
0.0
 11
132.26916962690211
 21
43.775131216924933
 31
0.0
  0
LINE
  5
10AE
  8
0
 10
140.2504967338478
 20
43.775131216924933
 30
0.0
 11
132.30559879996909
 21
43.775131216924933
 31
0.0
  0
LINE
  5
10AF
  8
0
 10
137.00134017361211
 20
43.775131216924933
 30
0.0
 11
137.00134017361211
 21
42.775131216924933
 31
0.0
  0
LINE
  5
10B1
  8
0
 10
140.22596817405349
 20
61.775131216924933
 30
0.0
 11
132.30559879996909
 21
61.775131216924933
 31
0.0
  0
LINE
  5
10B2
  8
0
 10
132.30559879996909
 20
57.275131216924933
 30
0.0
 11
135.6284727380164
 21
57.275131216924933
 31
0.0
  0
LINE
  5
10B3
  8
0
 10
135.58904201924869
 20
48.27513121692494
 30
0.0
 11
132.30559879996909
 21
48.27513121692494
 31
0.0
  0
LINE
  5
10B4
  8
0
 10
132.26916962690211
 20
61.775131216924933
 30
0.0
 11
132.26916962690211
 21
57.275131216924933
 31
0.0
  0
LINE
  5
10B5
  8
0
 10
137.00134017361211
 20
62.775131216924933
 30
0.0
 11
137.00134017361211
 21
61.775131216924933
 31
0.0
  0
LINE
  5
10B6
  8
1
 10
102.0068201293093
 20
168.47718474312029
 30
0.0
 11
77.006823198406479
 21
168.48957243238411
 31
0.0
  0
LINE
  5
10B7
  8
0
 10
100.00648134334151
 20
167.7939653159419
 30
0.0
 11
101.4825988699307
 21
167.79323388844259
 31
0.0
  0
POLYLINE
  5
10B8
  8
0
 66
     1
 10
0.0
 20
0.0
 30
0.0
 70
   128
  0
VERTEX
  5
1DD1
  8
0
 10
101.4825988699307
 20
167.79323388844259
 30
0.0
  0
VERTEX
  5
1DD2
  8
0
 10
101.4439587737231
 20
167.49855335601089
 30
0.0
  0
VERTEX
  5
1DD3
  8
0
 10
101.2984489636154
 20
167.01071790296839
 30
0.0
  0
VERTEX
  5
1DD4
  8
0
 10
101.18631239307309
 20
166.8226010052984
 30
0.0
  0
VERTEX
  5
1DD5
  8
0
 10
101.0524168722723
 20
166.6804288306796
 30
0.0
  0
VERTEX
  5
1DD6
  8
0
 10
100.7010750949442
 20
166.5086753059197
 30
0.0
  0
VERTEX
  5
1DD7
  8
0
 10
100.48280830970511
 20
166.4794741411485
 30
0.0
  0
VERTEX
  5
1DD8
  8
0
 10
100.4115526238118
 20
166.4815657601084
 30
0.0
  0
SEQEND
  5
1DD9
  8
0
  0
POLYLINE
  5
10B9
  8
0
 66
     1
 10
0.0
 20
0.0
 30
0.0
 70
   128
  0
VERTEX
  5
1DDA
  8
0
 10
101.32311230918241
 20
183.45195145100939
 30
0.0
  0
VERTEX
  5
1DDB
  8
0
 10
101.4692238360565
 20
183.4333223847739
 30
0.0
  0
VERTEX
  5
1DDC
  8
0
 10
101.5113999539378
 20
183.33197511070441
 30
0.0
  0
VERTEX
  5
1DDD
  8
0
 10
101.51269250763789
 20
183.2472944140323
 30
0.0
  0
SEQEND
  5
1DDE
  8
0
  0
POLYLINE
  5
10BA
  8
0
 66
     1
 10
0.0
 20
0.0
 30
0.0
 70
   128
  0
VERTEX
  5
1DDF
  8
0
 10
101.4825988699307
 20
167.79323388844259
 30
0.0
  0
VERTEX
  5
1DE0
  8
0
 10
101.47761589498231
 20
168.78606799746319
 30
0.0
  0
VERTEX
  5
1DE1
  8
0
 10
101.235014748864
 20
169.64380396211101
 30
0.0
  0
SEQEND
  5
1DE2
  8
0
  0
POLYLINE
  5
10BB
  8
0
 66
     1
 10
0.0
 20
0.0
 30
0.0
 70
   128
  0
VERTEX
  5
1DE3
  8
0
 10
101.2415154489116
 20
182.7630772808362
 30
0.0
  0
VERTEX
  5
1DE4
  8
0
 10
101.4349216958276
 20
182.9985576200053
 30
0.0
  0
VERTEX
  5
1DE5
  8
0
 10
101.51269250763789
 20
183.2472944140323
 30
0.0
  0
SEQEND
  5
1DE6
  8
0
  0
LINE
  5
10BC
  8
0
 10
101.51415635048291
 20
183.28277418473351
 30
0.0
 11
101.5067144416729
 21
168.26401697777339
 31
0.0
  0
LINE
  5
10BD
  8
1
 10
89.506470721250935
 20
188.4833812169249
 30
0.0
 11
89.496209625973151
 21
97.066881216924941
 31
0.0
  0
LINE
  5
10BE
  8
0
 10
80.512269719225515
 20
179.480505367468
 30
0.0
 11
80.500174791412547
 21
155.07133980294881
 31
0.0
  0
LINE
  5
10BF
  8
0
 10
85.012269166788016
 20
179.4782755834004
 30
0.0
 11
85.000174238975063
 21
155.0691100188813
 31
0.0
  0
LINE
  5
10C0
  8
0
 10
98.512267509475606
 20
179.47158623119799
 30
0.0
 11
98.500172581662639
 21
155.0624206666788
 31
0.0
  0
LINE
  5
10C1
  8
0
 10
94.012268061913062
 20
179.4738160152655
 30
0.0
 11
94.000173134100095
 21
155.06465045074631
 31
0.0
  0
LINE
  5
10C2
  8
0
 10
77.506717388006166
 20
168.27590915946661
 30
0.0
 11
77.514158203299885
 21
183.29245950585781
 31
0.0
  0
LINE
  5
10C3
  8
0
 10
77.530366394793887
 20
167.80510240242279
 30
0.0
 11
79.506483860001126
 21
167.8041232211383
 31
0.0
  0
POLYLINE
  5
10C4
  8
0
 66
     1
 10
0.0
 20
0.0
 30
0.0
 70
   128
  0
VERTEX
  5
1DE7
  8
0
 10
77.779784337020629
 20
169.655426207776
 30
0.0
  0
VERTEX
  5
1DE8
  8
0
 10
78.119573230956121
 20
170.30123857604161
 30
0.0
  0
VERTEX
  5
1DE9
  8
0
 10
78.447761047178773
 20
170.8140866320683
 30
0.0
  0
VERTEX
  5
1DEA
  8
0
 10
78.764482670599961
 20
171.19138998387299
 30
0.0
  0
VERTEX
  5
1DEB
  8
0
 10
79.060941188897615
 20
171.41809633876849
 30
0.0
  0
VERTEX
  5
1DEC
  8
0
 10
79.317463005811746
 20
171.4884278610179
 30
0.0
  0
SEQEND
  5
1DED
  8
0
  0
LINE
  5
10C5
  8
0
 10
79.505831876355657
 20
166.48833390898551
 30
0.0
 11
78.602002934867102
 21
166.48878176312351
 31
0.0
  0
LINE
  5
10C6
  8
0
 10
99.498685936187087
 20
152.06192552740001
 30
0.0
 11
79.498688391464754
 21
152.071835678811
 31
0.0
  0
LINE
  5
10C7
  8
0
 10
99.500172458898746
 20
155.06192515910831
 30
0.0
 11
79.500174914176426
 21
155.07183531051939
 31
0.0
  0
LINE
  5
10C8
  8
0
 10
99.500172458898746
 20
155.06192515910831
 30
0.0
 11
99.498685936187087
 21
152.06192552740001
 31
0.0
  0
LINE
  5
10CB
  8
0
 10
79.498688391464754
 20
152.071835678811
 30
0.0
 11
79.500174914176426
 21
155.07183531051939
 31
0.0
  0
LINE
  5
10D0
  8
0
 10
100.0078113899782
 20
170.4781755127336
 30
0.0
 11
100.00582935969599
 21
166.47817600378909
 31
0.0
  0
LINE
  5
10D1
  8
0
 10
99.510536742998241
 20
175.9784225913175
 30
0.0
 11
99.503104129439933
 21
160.9784244327758
 31
0.0
  0
LINE
  5
10D2
  8
0
 10
99.503104129439933
 20
160.9784244327758
 30
0.0
 11
98.503104252203826
 21
160.97891994034629
 31
0.0
  0
LINE
  5
10D3
  8
0
 10
100.4115508445458
 20
166.4779749656972
 30
0.0
 11
100.00582935969599
 21
166.47817600378909
 31
0.0
  0
LINE
  5
10D4
  8
0
 10
100.00582935969599
 20
166.47817600378909
 30
0.0
 11
99.505829421077976
 21
166.4784237575744
 31
0.0
  0
LINE
  5
10D6
  8
0
 10
99.699153367327455
 20
171.4783285779032
 30
0.0
 11
99.50830695893076
 21
171.47842314375501
 31
0.0
  0
POLYLINE
  5
10D7
  8
0
 66
     1
 10
0.0
 20
0.0
 30
0.0
 70
   128
  0
VERTEX
  5
1DEE
  8
0
 10
101.2350147488639
 20
169.64380396211101
 30
0.0
  0
VERTEX
  5
1DEF
  8
0
 10
100.89586603154039
 20
170.28995274914431
 30
0.0
  0
VERTEX
  5
1DF0
  8
0
 10
100.5681866166023
 20
170.80312579238921
 30
0.0
  0
VERTEX
  5
1DF1
  8
0
 10
100.2518390619976
 20
171.18074283480269
 30
0.0
  0
VERTEX
  5
1DF2
  8
0
 10
99.955605358680245
 20
171.4077428732171
 30
0.0
  0
VERTEX
  5
1DF3
  8
0
 10
99.699153367327455
 20
171.4783285779032
 30
0.0
  0
SEQEND
  5
1DF4
  8
0
  0
LINE
  5
10D8
  8
0
 10
99.507811451360183
 20
170.47842326651889
 30
0.0
 11
100.0078113899782
 21
170.4781755127336
 31
0.0
  0
LINE
  5
10D9
  8
0
 10
98.510536865762134
 20
175.9789180988881
 30
0.0
 11
99.510536742998241
 21
175.9784225913175
 31
0.0
  0
LINE
  5
10DD
  8
0
 10
79.510539198275922
 20
175.9883327427286
 30
0.0
 11
79.503106584717614
 21
160.9883345841869
 31
0.0
  0
LINE
  5
10DF
  8
0
 10
80.503106461953735
 20
160.9878390766163
 30
0.0
 11
79.503106584717614
 21
160.9883345841869
 31
0.0
  0
LINE
  5
10E1
  8
0
 10
79.317463005811746
 20
171.4884278610179
 30
0.0
 11
79.508309414208426
 21
171.48833329516609
 31
0.0
  0
LINE
  5
10E2
  8
0
 10
79.510539198275922
 20
175.9883327427286
 30
0.0
 11
80.510539075512057
 21
175.987837235158
 31
0.0
  0
POLYLINE
  5
10E3
  8
0
 66
     1
 10
0.0
 20
0.0
 30
0.0
 70
   128
  0
VERTEX
  5
1DF5
  8
0
 10
77.530366394793887
 20
167.80510240242279
 30
0.0
  0
VERTEX
  5
1DF6
  8
0
 10
77.536333280809245
 20
168.79793108570371
 30
0.0
  0
VERTEX
  5
1DF7
  8
0
 10
77.779784337020629
 20
169.655426207776
 30
0.0
  0
SEQEND
  5
1DF8
  8
0
  0
POLYLINE
  5
10E4
  8
0
 66
     1
 10
0.0
 20
0.0
 30
0.0
 70
   128
  0
VERTEX
  5
1DF9
  8
0
 10
78.602005843885038
 20
166.49465254642621
 30
0.0
  0
VERTEX
  5
1DFA
  8
0
 10
78.456205244985824
 20
166.49566885588811
 30
0.0
  0
VERTEX
  5
1DFB
  8
0
 10
78.225419574522036
 20
166.54402806879841
 30
0.0
  0
VERTEX
  5
1DFC
  8
0
 10
77.856384432285822
 20
166.79540206269129
 30
0.0
  0
VERTEX
  5
1DFD
  8
0
 10
77.721630970081009
 20
167.0059982777193
 30
0.0
  0
VERTEX
  5
1DFE
  8
0
 10
77.599968630046249
 20
167.35776109717929
 30
0.0
  0
VERTEX
  5
1DFF
  8
0
 10
77.530366394793887
 20
167.80510240242279
 30
0.0
  0
SEQEND
  5
1E00
  8
0
  0
ARC
  5
10E5
  8
0
 10
72.385237878318364
 20
175.27750557163239
 30
0.0
 40
9.240088073604074
 50
28.411764783039612
 51
54.230676574147672
  0
LINE
  5
10E6
  8
0
 10
77.684861385546455
 20
183.48923830074651
 30
0.0
 11
101.3231249812498
 21
183.47752536074211
 31
0.0
  0
LINE
  5
10E7
  8
0
 10
94.012271694696537
 20
179.48114745328201
 30
0.0
 11
85.012272799571505
 21
179.485607021417
 31
0.0
  0
LINE
  5
10E8
  8
0
 10
94.012284842943188
 20
179.50768235572221
 30
0.0
 11
98.512284290505733
 21
179.5054525716547
 31
0.0
  0
ARC
  5
10E9
  8
0
 10
106.6351301236293
 20
175.26053448865551
 30
0.0
 40
9.2400880735972049
 50
125.7125424385015
 51
151.53145422962811
  0
LINE
  5
10EA
  8
0
 10
98.512271142259095
 20
179.4789176692145
 30
0.0
 11
98.512363379626095
 21
179.6650648870461
 31
0.0
  0
LINE
  5
10EB
  8
0
 10
80.512286500255641
 20
179.51437170792471
 30
0.0
 11
85.012285947818157
 21
179.5121419238572
 31
0.0
  0
LINE
  5
10EC
  8
0
 10
80.512273352009004
 20
179.48783680548451
 30
0.0
 11
80.512365589376003
 21
179.67398402331611
 31
0.0
  0
POLYLINE
  5
10ED
  8
0
 66
     1
 10
0.0
 20
0.0
 30
0.0
 70
   128
  0
VERTEX
  5
1E01
  8
0
 10
77.515587977956628
 20
183.2591851624579
 30
0.0
  0
VERTEX
  5
1E02
  8
0
 10
77.52442235210647
 20
183.3809228343429
 30
0.0
  0
VERTEX
  5
1E03
  8
0
 10
77.664757668082999
 20
183.4887189569383
 30
0.0
  0
VERTEX
  5
1E04
  8
0
 10
77.684859888374177
 20
183.48621680888971
 30
0.0
  0
SEQEND
  5
1E05
  8
0
  0
POLYLINE
  5
10EE
  8
0
 66
     1
 10
0.0
 20
0.0
 30
0.0
 70
   128
  0
VERTEX
  5
1E06
  8
0
 10
77.786285037068282
 20
182.77469952650111
 30
0.0
  0
VERTEX
  5
1E07
  8
0
 10
77.59311224967837
 20
183.010371418532
 30
0.0
  0
VERTEX
  5
1E08
  8
0
 10
77.515587977956628
 20
183.2591851624579
 30
0.0
  0
SEQEND
  5
1E09
  8
0
  0
LINE
  5
10EF
  8
0
 10
134.50134017361211
 20
155.06688121692491
 30
0.0
 11
134.50134017361211
 21
152.06688121692491
 31
0.0
  0
LINE
  5
10F3
  8
0
 10
132.2691696269018
 20
241.7751312169249
 30
0.0
 11
132.2691696269018
 21
237.27513121692499
 31
0.0
  0
LINE
  5
10F4
  8
0
 10
132.2691696269018
 20
228.2751312169249
 30
0.0
 11
132.2691696269018
 21
223.7751312169249
 31
0.0
  0
ARC
  5
10F5
  8
0
 10
144.50134017361179
 20
232.77513121692499
 30
0.0
 40
10.0
 50
153.20469071761659
 51
206.89123838147179
  0
LINE
  5
10F6
  8
0
 10
137.00134017361179
 20
237.2751312169249
 30
0.0
 11
137.00134017361179
 21
228.2751312169249
 31
0.0
  0
LINE
  5
10F7
  8
0
 10
137.00134017361179
 20
223.7751312169249
 30
0.0
 11
137.00134017361179
 21
222.77513121692499
 31
0.0
  0
LINE
  5
10F8
  8
0
 10
137.00134017361179
 20
242.77513121692499
 30
0.0
 11
137.00134017361179
 21
241.7751312169249
 31
0.0
  0
LINE
  5
10F9
  8
0
 10
142.50134017361179
 20
222.2751312169249
 30
0.0
 11
142.50134017361179
 21
222.7751312169249
 31
0.0
  0
ARC
  5
10FA
  8
0
 10
184.50134017361211
 20
-76.391535449741284
 30
0.0
 40
120.1666666666662
 50
81.927039833329061
 51
90.0
  0
ARC
  5
10FB
  8
0
 10
184.50134017361211
 20
181.94179788359111
 30
0.0
 40
120.1666666666662
 50
270.0000000000008
 51
278.07296016667169
  0
LINE
  5
10FC
  8
1
 10
144.50134017361211
 20
65.275131216924933
 30
0.0
 11
144.50134017361211
 21
40.275131216924898
 31
0.0
  0
LINE
  5
10FD
  8
0
 10
184.50134017361211
 20
43.775131216924919
 30
0.0
 11
148.86023911715279
 21
43.775131216924919
 31
0.0
  0
LINE
  5
10FE
  8
0
 10
184.50134017361211
 20
61.775131216924912
 30
0.0
 11
148.86023911715279
 21
61.775131216924912
 31
0.0
  0
LINE
  5
10FF
  8
0
 10
158.12728412660539
 20
57.275131216924933
 30
0.0
 11
169.2835609583378
 21
57.275131216924933
 31
0.0
  0
LINE
  5
1100
  8
0
 10
169.2835609583378
 20
48.27513121692494
 30
0.0
 11
158.12728412660539
 21
48.275131216924919
 31
0.0
  0
LINE
  5
1101
  8
0
 10
158.12728412660539
 20
43.775131216924933
 30
0.0
 11
158.12728412660539
 21
48.275131216924919
 31
0.0
  0
LINE
  5
1103
  8
0
 10
152.00134017361211
 20
42.775131216924933
 30
0.0
 11
152.00134017361211
 21
43.775131216924933
 31
0.0
  0
LINE
  5
1104
  8
0
 10
153.37519908299649
 20
57.275131216924933
 30
0.0
 11
158.12728412660539
 21
57.275131216924933
 31
0.0
  0
LINE
  5
1105
  8
0
 10
158.12728412660539
 20
48.275131216924919
 30
0.0
 11
153.4224318009029
 21
48.275131216924919
 31
0.0
  0
LINE
  5
1106
  8
0
 10
152.00134017361211
 20
61.775131216924933
 30
0.0
 11
152.00134017361211
 21
62.775131216924933
 31
0.0
  0
LINE
  5
1107
  8
0
 10
156.50134017361211
 20
57.275131216924933
 30
0.0
 11
156.50134017361211
 21
48.275131216924919
 31
0.0
  0
LINE
  5
1108
  8
0
 10
158.12728412660539
 20
57.275131216924933
 30
0.0
 11
158.12728412660539
 21
61.775131216924933
 31
0.0
  0
ARC
  5
1109
  8
0
 10
184.5013401736191
 20
181.9417978835547
 30
0.0
 40
120.1666666666291
 50
278.07296016667101
 51
282.23100713257207
  0
ARC
  5
110A
  8
0
 10
212.50134017361191
 20
52.775131216924947
 30
0.0
 40
12.000000000000041
 50
273.61540591915889
 51
86.384594080841865
  0
ARC
  5
110B
  8
0
 10
212.50134017361441
 20
52.775131216953149
 30
0.0
 40
12.00000000002807
 50
257.76899286744788
 51
273.61540591913848
  0
ARC
  5
110C
  8
0
 10
184.5013401736052
 20
-76.391535449783561
 30
0.0
 40
120.16666666670901
 50
77.768992867430384
 51
81.927039833328635
  0
ARC
  5
110D
  8
0
 10
212.50134017361319
 20
52.775131216911049
 30
0.0
 40
12.000000000013779
 50
86.384594080852096
 51
102.2310071325621
  0
ARC
  5
110E
  8
0
 10
176.50134017361279
 20
351.48338121691978
 30
0.0
 40
171.9999999999948
 50
272.66588176484942
 51
281.2167917957745
  0
LINE
  5
110F
  8
0
 10
201.37682467701501
 20
171.4833812169249
 30
0.0
 11
169.28356095833789
 21
171.4833812169249
 31
0.0
  0
LINE
  5
1110
  8
1
 10
144.50134017361211
 20
97.066881216924941
 30
0.0
 11
144.50134017361211
 21
184.4833812169249
 31
0.0
  0
ARC
  5
1111
  8
0
 10
169.28356095833789
 20
159.4833812169251
 30
0.0
 40
12.00000000000003
 50
90.0
 51
158.3865020535537
  0
LINE
  5
1113
  8
0
 10
154.50134017361211
 20
152.06688121692491
 30
0.0
 11
154.50134017361211
 21
155.06688121692491
 31
0.0
  0
LINE
  5
1116
  8
0
 10
144.50134017361199
 20
179.4833812169249
 30
0.0
 11
176.50134017361211
 21
179.4833812169249
 31
0.0
  0
ARC
  5
1117
  8
0
 10
176.50134017361211
 20
351.4833812169249
 30
0.0
 40
171.99999999999989
 50
270.0000000000008
 51
272.66588176484942
  0
ARC
  5
1118
  8
0
 10
214.5000099342308
 20
172.98108778060461
 30
0.0
 40
10.501966338486531
 50
17.762493818072869
 51
102.0083082588627
  0
POLYLINE
  5
1119
  8
0
 66
     1
 10
0.0
 20
0.0
 30
0.0
 70
   128
  0
VERTEX
  5
1E0A
  8
0
 10
213.25804662187599
 20
167.79917069060909
 30
0.0
  0
VERTEX
  5
1E0B
  8
0
 10
211.6624650256563
 20
168.79200220864359
 30
0.0
  0
VERTEX
  5
1E0C
  8
0
 10
209.9590955330068
 20
169.64961785728789
 30
0.0
  0
SEQEND
  5
1E0D
  8
0
  0
ARC
  5
111A
  8
0
 10
201.3754489434715
 20
150.47694259013261
 30
0.0
 40
21.006438671841469
 50
65.881838294296273
 51
89.996247639732601
  0
ARC
  5
111B
  8
0
 10
217.50134017361179
 20
173.9833812169249
 30
0.0
 40
7.5000000000003162
 50
235.54404953870991
 51
338.96053021868511
  0
LINE
  5
111C
  8
0
 10
224.50134017361219
 20
171.2907988133577
 30
0.0
 11
224.50134017361219
 21
176.18494333564129
 31
0.0
  0
POLYLINE
  5
111D
  8
0
 66
     1
 10
0.0
 20
0.0
 30
0.0
 70
   128
  0
VERTEX
  5
1E0E
  8
0
 10
209.9590955330068
 20
182.76889278658621
 30
0.0
  0
VERTEX
  5
1E0F
  8
0
 10
211.12584183049501
 20
183.0044689311064
 30
0.0
  0
VERTEX
  5
1E10
  8
0
 10
212.31503880374919
 20
183.25324423062361
 30
0.0
  0
SEQEND
  5
1E11
  8
0
  0
ARC
  5
111E
  8
0
 10
184.50134017361179
 20
361.9417978835906
 30
0.0
 40
120.16666666666571
 50
270.0000000000008
 51
282.23100713257162
  0
ARC
  5
111F
  8
0
 10
184.50134017361091
 20
103.608464550249
 30
0.0
 40
120.16666666667589
 50
77.76899286742956
 51
89.999999999999588
  0
LINE
  5
1120
  8
1
 10
144.50134017361211
 20
245.2751312169249
 30
0.0
 11
144.50134017361211
 21
220.2751312169249
 31
0.0
  0
LINE
  5
1122
  8
0
 10
144.50134017361171
 20
237.2751312169249
 30
0.0
 11
156.50134017361179
 21
237.2751312169249
 31
0.0
  0
LINE
  5
1123
  8
0
 10
156.50134017361179
 20
228.2751312169249
 30
0.0
 11
144.50134017361171
 21
228.2751312169249
 31
0.0
  0
ARC
  5
1124
  8
0
 10
144.50134017361179
 20
232.77513121692499
 30
0.0
 40
10.0
 50
333.25631604959682
 51
26.743683950402279
  0
LINE
  5
1125
  8
0
 10
152.00134017361179
 20
228.2751312169249
 30
0.0
 11
152.00134017361179
 21
237.2751312169249
 31
0.0
  0
LINE
  5
1127
  8
0
 10
152.00134017361179
 20
222.77513121692499
 30
0.0
 11
152.00134017361179
 21
223.7751312169249
 31
0.0
  0
LINE
  5
1128
  8
0
 10
156.50134017361179
 20
237.2751312169249
 30
0.0
 11
156.50134017361179
 21
228.2751312169249
 31
0.0
  0
LINE
  5
1129
  8
0
 10
146.50134017361179
 20
222.7751312169249
 30
0.0
 11
146.50134017361179
 21
222.2751312169249
 31
0.0
  0
LINE
  5
112A
  8
0
 10
152.00134017361179
 20
241.7751312169249
 30
0.0
 11
152.00134017361179
 21
242.77513121692499
 31
0.0
  0
ARC
  5
112B
  8
0
 10
212.50134017361191
 20
232.7751312169249
 30
0.0
 40
12.00000000000005
 50
269.1104407450502
 51
90.889559254950626
  0
POLYLINE
  5
112C
  8
0
 66
     1
 10
0.0
 20
0.0
 30
0.0
 70
   128
  0
VERTEX
  5
1E12
  8
0
 10
209.95909553300649
 20
221.04751457127551
 30
0.0
  0
VERTEX
  5
1E13
  8
0
 10
211.12584183049469
 20
220.85422503039351
 30
0.0
  0
VERTEX
  5
1E14
  8
0
 10
212.31503880374879
 20
220.77657747909521
 30
0.0
  0
SEQEND
  5
1E15
  8
0
  0
POLYLINE
  5
112D
  8
0
 66
     1
 10
0.0
 20
0.0
 30
0.0
 70
   128
  0
VERTEX
  5
1E16
  8
0
 10
209.95909553300649
 20
244.5027478625743
 30
0.0
  0
VERTEX
  5
1E17
  8
0
 10
211.12584183049469
 20
244.6960374034563
 30
0.0
  0
VERTEX
  5
1E18
  8
0
 10
212.31503880374879
 20
244.7736849547546
 30
0.0
  0
SEQEND
  5
1E19
  8
0
  0
POLYLINE
  5
112E
  8
0
 66
     1
 10
0.0
 20
0.0
 30
0.0
 70
   128
  0
VERTEX
  5
1E1A
  8
0
 10
257.52790029478939
 20
167.8022596821437
 30
0.0
  0
VERTEX
  5
1E1B
  8
0
 10
257.62622584975782
 20
167.2469483475584
 30
0.0
  0
VERTEX
  5
1E1C
  8
0
 10
257.82345532107479
 20
166.8314038243322
 30
0.0
  0
VERTEX
  5
1E1D
  8
0
 10
258.11785018131309
 20
166.58460623531101
 30
0.0
  0
VERTEX
  5
1E1E
  8
0
 10
258.526700660556
 20
166.4877469711854
 30
0.0
  0
VERTEX
  5
1E1F
  8
0
 10
259.02709206336618
 20
166.53458501566891
 30
0.0
  0
VERTEX
  5
1E20
  8
0
 10
259.62596916347559
 20
166.7085917360387
 30
0.0
  0
VERTEX
  5
1E21
  8
0
 10
260.61859756776221
 20
167.14077013095351
 30
0.0
  0
VERTEX
  5
1E22
  8
0
 10
261.76219556113551
 20
167.7506167865258
 30
0.0
  0
VERTEX
  5
1E23
  8
0
 10
262.59643813311339
 20
168.232727724504
 30
0.0
  0
VERTEX
  5
1E24
  8
0
 10
263.4757956673825
 20
168.75515599604711
 30
0.0
  0
VERTEX
  5
1E25
  8
0
 10
265.38852890667141
 20
169.8720450702634
 30
0.0
  0
VERTEX
  5
1E26
  8
0
 10
266.47815928608838
 20
170.44430285683859
 30
0.0
  0
VERTEX
  5
1E27
  8
0
 10
267.64523776884511
 20
170.9410891795965
 30
0.0
  0
VERTEX
  5
1E28
  8
0
 10
268.5426787152681
 20
171.19266809670299
 30
0.0
  0
VERTEX
  5
1E29
  8
0
 10
269.50491839835792
 20
171.29079800721911
 30
0.0
  0
VERTEX
  5
1E2A
  8
0
 10
270.42368154855211
 20
171.2007137677935
 30
0.0
  0
VERTEX
  5
1E2B
  8
0
 10
271.3424027117033
 20
170.9478807931055
 30
0.0
  0
VERTEX
  5
1E2C
  8
0
 10
272.83654360260761
 20
170.29022062288709
 30
0.0
  0
VERTEX
  5
1E2D
  8
0
 10
274.25859828916032
 20
169.50636603811461
 30
0.0
  0
VERTEX
  5
1E2E
  8
0
 10
275.80410787981759
 20
168.58995269909161
 30
0.0
  0
VERTEX
  5
1E2F
  8
0
 10
277.27104735817687
 20
167.73238052914721
 30
0.0
  0
VERTEX
  5
1E30
  8
0
 10
278.33584249457499
 20
167.16260273346049
 30
0.0
  0
VERTEX
  5
1E31
  8
0
 10
279.31487325887508
 20
166.72801065226591
 30
0.0
  0
VERTEX
  5
1E32
  8
0
 10
279.98162850344357
 20
166.5289053006783
 30
0.0
  0
VERTEX
  5
1E33
  8
0
 10
280.55330967505751
 20
166.48734475878311
 30
0.0
  0
VERTEX
  5
1E34
  8
0
 10
280.9837009137155
 20
166.63312013884891
 30
0.0
  0
VERTEX
  5
1E35
  8
0
 10
281.28826827180632
 20
166.9971205381249
 30
0.0
  0
VERTEX
  5
1E36
  8
0
 10
281.41019562862618
 20
167.34879158583291
 30
0.0
  0
VERTEX
  5
1E37
  8
0
 10
281.48013491329829
 20
167.79608031919051
 30
0.0
  0
SEQEND
  5
1E38
  8
0
  0
POLYLINE
  5
112F
  8
0
 66
     1
 10
0.0
 20
0.0
 30
0.0
 70
   128
  0
VERTEX
  5
1E39
  8
0
 10
281.49879498521631
 20
183.27703972315371
 30
0.0
  0
VERTEX
  5
1E3A
  8
0
 10
281.44922445877899
 20
183.44876135266011
 30
0.0
  0
VERTEX
  5
1E3B
  8
0
 10
281.22261677374939
 20
183.46310023217279
 30
0.0
  0
VERTEX
  5
1E3C
  8
0
 10
280.84682260754789
 20
183.3018732584656
 30
0.0
  0
VERTEX
  5
1E3D
  8
0
 10
280.31728528344303
 20
182.97746009423139
 30
0.0
  0
VERTEX
  5
1E3E
  8
0
 10
279.47094619391447
 20
182.37594073740431
 30
0.0
  0
VERTEX
  5
1E3F
  8
0
 10
278.43800582389952
 20
181.58714295492811
 30
0.0
  0
VERTEX
  5
1E40
  8
0
 10
277.67836787000198
 20
180.99171903181301
 30
0.0
  0
VERTEX
  5
1E41
  8
0
 10
276.87060270639768
 20
180.3550835713788
 30
0.0
  0
VERTEX
  5
1E42
  8
0
 10
275.99652266183688
 20
179.67020987143911
 30
0.0
  0
VERTEX
  5
1E43
  8
0
 10
275.08088606528707
 20
178.9674970871406
 30
0.0
  0
VERTEX
  5
1E44
  8
0
 10
273.60821842753018
 20
177.89985984915219
 30
0.0
  0
VERTEX
  5
1E45
  8
0
 10
271.98517007293998
 20
176.90182573685269
 30
0.0
  0
VERTEX
  5
1E46
  8
0
 10
271.22255259521143
 20
176.5469434755164
 30
0.0
  0
VERTEX
  5
1E47
  8
0
 10
270.40048771174799
 20
176.28712624607911
 30
0.0
  0
VERTEX
  5
1E48
  8
0
 10
269.50618102352928
 20
176.18494236663241
 30
0.0
  0
VERTEX
  5
1E49
  8
0
 10
268.65788159437187
 20
176.27746614141819
 30
0.0
  0
VERTEX
  5
1E4A
  8
0
 10
267.80962602517349
 20
176.53999838387881
 30
0.0
  0
VERTEX
  5
1E4B
  8
0
 10
266.52608383103802
 20
177.18278366715779
 30
0.0
  0
VERTEX
  5
1E4C
  8
0
 10
265.31522876253882
 20
177.96389258817561
 30
0.0
  0
VERTEX
  5
1E4D
  8
0
 10
264.22709019846781
 20
178.7485660921879
 30
0.0
  0
VERTEX
  5
1E4E
  8
0
 10
263.19295668713391
 20
179.53755138843209
 30
0.0
  0
VERTEX
  5
1E4F
  8
0
 10
262.1809506752989
 20
180.32952597454809
 30
0.0
  0
VERTEX
  5
1E50
  8
0
 10
261.22827106340088
 20
181.08123750559221
 30
0.0
  0
VERTEX
  5
1E51
  8
0
 10
260.11325899547882
 20
181.9507339429465
 30
0.0
  0
VERTEX
  5
1E52
  8
0
 10
259.1211729526056
 20
182.6902923875175
 30
0.0
  0
VERTEX
  5
1E53
  8
0
 10
258.47510044841363
 20
183.12787946234491
 30
0.0
  0
VERTEX
  5
1E54
  8
0
 10
257.966411370694
 20
183.40744072509119
 30
0.0
  0
VERTEX
  5
1E55
  8
0
 10
257.64561640050232
 20
183.48475221191299
 30
0.0
  0
VERTEX
  5
1E56
  8
0
 10
257.51080757379401
 20
183.3410181947709
 30
0.0
  0
VERTEX
  5
1E57
  8
0
 10
257.51001952160232
 20
183.29181884232531
 30
0.0
  0
SEQEND
  5
1E58
  8
0
  0
LINE
  5
1131
  8
0
 10
279.50073250737142
 20
155.06430108169999
 30
0.0
 11
259.5007331729438
 21
155.0694608196919
 31
0.0
  0
LINE
  5
1132
  8
0
 10
279.49995854667259
 20
152.06430118153591
 30
0.0
 11
259.49995921224507
 21
152.06946091952781
 31
0.0
  0
LINE
  5
1133
  8
0
 10
280.39727521374391
 20
166.48057016534449
 30
0.0
 11
258.60216197983817
 21
166.4861930192211
 31
0.0
  0
LINE
  5
1134
  8
0
 10
257.6864858743487
 20
183.48642981740511
 30
0.0
 11
281.318957061182
 21
183.4803329492309
 31
0.0
  0
LINE
  5
1135
  8
1
 10
269.4986689449608
 20
97.066881216924941
 30
0.0
 11
269.5040114022633
 21
188.4833812169249
 31
0.0
  0
LINE
  5
1136
  8
0
 10
281.50801109052878
 20
183.2770373455192
 30
0.0
 11
281.50413866363778
 21
168.2668691231884
 31
0.0
  0
LINE
  5
1137
  8
0
 10
278.50367784808918
 20
166.4810586886741
 30
0.0
 11
278.50073686380051
 21
155.08131631673589
 31
0.0
  0
LINE
  5
1138
  8
0
 10
274.00073701355439
 20
155.08247725778409
 30
0.0
 11
274.00367799784311
 21
166.48221962972241
 31
0.0
  0
LINE
  5
1139
  8
0
 10
279.50073250737142
 20
155.06430108169999
 30
0.0
 11
279.49995854667259
 21
152.06430118153591
 31
0.0
  0
LINE
  5
113B
  8
0
 10
274.00301242337213
 20
163.9023427063718
 30
0.0
 11
278.50301227361831
 21
163.9011817653236
 31
0.0
  0
LINE
  5
113C
  8
0
 10
279.50225888686282
 20
160.980800884807
 30
0.0
 11
279.5036778148106
 21
166.4808007017746
 31
0.0
  0
LINE
  5
113D
  8
0
 10
279.50225888686282
 20
160.980800884807
 30
0.0
 11
278.50225892014129
 21
160.98105887170661
 31
0.0
  0
LINE
  5
113E
  8
0
 10
281.48013491329829
 20
167.79608031919051
 30
0.0
 11
281.47766019153852
 21
168.2668759542876
 31
0.0
  0
LINE
  5
1140
  8
0
 10
257.50413946232487
 20
168.27306080877869
 30
0.0
 11
257.50801410540811
 21
183.29181935969649
 31
0.0
  0
LINE
  5
1141
  8
0
 10
260.50367844710451
 20
166.48570245286689
 30
0.0
 11
260.50073746281578
 21
155.0859600809286
 31
0.0
  0
LINE
  5
1142
  8
0
 10
265.00367829735069
 20
166.48454151181869
 30
0.0
 11
265.00073731306202
 21
155.08479913988049
 31
0.0
  0
LINE
  5
1144
  8
0
 10
259.49995921224507
 20
152.06946091952781
 30
0.0
 11
259.5007331729438
 21
155.0694608196919
 31
0.0
  0
LINE
  5
1145
  8
0
 10
260.50301287263352
 20
163.90582552951631
 30
0.0
 11
265.00301272287982
 21
163.90466458846811
 31
0.0
  0
LINE
  5
1147
  8
0
 10
259.50225955243531
 20
160.9859606227989
 30
0.0
 11
259.5036784803832
 21
166.4859604397665
 31
0.0
  0
LINE
  5
1148
  8
0
 10
260.50225951915672
 20
160.98570263589929
 30
0.0
 11
259.50225955243531
 21
160.9859606227989
 31
0.0
  0
LINE
  5
1149
  8
0
 10
257.52790029478939
 20
167.8022596821437
 30
0.0
 11
257.53061793442407
 21
168.27305397767961
 31
0.0
  0
TEXT
  5
125F
  8
0
 62
     3
 10
0.0
 20
0.0
 30
0.0
 40
10.0
  1
QLCA-08X50-NP
  7
STANDARD1
  0
LINE
  5
12D1
  8
0
 10
142.50134017361211
 20
63.275131216924912
 30
0.0
 11
146.50134017361199
 21
63.275131216924912
 31
0.0
  0
LINE
  5
12D2
  8
0
 10
142.50134017361211
 20
62.775131216924898
 30
0.0
 11
142.50134017361211
 21
63.275131216924912
 31
0.0
  0
LINE
  5
12D3
  8
0
 10
146.50134017361199
 20
63.275131216924912
 30
0.0
 11
146.50134017361199
 21
62.775131216924898
 31
0.0
  0
LINE
  5
17EE
  8
0
 10
143.5013401261121
 20
169.06073231622489
 30
0.0
 11
143.5013401261121
 21
167.90603015942489
 31
0.0
  0
LINE
  5
17EF
  8
0
 10
144.50134017361211
 20
167.32868094372489
 30
0.0
 11
145.50134022111209
 21
167.90603015942489
 31
0.0
  0
LINE
  5
17F0
  8
0
 10
145.50134022111209
 20
167.90603015942489
 30
0.0
 11
145.50134022111209
 21
169.06073231622489
 31
0.0
  0
LINE
  5
17F1
  8
0
 10
145.50134022111209
 20
169.06073231622489
 30
0.0
 11
144.50134017361211
 21
169.63808153192491
 31
0.0
  0
CIRCLE
  5
17F2
  8
0
 10
144.50134017361211
 20
168.4833812169249
 30
0.0
 40
2.0
  0
LINE
  5
17F3
  8
0
 10
143.5013401261121
 20
167.90603015942489
 30
0.0
 11
144.50134017361211
 21
167.32868094372489
 31
0.0
  0
LINE
  5
17F4
  8
0
 10
144.50134017361211
 20
169.63808153192491
 30
0.0
 11
143.5013401261121
 21
169.06073231622489
 31
0.0
  0
LINE
  5
1950
  8
0
 10
85.498686973825968
 20
156.06688153810549
 30
0.0
 11
85.498686973825926
 21
155.06688062920551
 31
0.0
  0
LINE
  5
1951
  8
0
 10
85.498686973825926
 20
152.06688060310549
 30
0.0
 11
85.498686973825968
 21
103.31688313630551
 31
0.0
  0
LINE
  5
1952
  8
0
 10
93.498687353825943
 20
103.31688313630551
 30
0.0
 11
93.498687353825886
 21
152.06688060310549
 31
0.0
  0
LINE
  5
1953
  8
0
 10
93.498687353825943
 20
155.06688062920551
 30
0.0
 11
93.498687353825943
 21
156.06688153810549
 31
0.0
  0
LINE
  5
1954
  8
0
 10
85.498686973825968
 20
177.31688222730551
 30
0.0
 11
85.498686973825968
 21
175.30812922448101
 31
0.0
  0
LINE
  5
1955
  8
0
 10
85.498686973825968
 20
161.70277255000701
 30
0.0
 11
85.498686973825968
 21
161.0668809607055
 31
0.0
  0
LINE
  5
1956
  8
0
 10
93.498687353825943
 20
161.0668809607055
 30
0.0
 11
93.498687353825986
 21
161.70327826798999
 31
0.0
  0
LINE
  5
1957
  8
0
 10
93.498687353825943
 20
175.30702332414199
 30
0.0
 11
93.498687353825943
 21
177.31688222730551
 31
0.0
  0
LINE
  5
1958
  8
0
 10
85.498686973825968
 20
103.31688313630551
 30
0.0
 11
86.74868717872593
 21
102.0668806031055
 31
0.0
  0
LINE
  5
1959
  8
0
 10
92.248687148925924
 20
102.0668806031055
 30
0.0
 11
93.498687353825943
 21
103.31688313630551
 31
0.0
  0
LINE
  5
195A
  8
0
 10
86.248687096825918
 20
178.06688188460549
 30
0.0
 11
85.498686973825968
 21
177.31688222730551
 31
0.0
  0
LINE
  5
195B
  8
0
 10
93.498687353825943
 20
177.31688222730551
 30
0.0
 11
92.748687230925924
 21
178.06688188460549
 31
0.0
  0
LINE
  5
195C
  8
0
 10
85.79868716272594
 20
161.0668809607055
 30
0.0
 11
85.79868716272594
 21
158.5668814822055
 31
0.0
  0
LINE
  5
195D
  8
0
 10
93.198687164925914
 20
158.5668814822055
 30
0.0
 11
93.198687164925914
 21
161.0668809607055
 31
0.0
  0
LINE
  5
195E
  8
0
 10
85.948687140725923
 20
158.5668814822055
 30
0.0
 11
85.948687140725923
 21
156.06688153810549
 31
0.0
  0
LINE
  5
195F
  8
0
 10
93.048687186925946
 20
156.06688153810549
 30
0.0
 11
93.048687186925946
 21
158.5668814822055
 31
0.0
  0
LINE
  5
19E8
  8
0
 10
85.498686973825968
 20
156.06688153810549
 30
0.0
 11
93.498687353825943
 21
156.06688153810549
 31
0.0
  0
LINE
  5
19E9
  8
0
 10
85.498686973825968
 20
103.31688313630551
 30
0.0
 11
93.498687353825943
 21
103.31688313630551
 31
0.0
  0
LINE
  5
19EA
  8
0
 10
85.498686973825968
 20
161.0668809607055
 30
0.0
 11
93.498687353825943
 21
161.0668809607055
 31
0.0
  0
LINE
  5
19EB
  8
0
 10
93.498687353825943
 20
177.31688222730551
 30
0.0
 11
85.498686973825968
 21
177.31688222730551
 31
0.0
  0
LINE
  5
19F0
  8
0
 10
92.248687148925924
 20
102.0668806031055
 30
0.0
 11
86.74868717872593
 21
102.0668806031055
 31
0.0
  0
LINE
  5
19F1
  8
0
 10
86.248687096825918
 20
178.06688188460549
 30
0.0
 11
92.748687230925924
 21
178.06688188460549
 31
0.0
  0
LINE
  5
19F5
  8
0
 10
85.79868716272594
 20
158.5668814822055
 30
0.0
 11
93.198687164925914
 21
158.5668814822055
 31
0.0
  0
ARC
  5
19FC
  8
0
 10
89.500272659825924
 20
186.77693581390551
 30
0.0
 40
12.14686019463575
 50
248.2475830662006
 51
291.73631381359922
  0
ARC
  5
19FD
  8
0
 10
89.49941222432588
 20
150.23322510680549
 30
0.0
 40
12.147276282436231
 50
68.260099470301242
 51
111.7472643276988
  0
CIRCLE
  5
1AB5
  8
0
 10
144.50134017361211
 20
52.775131216924919
 30
0.0
 40
4.0
  0
CIRCLE
  5
1AB6
  8
0
 10
144.50134017361211
 20
52.775131216924919
 30
0.0
 40
2.75
  0
ARC
  5
1B6E
  8
0
 10
144.50134017361211
 20
232.7751312169249
 30
0.0
 40
3.2500000000000222
 50
101.53695903279809
 51
258.46304096720178
  0
LINE
  5
1B71
  8
0
 10
143.85134017191211
 20
236.7219654607249
 30
0.0
 11
143.85134017191211
 21
228.82829704283171
 31
0.0
  0
ARC
  5
1B73
  8
0
 10
144.50134017361211
 20
232.7751312169249
 30
0.0
 40
3.2500000000000111
 50
281.53695903279822
 51
78.463040967201835
  0
LINE
  5
1B74
  8
0
 10
145.151340175412
 20
228.82829704284819
 30
0.0
 11
145.15134017541209
 21
236.7219654607249
 31
0.0
  0
CIRCLE
  5
1C03
  8
0
 10
144.50134017361211
 20
232.7751312169249
 30
0.0
 40
4.0000000687965063
  0
LINE
  5
1C50
  8
3
 10
92.82218735382601
 20
102.6403818762298
 30
0.0
 11
92.822187353825996
 21
152.06523378339841
 31
0.0
  0
LINE
  5
1C51
  8
3
 10
86.175187353825777
 20
102.6403814962292
 30
0.0
 11
86.175187353825777
 21
152.0685274226243
 31
0.0
  0
LINE
  5
1C53
  8
3
 10
92.822187353825996
 20
175.09313954069819
 30
0.0
 11
92.822187353825996
 21
177.99338180733429
 31
0.0
  0
LINE
  5
1C54
  8
3
 10
86.175187353825763
 20
175.09404146807461
 30
0.0
 11
86.175187353825777
 21
177.99338218724381
 31
0.0
  0
LINE
  5
1C55
  8
3
 10
86.175187353825763
 20
161.0668809607055
 30
0.0
 11
86.175187353825763
 21
161.9167969105043
 31
0.0
  0
LINE
  5
1C56
  8
3
 10
92.822187353825996
 20
161.0668809607055
 30
0.0
 11
92.82218735382601
 21
161.91720929545511
 31
0.0
  0
LINE
  5
1C57
  8
3
 10
92.822187353825996
 20
155.06523415169011
 30
0.0
 11
92.822187353825996
 21
156.06688153810549
 31
0.0
  0
LINE
  5
1C58
  8
3
 10
86.175187353825777
 20
155.06852779091599
 30
0.0
 11
86.175187353825777
 21
156.06688153810549
 31
0.0
  0
LINE
  5
1C59
  8
0
 10
140.50133998361221
 20
155.9321868759981
 30
0.0
 11
140.50133998361221
 21
155.06688124302491
 31
0.0
  0
LINE
  5
1C5A
  8
0
 10
140.50133998361221
 20
152.06688121692491
 30
0.0
 11
140.50133998361221
 21
103.3168837501249
 31
0.0
  0
LINE
  5
1C5B
  8
0
 10
148.5013403636122
 20
103.3168837501249
 30
0.0
 11
148.50134036361209
 21
152.06688121692491
 31
0.0
  0
LINE
  5
1C5C
  8
0
 10
148.5013403636122
 20
155.06688124302491
 30
0.0
 11
148.5013403636122
 21
155.45413983831639
 31
0.0
  0
LINE
  5
1C5F
  8
0
 10
140.50133998361221
 20
103.3168837501249
 30
0.0
 11
141.75134018851219
 21
102.0668812169249
 31
0.0
  0
LINE
  5
1C60
  8
0
 10
147.2513401587122
 20
102.0668812169249
 30
0.0
 11
148.5013403636122
 21
103.3168837501249
 31
0.0
  0
LINE
  5
1C66
  8
0
 10
140.50133998361221
 20
103.3168837501249
 30
0.0
 11
148.5013403636122
 21
103.3168837501249
 31
0.0
  0
LINE
  5
1C68
  8
0
 10
147.2513401587122
 20
102.0668812169249
 30
0.0
 11
141.75134018851219
 21
102.0668812169249
 31
0.0
  0
LINE
  5
1C6B
  8
3
 10
147.8248403636122
 20
102.64038249004921
 30
0.0
 11
147.8248403636122
 21
152.06523439721781
 31
0.0
  0
LINE
  5
1C6C
  8
3
 10
147.8248403636122
 20
155.0652347655095
 30
0.0
 11
147.8248403636122
 21
155.33171673591809
 31
0.0
  0
LINE
  5
1C6E
  8
3
 10
141.17784036361201
 20
102.64038211004861
 30
0.0
 11
141.17784036361201
 21
152.06852803644369
 31
0.0
  0
LINE
  5
1C6F
  8
3
 10
141.17784036361201
 20
155.0685284047353
 30
0.0
 11
141.17784036361201
 21
155.7278432088267
 31
0.0
  0
LINE
  5
1C71
  8
0
 10
265.50188300127422
 20
156.06688148908461
 30
0.0
 11
265.50188300127411
 21
155.0668805801846
 31
0.0
  0
LINE
  5
1C72
  8
0
 10
265.50188300127411
 20
152.06688055408449
 30
0.0
 11
265.50188300127422
 21
103.31688308728449
 31
0.0
  0
LINE
  5
1C73
  8
0
 10
273.50188338127413
 20
103.31688308728449
 30
0.0
 11
273.50188338127413
 21
152.06688055408449
 31
0.0
  0
LINE
  5
1C74
  8
0
 10
273.50188338127413
 20
155.0668805801846
 30
0.0
 11
273.50188338127413
 21
156.06688148908461
 31
0.0
  0
LINE
  5
1C75
  8
0
 10
265.50188300127422
 20
161.7027725009861
 30
0.0
 11
265.50188300127422
 21
161.06688091168459
 31
0.0
  0
LINE
  5
1C76
  8
0
 10
273.50188338127413
 20
161.06688091168459
 30
0.0
 11
273.50188338127418
 21
161.7032782189691
 31
0.0
  0
LINE
  5
1C77
  8
0
 10
265.50188300127422
 20
103.31688308728449
 30
0.0
 11
266.75188320617411
 21
102.06688055408451
 31
0.0
  0
LINE
  5
1C78
  8
0
 10
272.25188317637412
 20
102.06688055408451
 30
0.0
 11
273.50188338127413
 21
103.31688308728449
 31
0.0
  0
LINE
  5
1C79
  8
0
 10
265.80188319017412
 20
161.06688091168459
 30
0.0
 11
265.80188319017412
 21
158.56688143318451
 31
0.0
  0
LINE
  5
1C7A
  8
0
 10
273.20188319237411
 20
158.56688143318451
 30
0.0
 11
273.20188319237411
 21
161.06688091168459
 31
0.0
  0
LINE
  5
1C7B
  8
0
 10
265.95188316817411
 20
158.56688143318451
 30
0.0
 11
265.95188316817411
 21
156.06688148908461
 31
0.0
  0
LINE
  5
1C7C
  8
0
 10
273.05188321437407
 20
156.06688148908461
 30
0.0
 11
273.05188321437407
 21
158.56688143318451
 31
0.0
  0
LINE
  5
1C7D
  8
0
 10
265.50188300127422
 20
156.06688148908461
 30
0.0
 11
273.50188338127413
 21
156.06688148908461
 31
0.0
  0
LINE
  5
1C7E
  8
0
 10
265.50188300127422
 20
103.31688308728449
 30
0.0
 11
273.50188338127413
 21
103.31688308728449
 31
0.0
  0
LINE
  5
1C7F
  8
0
 10
265.50188300127422
 20
161.06688091168459
 30
0.0
 11
273.50188338127413
 21
161.06688091168459
 31
0.0
  0
LINE
  5
1C80
  8
0
 10
272.25188317637412
 20
102.06688055408451
 30
0.0
 11
266.75188320617411
 21
102.06688055408451
 31
0.0
  0
LINE
  5
1C81
  8
0
 10
265.80188319017412
 20
158.56688143318451
 30
0.0
 11
273.20188319237411
 21
158.56688143318451
 31
0.0
  0
ARC
  5
1C82
  8
0
 10
269.50260825177412
 20
150.23322505778461
 30
0.0
 40
12.147276282436231
 50
68.260099470301256
 51
111.7472643276988
  0
LINE
  5
1C83
  8
3
 10
272.82538338127421
 20
102.6403818272089
 30
0.0
 11
272.82538338127421
 21
152.0652337343775
 31
0.0
  0
LINE
  5
1C84
  8
3
 10
272.82538338127421
 20
155.06523410266919
 30
0.0
 11
272.82538338127421
 21
156.06688148908461
 31
0.0
  0
LINE
  5
1C85
  8
3
 10
272.82538338127421
 20
161.06688091168451
 30
0.0
 11
272.82538338127421
 21
161.91720924643411
 31
0.0
  0
LINE
  5
1C86
  8
3
 10
266.17838338127399
 20
102.6403814472083
 30
0.0
 11
266.17838338127399
 21
152.0685273736033
 31
0.0
  0
LINE
  5
1C87
  8
3
 10
266.17838338127399
 20
155.068527741895
 30
0.0
 11
266.17838338127399
 21
156.06688148908449
 31
0.0
  0
LINE
  5
1C88
  8
3
 10
266.17838338127387
 20
161.06688091168459
 30
0.0
 11
266.17838338127387
 21
161.91679686148339
 31
0.0
  0
CIRCLE
  5
1CCC
  8
3
 10
144.4995641706592
 20
52.775131216924919
 30
0.0
 40
3.325276192952912
  0
ARC
  5
1CCD
  8
3
 10
144.49956417065931
 20
232.7751312169249
 30
0.0
 40
3.325276192952912
 50
101.24112473118549
 51
258.75887526881439
  0
ARC
  5
1CCE
  8
3
 10
144.49956417065931
 20
232.7751312169249
 30
0.0
 40
3.325276192952912
 50
281.30353102357662
 51
78.696468976422381
  0
ENDSEC
  0
EOF
