  0
SECTION
  2
HEADER
  9
$ACADVER
  1
AC1009
  9
$INSBASE
 10
0.0
 20
0.0
 30
0.0
  9
$EXTMIN
 10
0.0
 20
-2.960436562073669
 30
0.0
  9
$EXTMAX
 10
291.84016586070658
 20
288.98759306940639
 30
0.0
  9
$LIMMIN
 10
0.0
 20
0.0
  9
$LIMMAX
 10
770.0
 20
540.0
  9
$ORTHOMODE
 70
     1
  9
$REGENMODE
 70
     1
  9
$FILLMODE
 70
     1
  9
$QTEXTMODE
 70
     0
  9
$MIRRTEXT
 70
     0
  9
$DRAGMODE
 70
     2
  9
$LTSCALE
 40
10.0
  9
$OSMODE
 70
    37
  9
$ATTMODE
 70
     1
  9
$TEXTSIZE
 40
4.000000000000048
  9
$TRACEWID
 40
0.05
  9
$TEXTSTYLE
  7
STANDARD
  9
$CLAYER
  8
0
  9
$CELTYPE
  6
BYLAYER
  9
$CECOLOR
 62
   256
  9
$DIMSCALE
 40
1.0
  9
$DIMASZ
 40
3.0
  9
$DIMEXO
 40
2.0
  9
$DIMDLI
 40
0.38
  9
$DIMRND
 40
0.0
  9
$DIMDLE
 40
0.0
  9
$DIMEXE
 40
2.0
  9
$DIMTP
 40
0.0
  9
$DIMTM
 40
0.0
  9
$DIMTXT
 40
3.0
  9
$DIMCEN
 40
0.0
  9
$DIMTSZ
 40
0.0
  9
$DIMTOL
 70
     0
  9
$DIMLIM
 70
     0
  9
$DIMTIH
 70
     0
  9
$DIMTOH
 70
     0
  9
$DIMSE1
 70
     0
  9
$DIMSE2
 70
     0
  9
$DIMTAD
 70
     1
  9
$DIMZIN
 70
     0
  9
$DIMBLK
  1

  9
$DIMASO
 70
     0
  9
$DIMSHO
 70
     0
  9
$DIMPOST
  1

  9
$DIMAPOST
  1

  9
$DIMALT
 70
     0
  9
$DIMALTD
 70
     2
  9
$DIMALTF
 40
25.399999999999999
  9
$DIMLFAC
 40
1.0
  9
$DIMTOFL
 70
     0
  9
$DIMTVP
 40
1.6000000000000001
  9
$DIMTIX
 70
     1
  9
$DIMSOXD
 70
     0
  9
$DIMSAH
 70
     0
  9
$DIMBLK1
  1

  9
$DIMBLK2
  1

  9
$DIMSTYLE
  2
STANDARD
  9
$DIMCLRD
 70
     4
  9
$DIMCLRE
 70
     4
  9
$DIMCLRT
 70
     4
  9
$DIMTFAC
 40
1.0
  9
$DIMGAP
 40
0.09
  9
$LUNITS
 70
     2
  9
$LUPREC
 70
     1
  9
$SKETCHINC
 40
0.1
  9
$FILLETRAD
 40
0.0
  9
$AUNITS
 70
     0
  9
$AUPREC
 70
     0
  9
$MENU
  1
E:\r13\win\SUPPORT\ACAD
  9
$ELEVATION
 40
0.0
  9
$PELEVATION
 40
0.0
  9
$THICKNESS
 40
0.0
  9
$LIMCHECK
 70
     0
  9
$BLIPMODE
 70
     0
  9
$CHAMFERA
 40
1.1999999999999991
  9
$CHAMFERB
 40
1.1999999999999991
  9
$SKPOLY
 70
     0
  9
$TDCREATE
 40
2450158.583426042
  9
$TDUPDATE
 40
2457162.4637678131
  9
$TDINDWG
 40
0.2483986111
  9
$TDUSRTIMER
 40
0.2483986111
  9
$USRTIMER
 70
     1
  9
$ANGBASE
 50
0.0
  9
$ANGDIR
 70
     0
  9
$PDMODE
 70
     0
  9
$PDSIZE
 40
0.0
  9
$PLINEWID
 40
0.0
  9
$COORDS
 70
     1
  9
$SPLFRAME
 70
     0
  9
$SPLINETYPE
 70
     6
  9
$SPLINESEGS
 70
     8
  9
$ATTDIA
 70
     0
  9
$ATTREQ
 70
     1
  9
$HANDLING
 70
     1
  9
$HANDSEED
  5
3883
  9
$SURFTAB1
 70
     6
  9
$SURFTAB2
 70
     6
  9
$SURFTYPE
 70
     6
  9
$SURFU
 70
     6
  9
$SURFV
 70
     6
  9
$UCSNAME
  2

  9
$UCSORG
 10
0.0
 20
0.0
 30
0.0
  9
$UCSXDIR
 10
1.0
 20
0.0
 30
0.0
  9
$UCSYDIR
 10
0.0
 20
1.0
 30
0.0
  9
$PUCSNAME
  2

  9
$PUCSORG
 10
0.0
 20
0.0
 30
0.0
  9
$PUCSXDIR
 10
1.0
 20
0.0
 30
0.0
  9
$PUCSYDIR
 10
0.0
 20
1.0
 30
0.0
  9
$USERI1
 70
     3
  9
$USERI2
 70
     1
  9
$USERI3
 70
     0
  9
$USERI4
 70
     0
  9
$USERI5
 70
     0
  9
$USERR1
 40
2.0
  9
$USERR2
 40
3.0
  9
$USERR3
 40
3.0
  9
$USERR4
 40
3.0
  9
$USERR5
 40
10.0
  9
$WORLDVIEW
 70
     1
  9
$SHADEDGE
 70
     3
  9
$SHADEDIF
 70
    70
  9
$TILEMODE
 70
     1
  9
$MAXACTVP
 70
    16
  9
$PLIMCHECK
 70
     0
  9
$PEXTMIN
 10
1.0000000000000000E+020
 20
1.0000000000000000E+020
 30
1.0000000000000000E+020
  9
$PEXTMAX
 10
-1.0000000000000000E+020
 20
-1.0000000000000000E+020
 30
-1.0000000000000000E+020
  9
$PLIMMIN
 10
0.0
 20
0.0
  9
$PLIMMAX
 10
12.0
 20
9.0
  9
$UNITMODE
 70
     0
  9
$VISRETAIN
 70
     0
  9
$PLINEGEN
 70
     0
  9
$PSLTSCALE
 70
     0
  0
ENDSEC
  0
SECTION
  2
TABLES
  0
TABLE
  2
VPORT
 70
     1
  0
VPORT
  2
*ACTIVE
 70
     0
 10
0.0
 20
0.0
 11
1.0
 21
1.0
 12
147.74525047144431
 22
143.01623420806209
 13
0.0
 23
0.0
 14
10.0
 24
10.0
 15
10.0
 25
10.0
 16
0.0
 26
0.0
 36
1.0
 17
0.0
 27
0.0
 37
0.0
 40
294.44544359426101
 41
1.368715083798882
 42
50.0
 43
0.0
 44
0.0
 50
0.0
 51
0.0
 71
     0
 72
   500
 73
     1
 74
     0
 75
     0
 76
     0
 77
     0
 78
     2
  0
ENDTAB
  0
TABLE
  2
LTYPE
 70
     4
  0
LTYPE
  2
CONTINUOUS
 70
     0
  3
Solid Line
 72
    65
 73
     0
 40
0.0
  0
LTYPE
  2
CENTER
 70
     0
  3
____ _ ____ _ ____ _ ____ _ ____ _ ____ _ ____
 72
    65
 73
     4
 40
2.0
 49
1.25
 49
-0.25
 49
0.25
 49
-0.25
  0
LTYPE
  2
HIDDEN
 70
     0
  3
_ _ _ _ _ _ _ _ _ _ _ _ _ _ _ _ _ _ _ _ _ _ _
 72
    65
 73
     2
 40
0.375
 49
0.25
 49
-0.125
  0
LTYPE
  2
PHANTOM2
 70
     0
  3
___ _ _ ___ _ _ ___ _ _ ___ _ _
 72
    65
 73
     6
 40
1.25
 49
0.625
 49
-0.125
 49
0.125
 49
-0.125
 49
0.125
 49
-0.125
  0
ENDTAB
  0
TABLE
  2
LAYER
 70
     5
  0
LAYER
  2
0
 70
     0
 62
     7
  6
CONTINUOUS
  0
LAYER
  2
1
 70
     0
 62
     1
  6
CENTER
  0
LAYER
  2
2
 70
     0
 62
     2
  6
HIDDEN
  0
LAYER
  2
3
 70
     0
 62
     3
  6
CONTINUOUS
  0
LAYER
  2
DEFPOINTS
 70
     0
 62
     7
  6
CONTINUOUS
  0
ENDTAB
  0
TABLE
  2
STYLE
 70
     2
  0
STYLE
  2
STANDARD
 70
     0
 40
0.0
 41
1.0
 50
0.0
 71
     0
 42
4.000000000000048
  3
SIMPLEX
  4
BIGFONT
  0
STYLE
  2
STANDARD1
 70
     0
 40
0.0
 41
1.0
 50
0.0
 71
     0
 42
3.0
  3
txt
  4

  0
ENDTAB
  0
TABLE
  2
VIEW
 70
     1
  0
VIEW
  2
ALL
 70
     0
 40
179.5384664489153
 10
146.94997169852391
 20
89.769233224457665
 41
0.0
 11
0.0
 21
0.0
 31
1.0
 12
0.0
 22
0.0
 32
0.0
 42
50.0
 43
0.0
 44
0.0
 50
0.0
 71
     0
  0
ENDTAB
  0
TABLE
  2
UCS
 70
     0
  0
ENDTAB
  0
TABLE
  2
APPID
 70
     4
  0
APPID
  2
ACAD
 70
     0
  0
APPID
  2
ACAD_MLEADERVER
 70
     0
  0
APPID
  2
ACAD_EXEMPT_FROM_CAD_STANDARDS
 70
     0
  0
APPID
  2
ACAD_NAV_VCDISPLAY
 70
     0
  0
ENDTAB
  0
TABLE
  2
DIMSTYLE
 70
     2
  0
DIMSTYLE
  2
STANDARD
 70
     0
  3

  4

  5

  6

  7

 40
1.0
 41
0.18
 42
0.0625
 43
0.38
 44
0.18
 45
0.0
 46
0.0
 47
0.0
 48
0.0
140
0.18
141
0.09
142
0.0
143
25.399999999999999
144
1.0
145
0.0
146
1.0
147
0.09
 71
     0
 72
     0
 73
     1
 74
     1
 75
     0
 76
     0
 77
     0
 78
     0
170
     0
171
     2
172
     0
173
     0
174
     0
175
     0
176
     0
177
     0
178
     0
  0
DIMSTYLE
  2
ISO-25
 70
     0
  3

  4

  5

  6

  7

 40
1.0
 41
2.5
 42
0.625
 43
3.75
 44
1.25
 45
0.0
 46
0.0
 47
0.0
 48
0.0
140
2.5
141
2.5
142
0.0
143
0.0393700787
144
1.0
145
0.0
146
1.0
147
0.625
 71
     0
 72
     0
 73
     0
 74
     0
 75
     0
 76
     0
 77
     1
 78
     8
170
     0
171
     3
172
     1
173
     0
174
     0
175
     0
176
     0
177
     0
178
     0
  0
ENDTAB
  0
ENDSEC
  0
SECTION
  2
BLOCKS
  0
BLOCK
  8
0
  2
$MODEL_SPACE
 70
     0
 10
0.0
 20
0.0
 30
0.0
  3
$MODEL_SPACE
  1

  0
ENDBLK
  5
644
  8
0
  0
BLOCK
 67
     1
  8
0
  2
$PAPER_SPACE
 70
     0
 10
0.0
 20
0.0
 30
0.0
  3
$PAPER_SPACE
  1

  0
ENDBLK
  5
642
 67
     1
  8
0
  0
ENDSEC
  0
SECTION
  2
ENTITIES
  0
LINE
  5
1A42
  8
0
 10
271.35355776239351
 20
169.89431432003221
 30
0.0
 11
265.35355776239351
 21
169.89431432003221
 31
0.0
  0
LINE
  5
1A43
  8
0
 10
271.35355776239368
 20
158.44984288314191
 30
0.0
 11
271.35355776239351
 21
172.82534288314179
 31
0.0
  0
LINE
  5
1A44
  8
0
 10
288.35355776239351
 20
169.89431432003221
 30
0.0
 11
282.35355776239351
 21
169.89431432003221
 31
0.0
  0
LINE
  5
1A45
  8
0
 10
282.35355776239351
 20
172.82534288314179
 30
0.0
 11
282.35355776239362
 21
158.44984288314191
 31
0.0
  0
LINE
  5
1A58
  8
0
 10
264.35355776239351
 20
167.02534288314189
 30
0.0
 11
264.35355776239351
 21
174.04490887018221
 31
0.0
  0
LINE
  5
1A5B
  8
0
 10
289.35355776239351
 20
174.04234174106901
 30
0.0
 11
289.35355776239351
 21
167.02534288314189
 31
0.0
  0
LINE
  5
1A5D
  8
0
 10
264.85355776239351
 20
158.44984288314191
 30
0.0
 11
288.85355776239362
 21
158.44984288314191
 31
0.0
  0
LINE
  5
1A5E
  8
0
 10
288.85355776239351
 20
153.44984288314191
 30
0.0
 11
264.85355776239351
 21
153.44984288314191
 31
0.0
  0
ARC
  5
1A61
  8
0
 10
265.85355750819309
 20
158.9219190233874
 30
0.0
 40
0.4999997457969496
 50
179.99798683912181
 51
250.76108023816721
  0
ARC
  5
1A62
  8
0
 10
287.85355797673589
 20
158.9219190516917
 30
0.0
 40
0.4999997856541632
 50
289.23892300543059
 51
0.0020099172776543
  0
LINE
  5
1ADC
  8
0
 10
138.1062069976611
 20
46.987592883141872
 30
0.0
 11
138.1062069976611
 21
55.987592883141872
 31
0.0
  0
ARC
  5
1AEA
  8
0
 10
137.1062069976611
 20
55.987592883141872
 30
0.0
 40
1.0
 50
0.0
 51
90.0
  0
LINE
  5
1AEB
  8
0
 10
139.1062069976611
 20
55.987592883141872
 30
0.0
 11
138.1062069976611
 21
55.987592883141872
 31
0.0
  0
LINE
  5
1AEC
  8
0
 10
138.1062069976611
 20
46.987592883141872
 30
0.0
 11
139.1062069976611
 21
46.987592883141872
 31
0.0
  0
ARC
  5
1AED
  8
0
 10
137.1062069976611
 20
46.987592883141872
 30
0.0
 40
1.0
 50
270.0
 51
0.0
  0
LINE
  5
1AF5
  8
0
 10
154.53200009321299
 20
55.987592883141872
 30
0.0
 11
139.1062069976611
 21
55.987592883141872
 31
0.0
  0
LINE
  5
1AF6
  8
0
 10
139.1062069976611
 20
46.987592883141872
 30
0.0
 11
154.53200009321299
 21
46.987592883141872
 31
0.0
  0
LINE
  5
1B37
  8
0
 10
140.5257819844638
 20
56.987592883141922
 30
0.0
 11
140.5257819844638
 21
62.487592883141929
 31
0.0
  0
LINE
  5
1B3A
  8
0
 10
140.5257819844638
 20
40.487592883141929
 30
0.0
 11
140.5257819844638
 21
45.987592883141929
 31
0.0
  0
LINE
  5
1B40
  8
0
 10
114.6062069976611
 20
63.987592883141929
 30
0.0
 11
131.6062069976611
 21
63.987592883141929
 31
0.0
  0
LINE
  5
1B46
  8
0
 10
131.6062069976611
 20
38.987592883141872
 30
0.0
 11
114.6062069976611
 21
38.987592883141872
 31
0.0
  0
CIRCLE
  5
1B4C
  8
0
 10
123.1062069976611
 20
51.487592883141929
 30
0.0
 40
12.5
  0
ARC
  5
1B6F
  8
0
 10
108.0377819144046
 20
62.487593002025392
 30
0.0
 40
0.4999998811134185
 50
89.998427436693746
 51
179.74628221812929
  0
ARC
  5
1B72
  8
0
 10
108.037781915786
 20
40.487592766708239
 30
0.0
 40
0.4999998835633006
 50
179.7334107964804
 51
270.00157240500198
  0
LINE
  5
1EB2
  8
1
 10
56.856206997661161
 20
123.4498428831419
 30
0.0
 11
56.856206997661218
 21
199.52534288314189
 31
0.0
  0
LINE
  5
1EB3
  8
1
 10
74.356207183925733
 20
175.52534322241149
 30
0.0
 11
39.356206811396653
 21
175.52534322241149
 31
0.0
  0
LINE
  5
1F29
  8
0
 10
52.3562071913762
 20
189.5253436545452
 30
0.0
 11
61.356206803946009
 21
189.5253436545452
 31
0.0
  0
LINE
  5
1F2A
  8
0
 10
61.356206803946009
 20
189.5253436545452
 30
0.0
 11
62.356206967858782
 21
189.5253436545452
 31
0.0
  0
LINE
  5
1F2B
  8
0
 10
51.356207027463427
 20
189.5253436545452
 30
0.0
 11
52.3562071913762
 21
189.5253436545452
 31
0.0
  0
LINE
  5
1F30
  8
0
 10
69.356207183925733
 20
184.02534368434749
 30
0.0
 11
69.356207183925733
 21
167.0253427604755
 31
0.0
  0
LINE
  5
1F34
  8
0
 10
44.356206811396639
 20
167.0253427604755
 30
0.0
 11
44.356206811396639
 21
184.02534368434749
 31
0.0
  0
LINE
  5
1F36
  8
0
 10
44.856206893353033
 20
158.44984370270581
 30
0.0
 11
68.856207101969346
 21
158.44984370270581
 31
0.0
  0
LINE
  5
1F37
  8
0
 10
68.856207101969346
 20
153.44984288314191
 30
0.0
 11
44.856206893353033
 21
153.44984288314191
 31
0.0
  0
ARC
  5
1FAB
  8
0
 10
67.856205518693457
 20
158.92192094894071
 30
0.0
 40
0.5000015015676578
 50
289.23911163178769
 51
0.0018053585969868
  0
ARC
  5
1FAC
  8
0
 10
67.856208386654828
 20
189.05909751295479
 30
0.0
 40
0.4999986344833333
 50
359.99615614091311
 51
89.512120408433503
  0
ARC
  5
1FAF
  8
0
 10
45.856207139218213
 20
158.9219199992109
 30
0.0
 40
0.5000001641878346
 50
179.99808580560011
 51
250.76099720401649
  0
ARC
  5
1FB0
  8
0
 10
45.856205525169173
 20
189.05909762773661
 30
0.0
 40
0.499998550992726
 50
89.245918349923826
 51
180.00385701279501
  0
LINE
  5
1FC6
  8
1
 10
123.1062069976612
 20
288.98759306940639
 30
0.0
 11
123.1062069976612
 21
253.98759269687741
 31
0.0
  0
LINE
  5
1FCD
  8
1
 10
105.6062069976612
 20
271.48759288314187
 30
0.0
 11
228.10620699766119
 21
271.48759288314187
 31
0.0
  0
POINT
  5
1FD7
  8
0
 10
208.62846727163381
 20
256.49668750000279
 30
0.0
  0
POINT
  5
1FD8
  8
0
 10
208.62846727163381
 20
286.47849826628112
 30
0.0
  0
POINT
  5
1FD9
  8
0
 10
223.1062069976613
 20
271.48759288314199
 30
0.0
  0
LINE
  5
1FEE
  8
0
 10
123.1062069976611
 20
276.98759285333949
 30
0.0
 11
137.10620742979481
 21
276.98759285333949
 31
0.0
  0
LINE
  5
1FEF
  8
0
 10
137.10620742979481
 20
265.98759291294419
 30
0.0
 11
123.1062069976611
 21
265.98759291294419
 31
0.0
  0
ARC
  5
1FF1
  8
0
 10
137.10620699766119
 20
275.98759288314187
 30
0.0
 40
1.0
 50
0.0
 51
90.0
  0
LINE
  5
1FF2
  8
0
 10
138.10620666238501
 20
275.98759268942678
 30
0.0
 11
138.10620666238501
 21
266.98759307685691
 31
0.0
  0
ARC
  5
1FF3
  8
0
 10
137.10620699766119
 20
266.98759288314187
 30
0.0
 40
1.0
 50
270.0
 51
0.0
  0
LINE
  5
2047
  8
0
 10
131.60620745959719
 20
258.98759269687741
 30
0.0
 11
114.60620653572521
 21
258.98759269687741
 31
0.0
  0
LINE
  5
204C
  8
0
 10
114.60620653572521
 20
283.9875930694065
 30
0.0
 11
131.60620745959719
 21
283.9875930694065
 31
0.0
  0
ARC
  5
204E
  8
0
 10
123.1062069976612
 20
271.48759288314199
 30
0.0
 40
12.499999999999989
 50
333.8961188626605
 51
26.10388113733908
  0
ARC
  5
204F
  8
0
 10
123.1062069976612
 20
271.48759288314199
 30
0.0
 40
12.50000000000002
 50
153.8526347306242
 51
206.2467739829109
  0
ARC
  5
206C
  8
0
 10
108.0377749172534
 20
260.48759288314187
 30
0.0
 40
0.5000000000000167
 50
180.29958964288329
 51
270.00000700672229
  0
ARC
  5
206E
  8
0
 10
108.0377749172534
 20
282.48759288314187
 30
0.0
 40
0.5000000000000103
 50
89.999992993280983
 51
180.2252012182677
  0
POINT
  5
20AA
  8
0
 10
107.568456997659
 20
175.52534322237801
 30
0.0
  0
POINT
  5
20AB
  8
0
 10
123.1062069976612
 20
158.44984322241149
 30
0.0
  0
CIRCLE
  5
20FA
  8
0
 10
123.1062069976612
 20
175.52534322241149
 30
0.0
 40
8.9999999999999716
  0
LINE
  5
20FC
  8
0
 10
135.10620710196929
 20
153.44984288314191
 30
0.0
 11
123.1062069976612
 21
153.44984288314191
 31
0.0
  0
LINE
  5
20FD
  8
0
 10
123.1062069976612
 20
153.44984288314191
 30
0.0
 11
111.106206893353
 21
153.44984288314191
 31
0.0
  0
LINE
  5
2102
  8
0
 10
111.106206893353
 20
158.44984370270581
 30
0.0
 11
123.1062069976612
 21
158.44984370270581
 31
0.0
  0
LINE
  5
2103
  8
0
 10
123.1062069976612
 20
158.44984370270581
 30
0.0
 11
135.10620710196929
 21
158.44984370270581
 31
0.0
  0
LINE
  5
22CB
  8
1
 10
137.10620699766119
 20
175.52534322241149
 30
0.0
 11
109.1062069976612
 21
175.52534322241149
 31
0.0
  0
LINE
  5
22CC
  8
1
 10
123.1062069976611
 20
194.5253436545452
 30
0.0
 11
123.1062069976611
 21
123.4498428831419
 31
0.0
  0
LINE
  5
22E9
  8
0
 10
288.559144874884
 20
194.52534288314189
 30
0.0
 11
265.15648559290969
 21
194.52534288314189
 31
0.0
  0
LINE
  5
22EB
  8
0
 10
264.85355776239351
 20
158.44984288314191
 30
0.0
 11
264.35355776239351
 21
157.94984288314191
 31
0.0
  0
LINE
  5
22EC
  8
0
 10
264.35355776239351
 20
157.94984288314191
 30
0.0
 11
264.35355776239351
 21
153.94984288314191
 31
0.0
  0
LINE
  5
22ED
  8
0
 10
264.35355776239351
 20
153.94984288314191
 30
0.0
 11
264.85355776239351
 21
153.44984288314191
 31
0.0
  0
LINE
  5
22EE
  8
0
 10
288.85355776239362
 20
158.44984288314191
 30
0.0
 11
289.35355776239351
 21
157.94984288314191
 31
0.0
  0
LINE
  5
22EF
  8
0
 10
289.35355776239351
 20
157.94984288314191
 30
0.0
 11
289.35355776239351
 21
153.94984288314191
 31
0.0
  0
LINE
  5
22F0
  8
0
 10
289.35355776239351
 20
153.94984288314191
 30
0.0
 11
288.85355776239351
 21
153.44984288314191
 31
0.0
  0
LINE
  5
22F1
  8
0
 10
288.3535577623901
 20
158.9219190516917
 30
0.0
 11
288.35355776239351
 21
173.66950390407271
 31
0.0
  0
LINE
  5
22F2
  8
0
 10
265.35355776239351
 20
158.93684652802199
 30
0.0
 11
265.35355776239351
 21
173.66342872721739
 31
0.0
  0
LINE
  5
22F5
  8
0
 10
264.35355776239351
 20
167.02534288314189
 30
0.0
 11
264.85355776239351
 21
166.52534288314189
 31
0.0
  0
LINE
  5
22F6
  8
0
 10
264.85355776239351
 20
166.52534288314189
 30
0.0
 11
265.35355776239351
 21
166.52534288314189
 31
0.0
  0
LINE
  5
22F7
  8
0
 10
288.35355776239351
 20
166.52534288314189
 30
0.0
 11
288.85355776239339
 21
166.52534288314189
 31
0.0
  0
LINE
  5
22F8
  8
0
 10
288.85355776239339
 20
166.52534288314189
 30
0.0
 11
289.35355776239351
 21
167.02534288314189
 31
0.0
  0
LINE
  5
22F9
  8
0
 10
266.46782644597619
 20
173.5372890097664
 30
0.0
 11
287.24780402181489
 21
173.54403881900419
 31
0.0
  0
LINE
  5
22FA
  8
0
 10
291.84016586070658
 20
191.31875975778379
 30
0.0
 11
291.84016586070658
 21
179.05275552012679
 31
0.0
  0
ARC
  5
2301
  8
0
 10
288.6152663975675
 20
191.3008822261983
 30
0.0
 40
3.2249490156412208
 50
0.3176212552350799
 51
90.99712854206048
  0
ARC
  5
2302
  8
0
 10
287.34863666558448
 20
177.80273475155909
 30
0.0
 40
4.2622717077944694
 50
267.66070615912167
 51
345.8108631480801
  0
POLYLINE
  5
2303
  8
0
 66
     1
 10
0.0
 20
0.0
 30
0.0
 70
     2
  0
VERTEX
  5
2304
  8
0
 10
291.48087431547498
 20
176.75795146499061
 30
0.0
 42
0.0170450187650262
  0
VERTEX
  5
2309
  8
0
 10
291.62543771814842
 20
177.25195852214631
 30
0.0
 42
0.0181007442313968
 70
     1
  0
VERTEX
  5
2305
  8
0
 10
291.73204090966829
 20
177.74484962649561
 30
0.0
 42
0.0235844695539241
  0
VERTEX
  5
2308
  8
0
 10
291.816966818997
 20
178.3962510844878
 30
0.0
 42
0.0235844695539313
 70
     1
  0
VERTEX
  5
2306
  8
0
 10
291.84016586070658
 20
179.05275552012679
 30
0.0
  0
SEQEND
  5
2307
  8
0
  0
ARC
  5
230A
  8
0
 10
266.3759315592319
 20
177.80870150853571
 30
0.0
 40
4.2724008946788867
 50
194.2373330428801
 51
271.23246749559121
  0
POLYLINE
  5
230B
  8
0
 66
     1
 10
0.0
 20
0.0
 30
0.0
 70
     2
  0
VERTEX
  5
230C
  8
0
 10
262.23475615231621
 20
176.75795146499061
 30
0.0
 42
-0.0170450187650262
  0
VERTEX
  5
230D
  8
0
 10
262.09019274964282
 20
177.25195852214631
 30
0.0
 42
-0.0181007442313968
 70
     1
  0
VERTEX
  5
230E
  8
0
 10
261.98358955812301
 20
177.74484962649561
 30
0.0
 42
-0.0235844695539241
  0
VERTEX
  5
230F
  8
0
 10
261.89866364879418
 20
178.3962510844878
 30
0.0
 42
-0.0235844695539313
 70
     1
  0
VERTEX
  5
2310
  8
0
 10
261.87546460708461
 20
179.05275552012679
 30
0.0
  0
SEQEND
  5
2311
  8
0
  0
LINE
  5
2312
  8
0
 10
261.87546460708461
 20
191.31875975778379
 30
0.0
 11
261.87546460708461
 21
179.05275552012679
 31
0.0
  0
ARC
  5
2313
  8
0
 10
265.1003640702246
 20
191.30088222619679
 30
0.0
 40
3.2249490156428462
 50
89.002871457953859
 51
179.682378744782
  0
POLYLINE
  5
2314
  8
0
 66
     1
 10
0.0
 20
0.0
 30
0.0
 70
     2
  0
VERTEX
  5
2315
  8
0
 10
261.87569499471971
 20
191.3433734838614
 30
0.0
 42
-0.0604275313477112
  0
VERTEX
  5
2339
  8
0
 10
261.89876669012068
 20
191.40356983967209
 30
0.0
 42
-0.0878730576362679
 70
     1
  0
VERTEX
  5
2316
  8
0
 10
261.9261278568282
 20
191.43867846795641
 30
0.0
 42
-0.0300856413260128
  0
VERTEX
  5
233A
  8
0
 10
261.98115140909511
 20
191.4825708938458
 30
0.0
 42
-0.0651549845558566
 70
     1
  0
VERTEX
  5
2317
  8
0
 10
262.01002955353192
 20
191.49771764000599
 30
0.0
 42
-0.0289626452132769
  0
VERTEX
  5
233B
  8
0
 10
262.06469311057992
 20
191.51432948999141
 30
0.0
 42
-0.0371785642686647
 70
     1
  0
VERTEX
  5
2318
  8
0
 10
262.1086351293032
 20
191.52154677406699
 30
0.0
 42
-0.0147232148318065
  0
VERTEX
  5
233C
  8
0
 10
262.16526570420399
 20
191.52489327780819
 30
0.0
 42
-0.0176292087764303
 70
     1
  0
VERTEX
  5
2319
  8
0
 10
262.21264750861991
 20
191.52462442468379
 30
0.0
 42
-0.0180672684294226
  0
VERTEX
  5
233D
  8
0
 10
262.2737775911117
 20
191.5199044249477
 30
0.0
 42
-0.0129041411360029
 70
     1
  0
VERTEX
  5
231A
  8
0
 10
262.35877991155809
 20
191.5080126792779
 30
0.0
 42
-0.024591649939438
  0
VERTEX
  5
233E
  8
0
 10
262.49423652612069
 20
191.47857743315109
 30
0.0
 42
-0.0158482357409817
 70
     1
  0
VERTEX
  5
231B
  8
0
 10
262.69997489965692
 20
191.41609545903819
 30
0.0
 42
-0.012391624892387
  0
VERTEX
  5
233F
  8
0
 10
262.8925838526464
 20
191.34549940000781
 30
0.0
 42
-0.0094724411189211
 70
     1
  0
VERTEX
  5
231C
  8
0
 10
263.140256783631
 20
191.2422281074526
 30
0.0
 42
-0.0123623823356652
  0
VERTEX
  5
2340
  8
0
 10
263.64706834661041
 20
191.0044266285505
 30
0.0
 42
-0.0101801093847682
 70
     1
  0
VERTEX
  5
231D
  8
0
 10
264.24885373270752
 20
190.68822031659909
 30
0.0
 42
-0.0038714068865468
  0
VERTEX
  5
2341
  8
0
 10
265.04124552212483
 20
190.2430107450356
 30
0.0
 42
-0.0036806588275126
 70
     1
  0
VERTEX
  5
231E
  8
0
 10
265.86753361449689
 20
189.7621944402714
 30
0.0
 42
-0.0036190976509952
  0
VERTEX
  5
2342
  8
0
 10
267.44992822054638
 20
188.8102086188473
 30
0.0
 42
0.003529031761209
 70
     1
  0
VERTEX
  5
231F
  8
0
 10
269.07253085867131
 20
187.83363509969999
 30
0.0
 42
0.0017435430691727
  0
VERTEX
  5
2343
  8
0
 10
269.88135122344642
 20
187.35838728002739
 30
0.0
 42
0.0015084896463038
 70
     1
  0
VERTEX
  5
2320
  8
0
 10
270.81975445236918
 20
186.8151784845312
 30
0.0
 42
0.0086976740271124
  0
VERTEX
  5
2344
  8
0
 10
271.60442656611838
 20
186.3820960106024
 30
0.0
 42
0.0063820061645201
 70
     1
  0
VERTEX
  5
2321
  8
0
 10
272.69108512806667
 20
185.824406783326
 30
0.0
 42
0.0128292680484283
  0
VERTEX
  5
2345
  8
0
 10
273.36230447064639
 20
185.51189392202349
 30
0.0
 42
0.0116140594200271
 70
     1
  0
VERTEX
  5
2322
  8
0
 10
274.11971566243022
 20
185.2033343904628
 30
0.0
 42
0.01631455926111
  0
VERTEX
  5
2346
  8
0
 10
274.77359600483982
 20
184.9786296236181
 30
0.0
 42
0.0193581104684624
 70
     1
  0
VERTEX
  5
2323
  8
0
 10
275.33682861108468
 20
184.82899820415389
 30
0.0
 42
0.0137087581750568
  0
VERTEX
  5
2347
  8
0
 10
275.80857905407299
 20
184.73653819191921
 30
0.0
 42
0.0161990825028955
 70
     1
  0
VERTEX
  5
2324
  8
0
 10
276.21179948641571
 20
184.68229214845479
 30
0.0
 42
0.0122064349272367
  0
VERTEX
  5
2348
  8
0
 10
276.50498160246792
 20
184.659695387764
 30
0.0
 42
0.0103029998825333
 70
     1
  0
VERTEX
  5
2325
  8
0
 10
276.85316580729238
 20
184.64858275104459
 30
0.0
 42
0.0241380352096652
  0
VERTEX
  5
2349
  8
0
 10
277.3046909312684
 20
184.6652818102117
 30
0.0
 42
0.0173222873499916
 70
     1
  0
VERTEX
  5
2326
  8
0
 10
277.92961153731437
 20
184.7405548425273
 30
0.0
 42
0.0222657096127753
  0
VERTEX
  5
234A
  8
0
 10
278.43140845282721
 20
184.84177259095949
 30
0.0
 42
0.0168791516377522
 70
     1
  0
VERTEX
  5
2327
  8
0
 10
279.0807363185578
 20
185.0266062590164
 30
0.0
 42
0.0234670263542493
  0
VERTEX
  5
234B
  8
0
 10
280.2302340900618
 20
185.45665710795271
 30
0.0
 42
0.0209154142727114
 70
     1
  0
VERTEX
  5
2328
  8
0
 10
281.47198309710677
 20
186.05152016838289
 30
0.0
 42
0.0040946229586315
  0
VERTEX
  5
234C
  8
0
 10
282.9513051673984
 20
186.85347192109131
 30
0.0
 42
0.0075174389777547
 70
     1
  0
VERTEX
  5
2329
  8
0
 10
283.74673795893432
 20
187.3088930712432
 30
0.0
 42
0.0003647286370168
  0
VERTEX
  5
234D
  8
0
 10
284.97179755139757
 20
188.0361731509449
 30
0.0
 42
0.0016383008079321
 70
     1
  0
VERTEX
  5
232A
  8
0
 10
285.24387775911299
 20
188.19917641749089
 30
0.0
 42
0.0003388504948011
  0
VERTEX
  5
234E
  8
0
 10
285.8893385904322
 20
188.5893487250907
 30
0.0
 42
-0.0005036860902871
 70
     1
  0
VERTEX
  5
232B
  8
0
 10
286.5347994217513
 20
188.97952103269051
 30
0.0
 42
-0.0006892543262973
  0
VERTEX
  5
234F
  8
0
 10
287.10821430674503
 20
189.32427722258319
 30
0.0
 42
-0.0004853934774149
 70
     1
  0
VERTEX
  5
232C
  8
0
 10
287.92360588751239
 20
189.81191351341681
 30
0.0
 42
-0.0041240291645252
  0
VERTEX
  5
2350
  8
0
 10
288.50742325747689
 20
190.1537921549581
 30
0.0
 42
-0.0032287541754354
 70
     1
  0
VERTEX
  5
232D
  8
0
 10
289.259458317444
 20
190.5794520432807
 30
0.0
 42
-0.0051756531516266
  0
VERTEX
  5
2351
  8
0
 10
289.56225958779379
 20
190.74418324186641
 30
0.0
 42
-0.0035374883068554
 70
     1
  0
VERTEX
  5
232E
  8
0
 10
290.009410314609
 20
190.97743956633579
 30
0.0
 42
-0.0098759195087877
  0
VERTEX
  5
2352
  8
0
 10
290.35098632043889
 20
191.14412431302631
 30
0.0
 42
-0.0090964426855177
 70
     1
  0
VERTEX
  5
232F
  8
0
 10
290.72842449505521
 20
191.31089176308359
 30
0.0
 42
-0.0160705191253168
  0
VERTEX
  5
2353
  8
0
 10
290.98039081517328
 20
191.407380776455
 30
0.0
 42
-0.0183400652243609
 70
     1
  0
VERTEX
  5
2330
  8
0
 10
291.20648548037752
 20
191.47655351855619
 30
0.0
 42
-0.0188850743085333
  0
VERTEX
  5
2354
  8
0
 10
291.34131756761002
 20
191.5070532175595
 30
0.0
 42
-0.0241923565163915
 70
     1
  0
VERTEX
  5
2331
  8
0
 10
291.44825294108159
 20
191.52172164317821
 30
0.0
 42
-0.0294444742149787
  0
VERTEX
  5
2355
  8
0
 10
291.55407266327728
 20
191.52479900466281
 30
0.0
 42
-0.0432249390694354
 70
     1
  0
VERTEX
  5
2332
  8
0
 10
291.62577206389687
 20
191.51643019137791
 30
0.0
 42
-0.019925469693336
  0
VERTEX
  5
2356
  8
0
 10
291.67073612731241
 20
191.505310533336
 30
0.0
 42
-0.0316568537874754
 70
     1
  0
VERTEX
  5
2333
  8
0
 10
291.69818304537341
 20
191.49542903888599
 30
0.0
 42
-0.0269318574221093
  0
VERTEX
  5
2357
  8
0
 10
291.73112054720281
 20
191.47899853045999
 30
0.0
 42
-0.0362185134703954
 70
     1
  0
VERTEX
  5
2334
  8
0
 10
291.75389259803251
 20
191.46378517712611
 30
0.0
 42
-0.0270512625263641
  0
VERTEX
  5
2358
  8
0
 10
291.77126078578829
 20
191.4486907749116
 30
0.0
 42
-0.0323466216941508
 70
     1
  0
VERTEX
  5
2335
  8
0
 10
291.78419181114577
 20
191.43443093668449
 30
0.0
 42
-0.0344150074764979
  0
VERTEX
  5
235A
  8
0
 10
291.7921177170868
 20
191.4229222338428
 30
0.0
 42
-0.0092342976230977
 70
     1
  0
VERTEX
  5
2336
  8
0
 10
291.81777748117503
 20
191.3776691764366
 30
0.0
 42
-0.0335541035607737
  0
VERTEX
  5
2359
  8
0
 10
291.82788603186088
 20
191.35564378018091
 30
0.0
 42
-0.0209031814158584
 70
     1
  0
VERTEX
  5
2337
  8
0
 10
291.84016586070658
 20
191.31875975778379
 30
0.0
  0
SEQEND
  5
2338
  8
0
  0
POLYLINE
  5
23A2
  8
0
 66
     1
 10
0.0
 20
0.0
 30
0.0
 70
     2
  0
VERTEX
  5
23A3
  8
0
 10
261.87546460708461
 20
179.05275552012679
 30
0.0
 42
0.0370646699151406
  0
VERTEX
  5
23C3
  8
0
 10
261.92823433865368
 20
178.4026613541875
 30
0.0
 42
0.0466746171325736
 70
     1
  0
VERTEX
  5
23A4
  8
0
 10
262.0556604792643
 20
177.9002087986087
 30
0.0
 42
0.0033840903630202
  0
VERTEX
  5
23C4
  8
0
 10
262.17049398436558
 20
177.58407268551051
 30
0.0
 42
0.0154617439047275
 70
     1
  0
VERTEX
  5
23A5
  8
0
 10
262.19822307770721
 20
177.51586106428471
 30
0.0
 42
0.0368538692202207
  0
VERTEX
  5
23C5
  8
0
 10
262.35453798932269
 20
177.2232983991282
 30
0.0
 42
0.0458573523698445
 70
     1
  0
VERTEX
  5
23A6
  8
0
 10
262.51726523309861
 20
177.0118997238539
 30
0.0
 42
0.0368180778533847
  0
VERTEX
  5
23C6
  8
0
 10
262.66935937275758
 20
176.87034795874129
 30
0.0
 42
0.0417654806812341
 70
     1
  0
VERTEX
  5
23A7
  8
0
 10
262.8213663175959
 20
176.76803576577731
 30
0.0
 42
0.0229057707519634
  0
VERTEX
  5
23C7
  8
0
 10
263.0007327865913
 20
176.67846617981891
 30
0.0
 42
0.0291363620099703
 70
     1
  0
VERTEX
  5
23A8
  8
0
 10
263.14834237532023
 20
176.62306035939471
 30
0.0
 42
0.019856978233141
  0
VERTEX
  5
23C8
  8
0
 10
263.29556779000029
 20
176.5837192701398
 30
0.0
 42
0.0179632899691087
 70
     1
  0
VERTEX
  5
23A9
  8
0
 10
263.46112255720931
 20
176.55265436960499
 30
0.0
 42
0.0310309314862603
  0
VERTEX
  5
23C9
  8
0
 10
263.75195848559002
 20
176.5271353036261
 30
0.0
 42
0.0235971454447496
 70
     1
  0
VERTEX
  5
23AA
  8
0
 10
264.13563944328291
 20
176.53546547277611
 30
0.0
 42
0.0164520804671833
  0
VERTEX
  5
23CA
  8
0
 10
264.42607124682138
 20
176.56513237563169
 30
0.0
 42
0.0133421469082916
 70
     1
  0
VERTEX
  5
23AB
  8
0
 10
264.78135321640389
 20
176.62297017760409
 30
0.0
 42
0.0219460409482682
  0
VERTEX
  5
23CB
  8
0
 10
265.6142955320567
 20
176.81970877877291
 30
0.0
 42
0.0186979376659174
 70
     1
  0
VERTEX
  5
23AC
  8
0
 10
266.56983130875761
 20
177.12919208388021
 30
0.0
 42
0.0043077156672976
  0
VERTEX
  5
23CC
  8
0
 10
267.71021861961879
 20
177.5574343920054
 30
0.0
 42
0.0072473618425217
 70
     1
  0
VERTEX
  5
23AD
  8
0
 10
268.38200650947539
 20
177.82757906744339
 30
0.0
 42
0.0010477150696974
  0
VERTEX
  5
23CD
  8
0
 10
269.35986409432229
 20
178.2397770972463
 30
0.0
 42
-0.0010800705974821
 70
     1
  0
VERTEX
  5
23AE
  8
0
 10
270.30845413919798
 20
178.63956564020799
 30
0.0
 42
-0.000971014407268
  0
VERTEX
  5
23CE
  8
0
 10
270.74382209274142
 20
178.8209543182212
 30
0.0
 42
-0.0003401336169775
 70
     1
  0
VERTEX
  5
23AF
  8
0
 10
271.98806434843078
 20
179.3355218006927
 30
0.0
 42
-0.0154792989666177
  0
VERTEX
  5
23CF
  8
0
 10
272.92658969069078
 20
179.68932532303819
 30
0.0
 42
-0.0093761892099459
 70
     1
  0
VERTEX
  5
23B0
  8
0
 10
274.50288553882382
 20
180.1956397796076
 30
0.0
 42
-0.038190007742996
  0
VERTEX
  5
23D0
  8
0
 10
275.59855268097721
 20
180.43571123954149
 30
0.0
 42
-0.0340483147691006
 70
     1
  0
VERTEX
  5
23B1
  8
0
 10
276.85308270665229
 20
180.5252957811434
 30
0.0
 42
-0.0388228643137072
  0
VERTEX
  5
23D1
  8
0
 10
278.19647491917988
 20
180.42517709898661
 30
0.0
 42
-0.0403213923590457
 70
     1
  0
VERTEX
  5
23B2
  8
0
 10
279.45874940553608
 20
180.12616644898671
 30
0.0
 42
-0.0084739956198404
  0
VERTEX
  5
23D2
  8
0
 10
281.1737131605222
 20
179.53847692182089
 30
0.0
 42
-0.0123216279581256
 70
     1
  0
VERTEX
  5
23B3
  8
0
 10
282.3354195639057
 20
179.08557823985851
 30
0.0
 42
-0.001840313812774
  0
VERTEX
  5
23D3
  8
0
 10
283.63536162508359
 20
178.53588870921149
 30
0.0
 42
0.0026703932817201
 70
     1
  0
VERTEX
  5
23B4
  8
0
 10
284.53185369895567
 20
178.1585540128093
 30
0.0
 42
0.0022103847088186
  0
VERTEX
  5
23D4
  8
0
 10
285.48427542747038
 20
177.76857816795851
 30
0.0
 42
0.0019928091637517
 70
     1
  0
VERTEX
  5
23B5
  8
0
 10
286.54428073512861
 20
177.34492075879521
 30
0.0
 42
0.0180947707314179
  0
VERTEX
  5
23D5
  8
0
 10
287.74356741829922
 20
176.92061489216769
 30
0.0
 42
0.0234104543393683
 70
     1
  0
VERTEX
  5
23B6
  8
0
 10
288.69474627971562
 20
176.6705760669781
 30
0.0
 42
0.009815007871611
  0
VERTEX
  5
23D6
  8
0
 10
289.1017328131237
 20
176.59204485518279
 30
0.0
 42
0.0153874974153124
 70
     1
  0
VERTEX
  5
23B7
  8
0
 10
289.36356236558282
 20
176.55509041967321
 30
0.0
 42
0.0126435531746204
  0
VERTEX
  5
23D7
  8
0
 10
289.63617202302282
 20
176.53209469075361
 30
0.0
 42
0.0149681438217226
 70
     1
  0
VERTEX
  5
23B8
  8
0
 10
289.86718061520457
 20
176.52540858813401
 30
0.0
 42
0.0217926784487371
  0
VERTEX
  5
23D8
  8
0
 10
290.11156287218108
 20
176.53630975954081
 30
0.0
 42
0.024291264908532
 70
     1
  0
VERTEX
  5
23B9
  8
0
 10
290.3290029242155
 20
176.56622676991381
 30
0.0
 42
0.0202309047291319
  0
VERTEX
  5
23D9
  8
0
 10
290.48763998355628
 20
176.6026614874159
 30
0.0
 42
0.021346119834594
 70
     1
  0
VERTEX
  5
23BA
  8
0
 10
290.63460891590728
 20
176.64956152788241
 30
0.0
 42
0.0235704063601754
  0
VERTEX
  5
23DA
  8
0
 10
290.75463285736748
 20
176.7001255721145
 30
0.0
 42
0.0190179106641162
 70
     1
  0
VERTEX
  5
23BB
  8
0
 10
290.8974906798253
 20
176.77520511165179
 30
0.0
 42
0.034546895692187
  0
VERTEX
  5
23DB
  8
0
 10
291.03296995155489
 20
176.86610823909061
 30
0.0
 42
0.0327373046392945
 70
     1
  0
VERTEX
  5
23BC
  8
0
 10
291.1617656684727
 20
176.9803294119759
 30
0.0
 42
0.0387558120215625
  0
VERTEX
  5
23DC
  8
0
 10
291.28714387764143
 20
177.12846797268881
 30
0.0
 42
0.0347295946231296
 70
     1
  0
VERTEX
  5
23BD
  8
0
 10
291.40131867841723
 20
177.3124253614647
 30
0.0
 42
0.0169839436251168
  0
VERTEX
  5
23DD
  8
0
 10
291.522703309451
 20
177.56238462804339
 30
0.0
 42
0.0220982672052195
 70
     1
  0
VERTEX
  5
23BE
  8
0
 10
291.60072718063662
 20
177.7612314762099
 30
0.0
 42
0.0067921170855742
  0
VERTEX
  5
23DE
  8
0
 10
291.6830130778925
 20
178.01277785354361
 30
0.0
 42
0.0102926083209058
 70
     1
  0
VERTEX
  5
23BF
  8
0
 10
291.7316142165219
 20
178.1805420697055
 30
0.0
 42
0.0073850843200558
  0
VERTEX
  5
23E0
  8
0
 10
291.74963383360762
 20
178.2521193784971
 30
0.0
 42
0.0021966015504766
 70
     1
  0
VERTEX
  5
23C0
  8
0
 10
291.80559153291529
 20
178.493870553324
 30
0.0
 42
0.0260907206157964
  0
VERTEX
  5
23DF
  8
0
 10
291.8207689248141
 20
178.5818131170974
 30
0.0
 42
0.0128892413557956
 70
     1
  0
VERTEX
  5
23C1
  8
0
 10
291.83752780294742
 20
178.76158790992829
 30
0.0
  0
SEQEND
  5
23C2
  8
0
  0
LINE
  5
24E3
  8
1
 10
276.8529127951337
 20
123.4498428831419
 30
0.0
 11
276.85950120018862
 21
199.52534288314189
 31
0.0
  0
LINE
  5
2527
  8
0
 10
44.856206893353033
 20
158.44984370270581
 30
0.0
 11
44.356206811396639
 21
157.94984268942679
 31
0.0
  0
LINE
  5
2528
  8
0
 10
44.356206811396639
 20
157.94984268942679
 30
0.0
 11
44.356206811396639
 21
153.9498438964209
 31
0.0
  0
LINE
  5
2529
  8
0
 10
44.356206811396639
 20
153.9498438964209
 30
0.0
 11
44.856206893353033
 21
153.44984288314191
 31
0.0
  0
LINE
  5
252A
  8
0
 10
68.856207101969346
 20
153.44984288314191
 30
0.0
 11
69.356207183925733
 21
153.9498438964209
 31
0.0
  0
LINE
  5
252B
  8
0
 10
69.356207183925733
 20
153.9498438964209
 30
0.0
 11
69.356207183925733
 21
157.94984268942679
 31
0.0
  0
LINE
  5
252C
  8
0
 10
69.356207183925733
 20
157.94984268942679
 30
0.0
 11
68.856207101969346
 21
158.44984370270581
 31
0.0
  0
LINE
  5
252D
  8
0
 10
68.356207020261138
 20
158.92192094894071
 30
0.0
 11
68.35620702001296
 21
189.059063969048
 31
0.0
  0
LINE
  5
252E
  8
0
 10
67.86046587619029
 20
189.559078020843
 30
0.0
 11
62.356206967858839
 21
189.5591143424233
 31
0.0
  0
LINE
  5
252F
  8
0
 10
62.356206967858839
 20
189.5591143424233
 30
0.0
 11
62.356206967858839
 21
158.44984370270581
 31
0.0
  0
LINE
  5
2530
  8
0
 10
51.356207027463483
 20
158.44984370270581
 30
0.0
 11
51.356207027463483
 21
189.5591143424233
 31
0.0
  0
LINE
  5
2531
  8
0
 10
51.356207027463483
 20
189.5591143424233
 30
0.0
 11
45.86278591993289
 21
189.5590528751334
 31
0.0
  0
LINE
  5
2532
  8
0
 10
45.356206975309362
 20
189.059063969048
 30
0.0
 11
45.356206975309419
 21
158.92193670371381
 31
0.0
  0
LINE
  5
2533
  8
0
 10
44.356206811396639
 20
184.02534368434749
 30
0.0
 11
44.856206893353033
 21
184.5253428349813
 31
0.0
  0
LINE
  5
2534
  8
0
 10
44.856206893353033
 20
184.5253428349813
 30
0.0
 11
45.356206975309469
 21
184.5253428349813
 31
0.0
  0
LINE
  5
2535
  8
0
 10
44.356206811396639
 20
167.0253427604755
 30
0.0
 11
44.856206893353033
 21
166.52534360984171
 31
0.0
  0
LINE
  5
2536
  8
0
 10
44.856206893353033
 20
166.52534360984171
 30
0.0
 11
45.356206975309419
 21
166.52534360984171
 31
0.0
  0
LINE
  5
2537
  8
0
 10
68.356207020198497
 20
166.52534360984171
 30
0.0
 11
68.856207101969346
 21
166.52534360984171
 31
0.0
  0
LINE
  5
2538
  8
0
 10
68.856207101969346
 20
166.52534360984171
 30
0.0
 11
69.356207183925733
 21
167.0253427604755
 31
0.0
  0
LINE
  5
2539
  8
0
 10
68.356207020050249
 20
184.5253428349813
 30
0.0
 11
68.856207101969346
 21
184.5253428349813
 31
0.0
  0
LINE
  5
253A
  8
0
 10
68.856207101969346
 20
184.5253428349813
 30
0.0
 11
69.356207183925733
 21
184.02534368434749
 31
0.0
  0
LINE
  5
25F7
  8
0
 10
68.561794110151652
 20
194.52534288314189
 30
0.0
 11
45.159134828177393
 21
194.52534288314189
 31
0.0
  0
ARC
  5
25F8
  8
0
 10
68.61791563283515
 20
191.30088222619841
 30
0.0
 40
3.2249490156412208
 50
0.3176212552350799
 51
90.997128542060807
  0
ARC
  5
25F9
  8
0
 10
45.103013305492311
 20
191.30088222619679
 30
0.0
 40
3.2249490156428462
 50
89.002871457953859
 51
179.682378744782
  0
LINE
  5
25FB
  8
0
 10
41.87811384235232
 20
191.31875975778379
 30
0.0
 11
41.87811384235232
 21
179.05275552012679
 31
0.0
  0
LINE
  5
25FC
  8
0
 10
71.842815095974345
 20
191.31875975778379
 30
0.0
 11
71.842815095974345
 21
179.05275552012679
 31
0.0
  0
ARC
  5
25FD
  8
0
 10
46.378580794499548
 20
177.80870150853571
 30
0.0
 40
4.2724008946788867
 50
194.2373330428801
 51
241.7475243435747
  0
POLYLINE
  5
25FE
  8
0
 66
     1
 10
0.0
 20
0.0
 30
0.0
 70
     2
  0
VERTEX
  5
25FF
  8
0
 10
42.237405387583912
 20
176.75795146499061
 30
0.0
 42
-0.0170450187650262
  0
VERTEX
  5
2600
  8
0
 10
42.092841984910542
 20
177.25195852214631
 30
0.0
 42
-0.0181007442313968
 70
     1
  0
VERTEX
  5
2601
  8
0
 10
41.986238793390662
 20
177.74484962649561
 30
0.0
 42
-0.0235844695539241
  0
VERTEX
  5
2602
  8
0
 10
41.901312884061937
 20
178.3962510844878
 30
0.0
 42
-0.0235844695539313
 70
     1
  0
VERTEX
  5
2603
  8
0
 10
41.87811384235232
 20
179.05275552012679
 30
0.0
  0
SEQEND
  5
2604
  8
0
  0
ARC
  5
2605
  8
0
 10
67.351285900852247
 20
177.80273475155909
 30
0.0
 40
4.2622717077944694
 50
298.05948264288679
 51
345.8108631480801
  0
POLYLINE
  5
2606
  8
0
 66
     1
 10
0.0
 20
0.0
 30
0.0
 70
     2
  0
VERTEX
  5
2607
  8
0
 10
71.483523550742746
 20
176.75795146499061
 30
0.0
 42
0.0170450187650262
  0
VERTEX
  5
2608
  8
0
 10
71.62808695341613
 20
177.25195852214631
 30
0.0
 42
0.0181007442313968
 70
     1
  0
VERTEX
  5
2609
  8
0
 10
71.734690144935996
 20
177.74484962649561
 30
0.0
 42
0.0235844695539241
  0
VERTEX
  5
260A
  8
0
 10
71.819616054264714
 20
178.3962510844878
 30
0.0
 42
0.0235844695539313
 70
     1
  0
VERTEX
  5
260B
  8
0
 10
71.842815095974345
 20
179.05275552012679
 30
0.0
  0
SEQEND
  5
260C
  8
0
  0
LINE
  5
2849
  8
0
 10
69.707544899908896
 20
182.52534343847839
 30
0.0
 11
69.356207183925733
 21
182.52534343847839
 31
0.0
  0
POLYLINE
  5
284A
  8
0
 66
     1
 10
0.0
 20
0.0
 30
0.0
 70
     2
  0
VERTEX
  5
284B
  8
0
 10
69.707544899908896
 20
182.52534343847839
 30
0.0
 42
-0.0401549303062566
  0
VERTEX
  5
2856
  8
0
 10
69.873174421204624
 20
182.4981432688439
 30
0.0
 42
-0.0683461361211186
 70
     1
  0
VERTEX
  5
284C
  8
0
 10
69.965051730864786
 20
182.46149776573111
 30
0.0
 42
-0.0180017013974993
  0
VERTEX
  5
2857
  8
0
 10
70.133052225600466
 20
182.35803375326091
 30
0.0
 42
-0.0330877183386245
 70
     1
  0
VERTEX
  5
284D
  8
0
 10
70.218303590185144
 20
182.29266564573621
 30
0.0
 42
-0.0256162695898133
  0
VERTEX
  5
2858
  8
0
 10
70.404546064658177
 20
182.1115221987144
 30
0.0
 42
-0.0245913823830398
 70
     1
  0
VERTEX
  5
284E
  8
0
 10
70.578652824405424
 20
181.90434584940061
 30
0.0
 42
-0.0132115213074671
  0
VERTEX
  5
2859
  8
0
 10
70.825393024040466
 20
181.5611193104333
 30
0.0
 42
-0.0191526863807842
 70
     1
  0
VERTEX
  5
284F
  8
0
 10
70.979954962458294
 20
181.31380173270139
 30
0.0
 42
-0.0040920730631741
  0
VERTEX
  5
285A
  8
0
 10
71.174299200527173
 20
180.9680512750875
 30
0.0
 42
-0.0099169259922879
 70
     1
  0
VERTEX
  5
2850
  8
0
 10
71.250470550286479
 20
180.8231801204478
 30
0.0
 42
-0.0003494109167085
  0
VERTEX
  5
285B
  8
0
 10
71.35489476193078
 20
180.6142711239919
 30
0.0
 42
-0.0002323363604196
 70
     1
  0
VERTEX
  5
2851
  8
0
 10
71.511572790824104
 20
180.29991016056721
 30
0.0
 42
-0.0005513219627638
  0
VERTEX
  5
285C
  8
0
 10
71.658445522621776
 20
180.0040621347836
 30
0.0
 42
-0.0011998773510766
 70
     1
  0
VERTEX
  5
2852
  8
0
 10
71.725454447479763
 20
179.86788963148109
 30
0.0
 42
-0.0284207077639797
  0
VERTEX
  5
285E
  8
0
 10
71.739590892121839
 20
179.8342732955326
 30
0.0
 42
-0.0049741113363342
 70
     1
  0
VERTEX
  5
2853
  8
0
 10
71.807313523295363
 20
179.6373915108671
 30
0.0
 42
-0.0316611734906235
  0
VERTEX
  5
285D
  8
0
 10
71.822851499870183
 20
179.57852070781979
 30
0.0
 42
-0.015693025056625
 70
     1
  0
VERTEX
  5
2854
  8
0
 10
71.842815095974345
 20
179.45740680350599
 30
0.0
  0
SEQEND
  5
2855
  8
0
  0
LINE
  5
2874
  8
0
 10
44.004869095413198
 20
182.52534343847711
 30
0.0
 11
44.356206811396362
 21
182.52534343847719
 31
0.0
  0
POLYLINE
  5
2876
  8
0
 66
     1
 10
0.0
 20
0.0
 30
0.0
 70
     2
  0
VERTEX
  5
28A3
  8
0
 10
68.577269471613647
 20
194.49443574050269
 30
0.0
 42
-0.010051347538507
  0
VERTEX
  5
28C7
  8
0
 10
68.608249152824271
 20
194.4980057544326
 30
0.0
 42
-0.0167084659238684
 70
     1
  0
VERTEX
  5
28A4
  8
0
 10
68.626977197451595
 20
194.49915363249539
 30
0.0
 42
-0.0035567613675961
  0
VERTEX
  5
28C8
  8
0
 10
68.663681721837463
 20
194.49991308546461
 30
0.0
 42
-0.0093112420220589
 70
     1
  0
VERTEX
  5
28A5
  8
0
 10
68.67770618621563
 20
194.49984229778221
 30
0.0
 42
-0.0435263575860128
  0
VERTEX
  5
28C9
  8
0
 10
68.698727869786069
 20
194.49750634389969
 30
0.0
 42
-0.0343833112855821
 70
     1
  0
VERTEX
  5
28A6
  8
0
 10
68.72454042974374
 20
194.49046232697381
 30
0.0
 42
-0.0685726369706805
  0
VERTEX
  5
28CA
  8
0
 10
68.747398274777936
 20
194.4787915911497
 30
0.0
 42
-0.0640272702504998
 70
     1
  0
VERTEX
  5
28A7
  8
0
 10
68.767741880083747
 20
194.46033190145221
 30
0.0
 42
-0.0322320263922577
  0
VERTEX
  5
28CB
  8
0
 10
68.786942104354637
 20
194.4346293477634
 30
0.0
 42
-0.0397252291791933
 70
     1
  0
VERTEX
  5
28A8
  8
0
 10
68.799376882043759
 20
194.41174477348301
 30
0.0
 42
-0.0066972690493137
  0
VERTEX
  5
28CC
  8
0
 10
68.809284094496149
 20
194.38863071965179
 30
0.0
 42
-0.0156775479715902
 70
     1
  0
VERTEX
  5
28A9
  8
0
 10
68.813071180881764
 20
194.37857520748619
 30
0.0
 42
-0.0100386565748249
  0
VERTEX
  5
28CD
  8
0
 10
68.819109969338285
 20
194.3596424596945
 30
0.0
 42
-0.0043372184595227
 70
     1
  0
VERTEX
  5
28AA
  8
0
 10
68.831820443609956
 20
194.31544183231151
 30
0.0
 42
-0.0117782225313396
  0
VERTEX
  5
28CE
  8
0
 10
68.840904034456955
 20
194.27953503030781
 30
0.0
 42
-0.0109226958571775
 70
     1
  0
VERTEX
  5
28AB
  8
0
 10
68.848931610016223
 20
194.2404119203409
 30
0.0
 42
-0.0493321966234685
  0
VERTEX
  5
28CF
  8
0
 10
68.853641031766472
 20
194.18307332476579
 30
0.0
 42
-0.0273534272331298
 70
     1
  0
VERTEX
  5
28AC
  8
0
 10
68.846258808599202
 20
194.07975219267641
 30
0.0
 42
-0.0073580104729285
  0
VERTEX
  5
28D0
  8
0
 10
68.840730362996226
 20
194.04072980162351
 30
0.0
 42
-0.0135287606323333
 70
     1
  0
VERTEX
  5
28AD
  8
0
 10
68.836839397500228
 20
194.01964769711631
 30
0.0
 42
-0.0291429772134332
  0
VERTEX
  5
28D1
  8
0
 10
68.824010545784915
 20
193.97290003271669
 30
0.0
 42
-0.0294617492587883
 70
     1
  0
VERTEX
  5
28AE
  8
0
 10
68.806001141278614
 20
193.9284580012532
 30
0.0
 42
-0.0178318334354656
  0
VERTEX
  5
28D2
  8
0
 10
68.788807107937544
 20
193.895397156538
 30
0.0
 42
-0.0155252329360187
 70
     1
  0
VERTEX
  5
28AF
  8
0
 10
68.766572971359722
 20
193.85882810446111
 30
0.0
 42
-0.0155213882229547
  0
VERTEX
  5
28D3
  8
0
 10
68.728380622523389
 20
193.80399335087449
 30
0.0
 42
-0.0192725484475908
 70
     1
  0
VERTEX
  5
28B0
  8
0
 10
68.694621630153677
 20
193.76207136835311
 30
0.0
 42
-0.0119957304522268
  0
VERTEX
  5
28D4
  8
0
 10
68.61177841315174
 20
193.6714309759401
 30
0.0
 42
-0.005425840663885
 70
     1
  0
VERTEX
  5
28B1
  8
0
 10
68.421776591079777
 20
193.47756244033869
 30
0.0
 42
-0.0011798481332868
  0
VERTEX
  5
28D5
  8
0
 10
68.145954858361108
 20
193.20346670813939
 30
0.0
 42
0.0017565511266088
 70
     1
  0
VERTEX
  5
28B2
  8
0
 10
67.960901838412425
 20
193.01914698270329
 30
0.0
 42
0.0006016274229926
  0
VERTEX
  5
28D6
  8
0
 10
67.702083802930872
 20
192.75891134929779
 30
0.0
 42
0.0007802724851238
 70
     1
  0
VERTEX
  5
28B3
  8
0
 10
67.50307799294211
 20
192.5577063939312
 30
0.0
 42
0.002597634197529
  0
VERTEX
  5
28D7
  8
0
 10
67.315764894857864
 20
192.36574670084889
 30
0.0
 42
0.0019397094471739
 70
     1
  0
VERTEX
  5
28B4
  8
0
 10
67.067261442297365
 20
192.1064117570366
 30
0.0
 42
0.0037602627739673
  0
VERTEX
  5
28D8
  8
0
 10
66.84288698865538
 20
191.86684941551729
 30
0.0
 42
0.0037260484000985
 70
     1
  0
VERTEX
  5
28B5
  8
0
 10
66.6200973186493
 20
191.62172427830649
 30
0.0
 42
0.0025040335195686
  0
VERTEX
  5
28D9
  8
0
 10
66.473914924921417
 20
191.45680397114131
 30
0.0
 42
0.0026234881316242
 70
     1
  0
VERTEX
  5
28B6
  8
0
 10
66.336010093887126
 20
191.29797029763611
 30
0.0
 42
0.0032414293107311
  0
VERTEX
  5
28DA
  8
0
 10
66.215982363315277
 20
191.15640622895819
 30
0.0
 42
0.0027996659293619
 70
     1
  0
VERTEX
  5
28B7
  8
0
 10
66.079006027025173
 20
190.99083798289109
 30
0.0
 42
0.0054798247456312
  0
VERTEX
  5
28DB
  8
0
 10
65.942669704941807
 20
190.8203733544652
 30
0.0
 42
0.0055670187086082
 70
     1
  0
VERTEX
  5
28B8
  8
0
 10
65.81220825420138
 20
190.6496547083326
 30
0.0
 42
0.0050490184687457
  0
VERTEX
  5
28DC
  8
0
 10
65.760351649112351
 20
190.57872425896139
 30
0.0
 42
0.0036105314994973
 70
     1
  0
VERTEX
  5
28B9
  8
0
 10
65.68956418058832
 20
190.4782943807499
 30
0.0
 42
0.0118308268225112
  0
VERTEX
  5
28DD
  8
0
 10
65.609085150412895
 20
190.35628095550879
 30
0.0
 42
0.012632055268993
 70
     1
  0
VERTEX
  5
28BA
  8
0
 10
65.539388029332713
 20
190.2384549480409
 30
0.0
 42
0.0133025524224396
  0
VERTEX
  5
28DE
  8
0
 10
65.49335611141413
 20
190.15052996525731
 30
0.0
 42
0.0157581191704039
 70
     1
  0
VERTEX
  5
28BB
  8
0
 10
65.458871678286513
 20
190.0741689880569
 30
0.0
 42
0.0094185460600152
  0
VERTEX
  5
28DF
  8
0
 10
65.424738921276173
 20
189.98715726271271
 30
0.0
 42
0.0152923446026368
 70
     1
  0
VERTEX
  5
28BC
  8
0
 10
65.406386879613876
 20
189.93258582264659
 30
0.0
 42
0.003482389721252
  0
VERTEX
  5
28E0
  8
0
 10
65.396752206819372
 20
189.89992618867481
 30
0.0
 42
0.0013210593137266
 70
     1
  0
VERTEX
  5
28BD
  8
0
 10
65.372183140695256
 20
189.8135943625648
 30
0.0
 42
0.0056645751826552
  0
VERTEX
  5
28E1
  8
0
 10
65.360542235524179
 20
189.77040710475021
 30
0.0
 42
0.0130872011752487
 70
     1
  0
VERTEX
  5
28BE
  8
0
 10
65.356207459596931
 20
189.75153583088721
 30
0.0
 42
0.1558121335016865
  0
VERTEX
  5
28E2
  8
0
 10
65.358217921771768
 20
189.73325322860461
 30
0.0
 42
0.0677487861554974
 70
     1
  0
VERTEX
  5
28BF
  8
0
 10
65.38004272108401
 20
189.6979700152209
 30
0.0
 42
0.0186323879368701
  0
VERTEX
  5
28E3
  8
0
 10
65.395447473405227
 20
189.68063492703649
 30
0.0
 42
0.0358102026441153
 70
     1
  0
VERTEX
  5
28C0
  8
0
 10
65.404403489645858
 20
189.67253186826639
 30
0.0
 42
0.0372966975118537
  0
VERTEX
  5
28E4
  8
0
 10
65.439329422843173
 20
189.6491828642007
 30
0.0
 42
0.0290468409439667
 70
     1
  0
VERTEX
  5
28C1
  8
0
 10
65.487719491415305
 20
189.62540934646529
 30
0.0
 42
0.0034542074308317
  0
VERTEX
  5
28E5
  8
0
 10
65.527058259823832
 20
189.60916215076179
 30
0.0
 42
0.0099601867972009
 70
     1
  0
VERTEX
  5
28C2
  8
0
 10
65.540848442792139
 20
189.60389513236731
 30
0.0
 42
0.0043893769219386
  0
VERTEX
  5
28E6
  8
0
 10
65.578849961784442
 20
189.5906173053009
 30
0.0
 42
0.0080390062353683
 70
     1
  0
VERTEX
  5
28C3
  8
0
 10
65.59977389230329
 20
189.58388511121811
 30
0.0
 42
0.0051227547787206
  0
VERTEX
  5
28E8
  8
0
 10
65.617454233280739
 20
189.57870591282801
 30
0.0
 42
0.0015811372276846
 70
     1
  0
VERTEX
  5
28C4
  8
0
 10
65.674955548952937
 20
189.5626956315221
 30
0.0
 42
0.0057016451623943
  0
VERTEX
  5
28E7
  8
0
 10
65.677381229331957
 20
189.56205816036629
 30
0.0
 42
0.0011613534528603
 70
     1
  0
VERTEX
  5
28C5
  8
0
 10
65.689331527898901
 20
189.55909234775461
 30
0.0
  0
SEQEND
  5
28C6
  8
0
  0
POLYLINE
  5
2878
  8
0
 66
     1
 10
0.0
 20
0.0
 30
0.0
 70
     2
  0
VERTEX
  5
2879
  8
0
 10
71.835174604682209
 20
191.2202818224749
 30
0.0
 42
-0.0432374482966537
  0
VERTEX
  5
288F
  8
0
 10
71.837158654521943
 20
191.13506012702109
 30
0.0
 42
-0.063631900120558
 70
     1
  0
VERTEX
  5
287A
  8
0
 10
71.826182041611276
 20
191.07805809376359
 30
0.0
 42
-0.0134979255547926
  0
VERTEX
  5
2890
  8
0
 10
71.796453629935456
 20
190.99515878654131
 30
0.0
 42
-0.0498994298076676
 70
     1
  0
VERTEX
  5
287B
  8
0
 10
71.785617726006478
 20
190.9738813358102
 30
0.0
 42
-0.0194154178096952
  0
VERTEX
  5
2891
  8
0
 10
71.748563043146021
 20
190.920816267079
 30
0.0
 42
-0.0261674114314308
 70
     1
  0
VERTEX
  5
287C
  8
0
 10
71.717590402897315
 20
190.88409828781289
 30
0.0
 42
-0.0033757260835479
  0
VERTEX
  5
2892
  8
0
 10
71.674817034740656
 20
190.83907695505249
 30
0.0
 42
-0.0104666199266473
 70
     1
  0
VERTEX
  5
287D
  8
0
 10
71.660623600580195
 20
190.8249425762113
 30
0.0
 42
-0.003327745421248
  0
VERTEX
  5
2893
  8
0
 10
71.627816837782973
 20
190.79402717405711
 30
0.0
 42
0.00514918535114
 70
     1
  0
VERTEX
  5
287E
  8
0
 10
71.595010074985623
 20
190.7631117719028
 30
0.0
 42
0.0016942955004377
  0
VERTEX
  5
2894
  8
0
 10
71.541630894723937
 20
190.7114124961227
 30
0.0
 42
0.0030339167440851
 70
     1
  0
VERTEX
  5
287F
  8
0
 10
71.512095371504813
 20
190.6822601736221
 30
0.0
 42
0.0031787971331167
  0
VERTEX
  5
2895
  8
0
 10
71.436377746205551
 20
190.605644378964
 30
0.0
 42
0.0006673955451754
 70
     1
  0
VERTEX
  5
2880
  8
0
 10
71.078556784388581
 20
190.23796443481029
 30
0.0
 42
0.0001669844082762
  0
VERTEX
  5
2896
  8
0
 10
70.906414150118223
 20
190.0604871903889
 30
0.0
 42
0.0002382332552891
 70
     1
  0
VERTEX
  5
2881
  8
0
 10
70.785855375647941
 20
189.9359906342637
 30
0.0
 42
0.0020560532873359
  0
VERTEX
  5
2897
  8
0
 10
70.481189934209112
 20
189.61847143558049
 30
0.0
 42
0.002416499042543
 70
     1
  0
VERTEX
  5
2882
  8
0
 10
70.224394996953436
 20
189.34600514102209
 30
0.0
 42
0.0013019515547172
  0
VERTEX
  5
2898
  8
0
 10
70.095477262784414
 20
189.2071656468944
 30
0.0
 42
0.0016081255983313
 70
     1
  0
VERTEX
  5
2883
  8
0
 10
69.991760306434173
 20
189.09415440493819
 30
0.0
 42
0.0013283042210076
  0
VERTEX
  5
2899
  8
0
 10
69.887562799627347
 20
188.9792724520849
 30
0.0
 42
0.0013357676073768
 70
     1
  0
VERTEX
  5
2884
  8
0
 10
69.784557632573808
 20
188.8644819285698
 30
0.0
 42
0.0020685412878847
  0
VERTEX
  5
289A
  8
0
 10
69.6867606389348
 20
188.7539912264657
 30
0.0
 42
0.0015787763763525
 70
     1
  0
VERTEX
  5
2885
  8
0
 10
69.559684901025832
 20
188.60829373576081
 30
0.0
 42
0.0025476347458963
  0
VERTEX
  5
289B
  8
0
 10
69.479151410839847
 20
188.51440577338519
 30
0.0
 42
0.0015259720470407
 70
     1
  0
VERTEX
  5
2886
  8
0
 10
69.345981515763981
 20
188.3565687823459
 30
0.0
 42
0.0041453815507927
  0
VERTEX
  5
289C
  8
0
 10
69.232820320730454
 20
188.219317870764
 30
0.0
 42
0.0029675741490613
 70
     1
  0
VERTEX
  5
2887
  8
0
 10
69.077490966879679
 20
188.02536548984199
 30
0.0
 42
0.0057149749297698
  0
VERTEX
  5
289D
  8
0
 10
68.945424887618799
 20
187.8544612476436
 30
0.0
 42
0.0057963399277983
 70
     1
  0
VERTEX
  5
2888
  8
0
 10
68.819126096164553
 20
187.68300300447109
 30
0.0
 42
0.0050624024217043
  0
VERTEX
  5
289E
  8
0
 10
68.74110874375009
 20
187.57212568782791
 30
0.0
 42
0.0048558592549542
 70
     1
  0
VERTEX
  5
2889
  8
0
 10
68.662081902899615
 20
187.45494190357471
 30
0.0
 42
0.0068924591839177
  0
VERTEX
  5
289F
  8
0
 10
68.616817732444986
 20
187.3842970537699
 30
0.0
 42
0.0044301234582931
 70
     1
  0
VERTEX
  5
288A
  8
0
 10
68.548903634428186
 20
187.27282333888101
 30
0.0
 42
0.0154885766723338
  0
VERTEX
  5
28A0
  8
0
 10
68.483095280857185
 20
187.1544384719046
 30
0.0
 42
0.0172780685878345
 70
     1
  0
VERTEX
  5
288B
  8
0
 10
68.431175304947544
 20
187.04467320224589
 30
0.0
 42
0.0171027041886981
  0
VERTEX
  5
28A2
  8
0
 10
68.422544833500694
 20
187.02262276623711
 30
0.0
 42
0.003726182429297
 70
     1
  0
VERTEX
  5
288C
  8
0
 10
68.387190845614612
 20
186.91988091154721
 30
0.0
 42
0.0346518553887545
  0
VERTEX
  5
28A1
  8
0
 10
68.370958712269896
 20
186.8575308359442
 30
0.0
 42
0.0214730296524535
 70
     1
  0
VERTEX
  5
288D
  8
0
 10
68.356207020031945
 20
186.75468972916161
 30
0.0
  0
SEQEND
  5
288E
  8
0
  0
POLYLINE
  5
28E9
  8
0
 66
     1
 10
0.0
 20
0.0
 30
0.0
 70
     2
  0
VERTEX
  5
28EA
  8
0
 10
45.135144523708668
 20
194.49443574050269
 30
0.0
 42
0.010051347538507
  0
VERTEX
  5
28EB
  8
0
 10
45.104164842498037
 20
194.4980057544326
 30
0.0
 42
0.0167084659238684
 70
     1
  0
VERTEX
  5
28EC
  8
0
 10
45.085436797870727
 20
194.49915363249539
 30
0.0
 42
0.0035567613675961
  0
VERTEX
  5
28ED
  8
0
 10
45.048732273484852
 20
194.49991308546461
 30
0.0
 42
0.0093112420220589
 70
     1
  0
VERTEX
  5
28EE
  8
0
 10
45.034707809106692
 20
194.49984229778221
 30
0.0
 42
0.0435263575860128
  0
VERTEX
  5
28EF
  8
0
 10
45.013686125536253
 20
194.49750634389969
 30
0.0
 42
0.0343833112855821
 70
     1
  0
VERTEX
  5
28F0
  8
0
 10
44.987873565578568
 20
194.49046232697381
 30
0.0
 42
0.0685726369706805
  0
VERTEX
  5
28F1
  8
0
 10
44.965015720544379
 20
194.4787915911497
 30
0.0
 42
0.0640272702504998
 70
     1
  0
VERTEX
  5
28F2
  8
0
 10
44.944672115238568
 20
194.46033190145221
 30
0.0
 42
0.0322320263922577
  0
VERTEX
  5
28F3
  8
0
 10
44.925471890967678
 20
194.4346293477634
 30
0.0
 42
0.0397252291791933
 70
     1
  0
VERTEX
  5
28F4
  8
0
 10
44.913037113278563
 20
194.41174477348301
 30
0.0
 42
0.0066972690493137
  0
VERTEX
  5
28F5
  8
0
 10
44.903129900826173
 20
194.38863071965179
 30
0.0
 42
0.0156775479715902
 70
     1
  0
VERTEX
  5
28F6
  8
0
 10
44.899342814440558
 20
194.37857520748619
 30
0.0
 42
0.0100386565748249
  0
VERTEX
  5
28F7
  8
0
 10
44.893304025984037
 20
194.3596424596945
 30
0.0
 42
0.0043372184595227
 70
     1
  0
VERTEX
  5
28F8
  8
0
 10
44.880593551712373
 20
194.31544183231151
 30
0.0
 42
0.0117782225313396
  0
VERTEX
  5
28F9
  8
0
 10
44.871509960865353
 20
194.27953503030781
 30
0.0
 42
0.0109226958571775
 70
     1
  0
VERTEX
  5
28FA
  8
0
 10
44.863482385306092
 20
194.2404119203409
 30
0.0
 42
0.0493321966234685
  0
VERTEX
  5
28FB
  8
0
 10
44.858772963555843
 20
194.18307332476579
 30
0.0
 42
0.0273534272331298
 70
     1
  0
VERTEX
  5
28FC
  8
0
 10
44.866155186723113
 20
194.07975219267641
 30
0.0
 42
0.0073580104729285
  0
VERTEX
  5
28FD
  8
0
 10
44.871683632326089
 20
194.04072980162351
 30
0.0
 42
0.0135287606323333
 70
     1
  0
VERTEX
  5
28FE
  8
0
 10
44.875574597822087
 20
194.01964769711631
 30
0.0
 42
0.0291429772134332
  0
VERTEX
  5
28FF
  8
0
 10
44.8884034495374
 20
193.97290003271669
 30
0.0
 42
0.0294617492587883
 70
     1
  0
VERTEX
  5
2900
  8
0
 10
44.906412854043708
 20
193.9284580012532
 30
0.0
 42
0.0178318334354656
  0
VERTEX
  5
2901
  8
0
 10
44.923606887384778
 20
193.895397156538
 30
0.0
 42
0.0155252329360187
 70
     1
  0
VERTEX
  5
2902
  8
0
 10
44.945841023962601
 20
193.85882810446111
 30
0.0
 42
0.0155213882229547
  0
VERTEX
  5
2903
  8
0
 10
44.984033372798933
 20
193.80399335087449
 30
0.0
 42
0.0192725484475908
 70
     1
  0
VERTEX
  5
2904
  8
0
 10
45.017792365168638
 20
193.76207136835311
 30
0.0
 42
0.0119957304522268
  0
VERTEX
  5
2905
  8
0
 10
45.100635582170582
 20
193.6714309759401
 30
0.0
 42
0.005425840663885
 70
     1
  0
VERTEX
  5
2906
  8
0
 10
45.290637404242553
 20
193.47756244033869
 30
0.0
 42
0.0011798481332868
  0
VERTEX
  5
2907
  8
0
 10
45.566459136961207
 20
193.20346670813939
 30
0.0
 42
-0.0017565511266088
 70
     1
  0
VERTEX
  5
2908
  8
0
 10
45.751512156909882
 20
193.01914698270329
 30
0.0
 42
-0.0006016274229926
  0
VERTEX
  5
2909
  8
0
 10
46.01033019239145
 20
192.75891134929779
 30
0.0
 42
-0.0007802724851238
 70
     1
  0
VERTEX
  5
290A
  8
0
 10
46.209336002380212
 20
192.5577063939312
 30
0.0
 42
-0.002597634197529
  0
VERTEX
  5
290B
  8
0
 10
46.396649100464451
 20
192.36574670084889
 30
0.0
 42
-0.0019397094471739
 70
     1
  0
VERTEX
  5
290C
  8
0
 10
46.645152553024957
 20
192.1064117570366
 30
0.0
 42
-0.0037602627739673
  0
VERTEX
  5
290D
  8
0
 10
46.869527006666942
 20
191.86684941551729
 30
0.0
 42
-0.0037260484000985
 70
     1
  0
VERTEX
  5
290E
  8
0
 10
47.092316676673022
 20
191.62172427830649
 30
0.0
 42
-0.0025040335195686
  0
VERTEX
  5
290F
  8
0
 10
47.238499070400898
 20
191.45680397114131
 30
0.0
 42
-0.0026234881316242
 70
     1
  0
VERTEX
  5
2910
  8
0
 10
47.376403901435197
 20
191.29797029763611
 30
0.0
 42
-0.0032414293107311
  0
VERTEX
  5
2911
  8
0
 10
47.496431632007038
 20
191.15640622895819
 30
0.0
 42
-0.0027996659293619
 70
     1
  0
VERTEX
  5
2912
  8
0
 10
47.633407968297149
 20
190.99083798289109
 30
0.0
 42
-0.0054798247456312
  0
VERTEX
  5
2913
  8
0
 10
47.769744290380508
 20
190.8203733544652
 30
0.0
 42
-0.0055670187086082
 70
     1
  0
VERTEX
  5
2914
  8
0
 10
47.900205741120942
 20
190.6496547083326
 30
0.0
 42
-0.0050490184687457
  0
VERTEX
  5
2915
  8
0
 10
47.952062346209971
 20
190.57872425896139
 30
0.0
 42
-0.0036105314994973
 70
     1
  0
VERTEX
  5
2916
  8
0
 10
48.022849814734002
 20
190.4782943807499
 30
0.0
 42
-0.0118308268225112
  0
VERTEX
  5
2917
  8
0
 10
48.103328844909413
 20
190.35628095550879
 30
0.0
 42
-0.012632055268993
 70
     1
  0
VERTEX
  5
2918
  8
0
 10
48.173025965989609
 20
190.2384549480409
 30
0.0
 42
-0.0133025524224396
  0
VERTEX
  5
2919
  8
0
 10
48.219057883908192
 20
190.15052996525731
 30
0.0
 42
-0.0157581191704039
 70
     1
  0
VERTEX
  5
291A
  8
0
 10
48.253542317035787
 20
190.0741689880569
 30
0.0
 42
-0.0094185460600152
  0
VERTEX
  5
291B
  8
0
 10
48.287675074046149
 20
189.98715726271271
 30
0.0
 42
-0.0152923446026368
 70
     1
  0
VERTEX
  5
291C
  8
0
 10
48.306027115708439
 20
189.93258582264659
 30
0.0
 42
-0.003482389721252
  0
VERTEX
  5
291D
  8
0
 10
48.31566178850295
 20
189.89992618867481
 30
0.0
 42
-0.0013210593137266
 70
     1
  0
VERTEX
  5
291E
  8
0
 10
48.340230854627073
 20
189.8135943625648
 30
0.0
 42
-0.0056645751826552
  0
VERTEX
  5
291F
  8
0
 10
48.351871759798151
 20
189.77040710475021
 30
0.0
 42
-0.0130872011752487
 70
     1
  0
VERTEX
  5
2920
  8
0
 10
48.356206535725391
 20
189.75153583088721
 30
0.0
 42
-0.1558121335016865
  0
VERTEX
  5
2921
  8
0
 10
48.354196073550547
 20
189.73325322860461
 30
0.0
 42
-0.0677487861554974
 70
     1
  0
VERTEX
  5
2922
  8
0
 10
48.332371274238312
 20
189.6979700152209
 30
0.0
 42
-0.0186323879368701
  0
VERTEX
  5
2923
  8
0
 10
48.316966521917088
 20
189.68063492703649
 30
0.0
 42
-0.0358102026441153
 70
     1
  0
VERTEX
  5
2924
  8
0
 10
48.308010505676471
 20
189.67253186826639
 30
0.0
 42
-0.0372966975118537
  0
VERTEX
  5
2925
  8
0
 10
48.273084572479149
 20
189.6491828642007
 30
0.0
 42
-0.0290468409439667
 70
     1
  0
VERTEX
  5
2926
  8
0
 10
48.224694503907017
 20
189.62540934646529
 30
0.0
 42
-0.0034542074308317
  0
VERTEX
  5
2927
  8
0
 10
48.18535573549849
 20
189.60916215076179
 30
0.0
 42
-0.0099601867972009
 70
     1
  0
VERTEX
  5
2928
  8
0
 10
48.171565552530183
 20
189.60389513236731
 30
0.0
 42
-0.0043893769219386
  0
VERTEX
  5
2929
  8
0
 10
48.13356403353788
 20
189.5906173053009
 30
0.0
 42
-0.0080390062353683
 70
     1
  0
VERTEX
  5
292A
  8
0
 10
48.112640103019032
 20
189.58388511121811
 30
0.0
 42
-0.0051227547787206
  0
VERTEX
  5
292B
  8
0
 10
48.094959762041583
 20
189.57870591282801
 30
0.0
 42
-0.0015811372276846
 70
     1
  0
VERTEX
  5
292C
  8
0
 10
48.037458446369392
 20
189.5626956315221
 30
0.0
 42
-0.0057016451623943
  0
VERTEX
  5
292D
  8
0
 10
48.035032765990373
 20
189.56205816036629
 30
0.0
 42
-0.0011613534528603
 70
     1
  0
VERTEX
  5
292E
  8
0
 10
48.023082467423421
 20
189.55909234775461
 30
0.0
  0
SEQEND
  5
292F
  8
0
  0
POLYLINE
  5
298F
  8
0
 66
     1
 10
0.0
 20
0.0
 30
0.0
  0
VERTEX
  5
2990
  8
0
 10
44.004869095413198
 20
182.52534343847711
 30
0.0
 42
0.0401549303062566
  0
VERTEX
  5
2991
  8
0
 10
43.839239574117471
 20
182.4981432688426
 30
0.0
 42
0.0683461361211186
  0
VERTEX
  5
2992
  8
0
 10
43.747362264457308
 20
182.4614977657298
 30
0.0
 42
0.0180017013974993
  0
VERTEX
  5
2993
  8
0
 10
43.579361769721622
 20
182.3580337532596
 30
0.0
 42
0.0330877183386245
  0
VERTEX
  5
2994
  8
0
 10
43.494110405136951
 20
182.2926656457349
 30
0.0
 42
0.0256162695898133
  0
VERTEX
  5
2995
  8
0
 10
43.30786793066391
 20
182.111522198713
 30
0.0
 42
0.0245913823830398
  0
VERTEX
  5
2996
  8
0
 10
43.133761170916777
 20
181.90434584939931
 30
0.0
 42
0.0132115213074671
  0
VERTEX
  5
2997
  8
0
 10
42.887020971281743
 20
181.56111931043191
 30
0.0
 42
0.0191526863807842
  0
VERTEX
  5
2998
  8
0
 10
42.732459032863908
 20
181.3138017327
 30
0.0
 42
0.0040920730631741
  0
VERTEX
  5
2999
  8
0
 10
42.538114794795028
 20
180.96805127508611
 30
0.0
 42
0.0099169259922879
  0
VERTEX
  5
299A
  8
0
 10
42.461943445035843
 20
180.82318012044641
 30
0.0
 42
0.0003494109167085
  0
VERTEX
  5
299B
  8
0
 10
42.357519233391542
 20
180.61427112399051
 30
0.0
 42
0.0002323363604196
  0
VERTEX
  5
299C
  8
0
 10
42.200841204498197
 20
180.29991016056579
 30
0.0
 42
0.0005513219627638
  0
VERTEX
  5
299D
  8
0
 10
42.053968472700539
 20
180.00406213478209
 30
0.0
 42
0.0011998773510766
  0
VERTEX
  5
299E
  8
0
 10
41.986959547842552
 20
179.8678896314797
 30
0.0
 42
0.0284207077639797
  0
VERTEX
  5
299F
  8
0
 10
41.972823103200483
 20
179.83427329553109
 30
0.0
 42
0.0049741113363342
  0
VERTEX
  5
29A0
  8
0
 10
41.905100472027073
 20
179.6373915108656
 30
0.0
 42
0.0316611734906235
  0
VERTEX
  5
29A1
  8
0
 10
41.889562495452253
 20
179.57852070781831
 30
0.0
 42
0.0082540130633757
  0
VERTEX
  5
29A2
  8
0
 10
41.878113842352263
 20
179.51497071606889
 30
0.0
  0
SEQEND
  5
29A3
  8
0
  0
POLYLINE
  5
29A4
  8
0
 66
     1
 10
0.0
 20
0.0
 30
0.0
  0
VERTEX
  5
29A5
  8
0
 10
41.878113842352377
 20
191.11068784517971
 30
0.0
 42
0.0367591095239027
  0
VERTEX
  5
29A6
  8
0
 10
41.886231953711039
 20
191.07805809376359
 30
0.0
 42
0.0134979255547926
  0
VERTEX
  5
29A7
  8
0
 10
41.915960365386859
 20
190.99515878654131
 30
0.0
 42
0.0498994298076676
  0
VERTEX
  5
29A8
  8
0
 10
41.926796269315837
 20
190.9738813358102
 30
0.0
 42
0.0194154178096952
  0
VERTEX
  5
29A9
  8
0
 10
41.963850952176301
 20
190.920816267079
 30
0.0
 42
0.0261674114314308
  0
VERTEX
  5
29AA
  8
0
 10
41.994823592425007
 20
190.88409828781289
 30
0.0
 42
0.0033757260835479
  0
VERTEX
  5
29AB
  8
0
 10
42.037596960581652
 20
190.83907695505249
 30
0.0
 42
0.0104666199266473
  0
VERTEX
  5
29AC
  8
0
 10
42.051790394742113
 20
190.8249425762113
 30
0.0
 42
0.003327745421248
  0
VERTEX
  5
29AD
  8
0
 10
42.084597157539342
 20
190.79402717405711
 30
0.0
 42
-0.00514918535114
  0
VERTEX
  5
29AE
  8
0
 10
42.117403920336699
 20
190.7631117719028
 30
0.0
 42
-0.0016942955004377
  0
VERTEX
  5
29AF
  8
0
 10
42.170783100598392
 20
190.7114124961227
 30
0.0
 42
-0.0030339167440851
  0
VERTEX
  5
29B0
  8
0
 10
42.200318623817509
 20
190.6822601736221
 30
0.0
 42
-0.0031787971331167
  0
VERTEX
  5
29B1
  8
0
 10
42.276036249116771
 20
190.605644378964
 30
0.0
 42
-0.0006673955451754
  0
VERTEX
  5
29B2
  8
0
 10
42.633857210933733
 20
190.23796443481029
 30
0.0
 42
-0.0001669844082762
  0
VERTEX
  5
29B3
  8
0
 10
42.805999845204092
 20
190.0604871903889
 30
0.0
 42
-0.0002382332552891
  0
VERTEX
  5
29B4
  8
0
 10
42.926558619674381
 20
189.9359906342637
 30
0.0
 42
-0.0020560532873359
  0
VERTEX
  5
29B5
  8
0
 10
43.23122406111321
 20
189.61847143558049
 30
0.0
 42
-0.002416499042543
  0
VERTEX
  5
29B6
  8
0
 10
43.488018998368879
 20
189.34600514102209
 30
0.0
 42
-0.0013019515547172
  0
VERTEX
  5
29B7
  8
0
 10
43.616936732537908
 20
189.2071656468944
 30
0.0
 42
-0.0016081255983313
  0
VERTEX
  5
29B8
  8
0
 10
43.720653688888142
 20
189.09415440493819
 30
0.0
 42
-0.0013283042210076
  0
VERTEX
  5
29B9
  8
0
 10
43.824851195694968
 20
188.9792724520849
 30
0.0
 42
-0.0013357676073768
  0
VERTEX
  5
29BA
  8
0
 10
43.927856362748507
 20
188.8644819285698
 30
0.0
 42
-0.0020685412878847
  0
VERTEX
  5
29BB
  8
0
 10
44.025653356387522
 20
188.7539912264657
 30
0.0
 42
-0.0015787763763525
  0
VERTEX
  5
29BC
  8
0
 10
44.152729094296483
 20
188.60829373576081
 30
0.0
 42
-0.0025476347458963
  0
VERTEX
  5
29BD
  8
0
 10
44.233262584482482
 20
188.51440577338519
 30
0.0
 42
-0.0015259720470407
  0
VERTEX
  5
29BE
  8
0
 10
44.366432479558341
 20
188.3565687823459
 30
0.0
 42
-0.0041453815507927
  0
VERTEX
  5
29BF
  8
0
 10
44.479593674591847
 20
188.219317870764
 30
0.0
 42
-0.0029675741490613
  0
VERTEX
  5
29C0
  8
0
 10
44.634923028442643
 20
188.02536548984199
 30
0.0
 42
-0.0057149749297698
  0
VERTEX
  5
29C1
  8
0
 10
44.766989107703523
 20
187.8544612476436
 30
0.0
 42
-0.0057963399277983
  0
VERTEX
  5
29C2
  8
0
 10
44.893287899157762
 20
187.68300300447109
 30
0.0
 42
-0.0050624024217043
  0
VERTEX
  5
29C3
  8
0
 10
44.971305251572232
 20
187.57212568782791
 30
0.0
 42
-0.0048558592549542
  0
VERTEX
  5
29C4
  8
0
 10
45.0503320924227
 20
187.45494190357471
 30
0.0
 42
-0.0068924591839177
  0
VERTEX
  5
29C5
  8
0
 10
45.095596262877329
 20
187.3842970537699
 30
0.0
 42
-0.0044301234582931
  0
VERTEX
  5
29C6
  8
0
 10
45.163510360894122
 20
187.27282333888101
 30
0.0
 42
-0.0154885766723338
  0
VERTEX
  5
29C7
  8
0
 10
45.22931871446513
 20
187.1544384719046
 30
0.0
 42
-0.0172780685878345
  0
VERTEX
  5
29C8
  8
0
 10
45.281238690374778
 20
187.04467320224589
 30
0.0
 42
-0.0171027041886981
  0
VERTEX
  5
29C9
  8
0
 10
45.28986916182162
 20
187.02262276623711
 30
0.0
 42
-0.003726182429297
  0
VERTEX
  5
29CA
  8
0
 10
45.32522314970771
 20
186.91988091154721
 30
0.0
 42
-0.0346518553887545
  0
VERTEX
  5
29CB
  8
0
 10
45.341455283052419
 20
186.8575308359442
 30
0.0
 42
-0.0214730296524535
  0
VERTEX
  5
29CC
  8
0
 10
45.35620697529037
 20
186.75468972916161
 30
0.0
  0
SEQEND
  5
29CD
  8
0
  0
ARC
  5
29D3
  8
0
 10
208.10620720959281
 20
271.48759288314182
 30
0.0
 40
14.99999978806845
 50
271.99527647851272
 51
88.004723521487321
  0
LINE
  5
29D5
  8
0
 10
114.10620738509139
 20
282.98759290549373
 30
0.0
 11
114.10620738509139
 21
283.48759298745011
 31
0.0
  0
LINE
  5
29D6
  8
0
 10
114.10620738509139
 20
283.48759298745011
 30
0.0
 11
114.60620653572521
 21
283.9875930694065
 31
0.0
  0
LINE
  5
29D7
  8
0
 10
131.60620745959719
 20
283.9875930694065
 30
0.0
 11
132.106206610231
 21
283.48759298745011
 31
0.0
  0
LINE
  5
29D8
  8
0
 10
132.106206610231
 20
283.48759298745011
 30
0.0
 11
132.106206610231
 21
282.98759290549373
 31
0.0
  0
LINE
  5
29D9
  8
0
 10
108.0377749783986
 20
282.98759288314187
 30
0.0
 11
173.10620774271919
 21
282.98759290549373
 31
0.0
  0
LINE
  5
29DA
  8
0
 10
107.53777877946141
 20
282.48562763683299
 30
0.0
 11
107.5377745995207
 21
276.98759285333961
 31
0.0
  0
LINE
  5
29DB
  8
0
 10
107.5377745995207
 20
276.98759285333961
 30
0.0
 11
123.1062069976611
 21
276.98759285333949
 31
0.0
  0
LINE
  5
29DC
  8
0
 10
123.1062069976612
 20
265.98759291294419
 30
0.0
 11
107.5377745995207
 21
265.98759291294431
 31
0.0
  0
LINE
  5
29DD
  8
0
 10
107.5377745995207
 20
265.98759291294431
 30
0.0
 11
107.5377745995207
 21
260.48759294274657
 31
0.0
  0
LINE
  5
29DE
  8
0
 10
108.0377749783986
 20
259.98759288314187
 30
0.0
 11
173.10620774271911
 21
259.98759286079007
 31
0.0
  0
LINE
  5
29DF
  8
0
 10
114.10620738509139
 20
276.98759285333949
 30
0.0
 11
114.10620738509139
 21
265.98759291294431
 31
0.0
  0
LINE
  5
29E0
  8
0
 10
132.106206610231
 20
276.98759285333949
 30
0.0
 11
132.106206610231
 21
265.98759291294419
 31
0.0
  0
LINE
  5
29E1
  8
0
 10
114.10620738509139
 20
259.98759286079019
 30
0.0
 11
114.10620738509139
 21
259.4875927788338
 31
0.0
  0
LINE
  5
29E2
  8
0
 10
114.10620738509139
 20
259.4875927788338
 30
0.0
 11
114.60620653572521
 21
258.98759269687741
 31
0.0
  0
LINE
  5
29E3
  8
0
 10
131.60620745959719
 20
258.98759269687741
 30
0.0
 11
132.106206610231
 21
259.4875927788338
 31
0.0
  0
LINE
  5
29E4
  8
0
 10
132.106206610231
 20
259.4875927788338
 30
0.0
 11
132.106206610231
 21
259.98759286079007
 31
0.0
  0
POLYLINE
  5
29E7
  8
0
 66
     1
 10
0.0
 20
0.0
 30
0.0
 70
     2
  0
VERTEX
  5
29E8
  8
0
 10
173.10620774271919
 20
282.98759290549373
 30
0.0
 42
0.0030305009492002
  0
VERTEX
  5
29F6
  8
0
 10
176.41501457017191
 20
283.029929545595
 30
0.0
 42
0.0052445348589446
 70
     1
  0
VERTEX
  5
29E9
  8
0
 10
178.32634315255581
 20
283.0860324340378
 30
0.0
 42
0.0001209271571873
  0
VERTEX
  5
29F7
  8
0
 10
182.2003055094215
 20
283.24136551073548
 30
0.0
 42
0.0032184777499492
 70
     1
  0
VERTEX
  5
29EA
  8
0
 10
182.34582032545279
 20
283.24817387382848
 30
0.0
 42
0.0042648719710086
  0
VERTEX
  5
29F8
  8
0
 10
184.37057776290251
 20
283.37330212382523
 30
0.0
 42
0.0038895829707013
 70
     1
  0
VERTEX
  5
29EB
  8
0
 10
186.5881557456066
 20
283.54669056919568
 30
0.0
 42
0.0028357596621895
  0
VERTEX
  5
29F9
  8
0
 10
188.69472530527361
 20
283.73993911143771
 30
0.0
 42
0.0031343174772332
 70
     1
  0
VERTEX
  5
29EC
  8
0
 10
190.59841462008339
 20
283.9375239941682
 30
0.0
 42
0.0026240137797062
  0
VERTEX
  5
29FA
  8
0
 10
192.49272751297619
 20
284.15621417405958
 30
0.0
 42
0.0026691158077739
 70
     1
  0
VERTEX
  5
29ED
  8
0
 10
194.35265094632811
 20
284.39091140393617
 30
0.0
 42
0.0033300336570563
  0
VERTEX
  5
29FB
  8
0
 10
196.62465128634591
 20
284.70534462003241
 30
0.0
 42
0.0039015895131603
 70
     1
  0
VERTEX
  5
29EE
  8
0
 10
198.55974312208789
 20
285.0017342650774
 30
0.0
 42
0.0024889264631036
  0
VERTEX
  5
29FC
  8
0
 10
200.55912157746531
 20
285.33417665251341
 30
0.0
 42
0.0034239769117808
 70
     1
  0
VERTEX
  5
29EF
  8
0
 10
202.00954045172929
 20
285.59300403309948
 30
0.0
 42
0.0023038456254306
  0
VERTEX
  5
29FD
  8
0
 10
203.27022841256181
 20
285.83290694054159
 30
0.0
 42
-0.0020316489352612
 70
     1
  0
VERTEX
  5
29F0
  8
0
 10
204.69967109384191
 20
286.10572950518741
 30
0.0
 42
-0.0019681088663489
  0
VERTEX
  5
29FE
  8
0
 10
205.52901079640151
 20
286.25715113755649
 30
0.0
 42
-0.0032397238932857
 70
     1
  0
VERTEX
  5
29F1
  8
0
 10
206.03376278186909
 20
286.3438867807053
 30
0.0
 42
-0.0161977856609039
  0
VERTEX
  5
29FF
  8
0
 10
206.54776955385549
 20
286.41176846467238
 30
0.0
 42
-0.0123864511646258
 70
     1
  0
VERTEX
  5
29F2
  8
0
 10
207.2238372587432
 20
286.4619838844622
 30
0.0
 42
-0.00415772672735
  0
VERTEX
  5
2A01
  8
0
 10
207.32862066782809
 20
286.46628792827607
 30
0.0
 42
-0.000706009217684
 70
     1
  0
VERTEX
  5
29F3
  8
0
 10
207.94590286690459
 20
286.48563069545071
 30
0.0
 42
-0.0100908881695016
  0
VERTEX
  5
2A00
  8
0
 10
208.17938896425821
 20
286.48790305671071
 30
0.0
 42
-0.0052451923638461
 70
     1
  0
VERTEX
  5
29F4
  8
0
 10
208.62846727163381
 20
286.47849826628112
 30
0.0
  0
SEQEND
  5
29F5
  8
0
  0
POLYLINE
  5
2A02
  8
0
 66
     1
 10
0.0
 20
0.0
 30
0.0
 70
     2
  0
VERTEX
  5
2A03
  8
0
 10
173.10620774271919
 20
259.98759286079019
 30
0.0
 42
-0.0030305009492002
  0
VERTEX
  5
2A04
  8
0
 10
176.41501457017191
 20
259.9452562206888
 30
0.0
 42
-0.0052445348589446
 70
     1
  0
VERTEX
  5
2A05
  8
0
 10
178.32634315255581
 20
259.889153332246
 30
0.0
 42
-0.0001209271571873
  0
VERTEX
  5
2A06
  8
0
 10
182.2003055094215
 20
259.73382025554838
 30
0.0
 42
-0.0032184777499492
 70
     1
  0
VERTEX
  5
2A07
  8
0
 10
182.34582032545279
 20
259.72701189245538
 30
0.0
 42
-0.0042648719710086
  0
VERTEX
  5
2A08
  8
0
 10
184.37057776290251
 20
259.60188364245857
 30
0.0
 42
-0.0038895829707013
 70
     1
  0
VERTEX
  5
2A09
  8
0
 10
186.5881557456066
 20
259.42849519708818
 30
0.0
 42
-0.0028357596621895
  0
VERTEX
  5
2A0A
  8
0
 10
188.69472530527361
 20
259.23524665484609
 30
0.0
 42
-0.0031343174772332
 70
     1
  0
VERTEX
  5
2A0B
  8
0
 10
190.59841462008339
 20
259.03766177211571
 30
0.0
 42
-0.0026240137797062
  0
VERTEX
  5
2A0C
  8
0
 10
192.49272751297619
 20
258.8189715922241
 30
0.0
 42
-0.0026691158077739
 70
     1
  0
VERTEX
  5
2A0D
  8
0
 10
194.35265094632811
 20
258.58427436234763
 30
0.0
 42
-0.0033300336570563
  0
VERTEX
  5
2A0E
  8
0
 10
196.62465128634591
 20
258.26984114625128
 30
0.0
 42
-0.0039015895131603
 70
     1
  0
VERTEX
  5
2A0F
  8
0
 10
198.55974312208789
 20
257.9734515012064
 30
0.0
 42
-0.0024889264631036
  0
VERTEX
  5
2A10
  8
0
 10
200.55912157746531
 20
257.64100911377028
 30
0.0
 42
-0.0034239769117808
 70
     1
  0
VERTEX
  5
2A11
  8
0
 10
202.00954045172929
 20
257.38218173318432
 30
0.0
 42
-0.0023038456254306
  0
VERTEX
  5
2A12
  8
0
 10
203.27022841256181
 20
257.1422788257421
 30
0.0
 42
0.0020316489352612
 70
     1
  0
VERTEX
  5
2A13
  8
0
 10
204.69967109384191
 20
256.86945626109639
 30
0.0
 42
0.0019681088663489
  0
VERTEX
  5
2A14
  8
0
 10
205.52901079640151
 20
256.7180346287272
 30
0.0
 42
0.0032397238932857
 70
     1
  0
VERTEX
  5
2A15
  8
0
 10
206.03376278186909
 20
256.6312989855785
 30
0.0
 42
0.0161977856609039
  0
VERTEX
  5
2A16
  8
0
 10
206.54776955385549
 20
256.56341730161142
 30
0.0
 42
0.0123864511646258
 70
     1
  0
VERTEX
  5
2A17
  8
0
 10
207.2238372587432
 20
256.5132018818216
 30
0.0
 42
0.00415772672735
  0
VERTEX
  5
2A18
  8
0
 10
207.32862066782809
 20
256.50889783800773
 30
0.0
 42
0.000706009217684
 70
     1
  0
VERTEX
  5
2A19
  8
0
 10
207.94590286690459
 20
256.48955507083309
 30
0.0
 42
0.0100908881695016
  0
VERTEX
  5
2A1A
  8
0
 10
208.17938896425821
 20
256.48728270957298
 30
0.0
 42
0.0052451923638461
 70
     1
  0
VERTEX
  5
2A1B
  8
0
 10
208.62846727163381
 20
256.49668750000279
 30
0.0
  0
SEQEND
  5
2A1C
  8
0
  0
LINE
  5
2A23
  8
0
 10
108.0377749783986
 20
62.987592883141957
 30
0.0
 11
118.20722752029521
 21
62.987592886635269
 31
0.0
  0
LINE
  5
2A24
  8
0
 10
107.5377745995207
 20
56.987592853339599
 30
0.0
 11
111.8812348227368
 21
56.987592853339592
 31
0.0
  0
LINE
  5
2A25
  8
0
 10
107.53777877946141
 20
62.485627636832952
 30
0.0
 11
107.5377745995207
 21
56.987592853339599
 31
0.0
  0
POLYLINE
  5
2A26
  8
0
 66
     1
 10
0.0
 20
0.0
 30
0.0
 70
     2
  0
VERTEX
  5
2A27
  8
0
 10
173.10620774271919
 20
62.987592905493642
 30
0.0
 42
0.0030305009492002
  0
VERTEX
  5
2A28
  8
0
 10
176.41501457017191
 20
63.02992954559496
 30
0.0
 42
0.0052445348589446
 70
     1
  0
VERTEX
  5
2A29
  8
0
 10
178.32634315255569
 20
63.086032434037797
 30
0.0
 42
0.0001209271571873
  0
VERTEX
  5
2A2A
  8
0
 10
182.2003055094215
 20
63.241365510735498
 30
0.0
 42
0.0032184777499492
 70
     1
  0
VERTEX
  5
2A2B
  8
0
 10
182.34582032545279
 20
63.248173873828499
 30
0.0
 42
0.0042648719710086
  0
VERTEX
  5
2A2C
  8
0
 10
184.37057776290251
 20
63.373302123825198
 30
0.0
 42
0.0038895829707013
 70
     1
  0
VERTEX
  5
2A2D
  8
0
 10
186.5881557456066
 20
63.546690569195647
 30
0.0
 42
0.0028357596621895
  0
VERTEX
  5
2A2E
  8
0
 10
188.69472530527349
 20
63.739939111437742
 30
0.0
 42
0.0031343174772332
 70
     1
  0
VERTEX
  5
2A2F
  8
0
 10
190.59841462008339
 20
63.93752399416811
 30
0.0
 42
0.0026240137797062
  0
VERTEX
  5
2A30
  8
0
 10
192.49272751297619
 20
64.15621417405967
 30
0.0
 42
0.0026691158077739
 70
     1
  0
VERTEX
  5
2A31
  8
0
 10
194.35265094632811
 20
64.390911403936201
 30
0.0
 42
0.0033300336570563
  0
VERTEX
  5
2A32
  8
0
 10
196.6246512863458
 20
64.705344620032434
 30
0.0
 42
0.0039015895131603
 70
     1
  0
VERTEX
  5
2A33
  8
0
 10
198.55974312208781
 20
65.001734265077403
 30
0.0
 42
0.0024889264631036
  0
VERTEX
  5
2A34
  8
0
 10
200.55912157746531
 20
65.334176652513435
 30
0.0
 42
0.0034239769117808
 70
     1
  0
VERTEX
  5
2A35
  8
0
 10
202.00954045172929
 20
65.593004033099504
 30
0.0
 42
0.0023038456254306
  0
VERTEX
  5
2A36
  8
0
 10
203.27022841256181
 20
65.832906940541648
 30
0.0
 42
-0.0020316489352612
 70
     1
  0
VERTEX
  5
2A37
  8
0
 10
204.6996710938418
 20
66.105729505187327
 30
0.0
 42
-0.0019681088663489
  0
VERTEX
  5
2A38
  8
0
 10
205.52901079640151
 20
66.257151137556576
 30
0.0
 42
-0.0032397238932857
 70
     1
  0
VERTEX
  5
2A39
  8
0
 10
206.03376278186909
 20
66.343886780705304
 30
0.0
 42
-0.0161977856609039
  0
VERTEX
  5
2A3A
  8
0
 10
206.54776955385549
 20
66.411768464672406
 30
0.0
 42
-0.0123864511646258
 70
     1
  0
VERTEX
  5
2A3B
  8
0
 10
207.2238372587432
 20
66.4619838844622
 30
0.0
 42
-0.00415772672735
  0
VERTEX
  5
2A3C
  8
0
 10
207.32862066782809
 20
66.466287928276103
 30
0.0
 42
-0.000706009217684
 70
     1
  0
VERTEX
  5
2A3D
  8
0
 10
207.94590286690459
 20
66.485630695450681
 30
0.0
 42
-0.0100908881695016
  0
VERTEX
  5
2A3E
  8
0
 10
208.1793889642581
 20
66.487903056710735
 30
0.0
 42
-0.0052451923638461
 70
     1
  0
VERTEX
  5
2A3F
  8
0
 10
208.62846727163381
 20
66.478498266281065
 30
0.0
  0
SEQEND
  5
2A40
  8
0
  0
ARC
  5
2A41
  8
0
 10
208.10620720959281
 20
51.487592883141851
 30
0.0
 40
14.99999978806845
 50
271.99527647851272
 51
88.004723521487321
  0
POLYLINE
  5
2A43
  8
0
 66
     1
 10
0.0
 20
0.0
 30
0.0
 70
     2
  0
VERTEX
  5
2A44
  8
0
 10
173.10620774271919
 20
39.987592860790251
 30
0.0
 42
-0.0030305009492002
  0
VERTEX
  5
2A45
  8
0
 10
176.41501457017191
 20
39.94525622068889
 30
0.0
 42
-0.0052445348589446
 70
     1
  0
VERTEX
  5
2A46
  8
0
 10
178.32634315255569
 20
39.88915333224606
 30
0.0
 42
-0.0001209271571873
  0
VERTEX
  5
2A47
  8
0
 10
182.2003055094215
 20
39.733820255548352
 30
0.0
 42
-0.0032184777499492
 70
     1
  0
VERTEX
  5
2A48
  8
0
 10
182.34582032545279
 20
39.727011892455351
 30
0.0
 42
-0.0042648719710086
  0
VERTEX
  5
2A49
  8
0
 10
184.37057776290251
 20
39.601883642458631
 30
0.0
 42
-0.0038895829707013
 70
     1
  0
VERTEX
  5
2A4A
  8
0
 10
186.5881557456066
 20
39.428495197088182
 30
0.0
 42
-0.0028357596621895
  0
VERTEX
  5
2A4B
  8
0
 10
188.69472530527349
 20
39.235246654846101
 30
0.0
 42
-0.0031343174772332
 70
     1
  0
VERTEX
  5
2A4C
  8
0
 10
190.59841462008339
 20
39.037661772115712
 30
0.0
 42
-0.0026240137797062
  0
VERTEX
  5
2A4D
  8
0
 10
192.49272751297619
 20
38.818971592224131
 30
0.0
 42
-0.0026691158077739
 70
     1
  0
VERTEX
  5
2A4E
  8
0
 10
194.35265094632811
 20
38.5842743623476
 30
0.0
 42
-0.0033300336570563
  0
VERTEX
  5
2A4F
  8
0
 10
196.6246512863458
 20
38.269841146251373
 30
0.0
 42
-0.0039015895131603
 70
     1
  0
VERTEX
  5
2A50
  8
0
 10
198.55974312208781
 20
37.973451501206398
 30
0.0
 42
-0.0024889264631036
  0
VERTEX
  5
2A51
  8
0
 10
200.55912157746531
 20
37.641009113770373
 30
0.0
 42
-0.0034239769117808
 70
     1
  0
VERTEX
  5
2A52
  8
0
 10
202.00954045172929
 20
37.382181733184268
 30
0.0
 42
-0.0023038456254306
  0
VERTEX
  5
2A53
  8
0
 10
203.27022841256181
 20
37.142278825742117
 30
0.0
 42
0.0020316489352612
 70
     1
  0
VERTEX
  5
2A54
  8
0
 10
204.6996710938418
 20
36.869456261096452
 30
0.0
 42
0.0019681088663489
  0
VERTEX
  5
2A55
  8
0
 10
205.52901079640151
 20
36.718034628727203
 30
0.0
 42
0.0032397238932857
 70
     1
  0
VERTEX
  5
2A56
  8
0
 10
206.03376278186909
 20
36.631298985578468
 30
0.0
 42
0.0161977856609039
  0
VERTEX
  5
2A57
  8
0
 10
206.54776955385549
 20
36.563417301611373
 30
0.0
 42
0.0123864511646258
 70
     1
  0
VERTEX
  5
2A58
  8
0
 10
207.2238372587432
 20
36.513201881821573
 30
0.0
 42
0.00415772672735
  0
VERTEX
  5
2A59
  8
0
 10
207.32862066782809
 20
36.50889783800767
 30
0.0
 42
0.000706009217684
 70
     1
  0
VERTEX
  5
2A5A
  8
0
 10
207.94590286690459
 20
36.489555070833092
 30
0.0
 42
0.0100908881695016
  0
VERTEX
  5
2A5B
  8
0
 10
208.1793889642581
 20
36.487282709573037
 30
0.0
 42
0.0052451923638461
 70
     1
  0
VERTEX
  5
2A5C
  8
0
 10
208.62846727163381
 20
36.496687500002707
 30
0.0
  0
SEQEND
  5
2A5D
  8
0
  0
LINE
  5
2A5E
  8
0
 10
108.0377749783986
 20
39.987592883141929
 30
0.0
 11
118.20722752029521
 21
39.987592879648602
 31
0.0
  0
LINE
  5
2A60
  8
0
 10
107.5377745995207
 20
45.987592912944251
 30
0.0
 11
107.5377745995207
 21
40.487592942746573
 31
0.0
  0
LINE
  5
2A61
  8
0
 10
111.8812348227368
 20
45.98759291294423
 30
0.0
 11
107.5377745995207
 21
45.987592912944251
 31
0.0
  0
LINE
  5
2A62
  8
0
 10
128.00518646712629
 20
39.987592876282882
 30
0.0
 11
173.10620774271911
 21
39.98759286079013
 31
0.0
  0
LINE
  5
2A63
  8
0
 10
128.00518646712641
 20
62.987592890000968
 30
0.0
 11
173.10620774271919
 21
62.987592905493642
 31
0.0
  0
LINE
  5
2A65
  8
0
 10
114.1062069976611
 20
62.987592885226533
 30
0.0
 11
114.1062069976611
 21
63.487592883141929
 31
0.0
  0
LINE
  5
2A66
  8
0
 10
114.1062069976611
 20
63.487592883141929
 30
0.0
 11
114.6062069976611
 21
63.987592883141929
 31
0.0
  0
LINE
  5
2A67
  8
0
 10
131.6062069976611
 20
63.987592883141929
 30
0.0
 11
132.1062069976611
 21
63.487592883141929
 31
0.0
  0
LINE
  5
2A68
  8
0
 10
132.1062069976611
 20
63.487592883141929
 30
0.0
 11
132.10620699783291
 21
62.987592891409719
 31
0.0
  0
LINE
  5
2A69
  8
0
 10
140.5257819844638
 20
56.987592883141922
 30
0.0
 11
134.33117915798309
 21
56.987592883141907
 31
0.0
  0
LINE
  5
2A6A
  8
0
 10
114.1062069976611
 20
39.987592881057353
 30
0.0
 11
114.1062069976611
 21
39.487592883141872
 31
0.0
  0
LINE
  5
2A6B
  8
0
 10
114.1062069976611
 20
39.487592883141872
 30
0.0
 11
114.6062069976611
 21
38.987592883141872
 31
0.0
  0
LINE
  5
2A6C
  8
0
 10
131.6062069976611
 20
38.987592883141872
 30
0.0
 11
132.1062069976611
 21
39.487592883141872
 31
0.0
  0
LINE
  5
2A6D
  8
0
 10
132.1062069976611
 20
39.487592883141872
 30
0.0
 11
132.1062069976611
 21
39.987592874874132
 31
0.0
  0
LINE
  5
2A6E
  8
0
 10
134.3311791579832
 20
45.987592883141929
 30
0.0
 11
140.5257819844638
 21
45.987592883141929
 31
0.0
  0
ARC
  5
2A6F
  8
0
 10
140.0413324264355
 20
62.502891678628487
 30
0.0
 40
0.4847012155070282
 50
358.15360638919191
 51
90.000000019687732
  0
ARC
  5
2A70
  8
0
 10
140.0413324264355
 20
40.472294087655371
 30
0.0
 40
0.4847012155070282
 50
269.99999998031228
 51
1.8463936108080481
  0
LINE
  5
2A71
  8
1
 10
123.1062069976611
 20
68.987592883141929
 30
0.0
 11
123.1062069976611
 21
33.987592883141929
 31
0.0
  0
LINE
  5
2A72
  8
1
 10
105.6062069976611
 20
51.487592883141929
 30
0.0
 11
228.1062069976611
 21
51.487592883141957
 31
0.0
  0
LINE
  5
2A75
  8
0
 10
111.106206893353
 20
153.44984288314191
 30
0.0
 11
110.6062068113967
 21
153.9498438964209
 31
0.0
  0
LINE
  5
2A76
  8
0
 10
110.6062068113967
 20
153.9498438964209
 30
0.0
 11
110.6062068113967
 21
157.94984268942679
 31
0.0
  0
LINE
  5
2A77
  8
0
 10
110.6062068113967
 20
157.94984268942679
 30
0.0
 11
111.106206893353
 21
158.44984370270581
 31
0.0
  0
LINE
  5
2A78
  8
0
 10
135.10620710196929
 20
158.44984370270581
 30
0.0
 11
135.6062071839257
 21
157.94984268942679
 31
0.0
  0
LINE
  5
2A79
  8
0
 10
135.6062071839257
 20
157.94984268942679
 30
0.0
 11
135.6062071839257
 21
153.9498438964209
 31
0.0
  0
LINE
  5
2A7A
  8
0
 10
135.6062071839257
 20
153.9498438964209
 30
0.0
 11
135.10620710196929
 21
153.44984288314191
 31
0.0
  0
LINE
  5
2A81
  8
0
 10
162.0337713894238
 20
189.52534365454511
 30
0.0
 11
123.1062069976611
 21
189.5253436545452
 31
0.0
  0
LINE
  5
2A82
  8
0
 10
154.53199972155531
 20
179.5253434124013
 30
0.0
 11
194.3577856266779
 21
179.5253434124013
 31
0.0
  0
LINE
  5
2A83
  8
0
 10
223.10382430198621
 20
184.66152547845451
 30
0.0
 11
223.10129855516379
 21
180.51608017632569
 31
0.0
  0
ARC
  5
2A8B
  8
0
 10
163.04287520999401
 20
405.170015068878
 30
0.0
 40
215.64703243939221
 50
269.73188779663758
 51
282.01298947847317
  0
ARC
  5
2A8C
  8
0
 10
194.35787030949339
 20
153.52572662744331
 30
0.0
 40
25.9996167850958
 50
56.201936649343999
 51
60.315394391330301
  0
POLYLINE
  5
2A8F
  8
0
 66
     1
 10
0.0
 20
0.0
 30
0.0
 70
     2
  0
VERTEX
  5
2A90
  8
0
 10
194.3577856266779
 20
179.5253434124013
 30
0.0
 42
-0.0150972483395685
  0
VERTEX
  5
2A97
  8
0
 10
196.35760762104769
 20
179.4646778082485
 30
0.0
 42
-0.0264249133392523
 70
     1
  0
VERTEX
  5
2A91
  8
0
 10
197.4938820547809
 20
179.3353198170293
 30
0.0
 42
-0.002451587145766
  0
VERTEX
  5
2A98
  8
0
 10
199.917081081719
 20
178.91662500099619
 30
0.0
 42
-0.0147745490142617
 70
     1
  0
VERTEX
  5
2A92
  8
0
 10
200.31662333528789
 20
178.8333239325689
 30
0.0
 42
-0.0107411733491662
  0
VERTEX
  5
2A99
  8
0
 10
201.54734736925869
 20
178.5104339887296
 30
0.0
 42
-0.0118926267033017
 70
     1
  0
VERTEX
  5
2A93
  8
0
 10
202.64460554594689
 20
178.1687978097618
 30
0.0
 42
-0.0129580779177282
  0
VERTEX
  5
2A9B
  8
0
 10
203.0831949574445
 20
178.00793446845779
 30
0.0
 42
-0.0026274355845214
 70
     1
  0
VERTEX
  5
2A94
  8
0
 10
205.2201262872708
 20
177.1476964999963
 30
0.0
 42
-0.0216623609443473
  0
VERTEX
  5
2A9A
  8
0
 10
205.90978123376729
 20
176.8303354504101
 30
0.0
 42
-0.0109198151951239
 70
     1
  0
VERTEX
  5
2A95
  8
0
 10
207.2335374007566
 20
176.1132734160345
 30
0.0
  0
SEQEND
  5
2A96
  8
0
  0
POLYLINE
  5
2A9C
  8
0
 66
     1
 10
0.0
 20
0.0
 30
0.0
 70
     2
  0
VERTEX
  5
2A9D
  8
0
 10
207.92623400544949
 20
194.2455577312931
 30
0.0
 42
-0.022242493439095
  0
VERTEX
  5
2AAC
  8
0
 10
209.38036617694431
 20
194.48618302853191
 30
0.0
 42
-0.0394673621146816
 70
     1
  0
VERTEX
  5
2A9E
  8
0
 10
210.2112075944824
 20
194.5199498997334
 30
0.0
 42
-0.009148355988523
  0
VERTEX
  5
2AAD
  8
0
 10
212.25987657317819
 20
194.40393176592789
 30
0.0
 42
-0.0278108361890187
 70
     1
  0
VERTEX
  5
2A9F
  8
0
 10
212.92958903196271
 20
194.31605239899491
 30
0.0
 42
-0.0216607674390531
  0
VERTEX
  5
2AAE
  8
0
 10
214.2010941321619
 20
194.01914763188469
 30
0.0
 42
-0.0254378894051984
 70
     1
  0
VERTEX
  5
2AA0
  8
0
 10
215.2554150311023
 20
193.6655678481188
 30
0.0
 42
-0.0172685904925099
  0
VERTEX
  5
2AAF
  8
0
 10
216.2414723894349
 20
193.23819844015961
 30
0.0
 42
-0.0196030585328012
 70
     1
  0
VERTEX
  5
2AA1
  8
0
 10
217.08008093229279
 20
192.7987179430425
 30
0.0
 42
-0.0204960529706404
  0
VERTEX
  5
2AB0
  8
0
 10
217.9906556122165
 20
192.2241525215841
 30
0.0
 42
-0.020617534468378
 70
     1
  0
VERTEX
  5
2AA2
  8
0
 10
218.84590469096591
 20
191.58056012136291
 30
0.0
 42
-0.0214181032557705
  0
VERTEX
  5
2AB1
  8
0
 10
219.726098371109
 20
190.7941722755196
 30
0.0
 42
-0.0242492618538553
 70
     1
  0
VERTEX
  5
2AA3
  8
0
 10
220.43704037514451
 20
190.03149741436991
 30
0.0
 42
-0.0159900114734227
  0
VERTEX
  5
2AB2
  8
0
 10
221.15524420886371
 20
189.12466766811579
 30
0.0
 42
-0.0230208117222617
 70
     1
  0
VERTEX
  5
2AA4
  8
0
 10
221.603619540311
 20
188.45764938646639
 30
0.0
 42
-0.0083642594329401
  0
VERTEX
  5
2AB3
  8
0
 10
222.03092329026509
 20
187.7267976962649
 30
0.0
 42
-0.0156075677143376
 70
     1
  0
VERTEX
  5
2AA5
  8
0
 10
222.24092340250459
 20
187.32453271792869
 30
0.0
 42
-0.0063857444302909
  0
VERTEX
  5
2AB4
  8
0
 10
222.4989800004937
 20
186.7722980572544
 30
0.0
 42
-0.010186986617235
 70
     1
  0
VERTEX
  5
2AA6
  8
0
 10
222.64919264183109
 20
186.42093542244541
 30
0.0
 42
-0.0066260193769485
  0
VERTEX
  5
2AB5
  8
0
 10
222.80667865027189
 20
186.0153497854154
 30
0.0
 42
-0.0090702016793063
 70
     1
  0
VERTEX
  5
2AA7
  8
0
 10
222.91237410543809
 20
185.7155824009993
 30
0.0
 42
-0.0097670325207279
  0
VERTEX
  5
2AB6
  8
0
 10
222.99569077512751
 20
185.44748520054239
 30
0.0
 42
-0.015302851649798
 70
     1
  0
VERTEX
  5
2AA8
  8
0
 10
223.0402314818368
 20
185.27389831924691
 30
0.0
 42
-0.0143873077135685
  0
VERTEX
  5
2AB8
  8
0
 10
223.04889466878649
 20
185.22928469740151
 30
0.0
 42
-0.0026721500832786
 70
     1
  0
VERTEX
  5
2AA9
  8
0
 10
223.0873103684595
 20
184.98767444271661
 30
0.0
 42
-0.025441624697787
  0
VERTEX
  5
2AB7
  8
0
 10
223.09953363655151
 20
184.8676169430365
 30
0.0
 42
-0.0148879378908813
 70
     1
  0
VERTEX
  5
2AAA
  8
0
 10
223.10382430198621
 20
184.66152547845451
 30
0.0
  0
SEQEND
  5
2AAB
  8
0
  0
POLYLINE
  5
2AB9
  8
0
 66
     1
 10
0.0
 20
0.0
 30
0.0
 70
     2
  0
VERTEX
  5
2ABA
  8
0
 10
208.82061284547311
 20
175.131493249107
 30
0.0
 42
0.0151341664857652
  0
VERTEX
  5
2ACA
  8
0
 10
209.46863197687389
 20
174.72452769569509
 30
0.0
 42
0.0306725467953152
 70
     1
  0
VERTEX
  5
2ABB
  8
0
 10
209.8056371055516
 20
174.55369131622831
 30
0.0
 42
0.008069495917224
  0
VERTEX
  5
2ACB
  8
0
 10
211.02287591797861
 20
174.05090746257679
 30
0.0
 42
0.0229647937793457
 70
     1
  0
VERTEX
  5
2ABC
  8
0
 10
211.46093217919829
 20
173.901034706101
 30
0.0
 42
0.0195703518860548
  0
VERTEX
  5
2ACC
  8
0
 10
212.14483961510089
 20
173.73033988729409
 30
0.0
 42
0.0183392456959547
 70
     1
  0
VERTEX
  5
2ABD
  8
0
 10
212.8863225480342
 20
173.6039900476035
 30
0.0
 42
0.022034139942117
  0
VERTEX
  5
2ACD
  8
0
 10
213.63505002424611
 20
173.53789756508721
 30
0.0
 42
0.0192865790724136
 70
     1
  0
VERTEX
  5
2ABE
  8
0
 10
214.49365717666419
 20
173.5332478669896
 30
0.0
 42
0.0269844111894636
  0
VERTEX
  5
2ACE
  8
0
 10
215.4349669282945
 20
173.61545221967651
 30
0.0
 42
0.026565962922633
 70
     1
  0
VERTEX
  5
2ABF
  8
0
 10
216.37668296385769
 20
173.80065200666809
 30
0.0
 42
0.021254164815812
  0
VERTEX
  5
2ACF
  8
0
 10
217.25740667400319
 20
174.06328447252389
 30
0.0
 42
0.0241524144819227
 70
     1
  0
VERTEX
  5
2AC0
  8
0
 10
218.0083952012024
 20
174.3637637586416
 30
0.0
 42
0.0166136836367906
  0
VERTEX
  5
2AD0
  8
0
 10
218.64395886431609
 20
174.68033480736159
 30
0.0
 42
0.0179072537379363
 70
     1
  0
VERTEX
  5
2AC1
  8
0
 10
219.21197233162869
 20
175.0140272675244
 30
0.0
 42
0.023571828698006
  0
VERTEX
  5
2AD1
  8
0
 10
219.95066834724511
 20
175.53484026325859
 30
0.0
 42
0.0242565262137253
 70
     1
  0
VERTEX
  5
2AC2
  8
0
 10
220.6169242718214
 20
176.1072068990126
 30
0.0
 42
0.0169562944620544
  0
VERTEX
  5
2AD2
  8
0
 10
221.1296539914556
 20
176.6269120525422
 30
0.0
 42
0.0200156442020611
 70
     1
  0
VERTEX
  5
2AC3
  8
0
 10
221.5303508961629
 20
177.09811710752771
 30
0.0
 42
0.0182920685692446
  0
VERTEX
  5
2AD3
  8
0
 10
222.03980167445161
 20
177.7996372695516
 30
0.0
 42
0.0228250811682338
 70
     1
  0
VERTEX
  5
2AC4
  8
0
 10
222.40059123991119
 20
178.39357984654481
 30
0.0
 42
0.0096496081759083
  0
VERTEX
  5
2AD4
  8
0
 10
222.6573087023576
 20
178.88556135621371
 30
0.0
 42
0.0152881611100941
 70
     1
  0
VERTEX
  5
2AC5
  8
0
 10
222.8036826902551
 20
179.20382750797029
 30
0.0
 42
0.0126230485684303
  0
VERTEX
  5
2AD5
  8
0
 10
222.9337067241641
 20
179.5339122695332
 30
0.0
 42
0.0188263110871637
 70
     1
  0
VERTEX
  5
2AC6
  8
0
 10
223.0068193671631
 20
179.76032026591361
 30
0.0
 42
0.0222131843347122
  0
VERTEX
  5
2AD7
  8
0
 10
223.0375798759701
 20
179.89152581478641
 30
0.0
 42
0.0087356499281481
 70
     1
  0
VERTEX
  5
2AC7
  8
0
 10
223.09498932721391
 20
180.2292161295035
 30
0.0
 42
0.0322449417767405
  0
VERTEX
  5
2AD6
  8
0
 10
223.10300168917641
 20
180.32165878583521
 30
0.0
 42
0.0153762293099648
 70
     1
  0
VERTEX
  5
2AC8
  8
0
 10
223.10129855516379
 20
180.51608017632569
 30
0.0
  0
SEQEND
  5
2AC9
  8
0
  0
ARC
  5
2AD8
  8
0
 10
154.53199935288049
 20
164.52534435961201
 30
0.0
 40
14.999999052789221
 50
89.999998591765845
 51
159.02679148746111
  0
ARC
  5
2ADC
  8
0
 10
123.9670834455999
 20
176.12274132934539
 30
0.0
 40
17.691347905092378
 50
267.38304423252441
 51
339.38659671054933
  0
POLYLINE
  5
2ADD
  8
0
 66
     1
 10
0.0
 20
0.0
 30
0.0
 70
     2
  0
VERTEX
  5
2ADE
  8
0
 10
123.1062069976612
 20
189.5253436545452
 30
0.0
 42
0.0087380805248386
  0
VERTEX
  5
2AF3
  8
0
 10
122.3685815865347
 20
189.55655743102179
 30
0.0
 42
0.0181368403331741
 70
     1
  0
VERTEX
  5
2ADF
  8
0
 10
122.0128192524226
 20
189.55248232146869
 30
0.0
 42
0.0038350027290006
  0
VERTEX
  5
2AF4
  8
0
 10
120.8161993334143
 20
189.48612916937819
 30
0.0
 42
0.0100471782713684
 70
     1
  0
VERTEX
  5
2AE0
  8
0
 10
120.3602899217187
 20
189.44812929447119
 30
0.0
 42
0.0250233072843671
  0
VERTEX
  5
2AF5
  8
0
 10
119.4572200218547
 20
189.30860567677991
 30
0.0
 42
0.017839984005321
 70
     1
  0
VERTEX
  5
2AE1
  8
0
 10
118.2123132495709
 20
189.0052758443737
 30
0.0
 42
0.0235484454346623
  0
VERTEX
  5
2AF6
  8
0
 10
117.0879183165318
 20
188.63046075486551
 30
0.0
 42
0.0205475048197761
 70
     1
  0
VERTEX
  5
2AE2
  8
0
 10
115.84230600244349
 20
188.08916555329489
 30
0.0
 42
0.0194191488592561
  0
VERTEX
  5
2AF7
  8
0
 10
115.0626098235862
 20
187.67342100584261
 30
0.0
 42
0.0142697303153002
 70
     1
  0
VERTEX
  5
2AE3
  8
0
 10
114.0422218798377
 20
187.03761284576521
 30
0.0
 42
0.0334902669929656
  0
VERTEX
  5
2AF8
  8
0
 10
112.77558456642601
 20
186.0692459158366
 30
0.0
 42
0.0278775819483764
 70
     1
  0
VERTEX
  5
2AE4
  8
0
 10
111.4082195391159
 20
184.72888836305791
 30
0.0
 42
0.0280326879822524
  0
VERTEX
  5
2AF9
  8
0
 10
110.4091986048236
 20
183.5024950260464
 30
0.0
 42
0.0286599263193235
 70
     1
  0
VERTEX
  5
2AE5
  8
0
 10
109.5739674629849
 20
182.20006576563631
 30
0.0
 42
0.0252729128607617
  0
VERTEX
  5
2AFA
  8
0
 10
108.7768037012454
 20
180.60069918022609
 30
0.0
 42
0.0287775954519037
 70
     1
  0
VERTEX
  5
2AE6
  8
0
 10
108.2322086525436
 20
179.12851421634431
 30
0.0
 42
0.0170714088350758
  0
VERTEX
  5
2AFB
  8
0
 10
107.9433617558125
 20
178.05410782217049
 30
0.0
 42
0.0168083265835007
 70
     1
  0
VERTEX
  5
2AE7
  8
0
 10
107.7245459577035
 20
176.94553710945871
 30
0.0
 42
0.0310372418946753
  0
VERTEX
  5
2AFC
  8
0
 10
107.5481324217908
 20
175.17323363627301
 30
0.0
 42
0.0293366060239324
 70
     1
  0
VERTEX
  5
2AE8
  8
0
 10
107.58863522513801
 20
173.28955273736261
 30
0.0
 42
0.0225045270843636
  0
VERTEX
  5
2AFD
  8
0
 10
107.7624586165422
 20
171.90796350471649
 30
0.0
 42
0.0221472515740497
 70
     1
  0
VERTEX
  5
2AE9
  8
0
 10
108.063561553649
 20
170.5254511300094
 30
0.0
 42
0.0257802307957504
  0
VERTEX
  5
2AFE
  8
0
 10
108.5482979194112
 20
169.01366376052201
 30
0.0
 42
0.0244782725925394
 70
     1
  0
VERTEX
  5
2AEA
  8
0
 10
109.2159370551017
 20
167.4808192351426
 30
0.0
 42
0.0274842952306593
  0
VERTEX
  5
2AFF
  8
0
 10
110.04391368936651
 20
166.01671528229789
 30
0.0
 42
0.0269506900620867
 70
     1
  0
VERTEX
  5
2AEB
  8
0
 10
111.0454500941736
 20
164.6242214500202
 30
0.0
 42
0.0247208024463489
  0
VERTEX
  5
2B00
  8
0
 10
112.1952960132076
 20
163.33116432036701
 30
0.0
 42
0.0271535513816423
 70
     1
  0
VERTEX
  5
2AEC
  8
0
 10
113.3585324893823
 20
162.26853623316271
 30
0.0
 42
0.021796429773948
  0
VERTEX
  5
2B01
  8
0
 10
114.73714041221091
 20
161.23705880952281
 30
0.0
 42
0.0268260738938404
 70
     1
  0
VERTEX
  5
2AED
  8
0
 10
115.9336290171933
 20
160.51148822452251
 30
0.0
 42
0.017045057190033
  0
VERTEX
  5
2B02
  8
0
 10
117.3703289328223
 20
159.80432668239729
 30
0.0
 42
0.0248076803770854
 70
     1
  0
VERTEX
  5
2AEE
  8
0
 10
118.39496263306761
 20
159.40253397058109
 30
0.0
 42
0.0110461555023365
  0
VERTEX
  5
2B03
  8
0
 10
119.598347495526
 20
159.0276320826338
 30
0.0
 42
0.0169527694982125
 70
     1
  0
VERTEX
  5
2AEF
  8
0
 10
120.39502780688861
 20
158.827583821193
 30
0.0
 42
0.0083358470802254
  0
VERTEX
  5
2B05
  8
0
 10
120.7548909769271
 20
158.75634194144601
 30
0.0
 42
0.0026161263322069
 70
     1
  0
VERTEX
  5
2AF0
  8
0
 10
121.9061590632999
 20
158.5545223074526
 30
0.0
 42
0.0212452835950115
  0
VERTEX
  5
2B04
  8
0
 10
122.3253829201785
 20
158.5014944732761
 30
0.0
 42
0.0107409888159175
 70
     1
  0
VERTEX
  5
2AF1
  8
0
 10
123.15932099454641
 20
158.44984370270581
 30
0.0
  0
SEQEND
  5
2AF2
  8
0
  0
TEXT
  5
2C85
  8
0
 62
     3
 10
0.0
 20
0.0
 30
0.0
 40
10.0
  1
QLCA-10X25-NP
  7
STANDARD1
  0
LINE
  5
31E9
  8
0
 10
51.8562071093612
 20
153.44984288314191
 30
0.0
 11
51.856207109411223
 21
129.94984219764191
 31
0.0
  0
LINE
  5
31EA
  8
0
 10
61.856206885911213
 20
129.94984219764191
 30
0.0
 11
61.856206885861177
 21
153.44984288314191
 31
0.0
  0
LINE
  5
31EC
  8
0
 10
51.856207109411223
 20
129.94984219764191
 30
0.0
 11
53.356206889611201
 21
128.44984288314191
 31
0.0
  0
LINE
  5
31ED
  8
0
 10
60.356207105711228
 20
128.44984288314191
 30
0.0
 11
61.856206885911213
 21
129.94984219764191
 31
0.0
  0
CIRCLE
  5
321C
  8
0
 10
123.1062069976611
 20
175.52534322241149
 30
0.0
 40
2.5
  0
LINE
  5
321D
  8
0
 10
121.8562070255611
 20
176.2470304893115
 30
0.0
 11
121.8562070255611
 21
174.80365558731151
 31
0.0
  0
LINE
  5
321E
  8
0
 10
123.1062069976611
 20
174.0819681363115
 30
0.0
 11
124.3562069696611
 21
174.80365558731151
 31
0.0
  0
LINE
  5
321F
  8
0
 10
124.3562069696611
 20
174.80365558731151
 30
0.0
 11
124.3562069696611
 21
176.2470304893115
 31
0.0
  0
LINE
  5
3220
  8
0
 10
124.3562069696611
 20
176.2470304893115
 30
0.0
 11
123.1062069976611
 21
176.96871980291149
 31
0.0
  0
LINE
  5
3221
  8
0
 10
123.1062069976611
 20
176.96871980291149
 30
0.0
 11
121.8562070255611
 21
176.2470304893115
 31
0.0
  0
LINE
  5
3222
  8
0
 10
121.8562070255611
 20
174.80365558731151
 30
0.0
 11
123.1062069976611
 21
174.0819681363115
 31
0.0
  0
LINE
  5
3228
  8
0
 10
51.856207109411223
 20
129.94984219764191
 30
0.0
 11
61.856206885911213
 21
129.94984219764191
 31
0.0
  0
LINE
  5
3229
  8
0
 10
60.356207105711228
 20
128.44984288314191
 30
0.0
 11
53.356206889611201
 21
128.44984288314191
 31
0.0
  0
LINE
  5
3374
  8
0
 10
51.856207109461252
 20
187.2032752165419
 30
0.0
 11
51.856207109461252
 21
183.7022585699419
 31
0.0
  0
LINE
  5
3375
  8
0
 10
51.856207109461252
 20
167.4029493609419
 30
0.0
 11
51.856207109461252
 21
166.95327608824189
 31
0.0
  0
LINE
  5
3376
  8
0
 10
61.856206885861241
 20
166.95327608824189
 30
0.0
 11
61.856206885861241
 21
167.40263084864191
 31
0.0
  0
LINE
  5
3377
  8
0
 10
61.856206885861241
 20
183.69981105424191
 30
0.0
 11
61.856206885861241
 21
187.2032752165419
 31
0.0
  0
LINE
  5
337A
  8
0
 10
52.606206766661209
 20
187.95327673644189
 30
0.0
 11
51.856207109461252
 21
187.2032752165419
 31
0.0
  0
LINE
  5
337B
  8
0
 10
61.856206885861241
 20
187.2032752165419
 30
0.0
 11
61.106207228661219
 21
187.95327673644189
 31
0.0
  0
LINE
  5
337C
  8
0
 10
52.156207065461217
 20
166.95327608824189
 30
0.0
 11
52.156207065461217
 21
162.45327535064189
 31
0.0
  0
LINE
  5
337D
  8
0
 10
61.556206929861219
 20
162.45327535064189
 30
0.0
 11
61.556206929861219
 21
166.95327608824189
 31
0.0
  0
LINE
  5
337E
  8
0
 10
52.406207106461238
 20
162.45327535064189
 30
0.0
 11
52.406207106461238
 21
158.45327562634191
 31
0.0
  0
LINE
  5
337F
  8
0
 10
61.306206888861198
 20
158.45327562634191
 30
0.0
 11
61.306206888861198
 21
162.45327535064189
 31
0.0
  0
LINE
  5
340E
  8
0
 10
51.856207109461252
 20
166.95327608824189
 30
0.0
 11
61.856206885861241
 21
166.95327608824189
 31
0.0
  0
LINE
  5
340F
  8
0
 10
61.856206885861177
 20
187.2032752165419
 30
0.0
 11
51.856207109461252
 21
187.2032752165419
 31
0.0
  0
LINE
  5
3415
  8
0
 10
52.606206766661209
 20
187.95327673644189
 30
0.0
 11
61.106207228661162
 21
187.95327673644189
 31
0.0
  0
LINE
  5
3419
  8
0
 10
52.156207065461217
 20
162.45327535064189
 30
0.0
 11
61.556206929861219
 21
162.45327535064189
 31
0.0
  0
ARC
  5
341E
  8
0
 10
56.856919631861217
 20
153.60493917344189
 30
0.0
 40
14.68839578942262
 50
68.012968089101435
 51
111.99302773039901
  0
ARC
  5
341F
  8
0
 10
56.853798582361208
 20
197.53064683284191
 30
0.0
 40
14.71621512655163
 50
248.0638112065013
 51
291.9564077057006
  0
CIRCLE
  5
34D8
  8
0
 10
123.1062069976611
 20
51.487592883141929
 30
0.0
 40
5.0000000000000133
  0
CIRCLE
  5
34D9
  8
0
 10
123.1062069976611
 20
51.487592883141929
 30
0.0
 40
3.500000000000028
  0
ARC
  5
358C
  8
0
 10
123.1062069976611
 20
271.48759288314187
 30
0.0
 40
4.2500000000000204
 50
101.53695903280151
 51
258.46304096719842
  0
LINE
  5
358F
  8
0
 10
122.25620698646109
 20
276.41481317174191
 30
0.0
 11
122.25620698646109
 21
266.56037259454178
 31
0.0
  0
ARC
  5
3591
  8
0
 10
123.1062069976611
 20
271.48759288314187
 30
0.0
 40
4.2500000000000258
 50
281.53695903280158
 51
78.463040967198481
  0
LINE
  5
3593
  8
0
 10
123.9562070089611
 20
266.56037259455911
 30
0.0
 11
123.9562070089611
 21
276.41481317174191
 31
0.0
  0
CIRCLE
  5
360B
  8
0
 10
123.1062069976611
 20
271.48759288314187
 30
0.0
 40
4.9999999791431904
  0
LINE
  5
3618
  8
3
 10
61.044206885861279
 20
129.13784244969091
 30
0.0
 11
61.044206885861279
 21
153.44984288314191
 31
0.0
  0
LINE
  5
3619
  8
3
 10
52.668206885861103
 20
129.13784267329089
 30
0.0
 11
52.668206885861089
 21
153.44984288314191
 31
0.0
  0
LINE
  5
361B
  8
3
 10
61.044206885861279
 20
166.95327608824189
 30
0.0
 11
61.044206885861279
 21
167.68384525023691
 31
0.0
  0
LINE
  5
361C
  8
3
 10
52.668206885861089
 20
166.95327608824189
 30
0.0
 11
52.668206885861089
 21
167.6834212080301
 31
0.0
  0
LINE
  5
361D
  8
3
 10
52.668206885861082
 20
183.4222163814722
 30
0.0
 11
52.668206885861089
 21
187.95327673644189
 31
0.0
  0
LINE
  5
361E
  8
3
 10
61.044206885861271
 20
183.42364623381641
 30
0.0
 11
61.044206885861271
 21
187.95327673644189
 31
0.0
  0
LINE
  5
361F
  8
0
 10
118.10620710936109
 20
153.44984288314191
 30
0.0
 11
118.1062071094111
 21
129.94984219764191
 31
0.0
  0
LINE
  5
3620
  8
0
 10
128.10620688591109
 20
129.94984219764191
 30
0.0
 11
128.10620688586101
 21
153.44984288314191
 31
0.0
  0
LINE
  5
3621
  8
0
 10
118.1062071094111
 20
129.94984219764191
 30
0.0
 11
119.6062068896111
 21
128.44984288314191
 31
0.0
  0
LINE
  5
3622
  8
0
 10
126.60620710571111
 20
128.44984288314191
 30
0.0
 11
128.10620688591109
 21
129.94984219764191
 31
0.0
  0
LINE
  5
3623
  8
0
 10
118.1062071094111
 20
129.94984219764191
 30
0.0
 11
128.10620688591109
 21
129.94984219764191
 31
0.0
  0
LINE
  5
3624
  8
0
 10
126.60620710571111
 20
128.44984288314191
 30
0.0
 11
119.6062068896111
 21
128.44984288314191
 31
0.0
  0
LINE
  5
3629
  8
0
 10
118.6562071064611
 20
159.31616936241781
 30
0.0
 11
118.6562071064611
 21
158.45327562634191
 31
0.0
  0
LINE
  5
362A
  8
0
 10
127.5562068888611
 20
158.45327562634191
 30
0.0
 11
127.5562068888611
 21
158.79928949063699
 31
0.0
  0
LINE
  5
362E
  8
3
 10
127.2942068858611
 20
129.13784244969091
 30
0.0
 11
127.2942068858611
 21
153.44984288314191
 31
0.0
  0
LINE
  5
3630
  8
3
 10
118.918206885861
 20
129.13784267329089
 30
0.0
 11
118.918206885861
 21
153.44984288314191
 31
0.0
  0
LINE
  5
3632
  8
0
 10
271.8564979722355
 20
153.44984288314191
 30
0.0
 11
271.85649797228552
 21
129.94984219764191
 31
0.0
  0
LINE
  5
3633
  8
0
 10
281.8564977487855
 20
129.94984219764191
 30
0.0
 11
281.85649774873548
 21
153.44984288314191
 31
0.0
  0
LINE
  5
3634
  8
0
 10
271.85649797228552
 20
129.94984219764191
 30
0.0
 11
273.35649775248561
 21
128.44984288314191
 31
0.0
  0
LINE
  5
3635
  8
0
 10
280.35649796858559
 20
128.44984288314191
 30
0.0
 11
281.8564977487855
 21
129.94984219764191
 31
0.0
  0
LINE
  5
3636
  8
0
 10
271.85649797228552
 20
129.94984219764191
 30
0.0
 11
281.8564977487855
 21
129.94984219764191
 31
0.0
  0
LINE
  5
3637
  8
0
 10
280.35649796858559
 20
128.44984288314191
 30
0.0
 11
273.35649775248561
 21
128.44984288314191
 31
0.0
  0
LINE
  5
3638
  8
0
 10
271.85649797233549
 20
167.4029493609419
 30
0.0
 11
271.85649797233549
 21
166.95327608824189
 31
0.0
  0
LINE
  5
3639
  8
0
 10
281.85649774873559
 20
166.95327608824189
 30
0.0
 11
281.85649774873559
 21
167.40263084864191
 31
0.0
  0
LINE
  5
363A
  8
0
 10
272.15649792833551
 20
166.95327608824189
 30
0.0
 11
272.15649792833551
 21
162.45327535064189
 31
0.0
  0
LINE
  5
363B
  8
0
 10
281.55649779273551
 20
162.45327535064189
 30
0.0
 11
281.55649779273551
 21
166.95327608824189
 31
0.0
  0
LINE
  5
363C
  8
0
 10
272.40649796933559
 20
162.45327535064189
 30
0.0
 11
272.40649796933559
 21
158.45327562634191
 31
0.0
  0
LINE
  5
363D
  8
0
 10
281.30649775173549
 20
158.45327562634191
 30
0.0
 11
281.30649775173549
 21
162.45327535064189
 31
0.0
  0
LINE
  5
363E
  8
0
 10
271.85649797233549
 20
166.95327608824189
 30
0.0
 11
281.85649774873559
 21
166.95327608824189
 31
0.0
  0
LINE
  5
363F
  8
0
 10
272.15649792833551
 20
162.45327535064189
 30
0.0
 11
281.55649779273551
 21
162.45327535064189
 31
0.0
  0
ARC
  5
3640
  8
0
 10
276.85721049473563
 20
153.60493917344189
 30
0.0
 40
14.68839578942262
 50
68.012968089101435
 51
111.99302773039901
  0
LINE
  5
3641
  8
3
 10
281.04449774873558
 20
129.13784244969091
 30
0.0
 11
281.04449774873558
 21
153.44984288314191
 31
0.0
  0
LINE
  5
3642
  8
3
 10
281.04449774873558
 20
166.95327608824189
 30
0.0
 11
281.04449774873558
 21
167.68384525023691
 31
0.0
  0
LINE
  5
3643
  8
3
 10
272.66849774873538
 20
129.13784267329089
 30
0.0
 11
272.66849774873538
 21
153.44984288314191
 31
0.0
  0
LINE
  5
3644
  8
3
 10
272.66849774873538
 20
166.95327608824189
 30
0.0
 11
272.66849774873538
 21
167.6834212080301
 31
0.0
  0
CIRCLE
  5
368A
  8
3
 10
123.1062069976612
 20
51.487592883141929
 30
0.0
 40
4.1879998882000669
  0
ARC
  5
368B
  8
3
 10
123.1062069976612
 20
271.48759288314187
 30
0.0
 40
4.1879998882000669
 50
101.7101550435569
 51
258.28984495644238
  0
ARC
  5
368C
  8
3
 10
123.1062069976612
 20
271.48759288314187
 30
0.0
 40
4.1879998882000669
 50
281.71015504495318
 51
78.289844955046775
  0
ENDSEC
  0
EOF
