  0
SECTION
  2
HEADER
  9
$ACADVER
  1
AC1009
  9
$INSBASE
 10
0.0
 20
0.0
 30
0.0
  9
$EXTMIN
 10
0.0
 20
-2.960436562073669
 30
0.0
  9
$EXTMAX
 10
215.5885756597296
 20
235.18632535427409
 30
0.0
  9
$LIMMIN
 10
0.0
 20
0.0
  9
$LIMMAX
 10
770.0
 20
540.0
  9
$ORTHOMODE
 70
     1
  9
$REGENMODE
 70
     1
  9
$FILLMODE
 70
     1
  9
$QTEXTMODE
 70
     0
  9
$MIRRTEXT
 70
     0
  9
$DRAGMODE
 70
     2
  9
$LTSCALE
 40
10.0
  9
$OSMODE
 70
    37
  9
$ATTMODE
 70
     1
  9
$TEXTSIZE
 40
4.000000000000048
  9
$TRACEWID
 40
0.05
  9
$TEXTSTYLE
  7
STANDARD
  9
$CLAYER
  8
0
  9
$CELTYPE
  6
BYLAYER
  9
$CECOLOR
 62
   256
  9
$DIMSCALE
 40
2.0
  9
$DIMASZ
 40
3.0
  9
$DIMEXO
 40
2.0
  9
$DIMDLI
 40
0.38
  9
$DIMRND
 40
0.0
  9
$DIMDLE
 40
0.0
  9
$DIMEXE
 40
2.0
  9
$DIMTP
 40
0.0
  9
$DIMTM
 40
0.0
  9
$DIMTXT
 40
3.0
  9
$DIMCEN
 40
0.0
  9
$DIMTSZ
 40
0.0
  9
$DIMTOL
 70
     0
  9
$DIMLIM
 70
     0
  9
$DIMTIH
 70
     0
  9
$DIMTOH
 70
     0
  9
$DIMSE1
 70
     0
  9
$DIMSE2
 70
     0
  9
$DIMTAD
 70
     1
  9
$DIMZIN
 70
     0
  9
$DIMBLK
  1

  9
$DIMASO
 70
     0
  9
$DIMSHO
 70
     0
  9
$DIMPOST
  1

  9
$DIMAPOST
  1

  9
$DIMALT
 70
     0
  9
$DIMALTD
 70
     2
  9
$DIMALTF
 40
25.399999999999999
  9
$DIMLFAC
 40
1.0
  9
$DIMTOFL
 70
     0
  9
$DIMTVP
 40
1.6000000000000001
  9
$DIMTIX
 70
     1
  9
$DIMSOXD
 70
     0
  9
$DIMSAH
 70
     0
  9
$DIMBLK1
  1

  9
$DIMBLK2
  1

  9
$DIMSTYLE
  2
STANDARD
  9
$DIMCLRD
 70
     4
  9
$DIMCLRE
 70
     4
  9
$DIMCLRT
 70
     4
  9
$DIMTFAC
 40
1.0
  9
$DIMGAP
 40
0.09
  9
$LUNITS
 70
     2
  9
$LUPREC
 70
     1
  9
$SKETCHINC
 40
0.1
  9
$FILLETRAD
 40
0.0
  9
$AUNITS
 70
     0
  9
$AUPREC
 70
     2
  9
$MENU
  1
E:\r13\win\SUPPORT\ACAD
  9
$ELEVATION
 40
0.0
  9
$PELEVATION
 40
0.0
  9
$THICKNESS
 40
0.0
  9
$LIMCHECK
 70
     0
  9
$BLIPMODE
 70
     0
  9
$CHAMFERA
 40
1.1999999999999991
  9
$CHAMFERB
 40
1.1999999999999991
  9
$SKPOLY
 70
     0
  9
$TDCREATE
 40
2450158.583426042
  9
$TDUPDATE
 40
2457170.5815744218
  9
$TDINDWG
 40
0.240124213
  9
$TDUSRTIMER
 40
0.240124213
  9
$USRTIMER
 70
     1
  9
$ANGBASE
 50
0.0
  9
$ANGDIR
 70
     0
  9
$PDMODE
 70
     0
  9
$PDSIZE
 40
0.0
  9
$PLINEWID
 40
0.0
  9
$COORDS
 70
     1
  9
$SPLFRAME
 70
     0
  9
$SPLINETYPE
 70
     6
  9
$SPLINESEGS
 70
     8
  9
$ATTDIA
 70
     0
  9
$ATTREQ
 70
     1
  9
$HANDLING
 70
     1
  9
$HANDSEED
  5
2FCE
  9
$SURFTAB1
 70
     6
  9
$SURFTAB2
 70
     6
  9
$SURFTYPE
 70
     6
  9
$SURFU
 70
     6
  9
$SURFV
 70
     6
  9
$UCSNAME
  2

  9
$UCSORG
 10
0.0
 20
0.0
 30
0.0
  9
$UCSXDIR
 10
1.0
 20
0.0
 30
0.0
  9
$UCSYDIR
 10
0.0
 20
1.0
 30
0.0
  9
$PUCSNAME
  2

  9
$PUCSORG
 10
0.0
 20
0.0
 30
0.0
  9
$PUCSXDIR
 10
1.0
 20
0.0
 30
0.0
  9
$PUCSYDIR
 10
0.0
 20
1.0
 30
0.0
  9
$USERI1
 70
     3
  9
$USERI2
 70
     1
  9
$USERI3
 70
     0
  9
$USERI4
 70
     0
  9
$USERI5
 70
     0
  9
$USERR1
 40
2.0
  9
$USERR2
 40
3.0
  9
$USERR3
 40
3.0
  9
$USERR4
 40
3.0
  9
$USERR5
 40
10.0
  9
$WORLDVIEW
 70
     1
  9
$SHADEDGE
 70
     3
  9
$SHADEDIF
 70
    70
  9
$TILEMODE
 70
     1
  9
$MAXACTVP
 70
    16
  9
$PLIMCHECK
 70
     0
  9
$PEXTMIN
 10
1.0000000000000000E+020
 20
1.0000000000000000E+020
 30
1.0000000000000000E+020
  9
$PEXTMAX
 10
-1.0000000000000000E+020
 20
-1.0000000000000000E+020
 30
-1.0000000000000000E+020
  9
$PLIMMIN
 10
0.0
 20
0.0
  9
$PLIMMAX
 10
12.0
 20
9.0
  9
$UNITMODE
 70
     0
  9
$VISRETAIN
 70
     0
  9
$PLINEGEN
 70
     0
  9
$PSLTSCALE
 70
     0
  0
ENDSEC
  0
SECTION
  2
TABLES
  0
TABLE
  2
VPORT
 70
     1
  0
VPORT
  2
*ACTIVE
 70
     0
 10
0.0
 20
0.0
 11
1.0
 21
1.0
 12
245.1941949864445
 22
135.0
 13
0.0
 23
0.0
 14
10.0
 24
10.0
 15
10.0
 25
10.0
 16
0.0
 26
0.0
 36
1.0
 17
0.0
 27
0.0
 37
0.0
 40
270.01624258579358
 41
1.816239316239316
 42
50.0
 43
0.0
 44
0.0
 50
0.0
 51
0.0
 71
     0
 72
   500
 73
     1
 74
     0
 75
     0
 76
     0
 77
     0
 78
     2
  0
ENDTAB
  0
TABLE
  2
LTYPE
 70
     3
  0
LTYPE
  2
CONTINUOUS
 70
     0
  3
Solid Line
 72
    65
 73
     0
 40
0.0
  0
LTYPE
  2
CENTER
 70
     0
  3
____ _ ____ _ ____ _ ____ _ ____ _ ____ _ ____
 72
    65
 73
     4
 40
2.0
 49
1.25
 49
-0.25
 49
0.25
 49
-0.25
  0
LTYPE
  2
PHANTOM2
 70
     0
  3
___ _ _ ___ _ _ ___ _ _ ___ _ _
 72
    65
 73
     6
 40
1.25
 49
0.625
 49
-0.125
 49
0.125
 49
-0.125
 49
0.125
 49
-0.125
  0
ENDTAB
  0
TABLE
  2
LAYER
 70
     3
  0
LAYER
  2
0
 70
     0
 62
     7
  6
CONTINUOUS
  0
LAYER
  2
1
 70
     0
 62
     1
  6
CENTER
  0
LAYER
  2
3
 70
     0
 62
     3
  6
CONTINUOUS
  0
ENDTAB
  0
TABLE
  2
STYLE
 70
     2
  0
STYLE
  2
STANDARD
 70
     0
 40
0.0
 41
1.0
 50
0.0
 71
     0
 42
4.000000000000048
  3
SIMPLEX
  4
BIGFONT
  0
STYLE
  2
STANDARD1
 70
     0
 40
0.0
 41
1.0
 50
0.0
 71
     0
 42
3.0
  3
txt
  4

  0
ENDTAB
  0
TABLE
  2
VIEW
 70
     1
  0
VIEW
  2
ALL
 70
     0
 40
179.5384664489153
 10
146.94997169852391
 20
89.769233224457665
 41
0.0
 11
0.0
 21
0.0
 31
1.0
 12
0.0
 22
0.0
 32
0.0
 42
50.0
 43
0.0
 44
0.0
 50
0.0
 71
     0
  0
ENDTAB
  0
TABLE
  2
UCS
 70
     0
  0
ENDTAB
  0
TABLE
  2
APPID
 70
     4
  0
APPID
  2
ACAD
 70
     0
  0
APPID
  2
ACAD_MLEADERVER
 70
     0
  0
APPID
  2
ACAD_EXEMPT_FROM_CAD_STANDARDS
 70
     0
  0
APPID
  2
ACAD_NAV_VCDISPLAY
 70
     0
  0
ENDTAB
  0
TABLE
  2
DIMSTYLE
 70
     1
  0
DIMSTYLE
  2
STANDARD
 70
     0
  3

  4

  5

  6

  7

 40
1.0
 41
0.18
 42
0.0625
 43
0.38
 44
0.18
 45
0.0
 46
0.0
 47
0.0
 48
0.0
140
0.18
141
0.09
142
0.0
143
25.399999999999999
144
1.0
145
0.0
146
1.0
147
0.09
 71
     0
 72
     0
 73
     1
 74
     1
 75
     0
 76
     0
 77
     0
 78
     0
170
     0
171
     2
172
     0
173
     0
174
     0
175
     0
176
     0
177
     0
178
     0
  0
ENDTAB
  0
ENDSEC
  0
SECTION
  2
BLOCKS
  0
BLOCK
  8
0
  2
$MODEL_SPACE
 70
     0
 10
0.0
 20
0.0
 30
0.0
  3
$MODEL_SPACE
  1

  0
ENDBLK
  5
644
  8
0
  0
BLOCK
 67
     1
  8
0
  2
$PAPER_SPACE
 70
     0
 10
0.0
 20
0.0
 30
0.0
  3
$PAPER_SPACE
  1

  0
ENDBLK
  5
642
 67
     1
  8
0
  0
ENDSEC
  0
SECTION
  2
ENTITIES
  0
TEXT
  5
125F
  8
0
 62
     3
 10
0.0
 20
0.0
 30
0.0
 40
10.0
  1
QLCL-08X50-NP
  7
STANDARD1
  0
LINE
  5
2055
  8
0
 10
87.848260960130645
 20
154.70754619667409
 30
0.0
 11
87.348260960130645
 21
155.20754619667409
 31
0.0
  0
LINE
  5
2056
  8
0
 10
68.348260960130645
 20
155.20754619667409
 30
0.0
 11
67.848260960130645
 21
154.70754619667409
 31
0.0
  0
LINE
  5
2057
  8
0
 10
87.848260960130645
 20
152.70754619667409
 30
0.0
 11
87.848260960130645
 21
154.70754619667409
 31
0.0
  0
LINE
  5
2058
  8
0
 10
67.848260960130645
 20
154.70754619667409
 30
0.0
 11
67.848260960130645
 21
152.70754619667409
 31
0.0
  0
LINE
  5
2059
  8
0
 10
67.848260960130645
 20
152.70754619667409
 30
0.0
 11
68.348260960130645
 21
152.20754619667409
 31
0.0
  0
LINE
  5
205A
  8
0
 10
87.348260960130645
 20
152.20754619667409
 30
0.0
 11
87.848260960130645
 21
152.70754619667409
 31
0.0
  0
ARC
  5
205C
  8
0
 10
104.0943340707415
 20
141.22970158697481
 30
0.0
 40
23.570978215732769
 50
88.12335114889288
 51
129.12343147651271
  0
POLYLINE
  5
205D
  8
0
 66
     1
 10
0.0
 20
0.0
 30
0.0
 70
   128
  0
VERTEX
  5
2E08
  8
0
 10
116.0670235941448
 20
163.86560170717431
 30
0.0
  0
VERTEX
  5
2E09
  8
0
 10
116.7473340140306
 20
163.80251716137411
 30
0.0
  0
VERTEX
  5
2E0A
  8
0
 10
118.63650389793069
 20
163.6356695570741
 30
0.0
  0
VERTEX
  5
2E0B
  8
0
 10
120.7162476576306
 20
163.45457861727411
 30
0.0
  0
VERTEX
  5
2E0C
  8
0
 10
122.99685721143059
 20
163.2596602797741
 30
0.0
  0
SEQEND
  5
2E0D
  8
0
  0
LINE
  5
206C
  8
0
 10
76.848260960130645
 20
166.6296125636741
 30
0.0
 11
77.848260960130645
 21
166.0522622944741
 31
0.0
  0
LINE
  5
206D
  8
0
 10
78.848260960130645
 20
166.6296125636741
 30
0.0
 11
78.848260960130645
 21
167.78431310207409
 31
0.0
  0
LINE
  5
206E
  8
0
 10
78.848260960130645
 20
167.78431310207409
 30
0.0
 11
77.848260960130645
 21
168.36166337127409
 31
0.0
  0
LINE
  5
206F
  8
0
 10
77.848260960130645
 20
168.36166337127409
 30
0.0
 11
76.848260960130645
 21
167.78431310207409
 31
0.0
  0
LINE
  5
2070
  8
0
 10
76.848260960130645
 20
167.78431310207409
 30
0.0
 11
76.848260960130645
 21
166.6296125636741
 31
0.0
  0
CIRCLE
  5
2071
  8
0
 10
77.848260960130645
 20
167.2069628328741
 30
0.0
 40
2.0
  0
LINE
  5
2072
  8
0
 10
77.848260960130645
 20
166.0522622944741
 30
0.0
 11
78.848260960130645
 21
166.6296125636741
 31
0.0
  0
LINE
  5
2073
  8
0
 10
68.348260960130645
 20
155.20754619667409
 30
0.0
 11
87.348260960130645
 21
155.20754619667409
 31
0.0
  0
LINE
  5
2076
  8
0
 10
87.348260960130645
 20
152.20754619667409
 30
0.0
 11
68.348260960130645
 21
152.20754619667409
 31
0.0
  0
CIRCLE
  5
2079
  8
0
 10
77.848260960130645
 20
167.2069628328741
 30
0.0
 40
7.5
  0
LINE
  5
2088
  8
0
 10
156.51016058143071
 20
171.36695657757409
 30
0.0
 11
78.806974130127529
 21
178.1651045118563
 31
0.0
  0
ARC
  5
2089
  8
0
 10
156.3358490959306
 20
169.37456718137409
 30
0.0
 40
2.0000000000000231
 50
354.99999999970032
 51
84.999999999699426
  0
LINE
  5
208C
  8
0
 10
75.001251463930672
 20
177.83214692207409
 30
0.0
 11
78.806974130330687
 21
178.16510451187409
 31
0.0
  0
POLYLINE
  5
208F
  8
0
 66
     1
 10
0.0
 20
0.0
 30
0.0
 70
   128
  0
VERTEX
  5
2E0E
  8
0
 10
157.97415318453059
 20
168.2274143086741
 30
0.0
  0
VERTEX
  5
2E0F
  8
0
 10
158.21232157393061
 20
168.68257548307409
 30
0.0
  0
VERTEX
  5
2E10
  8
0
 10
158.32823849213059
 20
169.20025569587409
 30
0.0
  0
SEQEND
  5
2E11
  8
0
  0
POLYLINE
  5
2091
  8
0
 66
     1
 10
0.0
 20
0.0
 30
0.0
 70
   128
  0
VERTEX
  5
2E12
  8
0
 10
104.86623281847029
 20
164.7880374019216
 30
0.0
  0
VERTEX
  5
2E13
  8
0
 10
106.5310447595306
 20
164.70040267297409
 30
0.0
  0
VERTEX
  5
2E14
  8
0
 10
109.99872330263059
 20
164.3937796959741
 30
0.0
  0
VERTEX
  5
2E15
  8
0
 10
113.4901316829306
 20
164.0932006468741
 30
0.0
  0
VERTEX
  5
2E16
  8
0
 10
116.06702361113059
 20
163.8656017056741
 30
0.0
  0
SEQEND
  5
2E17
  8
0
  0
POLYLINE
  5
2093
  8
0
 66
     1
 10
0.0
 20
0.0
 30
0.0
 70
   128
  0
VERTEX
  5
2E18
  8
0
 10
128.4258613436306
 20
164.56330244657411
 30
0.0
  0
VERTEX
  5
2E19
  8
0
 10
131.65990805333061
 20
165.64872923577411
 30
0.0
  0
VERTEX
  5
2E1A
  8
0
 10
133.27452331563069
 20
166.0459815465741
 30
0.0
  0
VERTEX
  5
2E1B
  8
0
 10
134.90270589203061
 20
166.3506092421741
 30
0.0
  0
VERTEX
  5
2E1C
  8
0
 10
137.36244043543061
 20
166.6347027685741
 30
0.0
  0
VERTEX
  5
2E1D
  8
0
 10
139.8325908093307
 20
166.71300238907409
 30
0.0
  0
VERTEX
  5
2E1E
  8
0
 10
142.30130290683061
 20
166.5873347824741
 30
0.0
  0
VERTEX
  5
2E1F
  8
0
 10
144.80913556373059
 20
166.24303070417409
 30
0.0
  0
VERTEX
  5
2E20
  8
0
 10
146.47110017593059
 20
165.89602571767409
 30
0.0
  0
VERTEX
  5
2E21
  8
0
 10
147.97999728313059
 20
165.49683256317411
 30
0.0
  0
VERTEX
  5
2E22
  8
0
 10
149.30334047823061
 20
165.10273134667409
 30
0.0
  0
VERTEX
  5
2E23
  8
0
 10
150.2523765181306
 20
164.8959533935741
 30
0.0
  0
VERTEX
  5
2E24
  8
0
 10
151.1903323912307
 20
164.8104833989741
 30
0.0
  0
VERTEX
  5
2E25
  8
0
 10
152.1043740228306
 20
164.83911082777411
 30
0.0
  0
VERTEX
  5
2E26
  8
0
 10
152.97856642613061
 20
164.9659071133741
 30
0.0
  0
VERTEX
  5
2E27
  8
0
 10
153.7994621760306
 20
165.1758125659741
 30
0.0
  0
VERTEX
  5
2E28
  8
0
 10
154.56356409313059
 20
165.45724300227411
 30
0.0
  0
VERTEX
  5
2E29
  8
0
 10
155.91794945073059
 20
166.19325457007409
 30
0.0
  0
VERTEX
  5
2E2A
  8
0
 10
157.04808139823061
 20
167.1227066335741
 30
0.0
  0
VERTEX
  5
2E2B
  8
0
 10
157.97415318453059
 20
168.2274143086741
 30
0.0
  0
SEQEND
  5
2E2C
  8
0
  0
ARC
  5
2096
  8
0
 10
104.2517362914306
 20
140.80528196267409
 30
0.0
 40
23.999999999998359
 50
128.7756080437014
 51
138.91151976849861
  0
LINE
  5
2098
  8
0
 10
66.890119281130708
 20
168.16567600307411
 30
0.0
 11
67.878875302730663
 21
171.85576371197411
 31
0.0
  0
LINE
  5
209B
  8
0
 10
83.148260960130656
 20
155.20754619667409
 30
0.0
 11
82.048228574830674
 21
155.20754619667409
 31
0.0
  0
ARC
  5
209E
  8
0
 10
78.168402300530673
 20
166.96846012707411
 30
0.0
 40
11.79461686068724
 50
203.33691471320009
 51
263.3495317568009
  0
ARC
  5
20A1
  8
0
 10
77.937464287030664
 20
166.05806124717409
 30
0.0
 40
11.246593779497481
 50
169.1988941148002
 51
199.5416038077004
  0
ARC
  5
20A2
  8
0
 10
77.848260960130645
 20
167.2069628328741
 30
0.0
 40
10.99999999999995
 50
104.9999999813012
 51
155.00000001869969
  0
ARC
  5
20A3
  8
0
 10
83.148260960130656
 20
159.20754619667409
 30
0.0
 40
4.0
 50
270.0
 51
318.91151976849858
  0
ARC
  5
20A8
  8
0
 10
77.848260960130645
 20
167.2069628328741
 30
0.0
 40
11.99941663621969
 50
265.00000000080121
 51
270.0
  0
LINE
  5
20A9
  8
0
 10
193.08857565972951
 20
152.70754619667409
 30
0.0
 11
193.58857565972951
 21
152.20754619667409
 31
0.0
  0
LINE
  5
20AA
  8
0
 10
212.58857565972971
 20
152.20754619667409
 30
0.0
 11
213.0885756597296
 21
152.70754619667409
 31
0.0
  0
LINE
  5
20AB
  8
0
 10
213.0885756597296
 20
154.70754619667409
 30
0.0
 11
212.58857565972971
 21
155.20754619667409
 31
0.0
  0
LINE
  5
20AC
  8
0
 10
193.58857565972951
 20
155.20754619667409
 30
0.0
 11
193.08857565972951
 21
154.70754619667409
 31
0.0
  0
LINE
  5
20AD
  8
0
 10
213.0885756597296
 20
152.70754619667409
 30
0.0
 11
213.0885756597296
 21
154.70754619667409
 31
0.0
  0
LINE
  5
20AE
  8
0
 10
193.08857565972951
 20
154.70754619667409
 30
0.0
 11
193.08857565972951
 21
152.70754619667409
 31
0.0
  0
LINE
  5
20AF
  8
0
 10
212.58857565972971
 20
159.7069628328741
 30
0.0
 11
213.0885756597296
 21
160.2069628328741
 31
0.0
  0
LINE
  5
20B0
  8
0
 10
213.0885756597296
 20
174.2069628328741
 30
0.0
 11
212.58857565972971
 21
174.7069628328741
 31
0.0
  0
LINE
  5
20B1
  8
0
 10
212.08857565972971
 20
159.7069628328741
 30
0.0
 11
212.58857565972971
 21
159.7069628328741
 31
0.0
  0
LINE
  5
20B2
  8
0
 10
193.58857565972951
 20
159.7069628328741
 30
0.0
 11
194.08857565972951
 21
159.7069628328741
 31
0.0
  0
LINE
  5
20B3
  8
0
 10
194.08857565972951
 20
174.7069628328741
 30
0.0
 11
193.58857565972951
 21
174.7069628328741
 31
0.0
  0
LINE
  5
20B4
  8
0
 10
212.58857565972971
 20
174.7069628328741
 30
0.0
 11
212.08857565972971
 21
174.7069628328741
 31
0.0
  0
LINE
  5
20B5
  8
0
 10
193.58857565972951
 20
174.7069628328741
 30
0.0
 11
193.08857565972951
 21
174.2069628328741
 31
0.0
  0
LINE
  5
20B6
  8
0
 10
193.08857565972951
 20
160.2069628328741
 30
0.0
 11
193.58857565972951
 21
159.7069628328741
 31
0.0
  0
POLYLINE
  5
20B7
  8
0
 66
     1
 10
0.0
 20
0.0
 30
0.0
 70
   128
  0
VERTEX
  5
2E2D
  8
0
 10
196.6013492389294
 20
172.9250714215741
 30
0.0
  0
VERTEX
  5
2E2E
  8
0
 10
196.6001293320295
 20
172.92978852067409
 30
0.0
  0
VERTEX
  5
2E2F
  8
0
 10
196.5667345669294
 20
172.90259145227409
 30
0.0
  0
VERTEX
  5
2E30
  8
0
 10
196.48204682132939
 20
172.82499268277411
 30
0.0
  0
VERTEX
  5
2E31
  8
0
 10
196.3228336478295
 20
172.68595789247411
 30
0.0
  0
VERTEX
  5
2E32
  8
0
 10
196.0731775451294
 20
172.4766995397741
 30
0.0
  0
VERTEX
  5
2E33
  8
0
 10
195.73320632492951
 20
172.1917164278741
 30
0.0
  0
VERTEX
  5
2E34
  8
0
 10
195.3091631537294
 20
171.82119338817409
 30
0.0
  0
VERTEX
  5
2E35
  8
0
 10
195.00513460402951
 20
171.5399207719741
 30
0.0
  0
VERTEX
  5
2E36
  8
0
 10
194.6875670286295
 20
171.21967371467409
 30
0.0
  0
VERTEX
  5
2E37
  8
0
 10
194.39611337602949
 20
170.86156537197411
 30
0.0
  0
VERTEX
  5
2E38
  8
0
 10
194.1804207367295
 20
170.46936709197411
 30
0.0
  0
VERTEX
  5
2E39
  8
0
 10
194.0735229238295
 20
170.0442608385741
 30
0.0
  0
SEQEND
  5
2E3A
  8
0
  0
POLYLINE
  5
20B8
  8
0
 66
     1
 10
0.0
 20
0.0
 30
0.0
 70
   128
  0
VERTEX
  5
2E3B
  8
0
 10
212.1036283957296
 20
170.04426083867409
 30
0.0
  0
VERTEX
  5
2E3C
  8
0
 10
211.9646309514296
 20
170.63493451587411
 30
0.0
  0
VERTEX
  5
2E3D
  8
0
 10
211.6314438037295
 20
171.15946281367411
 30
0.0
  0
VERTEX
  5
2E3E
  8
0
 10
211.15258587332951
 20
171.6083329402741
 30
0.0
  0
VERTEX
  5
2E3F
  8
0
 10
210.66471785822949
 20
171.9845510524741
 30
0.0
  0
VERTEX
  5
2E40
  8
0
 10
210.24753736522959
 20
172.29520876847411
 30
0.0
  0
VERTEX
  5
2E41
  8
0
 10
209.88109584272951
 20
172.57642414237409
 30
0.0
  0
VERTEX
  5
2E42
  8
0
 10
209.6855646362296
 20
172.7245043501741
 30
0.0
  0
VERTEX
  5
2E43
  8
0
 10
209.63980971782959
 20
172.7258865668741
 30
0.0
  0
SEQEND
  5
2E44
  8
0
  0
POLYLINE
  5
20B9
  8
0
 66
     1
 10
0.0
 20
0.0
 30
0.0
 70
   128
  0
VERTEX
  5
2E45
  8
0
 10
194.0735229238295
 20
170.0442608385741
 30
0.0
  0
VERTEX
  5
2E46
  8
0
 10
194.2336702408295
 20
169.2500020546741
 30
0.0
  0
VERTEX
  5
2E47
  8
0
 10
194.59257355292951
 20
168.3726005313741
 30
0.0
  0
VERTEX
  5
2E48
  8
0
 10
194.89960950602949
 20
167.62244506047409
 30
0.0
  0
VERTEX
  5
2E49
  8
0
 10
195.24757099422951
 20
166.7832993826741
 30
0.0
  0
VERTEX
  5
2E4A
  8
0
 10
195.54068031632951
 20
166.13789541167409
 30
0.0
  0
VERTEX
  5
2E4B
  8
0
 10
195.85871908482949
 20
165.69732616757409
 30
0.0
  0
VERTEX
  5
2E4C
  8
0
 10
196.32552971692951
 20
165.28496620987411
 30
0.0
  0
VERTEX
  5
2E4D
  8
0
 10
196.96419908662949
 20
164.9602048188741
 30
0.0
  0
VERTEX
  5
2E4E
  8
0
 10
197.80422374472951
 20
164.8081798265741
 30
0.0
  0
SEQEND
  5
2E4F
  8
0
  0
POLYLINE
  5
20BA
  8
0
 66
     1
 10
0.0
 20
0.0
 30
0.0
 70
   128
  0
VERTEX
  5
2E50
  8
0
 10
208.3727645500295
 20
164.80841373227409
 30
0.0
  0
VERTEX
  5
2E51
  8
0
 10
209.21299958022951
 20
164.96048574007409
 30
0.0
  0
VERTEX
  5
2E52
  8
0
 10
209.85183822542959
 20
165.28535539127409
 30
0.0
  0
VERTEX
  5
2E53
  8
0
 10
210.31870820272951
 20
165.6978412352741
 30
0.0
  0
VERTEX
  5
2E54
  8
0
 10
210.6366972818295
 20
166.13846565087411
 30
0.0
  0
VERTEX
  5
2E55
  8
0
 10
210.92974915232949
 20
166.7838280848741
 30
0.0
  0
VERTEX
  5
2E56
  8
0
 10
211.2776952223295
 20
167.6229085582741
 30
0.0
  0
VERTEX
  5
2E57
  8
0
 10
211.69764526392959
 20
168.64928171237409
 30
0.0
  0
VERTEX
  5
2E58
  8
0
 10
211.94360611102951
 20
169.25033443977409
 30
0.0
  0
VERTEX
  5
2E59
  8
0
 10
212.1036283957296
 20
170.04426083867409
 30
0.0
  0
SEQEND
  5
2E5A
  8
0
  0
POLYLINE
  5
20BB
  8
0
 66
     1
 10
0.0
 20
0.0
 30
0.0
 70
   128
  0
VERTEX
  5
2E5B
  8
0
 10
197.80422374472951
 20
164.8081798265741
 30
0.0
  0
VERTEX
  5
2E5C
  8
0
 10
203.08857565972951
 20
164.8055498884741
 30
0.0
  0
VERTEX
  5
2E5D
  8
0
 10
208.3727645500295
 20
164.80841373227409
 30
0.0
  0
SEQEND
  5
2E5E
  8
0
  0
LINE
  5
20BF
  8
0
 10
212.58857565972971
 20
152.20754619667409
 30
0.0
 11
193.58857565972951
 21
152.20754619667409
 31
0.0
  0
LINE
  5
20C0
  8
0
 10
193.58857565972951
 20
155.20754619667409
 30
0.0
 11
212.58857565972971
 21
155.20754619667409
 31
0.0
  0
LINE
  5
20C2
  8
0
 10
213.0885756597296
 20
174.2069628328741
 30
0.0
 11
213.0885756597296
 21
160.2069628328741
 31
0.0
  0
LINE
  5
20C5
  8
0
 10
193.08857565972951
 20
160.2069628328741
 30
0.0
 11
193.08857565972951
 21
174.2069628328741
 31
0.0
  0
POLYLINE
  5
20C8
  8
0
 66
     1
 10
0.0
 20
0.0
 30
0.0
 70
   128
  0
VERTEX
  5
2E5F
  8
0
 10
194.0735229238295
 20
170.0442608385741
 30
0.0
  0
VERTEX
  5
2E60
  8
0
 10
194.2083474303295
 20
169.85772046647409
 30
0.0
  0
VERTEX
  5
2E61
  8
0
 10
194.5973396167295
 20
169.72372402537411
 30
0.0
  0
VERTEX
  5
2E62
  8
0
 10
195.26847083712951
 20
169.5958900848741
 30
0.0
  0
VERTEX
  5
2E63
  8
0
 10
196.21691507492949
 20
169.4783065908741
 30
0.0
  0
VERTEX
  5
2E64
  8
0
 10
197.00469470102951
 20
169.40669487647409
 30
0.0
  0
VERTEX
  5
2E65
  8
0
 10
197.92918311652949
 20
169.34176112677409
 30
0.0
  0
VERTEX
  5
2E66
  8
0
 10
199.00361193432951
 20
169.28556987737409
 30
0.0
  0
VERTEX
  5
2E67
  8
0
 10
199.90720639652949
 20
169.25092379747409
 30
0.0
  0
VERTEX
  5
2E68
  8
0
 10
200.89375872332951
 20
169.22392254207409
 30
0.0
  0
VERTEX
  5
2E69
  8
0
 10
201.9585511727295
 20
169.20668069617409
 30
0.0
  0
VERTEX
  5
2E6A
  8
0
 10
203.08857565972951
 20
169.20025569587409
 30
0.0
  0
SEQEND
  5
2E6B
  8
0
  0
POLYLINE
  5
20C9
  8
0
 66
     1
 10
0.0
 20
0.0
 30
0.0
 70
   128
  0
VERTEX
  5
2E6C
  8
0
 10
194.08857565972951
 20
175.1268462026741
 30
0.0
  0
VERTEX
  5
2E6D
  8
0
 10
194.20633228402949
 20
174.7495707184741
 30
0.0
  0
VERTEX
  5
2E6E
  8
0
 10
194.5570755631295
 20
174.3743271477741
 30
0.0
  0
VERTEX
  5
2E6F
  8
0
 10
195.14170508042949
 20
174.00306893017409
 30
0.0
  0
VERTEX
  5
2E70
  8
0
 10
195.8249672492295
 20
173.6364528734741
 30
0.0
  0
VERTEX
  5
2E71
  8
0
 10
196.29877413642939
 20
173.27276479897409
 30
0.0
  0
VERTEX
  5
2E72
  8
0
 10
196.55261849322949
 20
172.91200337657409
 30
0.0
  0
SEQEND
  5
2E73
  8
0
  0
ARC
  5
20CB
  8
0
 10
196.08419352822949
 20
175.12361993377411
 30
0.0
 40
1.995620476422324
 50
89.874185575599967
 51
179.90737132840019
  0
POLYLINE
  5
20CC
  8
0
 66
     1
 10
0.0
 20
0.0
 30
0.0
 70
   128
  0
VERTEX
  5
2E74
  8
0
 10
212.08857565972971
 20
175.1268462026741
 30
0.0
  0
VERTEX
  5
2E75
  8
0
 10
211.96395665372961
 20
174.7373826335741
 30
0.0
  0
VERTEX
  5
2E76
  8
0
 10
211.5620378296295
 20
174.32977518327411
 30
0.0
  0
VERTEX
  5
2E77
  8
0
 10
210.85640495722961
 20
173.9078836104741
 30
0.0
  0
VERTEX
  5
2E78
  8
0
 10
210.1144048378296
 20
173.4789225250741
 30
0.0
  0
VERTEX
  5
2E79
  8
0
 10
209.69146348722961
 20
173.0449273412741
 30
0.0
  0
VERTEX
  5
2E7A
  8
0
 10
209.6214263568294
 20
172.7565917823741
 30
0.0
  0
SEQEND
  5
2E7B
  8
0
  0
POLYLINE
  5
20CF
  8
0
 66
     1
 10
0.0
 20
0.0
 30
0.0
 70
   128
  0
VERTEX
  5
2E7C
  8
0
 10
203.08857565972951
 20
169.20025569587409
 30
0.0
  0
VERTEX
  5
2E7D
  8
0
 10
204.21860014682949
 20
169.20668069617409
 30
0.0
  0
VERTEX
  5
2E7E
  8
0
 10
205.28339259632949
 20
169.22392254207409
 30
0.0
  0
VERTEX
  5
2E7F
  8
0
 10
206.26994492312949
 20
169.25092379747409
 30
0.0
  0
VERTEX
  5
2E80
  8
0
 10
207.17353938542951
 20
169.28556987737409
 30
0.0
  0
VERTEX
  5
2E81
  8
0
 10
208.2479682032295
 20
169.34176112677409
 30
0.0
  0
VERTEX
  5
2E82
  8
0
 10
209.17245661872971
 20
169.40669487647409
 30
0.0
  0
VERTEX
  5
2E83
  8
0
 10
209.96023624482939
 20
169.47830659097411
 30
0.0
  0
VERTEX
  5
2E84
  8
0
 10
210.90868048262939
 20
169.5958900848741
 30
0.0
  0
VERTEX
  5
2E85
  8
0
 10
211.57981170302961
 20
169.72372402537411
 30
0.0
  0
VERTEX
  5
2E86
  8
0
 10
211.96880388922949
 20
169.85772046657411
 30
0.0
  0
VERTEX
  5
2E87
  8
0
 10
212.1036283957296
 20
170.04426083867409
 30
0.0
  0
SEQEND
  5
2E88
  8
0
  0
ARC
  5
20D1
  8
0
 10
210.09178965172961
 20
175.12244733217409
 30
0.0
 40
1.9967908532949921
 50
0.1262209905998884
 51
90.092222105400054
  0
ARC
  5
20D2
  8
0
 10
207.84543607962959
 20
162.75478455477409
 30
0.0
 40
13.811079377682359
 50
159.48063647129911
 51
185.0785716329998
  0
ARC
  5
20D8
  8
0
 10
195.86629777712949
 20
161.28847031207411
 30
0.0
 40
1.794352721182793
 50
172.1931877927002
 51
261.0851995515016
  0
ARC
  5
20DD
  8
0
 10
196.2631684533296
 20
162.49496686767409
 30
0.0
 40
15.85466577910066
 50
356.5186117154995
 51
18.809925479599869
  0
ARC
  5
20DE
  8
0
 10
210.3109673455296
 20
161.28838567357411
 30
0.0
 40
1.794251472287268
 50
278.9116291108989
 51
7.8099835448999402
  0
LINE
  5
20E1
  8
0
 10
195.58823485342941
 20
159.5157936116741
 30
0.0
 11
210.58891649176721
 21
159.5157936116741
 31
0.0
  0
LINE
  5
20E2
  8
0
 10
207.58857565972951
 20
178.16510451187409
 30
0.0
 11
211.5885756597296
 21
178.16510451187409
 31
0.0
  0
POLYLINE
  5
20E3
  8
0
 66
     1
 10
0.0
 20
0.0
 30
0.0
 70
   128
  0
VERTEX
  5
2E89
  8
0
 10
210.08857565972971
 20
177.1192355988741
 30
0.0
  0
VERTEX
  5
2E8A
  8
0
 10
210.22586277082951
 20
177.3144644626741
 30
0.0
  0
VERTEX
  5
2E8B
  8
0
 10
210.55967254862949
 20
177.50969332637411
 30
0.0
  0
VERTEX
  5
2E8C
  8
0
 10
210.97292765972949
 20
177.7049221901741
 30
0.0
  0
VERTEX
  5
2E8D
  8
0
 10
211.27709477082951
 20
177.8583162973741
 30
0.0
  0
VERTEX
  5
2E8E
  8
0
 10
211.50124054862951
 20
178.01171040467409
 30
0.0
  0
VERTEX
  5
2E8F
  8
0
 10
211.5885756597296
 20
178.16510451187409
 30
0.0
  0
SEQEND
  5
2E90
  8
0
  0
POLYLINE
  5
20E4
  8
0
 66
     1
 10
0.0
 20
0.0
 30
0.0
 70
   128
  0
VERTEX
  5
2E91
  8
0
 10
194.58857565972951
 20
178.16510451187409
 30
0.0
  0
VERTEX
  5
2E92
  8
0
 10
194.72586277082951
 20
177.96987564807409
 30
0.0
  0
VERTEX
  5
2E93
  8
0
 10
195.05967254862949
 20
177.77464678437411
 30
0.0
  0
VERTEX
  5
2E94
  8
0
 10
195.47292765972941
 20
177.57941792057409
 30
0.0
  0
VERTEX
  5
2E95
  8
0
 10
195.77709477082939
 20
177.42602381337409
 30
0.0
  0
VERTEX
  5
2E96
  8
0
 10
196.00124054862951
 20
177.27262970617409
 30
0.0
  0
VERTEX
  5
2E97
  8
0
 10
196.08857565972951
 20
177.1192355988741
 30
0.0
  0
SEQEND
  5
2E98
  8
0
  0
LINE
  5
20E5
  8
0
 10
194.58857565972951
 20
178.16510451187409
 30
0.0
 11
198.58857565972951
 21
178.16510451187409
 31
0.0
  0
LINE
  5
20E6
  8
0
 10
198.58857565972951
 20
177.2935470843741
 30
0.0
 11
198.58857565972951
 21
178.16510451187409
 31
0.0
  0
ARC
  5
20E7
  8
0
 10
200.09237372152961
 20
182.9868258358741
 30
0.0
 40
5.8885339051719834
 50
255.20405517679799
 51
274.8338060357982
  0
LINE
  5
20E8
  8
0
 10
205.58857565972951
 20
177.1192355988741
 30
0.0
 11
200.5885756597296
 21
177.1192355988741
 31
0.0
  0
ARC
  5
20E9
  8
0
 10
206.08477759802949
 20
182.9868258358741
 30
0.0
 40
5.8885339051708376
 50
265.1661939641985
 51
284.79594482320198
  0
LINE
  5
20EA
  8
0
 10
207.58857565972951
 20
177.2935470843741
 30
0.0
 11
207.58857565972951
 21
178.16510451187409
 31
0.0
  0
POLYLINE
  5
20EB
  8
0
 66
     1
 10
0.0
 20
0.0
 30
0.0
 70
   128
  0
VERTEX
  5
2E99
  8
0
 10
197.7034108526295
 20
171.9770467767741
 30
0.0
  0
VERTEX
  5
2E9A
  8
0
 10
197.75356856822941
 20
172.04095632647409
 30
0.0
  0
VERTEX
  5
2E9B
  8
0
 10
197.9031073717295
 20
172.1036753621741
 30
0.0
  0
VERTEX
  5
2E9C
  8
0
 10
198.1492416381295
 20
172.16403554687409
 30
0.0
  0
VERTEX
  5
2E9D
  8
0
 10
198.4873863518294
 20
172.22091248457409
 30
0.0
  0
VERTEX
  5
2E9E
  8
0
 10
198.91124251652951
 20
172.27324666567409
 30
0.0
  0
VERTEX
  5
2E9F
  8
0
 10
199.4129144938295
 20
172.3200632031741
 30
0.0
  0
VERTEX
  5
2EA0
  8
0
 10
199.98305708412951
 20
172.36048999367409
 30
0.0
  0
VERTEX
  5
2EA1
  8
0
 10
200.61104960952949
 20
172.3937739625741
 30
0.0
  0
VERTEX
  5
2EA2
  8
0
 10
201.2851937576296
 20
172.41929509237411
 30
0.0
  0
VERTEX
  5
2EA3
  8
0
 10
201.9929314984295
 20
172.43657797297411
 30
0.0
  0
VERTEX
  5
2EA4
  8
0
 10
202.72107901692951
 20
172.44530065677409
 30
0.0
  0
VERTEX
  5
2EA5
  8
0
 10
203.45607230252941
 20
172.44530065677409
 30
0.0
  0
VERTEX
  5
2EA6
  8
0
 10
204.18421982102959
 20
172.43657797297411
 30
0.0
  0
VERTEX
  5
2EA7
  8
0
 10
204.8919575618294
 20
172.41929509237411
 30
0.0
  0
VERTEX
  5
2EA8
  8
0
 10
205.5661017099296
 20
172.3937739625741
 30
0.0
  0
VERTEX
  5
2EA9
  8
0
 10
206.19409423532949
 20
172.36048999367409
 30
0.0
  0
VERTEX
  5
2EAA
  8
0
 10
206.76423682562941
 20
172.3200632031741
 30
0.0
  0
VERTEX
  5
2EAB
  8
0
 10
207.26590880292949
 20
172.27324666567409
 30
0.0
  0
VERTEX
  5
2EAC
  8
0
 10
207.68976496762949
 20
172.22091248457409
 30
0.0
  0
VERTEX
  5
2EAD
  8
0
 10
208.0279096813295
 20
172.16403554687409
 30
0.0
  0
VERTEX
  5
2EAE
  8
0
 10
208.2740439477295
 20
172.1036753621741
 30
0.0
  0
VERTEX
  5
2EAF
  8
0
 10
208.4235827512295
 20
172.04095632647409
 30
0.0
  0
VERTEX
  5
2EB0
  8
0
 10
208.4737404668295
 20
171.9770467767741
 30
0.0
  0
VERTEX
  5
2EB1
  8
0
 10
208.4235827512295
 20
171.91313722707409
 30
0.0
  0
VERTEX
  5
2EB2
  8
0
 10
208.2740439477295
 20
171.85041819147409
 30
0.0
  0
VERTEX
  5
2EB3
  8
0
 10
208.0279096813295
 20
171.79005800667409
 30
0.0
  0
VERTEX
  5
2EB4
  8
0
 10
207.68976496762949
 20
171.73318106897409
 30
0.0
  0
VERTEX
  5
2EB5
  8
0
 10
207.26590880292949
 20
171.6808468879741
 30
0.0
  0
VERTEX
  5
2EB6
  8
0
 10
206.76423682562941
 20
171.63403035047409
 30
0.0
  0
VERTEX
  5
2EB7
  8
0
 10
206.19409423532949
 20
171.59360355987411
 30
0.0
  0
VERTEX
  5
2EB8
  8
0
 10
205.5661017099296
 20
171.56031959107409
 30
0.0
  0
VERTEX
  5
2EB9
  8
0
 10
204.8919575618294
 20
171.53479846117409
 30
0.0
  0
VERTEX
  5
2EBA
  8
0
 10
204.18421982102959
 20
171.51751558067409
 30
0.0
  0
VERTEX
  5
2EBB
  8
0
 10
203.45607230252941
 20
171.50879289677411
 30
0.0
  0
VERTEX
  5
2EBC
  8
0
 10
202.72107901692951
 20
171.50879289677411
 30
0.0
  0
VERTEX
  5
2EBD
  8
0
 10
201.9929314984295
 20
171.51751558067409
 30
0.0
  0
VERTEX
  5
2EBE
  8
0
 10
201.2851937576296
 20
171.53479846117409
 30
0.0
  0
VERTEX
  5
2EBF
  8
0
 10
200.61104960952949
 20
171.56031959107409
 30
0.0
  0
VERTEX
  5
2EC0
  8
0
 10
199.98305708412951
 20
171.59360355987411
 30
0.0
  0
VERTEX
  5
2EC1
  8
0
 10
199.4129144938295
 20
171.63403035047409
 30
0.0
  0
VERTEX
  5
2EC2
  8
0
 10
198.91124251652951
 20
171.6808468879741
 30
0.0
  0
VERTEX
  5
2EC3
  8
0
 10
198.4873863518294
 20
171.73318106897409
 30
0.0
  0
VERTEX
  5
2EC4
  8
0
 10
198.1492416381295
 20
171.79005800667409
 30
0.0
  0
VERTEX
  5
2EC5
  8
0
 10
197.9031073717295
 20
171.85041819147409
 30
0.0
  0
VERTEX
  5
2EC6
  8
0
 10
197.75356856822941
 20
171.91313722707409
 30
0.0
  0
VERTEX
  5
2EC7
  8
0
 10
197.7034108526295
 20
171.9770467767741
 30
0.0
  0
SEQEND
  5
2EC8
  8
0
  0
LINE
  5
20EC
  8
0
 10
194.08857565972951
 20
163.97736582570491
 30
0.0
 11
194.08857565972951
 21
169.96960602740211
 31
0.0
  0
LINE
  5
20ED
  8
0
 10
194.08857565972951
 20
170.10412185917411
 30
0.0
 11
194.08857565972951
 21
177.66316513177401
 31
0.0
  0
LINE
  5
20EE
  8
0
 10
212.08857565972971
 20
163.4577304516379
 30
0.0
 11
212.08857565972971
 21
169.9695789622817
 31
0.0
  0
LINE
  5
20EF
  8
0
 10
212.08857565972971
 20
170.10822787737411
 30
0.0
 11
212.08857565972971
 21
177.66316513148519
 31
0.0
  0
ARC
  5
20F0
  8
0
 10
194.58976029662949
 20
177.66392070547411
 30
0.0
 40
0.5011852064418888
 50
90.135428489799196
 51
180.0863805786002
  0
ARC
  5
20F2
  8
0
 10
211.58739102282959
 20
177.66392070547411
 30
0.0
 40
0.5011852064423428
 50
359.91361942149967
 51
89.864571510200804
  0
ARC
  5
20F4
  8
0
 10
205.6614648746295
 20
157.58918668167411
 30
0.0
 40
1.9279852438249589
 50
358.27427393880021
 51
92.166634771900434
  0
ARC
  5
20F5
  8
0
 10
200.5265058999295
 20
157.57828364557409
 30
0.0
 40
1.938503939627076
 50
88.165109099199896
 51
181.39398219009959
  0
LINE
  5
20F8
  8
0
 10
194.08857565972951
 20
156.90726316737411
 30
0.0
 11
194.08857565972951
 21
161.04473734072499
 31
0.0
  0
LINE
  5
20FB
  8
0
 10
212.08857565972971
 20
161.04456806327551
 30
0.0
 11
212.08857565972971
 21
156.90726316737411
 31
0.0
  0
LINE
  5
20FC
  8
0
 10
198.5885756597296
 20
155.20754619667409
 30
0.0
 11
198.58857565972951
 21
157.5311253136741
 31
0.0
  0
LINE
  5
20FF
  8
0
 10
207.58857565972971
 20
155.20754619667409
 30
0.0
 11
207.58857565972951
 21
157.5311253136741
 31
0.0
  0
ARC
  5
2100
  8
0
 10
211.5885756597296
 20
155.70754619667409
 30
0.0
 40
0.5000000000000142
 50
270.0
 51
0.0
  0
LINE
  5
2102
  8
0
 10
212.08857565972971
 20
156.90726316737411
 30
0.0
 11
212.08857565972971
 21
155.70754619667409
 31
0.0
  0
ARC
  5
2104
  8
0
 10
194.58857565972951
 20
155.70754619667409
 30
0.0
 40
0.5
 50
180.0
 51
270.0
  0
LINE
  5
2105
  8
0
 10
194.08857565972951
 20
155.70754619667409
 30
0.0
 11
194.08857565972951
 21
156.90726316737411
 31
0.0
  0
LINE
  5
210D
  8
0
 10
13.08857565972955
 20
152.70754619667409
 30
0.0
 11
13.58857565972956
 21
152.20754619667409
 31
0.0
  0
LINE
  5
210E
  8
0
 10
32.588575659729557
 20
152.20754619667409
 30
0.0
 11
33.088575659729557
 21
152.70754619667409
 31
0.0
  0
LINE
  5
210F
  8
0
 10
33.088575659729557
 20
154.70754619667409
 30
0.0
 11
32.588575659729557
 21
155.20754619667409
 31
0.0
  0
LINE
  5
2110
  8
0
 10
13.58857565972956
 20
155.20754619667409
 30
0.0
 11
13.08857565972955
 21
154.70754619667409
 31
0.0
  0
LINE
  5
2111
  8
0
 10
33.088575659729557
 20
152.70754619667409
 30
0.0
 11
33.088575659729557
 21
154.70754619667409
 31
0.0
  0
LINE
  5
2112
  8
0
 10
13.08857565972955
 20
154.70754619667409
 30
0.0
 11
13.08857565972955
 21
152.70754619667409
 31
0.0
  0
LINE
  5
2113
  8
0
 10
32.588575659729557
 20
159.7069628328741
 30
0.0
 11
33.088575659729557
 21
160.2069628328741
 31
0.0
  0
LINE
  5
2114
  8
0
 10
33.088575659729557
 20
174.2069628328741
 30
0.0
 11
32.588575659729557
 21
174.7069628328741
 31
0.0
  0
LINE
  5
2115
  8
0
 10
14.08857565972956
 20
174.7069628328741
 30
0.0
 11
13.58857565972956
 21
174.7069628328741
 31
0.0
  0
LINE
  5
2116
  8
0
 10
32.588575659729557
 20
174.7069628328741
 30
0.0
 11
32.088575659729557
 21
174.7069628328741
 31
0.0
  0
LINE
  5
2117
  8
0
 10
32.088575659729557
 20
159.7069628328741
 30
0.0
 11
32.588575659729557
 21
159.7069628328741
 31
0.0
  0
LINE
  5
2118
  8
0
 10
13.58857565972956
 20
159.7069628328741
 30
0.0
 11
14.08857565972956
 21
159.7069628328741
 31
0.0
  0
LINE
  5
2119
  8
0
 10
13.58857565972956
 20
174.7069628328741
 30
0.0
 11
13.08857565972955
 21
174.2069628328741
 31
0.0
  0
LINE
  5
211A
  8
0
 10
13.08857565972955
 20
160.2069628328741
 30
0.0
 11
13.58857565972956
 21
159.7069628328741
 31
0.0
  0
LINE
  5
211D
  8
0
 10
32.588575659729621
 20
152.20754619667409
 30
0.0
 11
13.58857565972956
 21
152.20754619667409
 31
0.0
  0
LINE
  5
2120
  8
0
 10
13.58857565972956
 20
155.20754619667409
 30
0.0
 11
32.5885756597295
 21
155.20754619667409
 31
0.0
  0
LINE
  5
2125
  8
0
 10
33.088575659729557
 20
174.20696283287401
 30
0.0
 11
33.088575659729557
 21
160.2069628328741
 31
0.0
  0
LINE
  5
212C
  8
0
 10
13.08857565972955
 20
160.2069628328741
 30
0.0
 11
13.08857565972955
 21
174.2069628328741
 31
0.0
  0
LINE
  5
213D
  8
0
 10
14.08857565972956
 20
155.70754619667409
 30
0.0
 11
14.08857565972956
 21
177.66316513163281
 31
0.0
  0
LINE
  5
2140
  8
0
 10
32.088575659729607
 20
177.663165065496
 30
0.0
 11
32.0885756597295
 21
155.70754619667409
 31
0.0
  0
LINE
  5
2142
  8
0
 10
18.58857565972956
 20
178.16510451187409
 30
0.0
 11
18.58857565972956
 21
155.20754619667409
 31
0.0
  0
LINE
  5
2144
  8
0
 10
27.58857565972956
 20
178.16510451187409
 30
0.0
 11
27.58857565972956
 21
155.20754619667409
 31
0.0
  0
ARC
  5
2159
  8
0
 10
14.58976029662956
 20
177.66392070547411
 30
0.0
 40
0.5011852064421158
 50
90.135428489799196
 51
180.08638057850001
  0
ARC
  5
215D
  8
0
 10
31.587391022929541
 20
177.66392070547411
 30
0.0
 40
0.5011852064418746
 50
359.91361942139957
 51
89.864571510200804
  0
LINE
  5
215F
  8
0
 10
18.58857565972956
 20
178.16510451187409
 30
0.0
 11
14.58857565972955
 21
178.16510451187409
 31
0.0
  0
LINE
  5
2161
  8
0
 10
31.58857565972956
 20
178.16510451187409
 30
0.0
 11
27.58857565972956
 21
178.16510451187409
 31
0.0
  0
ARC
  5
2163
  8
0
 10
31.58857565972956
 20
155.70754619667409
 30
0.0
 40
0.4999999999999575
 50
270.0
 51
0.0
  0
ARC
  5
2164
  8
0
 10
14.58857565972955
 20
155.70754619667409
 30
0.0
 40
0.4999999999999858
 50
180.0
 51
270.0
  0
ARC
  5
2165
  8
0
 10
25.650645419629502
 20
157.57828364557409
 30
0.0
 40
1.93850393962709
 50
358.60601780990032
 51
54.054555291710507
  0
ARC
  5
2166
  8
0
 10
26.08477759802954
 20
182.9868258358741
 30
0.0
 40
5.8885339051715322
 50
265.1661939641985
 51
284.79594482320198
  0
ARC
  5
2167
  8
0
 10
20.515686444829509
 20
157.58918668167411
 30
0.0
 40
1.9279852438249301
 50
125.775125563461
 51
181.72572606119971
  0
ARC
  5
2168
  8
0
 10
20.092373721529508
 20
182.9868258358741
 30
0.0
 40
5.8885339051701528
 50
255.20405517679799
 51
274.8338060357982
  0
LINE
  5
216A
  8
0
 10
20.58857565972956
 20
177.1192355988741
 30
0.0
 11
25.58857565972956
 21
177.1192355988741
 31
0.0
  0
LINE
  5
216F
  8
0
 10
85.348260960130645
 20
213.18632535427409
 30
0.0
 11
85.348260960130645
 21
213.68632535427409
 31
0.0
  0
LINE
  5
2170
  8
0
 10
85.348260960130645
 20
218.18632535427409
 30
0.0
 11
85.348260960130645
 21
227.18632535427409
 31
0.0
  0
LINE
  5
2171
  8
0
 10
85.348260960130645
 20
231.68632535427409
 30
0.0
 11
85.348260960130645
 21
232.18632535427409
 31
0.0
  0
LINE
  5
2172
  8
0
 10
70.348260960130645
 20
232.18632535427409
 30
0.0
 11
70.348260960130645
 21
231.68632535427409
 31
0.0
  0
LINE
  5
2173
  8
0
 10
70.348260960130645
 20
227.18632535427409
 30
0.0
 11
70.348260960130645
 21
218.18632535427409
 31
0.0
  0
LINE
  5
2174
  8
0
 10
70.348260960130645
 20
213.68632535427409
 30
0.0
 11
70.348260960130645
 21
213.18632535427409
 31
0.0
  0
LINE
  5
2175
  8
0
 10
85.348260960130645
 20
232.18632535427409
 30
0.0
 11
84.848260960130645
 21
232.68632535427409
 31
0.0
  0
LINE
  5
2176
  8
0
 10
70.848260960130645
 20
232.68632535427409
 30
0.0
 11
70.348260960130645
 21
232.18632535427409
 31
0.0
  0
LINE
  5
2177
  8
0
 10
70.348260960130645
 20
213.18632535427409
 30
0.0
 11
70.848260960130645
 21
212.68632535427409
 31
0.0
  0
LINE
  5
2178
  8
0
 10
84.848260960130645
 20
212.68632535427409
 30
0.0
 11
85.348260960130645
 21
213.18632535427409
 31
0.0
  0
ARC
  5
217A
  8
0
 10
149.31469528393069
 20
222.68537696917409
 30
0.0
 40
9.0035577220657874
 50
271.23897462500111
 51
0.006035221600019
  0
LINE
  5
217B
  8
0
 10
149.22591053220441
 20
213.6763319008632
 30
0.0
 11
149.50937472273071
 21
213.6839242213741
 31
0.0
  0
LINE
  5
217D
  8
0
 10
149.76480485703061
 20
231.6623267793741
 30
0.0
 11
149.147548664189
 21
231.69330829608711
 31
0.0
  0
ARC
  5
217E
  8
0
 10
149.3637061854306
 20
222.7167160502741
 30
0.0
 40
8.9545983416504207
 50
359.80554549830009
 51
87.432720941701348
  0
POLYLINE
  5
217F
  8
0
 66
     1
 10
0.0
 20
0.0
 30
0.0
 70
   128
  0
VERTEX
  5
2EC9
  8
0
 10
114.46595192193649
 20
229.2874597212421
 30
0.0
  0
VERTEX
  5
2ECA
  8
0
 10
113.4379256822306
 20
229.3416224588741
 30
0.0
  0
VERTEX
  5
2ECB
  8
0
 10
111.1275852681306
 20
229.52245509857411
 30
0.0
  0
VERTEX
  5
2ECC
  8
0
 10
108.5117508718306
 20
229.8098388919741
 30
0.0
  0
VERTEX
  5
2ECD
  8
0
 10
105.58860318823061
 20
230.2549118986741
 30
0.0
  0
VERTEX
  5
2ECE
  8
0
 10
102.3452417238306
 20
230.77827245427409
 30
0.0
  0
VERTEX
  5
2ECF
  8
0
 10
102.02655986532331
 20
230.8189881878794
 30
0.0
  0
SEQEND
  5
2ED0
  8
0
  0
POLYLINE
  5
2180
  8
0
 66
     1
 10
0.0
 20
0.0
 30
0.0
 70
   128
  0
VERTEX
  5
2ED1
  8
0
 10
67.387732331730675
 20
231.68632535427409
 30
0.0
  0
VERTEX
  5
2ED2
  8
0
 10
67.174938177530649
 20
231.67802258847411
 30
0.0
  0
VERTEX
  5
2ED3
  8
0
 10
67.021430369930684
 20
231.65139409337411
 30
0.0
  0
VERTEX
  5
2ED4
  8
0
 10
66.917326493330691
 20
231.60516762287409
 30
0.0
  0
VERTEX
  5
2ED5
  8
0
 10
66.841571671830664
 20
231.54034700307409
 30
0.0
  0
VERTEX
  5
2ED6
  8
0
 10
66.80932618493064
 20
231.50196633387409
 30
0.0
  0
VERTEX
  5
2ED7
  8
0
 10
66.794323222430663
 20
231.48154339637409
 30
0.0
  0
VERTEX
  5
2ED8
  8
0
 10
66.780076584530676
 20
231.46041558397411
 30
0.0
  0
VERTEX
  5
2ED9
  8
0
 10
66.766629245030643
 20
231.4386762398741
 30
0.0
  0
VERTEX
  5
2EDA
  8
0
 10
66.754043033330689
 20
231.41642168477409
 30
0.0
  0
VERTEX
  5
2EDB
  8
0
 10
66.731752981630692
 20
231.3707590502741
 30
0.0
  0
VERTEX
  5
2EDC
  8
0
 10
66.700782525030675
 20
231.2775126397741
 30
0.0
  0
VERTEX
  5
2EDD
  8
0
 10
66.690394678430678
 20
231.18632535427409
 30
0.0
  0
SEQEND
  5
2EDE
  8
0
  0
POLYLINE
  5
2181
  8
0
 66
     1
 10
0.0
 20
0.0
 30
0.0
 70
   128
  0
VERTEX
  5
2EDF
  8
0
 10
66.690394678430678
 20
214.18632535427409
 30
0.0
  0
VERTEX
  5
2EE0
  8
0
 10
66.698961067630663
 20
214.09525676247409
 30
0.0
  0
VERTEX
  5
2EE1
  8
0
 10
66.710049548630664
 20
214.04861934987409
 30
0.0
  0
VERTEX
  5
2EE2
  8
0
 10
66.71735977433066
 20
214.02530670237411
 30
0.0
  0
VERTEX
  5
2EE3
  8
0
 10
66.725859105130681
 20
214.0021185626741
 30
0.0
  0
VERTEX
  5
2EE4
  8
0
 10
66.735556503830665
 20
213.9791495924741
 30
0.0
  0
VERTEX
  5
2EE5
  8
0
 10
66.746465706830648
 20
213.95649664887409
 30
0.0
  0
VERTEX
  5
2EE6
  8
0
 10
66.772027395730632
 20
213.91253010977411
 30
0.0
  0
VERTEX
  5
2EE7
  8
0
 10
66.839757298230666
 20
213.8326029479741
 30
0.0
  0
VERTEX
  5
2EE8
  8
0
 10
66.971221033630698
 20
213.75010126297411
 30
0.0
  0
VERTEX
  5
2EE9
  8
0
 10
67.155271295830701
 20
213.7014196609741
 30
0.0
  0
VERTEX
  5
2EEA
  8
0
 10
67.387732331730675
 20
213.68632535427409
 30
0.0
  0
SEQEND
  5
2EEB
  8
0
  0
LINE
  5
2182
  8
0
 10
66.690394678230646
 20
231.18632535427409
 30
0.0
 11
66.690394678230646
 21
227.18632535427409
 31
0.0
  0
LINE
  5
2183
  8
0
 10
66.690394678230646
 20
218.18632535427409
 30
0.0
 11
66.690394678230646
 21
214.18632535427409
 31
0.0
  0
ARC
  5
2188
  8
0
 10
77.848260960130645
 20
222.68632535427409
 30
0.0
 40
10.0
 50
333.25631604959841
 51
26.743683950401589
  0
ARC
  5
2189
  8
0
 10
77.848260960130645
 20
222.68632535427409
 30
0.0
 40
10.0
 50
153.25631604959699
 51
206.74368395040091
  0
LINE
  5
218E
  8
0
 10
70.848260960130645
 20
232.68632535427409
 30
0.0
 11
84.848260960130645
 21
232.68632535427409
 31
0.0
  0
LINE
  5
2190
  8
0
 10
84.848260960130645
 20
212.68632535427409
 30
0.0
 11
70.848260960130645
 21
212.68632535427409
 31
0.0
  0
LINE
  5
2194
  8
0
 10
75.089121772030651
 20
231.68632535427409
 30
0.0
 11
78.806637093130647
 21
231.68632535427409
 31
0.0
  0
LINE
  5
2198
  8
0
 10
78.806637093130647
 20
213.68632535427409
 30
0.0
 11
75.089121772130696
 21
213.68632535427409
 31
0.0
  0
LINE
  5
219B
  8
0
 10
78.806974130330687
 20
227.18632535427409
 30
0.0
 11
75.001251463930672
 21
227.18632535427409
 31
0.0
  0
LINE
  5
219E
  8
0
 10
78.806974130330687
 20
218.18632535427409
 30
0.0
 11
75.001251463930672
 21
218.18632535427409
 31
0.0
  0
LINE
  5
21A1
  8
0
 10
68.350330700030682
 20
231.68632535427409
 30
0.0
 11
75.089121772130696
 21
231.68632535427409
 31
0.0
  0
LINE
  5
21A4
  8
0
 10
75.089121772130696
 20
213.68632535427409
 30
0.0
 11
68.350330700030682
 21
213.68632535427409
 31
0.0
  0
LINE
  5
21A6
  8
0
 10
75.001251463930672
 20
227.18632535427409
 30
0.0
 11
67.878875302730663
 21
227.18632535427409
 31
0.0
  0
LINE
  5
21A8
  8
0
 10
75.001251463930672
 20
218.18632535427409
 30
0.0
 11
67.878875302730663
 21
218.18632535427409
 31
0.0
  0
LINE
  5
21AB
  8
0
 10
90.586999021930708
 20
213.68632535427409
 30
0.0
 11
78.806637093130647
 21
213.68632535427409
 31
0.0
  0
LINE
  5
21AE
  8
0
 10
78.806637093130647
 20
231.68632535427409
 30
0.0
 11
90.586999021930708
 21
231.68632535427409
 31
0.0
  0
ARC
  5
21B1
  8
0
 10
88.765108541530665
 20
220.18252729257409
 30
0.0
 40
1.996205579085826
 50
270.10942975489849
 51
0.1090133411001293
  0
LINE
  5
21B2
  8
0
 10
90.761310507430679
 20
225.18632535427409
 30
0.0
 11
90.761310507430679
 21
220.18632535427409
 31
0.0
  0
ARC
  5
21B3
  8
0
 10
88.765108541530665
 20
225.1901234160741
 30
0.0
 40
1.9962055790857851
 50
359.89098665889992
 51
89.890570245101472
  0
CIRCLE
  5
21B4
  8
0
 10
149.5349975024306
 20
222.67182721287409
 30
0.0
 40
5.3706669673814398
  0
LINE
  5
21B5
  8
0
 10
88.768921111230668
 20
218.18632535427409
 30
0.0
 11
78.806974130330687
 21
218.18632535427409
 31
0.0
  0
LINE
  5
21B6
  8
0
 10
88.768921111230668
 20
227.18632535427409
 30
0.0
 11
78.806974130330687
 21
227.18632535427409
 31
0.0
  0
ARC
  5
21B8
  8
0
 10
87.134765256730645
 20
220.2723888399741
 30
0.0
 40
2.0882178950387891
 50
267.3971377549999
 51
357.63795169550008
  0
ARC
  5
21BA
  8
0
 10
87.134643728030653
 20
225.10012932477409
 30
0.0
 40
2.088344787046525
 50
2.365544266800395
 51
92.599366282701595
  0
POLYLINE
  5
21BE
  8
0
 66
     1
 10
0.0
 20
0.0
 30
0.0
 70
   128
  0
VERTEX
  5
2EEC
  8
0
 10
90.586999021930708
 20
213.68632535427409
 30
0.0
  0
VERTEX
  5
2EED
  8
0
 10
94.899277539830635
 20
213.80408197857409
 30
0.0
  0
VERTEX
  5
2EEE
  8
0
 10
99.188331178930653
 20
214.1548252576741
 30
0.0
  0
VERTEX
  5
2EEF
  8
0
 10
103.4318320232306
 20
214.73945477497409
 30
0.0
  0
VERTEX
  5
2EF0
  8
0
 10
107.62227272643069
 20
215.42271694377411
 30
0.0
  0
VERTEX
  5
2EF1
  8
0
 10
111.7792464399306
 20
215.8965238309741
 30
0.0
  0
VERTEX
  5
2EF2
  8
0
 10
115.9027683675306
 20
216.15036818777409
 30
0.0
  0
VERTEX
  5
2EF3
  8
0
 10
120.00247210183061
 20
216.18438097977409
 30
0.0
  0
VERTEX
  5
2EF4
  8
0
 10
125.3360401064306
 20
216.03260223867409
 30
0.0
  0
VERTEX
  5
2EF5
  8
0
 10
130.67621225223061
 20
215.69334119067409
 30
0.0
  0
VERTEX
  5
2EF6
  8
0
 10
136.0717461753307
 20
215.16174976397409
 30
0.0
  0
VERTEX
  5
2EF7
  8
0
 10
137.90982438363071
 20
214.9393175781741
 30
0.0
  0
VERTEX
  5
2EF8
  8
0
 10
139.7619033577306
 20
214.69431284647411
 30
0.0
  0
VERTEX
  5
2EF9
  8
0
 10
141.6302550930306
 20
214.42517749327411
 30
0.0
  0
VERTEX
  5
2EFA
  8
0
 10
143.5155641557306
 20
214.14154170917411
 30
0.0
  0
VERTEX
  5
2EFB
  8
0
 10
145.4130358853306
 20
213.89149505177409
 30
0.0
  0
VERTEX
  5
2EFC
  8
0
 10
147.3277458234306
 20
213.72670055847419
 30
0.0
  0
VERTEX
  5
2EFD
  8
0
 10
149.22591053220461
 20
213.6763319008632
 30
0.0
  0
SEQEND
  5
2EFE
  8
0
  0
ARC
  5
21BF
  8
0
 10
91.059082138830675
 20
162.03925864897411
 30
0.0
 40
69.648666628486666
 50
80.940005115898984
 51
90.388357431699035
  0
POLYLINE
  5
21C0
  8
0
 66
     1
 10
0.0
 20
0.0
 30
0.0
 70
   128
  0
VERTEX
  5
2EFF
  8
0
 10
114.4659519204306
 20
229.2874597212741
 30
0.0
  0
VERTEX
  5
2F00
  8
0
 10
119.37309663113059
 20
229.1831773767741
 30
0.0
  0
VERTEX
  5
2F01
  8
0
 10
124.9754373522306
 20
229.32287151477411
 30
0.0
  0
VERTEX
  5
2F02
  8
0
 10
130.5800829088306
 20
229.6714602991741
 30
0.0
  0
VERTEX
  5
2F03
  8
0
 10
136.17781462873069
 20
230.22280828017409
 30
0.0
  0
VERTEX
  5
2F04
  8
0
 10
138.8117911787306
 20
230.55052650737409
 30
0.0
  0
VERTEX
  5
2F05
  8
0
 10
141.44140591033059
 20
230.9193548513741
 30
0.0
  0
VERTEX
  5
2F06
  8
0
 10
144.0675348257306
 20
231.3125456022741
 30
0.0
  0
VERTEX
  5
2F07
  8
0
 10
146.70228026963059
 20
231.61784572397411
 30
0.0
  0
VERTEX
  5
2F08
  8
0
 10
149.1475486641892
 20
231.69330829608711
 30
0.0
  0
SEQEND
  5
2F09
  8
0
  0
LINE
  5
21C3
  8
0
 10
89.221208894530676
 20
220.18632535427409
 30
0.0
 11
89.221208894530676
 21
225.18632535427409
 31
0.0
  0
LINE
  5
21C9
  8
0
 10
67.377803552830656
 20
231.68632535427409
 30
0.0
 11
68.350330700030682
 21
231.68632535427409
 31
0.0
  0
LINE
  5
21CC
  8
0
 10
68.350330700030682
 20
213.68632535427409
 30
0.0
 11
67.377803552830656
 21
213.68632535427409
 31
0.0
  0
LINE
  5
21CE
  8
0
 10
67.878875302730663
 20
227.18632535427409
 30
0.0
 11
66.890119281130708
 21
227.18632535427409
 31
0.0
  0
LINE
  5
21D0
  8
0
 10
67.878875302730663
 20
218.18632535427409
 30
0.0
 11
66.890119281130708
 21
218.18632535427409
 31
0.0
  0
LINE
  5
21D1
  8
0
 10
66.890119281130708
 20
227.18632535427409
 30
0.0
 11
66.69153978453069
 21
227.18632535427409
 31
0.0
  0
LINE
  5
21D2
  8
0
 10
66.890119281130708
 20
218.18632535427409
 30
0.0
 11
66.69153978453069
 21
218.18632535427409
 31
0.0
  0
LINE
  5
21D5
  8
0
 10
70.348260960130631
 20
43.186325354274103
 30
0.0
 11
70.848260960130631
 21
42.686325354274103
 31
0.0
  0
LINE
  5
21D6
  8
0
 10
84.848260960130645
 20
42.686325354274103
 30
0.0
 11
85.348260960130631
 21
43.186325354274103
 31
0.0
  0
LINE
  5
21D7
  8
0
 10
70.348260960130631
 20
62.186325354274103
 30
0.0
 11
70.348260960130631
 21
61.686325354274103
 31
0.0
  0
LINE
  5
21D8
  8
0
 10
70.348260960130631
 20
43.686325354274103
 30
0.0
 11
70.348260960130631
 21
43.186325354274103
 31
0.0
  0
LINE
  5
21D9
  8
0
 10
85.348260960130631
 20
43.186325354274103
 30
0.0
 11
85.348260960130631
 21
43.686325354274103
 31
0.0
  0
LINE
  5
21DA
  8
0
 10
85.348260960130631
 20
61.686325354274103
 30
0.0
 11
85.348260960130631
 21
62.186325354274103
 31
0.0
  0
LINE
  5
21DB
  8
0
 10
85.348260960130631
 20
62.186325354274103
 30
0.0
 11
84.848260960130645
 21
62.686325354274111
 31
0.0
  0
LINE
  5
21DC
  8
0
 10
70.848260960130631
 20
62.686325354274111
 30
0.0
 11
70.348260960130631
 21
62.186325354274103
 31
0.0
  0
POLYLINE
  5
21DD
  8
0
 66
     1
 10
0.0
 20
0.0
 30
0.0
 70
   128
  0
VERTEX
  5
2F0A
  8
0
 10
149.3628322343736
 20
61.699952086846316
 30
0.0
  0
VERTEX
  5
2F0B
  8
0
 10
148.4093444329306
 20
61.62682714707411
 30
0.0
  0
VERTEX
  5
2F0C
  8
0
 10
147.26997573313059
 20
61.502169218774121
 30
0.0
  0
VERTEX
  5
2F0D
  8
0
 10
146.0440379557306
 20
61.400208847074111
 30
0.0
  0
VERTEX
  5
2F0E
  8
0
 10
144.8466212226306
 20
61.280973140974091
 30
0.0
  0
VERTEX
  5
2F0F
  8
0
 10
143.73597858503061
 20
61.135555208274099
 30
0.0
  0
VERTEX
  5
2F10
  8
0
 10
142.71554576983061
 20
60.9781671277741
 30
0.0
  0
VERTEX
  5
2F11
  8
0
 10
141.77887551533061
 20
60.8325706084741
 30
0.0
  0
VERTEX
  5
2F12
  8
0
 10
140.8175085120306
 20
60.688289345974098
 30
0.0
  0
VERTEX
  5
2F13
  8
0
 10
138.83622346773069
 20
60.407998390474098
 30
0.0
  0
VERTEX
  5
2F14
  8
0
 10
136.57225027803059
 20
60.117383622874108
 30
0.0
  0
VERTEX
  5
2F15
  8
0
 10
134.0264911446306
 20
59.830757504674111
 30
0.0
  0
VERTEX
  5
2F16
  8
0
 10
131.08499270463059
 20
59.555588662674111
 30
0.0
  0
VERTEX
  5
2F17
  8
0
 10
127.90476860953061
 20
59.33206564547411
 30
0.0
  0
VERTEX
  5
2F18
  8
0
 10
124.60546529713071
 20
59.193374823874109
 30
0.0
  0
VERTEX
  5
2F19
  8
0
 10
121.19800104823059
 20
59.129390443174103
 30
0.0
  0
VERTEX
  5
2F1A
  8
0
 10
117.6896681844306
 20
59.13794436897409
 30
0.0
  0
VERTEX
  5
2F1B
  8
0
 10
115.8930360656808
 20
59.206834959074079
 30
0.0
  0
SEQEND
  5
2F1C
  8
0
  0
POLYLINE
  5
21E1
  8
0
 66
     1
 10
0.0
 20
0.0
 30
0.0
 70
   128
  0
VERTEX
  5
2F1D
  8
0
 10
66.690394678430664
 20
44.186325354274103
 30
0.0
  0
VERTEX
  5
2F1E
  8
0
 10
66.699558982230656
 20
44.095069803574098
 30
0.0
  0
VERTEX
  5
2F1F
  8
0
 10
66.70474085923064
 20
44.071733914774093
 30
0.0
  0
VERTEX
  5
2F20
  8
0
 10
66.711046158030683
 20
44.0483468892741
 30
0.0
  0
VERTEX
  5
2F21
  8
0
 10
66.718447680630618
 20
44.024996907974099
 30
0.0
  0
VERTEX
  5
2F22
  8
0
 10
66.722553054530692
 20
44.013364525074088
 30
0.0
  0
VERTEX
  5
2F23
  8
0
 10
66.726926821830659
 20
44.001776299574097
 30
0.0
  0
VERTEX
  5
2F24
  8
0
 10
66.736485838130648
 20
43.978780573774102
 30
0.0
  0
VERTEX
  5
2F25
  8
0
 10
66.747162169330693
 20
43.956107322874097
 30
0.0
  0
VERTEX
  5
2F26
  8
0
 10
66.772292846930654
 20
43.912121702874103
 30
0.0
  0
VERTEX
  5
2F27
  8
0
 10
66.844813371830639
 20
43.832240595274087
 30
0.0
  0
VERTEX
  5
2F28
  8
0
 10
66.966788029330644
 20
43.767467869374101
 30
0.0
  0
VERTEX
  5
2F29
  8
0
 10
67.162371939030663
 20
43.721257917674109
 30
0.0
  0
VERTEX
  5
2F2A
  8
0
 10
67.447048748130655
 20
43.69462954207409
 30
0.0
  0
VERTEX
  5
2F2B
  8
0
 10
67.82218269363068
 20
43.686325354274103
 30
0.0
  0
SEQEND
  5
2F2C
  8
0
  0
POLYLINE
  5
21E2
  8
0
 66
     1
 10
0.0
 20
0.0
 30
0.0
 70
   128
  0
VERTEX
  5
2F2D
  8
0
 10
67.82218269363068
 20
61.686325354274103
 30
0.0
  0
VERTEX
  5
2F2E
  8
0
 10
67.337824694130688
 20
61.678116861174097
 30
0.0
  0
VERTEX
  5
2F2F
  8
0
 10
67.05234230323066
 20
61.651763820674091
 30
0.0
  0
VERTEX
  5
2F30
  8
0
 10
66.971498651130673
 20
61.631276904874099
 30
0.0
  0
VERTEX
  5
2F31
  8
0
 10
66.918443393530652
 20
61.605898478274092
 30
0.0
  0
VERTEX
  5
2F32
  8
0
 10
66.881811993430631
 20
61.57580502107411
 30
0.0
  0
VERTEX
  5
2F33
  8
0
 10
66.852548922430685
 20
61.541342408774113
 30
0.0
  0
VERTEX
  5
2F34
  8
0
 10
66.825479706930651
 20
61.503012899574109
 30
0.0
  0
VERTEX
  5
2F35
  8
0
 10
66.812006676430656
 20
61.482591498674111
 30
0.0
  0
VERTEX
  5
2F36
  8
0
 10
66.805242459030637
 20
61.472104594874097
 30
0.0
  0
VERTEX
  5
2F37
  8
0
 10
66.798462772030632
 20
61.461448912874097
 30
0.0
  0
VERTEX
  5
2F38
  8
0
 10
66.791677171230674
 20
61.450636299074112
 30
0.0
  0
VERTEX
  5
2F39
  8
0
 10
66.784900163530665
 20
61.439678810774097
 30
0.0
  0
VERTEX
  5
2F3A
  8
0
 10
66.778150497830666
 20
61.428588673274092
 30
0.0
  0
VERTEX
  5
2F3B
  8
0
 10
66.771450485830655
 20
61.417378235974091
 30
0.0
  0
VERTEX
  5
2F3C
  8
0
 10
66.758302628730632
 20
61.39464622067409
 30
0.0
  0
VERTEX
  5
2F3D
  8
0
 10
66.745682494930634
 20
61.371582408174092
 30
0.0
  0
VERTEX
  5
2F3E
  8
0
 10
66.705324412430684
 20
61.277951347574103
 30
0.0
  0
VERTEX
  5
2F3F
  8
0
 10
66.690394678430664
 20
61.186325354274103
 30
0.0
  0
SEQEND
  5
2F40
  8
0
  0
LINE
  5
21E3
  8
0
 10
66.690394678230632
 20
48.186325354274103
 30
0.0
 11
66.690394678230632
 21
44.186325354274103
 31
0.0
  0
LINE
  5
21E4
  8
0
 10
66.690394678230632
 20
61.186325354274103
 30
0.0
 11
66.690394678230632
 21
57.186325354274103
 31
0.0
  0
CIRCLE
  5
21EB
  8
0
 10
77.848260960130631
 20
52.686325354274111
 30
0.0
 40
10.0
  0
LINE
  5
21EF
  8
0
 10
84.848260960130645
 20
42.686325354274103
 30
0.0
 11
70.848260960130631
 21
42.686325354274103
 31
0.0
  0
LINE
  5
21F7
  8
0
 10
70.848260960130631
 20
62.686325354274111
 30
0.0
 11
84.848260960130645
 21
62.686325354274111
 31
0.0
  0
ARC
  5
21F9
  8
0
 10
149.3234949581306
 20
52.695290013374098
 30
0.0
 40
9.0047479964034061
 50
359.94295929000032
 51
89.749702370800705
  0
POLYLINE
  5
21FB
  8
0
 66
     1
 10
0.0
 20
0.0
 30
0.0
 70
   128
  0
VERTEX
  5
2F41
  8
0
 10
89.221208894130655
 20
60.186666160574092
 30
0.0
  0
VERTEX
  5
2F42
  8
0
 10
91.109395245830626
 20
60.092321580274103
 30
0.0
  0
VERTEX
  5
2F43
  8
0
 10
93.117618060030665
 20
59.896385456974102
 30
0.0
  0
VERTEX
  5
2F44
  8
0
 10
95.224406256030647
 20
59.604857883574113
 30
0.0
  0
VERTEX
  5
2F45
  8
0
 10
97.408288753330623
 20
59.223738952374092
 30
0.0
  0
VERTEX
  5
2F46
  8
0
 10
99.648466668830622
 20
58.762632899874092
 30
0.0
  0
VERTEX
  5
2F47
  8
0
 10
101.9268299090307
 20
58.245560537974121
 30
0.0
  0
VERTEX
  5
2F48
  8
0
 10
104.2259083663306
 20
57.700099312074109
 30
0.0
  0
VERTEX
  5
2F49
  8
0
 10
106.5310447595306
 20
57.15268223317409
 30
0.0
  0
VERTEX
  5
2F4A
  8
0
 10
109.99872330263059
 20
56.382632570474122
 30
0.0
  0
VERTEX
  5
2F4B
  8
0
 10
113.4901316829306
 20
55.737306427374087
 30
0.0
  0
VERTEX
  5
2F4C
  8
0
 10
117.0096812560306
 20
55.279866701474099
 30
0.0
  0
VERTEX
  5
2F4D
  8
0
 10
120.5583916180306
 20
55.081220909474112
 30
0.0
  0
VERTEX
  5
2F4E
  8
0
 10
121.7498498279306
 20
55.085653502274099
 30
0.0
  0
VERTEX
  5
2F4F
  8
0
 10
122.9502283734306
 20
55.130015928074101
 30
0.0
  0
VERTEX
  5
2F50
  8
0
 10
124.17309943983059
 20
55.215745924474113
 30
0.0
  0
VERTEX
  5
2F51
  8
0
 10
125.4052578589306
 20
55.338840842074113
 30
0.0
  0
VERTEX
  5
2F52
  8
0
 10
126.9847064422306
 20
55.537764285374102
 30
0.0
  0
VERTEX
  5
2F53
  8
0
 10
128.50419162143061
 20
55.7662068182741
 30
0.0
  0
VERTEX
  5
2F54
  8
0
 10
130.06614610253069
 20
56.034045683274101
 30
0.0
  0
VERTEX
  5
2F55
  8
0
 10
131.65990805333061
 20
56.33281465397409
 30
0.0
  0
VERTEX
  5
2F56
  8
0
 10
133.27452331563069
 20
56.653223599274099
 30
0.0
  0
VERTEX
  5
2F57
  8
0
 10
134.90270589203061
 20
56.985123065374111
 30
0.0
  0
VERTEX
  5
2F58
  8
0
 10
137.36244043543061
 20
57.480418688374101
 30
0.0
  0
VERTEX
  5
2F59
  8
0
 10
139.8325908093307
 20
57.939504595574093
 30
0.0
  0
VERTEX
  5
2F5A
  8
0
 10
142.30130290683061
 20
58.325092184474101
 30
0.0
  0
VERTEX
  5
2F5B
  8
0
 10
144.80913556373059
 20
58.595162297574099
 30
0.0
  0
VERTEX
  5
2F5C
  8
0
 10
146.47110017593059
 20
58.672102030374099
 30
0.0
  0
VERTEX
  5
2F5D
  8
0
 10
147.97999728313059
 20
58.634617229774094
 30
0.0
  0
VERTEX
  5
2F5E
  8
0
 10
149.30334047823061
 20
58.490496061674087
 30
0.0
  0
VERTEX
  5
2F5F
  8
0
 10
150.2523765181306
 20
58.308530341374109
 30
0.0
  0
VERTEX
  5
2F60
  8
0
 10
151.1903323912307
 20
58.058213079374099
 30
0.0
  0
VERTEX
  5
2F61
  8
0
 10
152.1043740228306
 20
57.740095545674102
 30
0.0
  0
VERTEX
  5
2F62
  8
0
 10
152.97856642613061
 20
57.355566550174103
 30
0.0
  0
VERTEX
  5
2F63
  8
0
 10
153.7994621760306
 20
56.907141625574098
 30
0.0
  0
VERTEX
  5
2F64
  8
0
 10
154.56356409313059
 20
56.401843195074107
 30
0.0
  0
VERTEX
  5
2F65
  8
0
 10
155.91794945073059
 20
55.2536565127741
 30
0.0
  0
VERTEX
  5
2F66
  8
0
 10
157.04808139823061
 20
53.9866183968741
 30
0.0
  0
VERTEX
  5
2F67
  8
0
 10
157.97415318453059
 20
52.686325354274111
 30
0.0
  0
SEQEND
  5
2F68
  8
0
  0
POLYLINE
  5
21FD
  8
0
 66
     1
 10
0.0
 20
0.0
 30
0.0
 70
   128
  0
VERTEX
  5
2F69
  8
0
 10
89.221208894530676
 20
45.185984547974101
 30
0.0
  0
VERTEX
  5
2F6A
  8
0
 10
91.080607397630658
 20
45.278162411174101
 30
0.0
  0
VERTEX
  5
2F6B
  8
0
 10
93.056233709330684
 20
45.466652761874101
 30
0.0
  0
VERTEX
  5
2F6C
  8
0
 10
95.126836767630664
 20
45.747272554974103
 30
0.0
  0
VERTEX
  5
2F6D
  8
0
 10
97.271165510830656
 20
46.1158387454741
 30
0.0
  0
VERTEX
  5
2F6E
  8
0
 10
99.468709211030685
 20
46.564361812674107
 30
0.0
  0
VERTEX
  5
2F6F
  8
0
 10
101.7019184760307
 20
47.069626333274087
 30
0.0
  0
VERTEX
  5
2F70
  8
0
 10
103.9531704416307
 20
47.604713215474099
 30
0.0
  0
VERTEX
  5
2F71
  8
0
 10
106.2058500789306
 20
48.14353917107411
 30
0.0
  0
VERTEX
  5
2F72
  8
0
 10
109.57293923293059
 20
48.902838982874101
 30
0.0
  0
VERTEX
  5
2F73
  8
0
 10
112.9525023621307
 20
49.548817845774089
 30
0.0
  0
VERTEX
  5
2F74
  8
0
 10
116.3534427782306
 20
50.024257232274103
 30
0.0
  0
VERTEX
  5
2F75
  8
0
 10
117.9612731338306
 20
50.17270714727411
 30
0.0
  0
VERTEX
  5
2F76
  8
0
 10
119.56935596003071
 20
50.264505678074102
 30
0.0
  0
VERTEX
  5
2F77
  8
0
 10
121.17752414293069
 20
50.293318382874112
 30
0.0
  0
VERTEX
  5
2F78
  8
0
 10
122.7998947919306
 20
50.250325429774101
 30
0.0
  0
VERTEX
  5
2F79
  8
0
 10
124.4166799116306
 20
50.135625680974101
 30
0.0
  0
VERTEX
  5
2F7A
  8
0
 10
125.8433865867306
 20
49.983309044574099
 30
0.0
  0
VERTEX
  5
2F7B
  8
0
 10
127.20877719023061
 20
49.803495251374102
 30
0.0
  0
VERTEX
  5
2F7C
  8
0
 10
128.5452132342306
 20
49.599786798174101
 30
0.0
  0
VERTEX
  5
2F7D
  8
0
 10
129.91494962793061
 20
49.366328445774101
 30
0.0
  0
VERTEX
  5
2F7E
  8
0
 10
131.3100282428307
 20
49.107561805774097
 30
0.0
  0
VERTEX
  5
2F7F
  8
0
 10
132.7210309906306
 20
48.829911679174103
 30
0.0
  0
VERTEX
  5
2F80
  8
0
 10
134.14496829383069
 20
48.540740057974112
 30
0.0
  0
VERTEX
  5
2F81
  8
0
 10
136.7848663735306
 20
48.004589637174099
 30
0.0
  0
VERTEX
  5
2F82
  8
0
 10
139.44721234173059
 20
47.500005718774098
 30
0.0
  0
VERTEX
  5
2F83
  8
0
 10
142.11249749423069
 20
47.073571437174088
 30
0.0
  0
VERTEX
  5
2F84
  8
0
 10
144.37586879253061
 20
46.810900312974098
 30
0.0
  0
VERTEX
  5
2F85
  8
0
 10
146.63051352453061
 20
46.698588406974103
 30
0.0
  0
VERTEX
  5
2F86
  8
0
 10
148.11056065843059
 20
46.747245865074099
 30
0.0
  0
VERTEX
  5
2F87
  8
0
 10
149.5719812729306
 20
46.926357011974098
 30
0.0
  0
VERTEX
  5
2F88
  8
0
 10
151.05393231183061
 20
47.273705804274101
 30
0.0
  0
VERTEX
  5
2F89
  8
0
 10
152.16108817843059
 20
47.655704083674109
 30
0.0
  0
VERTEX
  5
2F8A
  8
0
 10
153.2288654089306
 20
48.1443409845741
 30
0.0
  0
VERTEX
  5
2F8B
  8
0
 10
154.2279327671306
 20
48.737945706674097
 30
0.0
  0
VERTEX
  5
2F8C
  8
0
 10
155.14849916373061
 20
49.424473914474099
 30
0.0
  0
VERTEX
  5
2F8D
  8
0
 10
156.2417802318306
 20
50.453452560674108
 30
0.0
  0
VERTEX
  5
2F8E
  8
0
 10
157.18115536863061
 20
51.559164458274097
 30
0.0
  0
VERTEX
  5
2F8F
  8
0
 10
157.97415318453059
 20
52.686325354274111
 30
0.0
  0
SEQEND
  5
2F90
  8
0
  0
ARC
  5
21FE
  8
0
 10
149.31999349423069
 20
52.680843427074088
 30
0.0
 40
9.0082466659141165
 50
270.27247124839943
 51
0.0348670858003041
  0
LINE
  5
2202
  8
0
 10
89.221208894530676
 20
55.186325354274111
 30
0.0
 11
89.221208894530676
 21
50.186325354274111
 31
0.0
  0
ARC
  5
220A
  8
0
 10
85.714557859330682
 20
44.132332476574099
 30
0.0
 40
0.4517236843500089
 50
279.1248918603996
 51
6.8647669875005057
  0
ARC
  5
220C
  8
0
 10
85.714557859330682
 20
61.240318231974101
 30
0.0
 40
0.4517236843500276
 50
353.1352330124995
 51
80.875108139600385
  0
LINE
  5
2213
  8
0
 10
73.489362016589951
 20
43.686325354274082
 30
0.0
 11
67.805050550930673
 21
43.686325354274103
 31
0.0
  0
LINE
  5
2215
  8
0
 10
67.805050550930673
 20
61.686325354274103
 30
0.0
 11
73.489362016589951
 21
61.686325354274118
 31
0.0
  0
POLYLINE
  5
2216
  8
0
 66
     1
 10
0.0
 20
0.0
 30
0.0
 70
   128
  0
VERTEX
  5
2F91
  8
0
 10
89.221208894530676
 20
60.186666160574092
 30
0.0
  0
VERTEX
  5
2F92
  8
0
 10
88.811169397630636
 20
60.229294105174098
 30
0.0
  0
VERTEX
  5
2F93
  8
0
 10
88.408679883230676
 20
60.342575355474111
 30
0.0
  0
VERTEX
  5
2F94
  8
0
 10
88.013937160530645
 20
60.502731600674089
 30
0.0
  0
VERTEX
  5
2F95
  8
0
 10
87.627134234830635
 20
60.686325355174098
 30
0.0
  0
VERTEX
  5
2F96
  8
0
 10
87.248460255030636
 20
60.869919106874107
 30
0.0
  0
VERTEX
  5
2F97
  8
0
 10
86.878100387430663
 20
61.030075344674117
 30
0.0
  0
VERTEX
  5
2F98
  8
0
 10
86.496409111430637
 20
61.147255538874099
 30
0.0
  0
VERTEX
  5
2F99
  8
0
 10
86.163043150330665
 20
61.186325354274103
 30
0.0
  0
SEQEND
  5
2F9A
  8
0
  0
LINE
  5
2217
  8
0
 10
82.207159903671297
 20
61.686325354274103
 30
0.0
 11
89.397621881830673
 21
61.686325354274103
 31
0.0
  0
POLYLINE
  5
2218
  8
0
 66
     1
 10
0.0
 20
0.0
 30
0.0
 70
   128
  0
VERTEX
  5
2F9B
  8
0
 10
86.163043150330665
 20
44.186325354274103
 30
0.0
  0
VERTEX
  5
2F9C
  8
0
 10
86.496397526430655
 20
44.225395169174099
 30
0.0
  0
VERTEX
  5
2F9D
  8
0
 10
86.878100387430663
 20
44.342575363974099
 30
0.0
  0
VERTEX
  5
2F9E
  8
0
 10
87.248460255030636
 20
44.5027316016741
 30
0.0
  0
VERTEX
  5
2F9F
  8
0
 10
87.627134234830635
 20
44.686325353374102
 30
0.0
  0
VERTEX
  5
2FA0
  8
0
 10
88.013937160530645
 20
44.86991910787409
 30
0.0
  0
VERTEX
  5
2FA1
  8
0
 10
88.408679883230676
 20
45.03007535307411
 30
0.0
  0
VERTEX
  5
2FA2
  8
0
 10
88.811169397630636
 20
45.143356603374102
 30
0.0
  0
VERTEX
  5
2FA3
  8
0
 10
89.221208894530676
 20
45.185984547974101
 30
0.0
  0
SEQEND
  5
2FA4
  8
0
  0
LINE
  5
2219
  8
0
 10
89.397621881830673
 20
43.686325354274103
 30
0.0
 11
82.207159903671297
 21
43.686325354274103
 31
0.0
  0
ARC
  5
221A
  8
0
 10
87.134765256730645
 20
55.100261868574108
 30
0.0
 40
2.0882178950388028
 50
2.3620483044998482
 51
92.602862245000054
  0
LINE
  5
221B
  8
0
 10
86.778546509830619
 20
57.186325354274103
 30
0.0
 11
87.039933242430664
 21
57.186325354274103
 31
0.0
  0
ARC
  5
221C
  8
0
 10
87.134643728030639
 20
50.272521383774098
 30
0.0
 40
2.088344787046486
 50
267.40063371730167
 51
357.63445573319962
  0
LINE
  5
221D
  8
0
 10
86.778546509830619
 20
48.186325354274103
 30
0.0
 11
87.039933242430664
 21
48.186325354274103
 31
0.0
  0
POLYLINE
  5
221E
  8
0
 66
     1
 10
0.0
 20
0.0
 30
0.0
 70
   128
  0
VERTEX
  5
2FA5
  8
0
 10
90.586999021930694
 20
61.686325354274103
 30
0.0
  0
VERTEX
  5
2FA6
  8
0
 10
94.899277539830621
 20
61.568568730074098
 30
0.0
  0
VERTEX
  5
2FA7
  8
0
 10
99.188331178930653
 20
61.217825450974097
 30
0.0
  0
VERTEX
  5
2FA8
  8
0
 10
103.4318320232306
 20
60.6331959335741
 30
0.0
  0
VERTEX
  5
2FA9
  8
0
 10
107.62227272643059
 20
59.949933764774102
 30
0.0
  0
VERTEX
  5
2FAA
  8
0
 10
111.7792464399306
 20
59.476126877574103
 30
0.0
  0
VERTEX
  5
2FAB
  8
0
 10
115.8930360656806
 20
59.206834959074101
 30
0.0
  0
SEQEND
  5
2FAC
  8
0
  0
LINE
  5
2220
  8
0
 10
89.397621881830673
 20
61.686325354274103
 30
0.0
 11
90.586999021930694
 21
61.686325354274103
 31
0.0
  0
LINE
  5
2225
  8
0
 10
66.70344626393063
 20
48.186325354274103
 30
0.0
 11
68.91797541038477
 21
48.186325354274103
 31
0.0
  0
LINE
  5
2226
  8
0
 10
66.70344626393063
 20
57.186325354274103
 30
0.0
 11
68.91797541038477
 21
57.186325354274103
 31
0.0
  0
LINE
  5
2229
  8
0
 10
86.163043150330665
 20
47.130751834874097
 30
0.0
 11
86.163043150330665
 21
44.186325354274103
 31
0.0
  0
LINE
  5
222A
  8
0
 10
86.163043150330665
 20
61.186325354274103
 30
0.0
 11
86.163043150330665
 21
58.241898873674103
 31
0.0
  0
POLYLINE
  5
23E0
  8
0
 66
     1
 10
0.0
 20
0.0
 30
0.0
 70
   128
  0
VERTEX
  5
2FAD
  8
0
 10
122.9646680578321
 20
163.26241141106459
 30
0.0
  0
VERTEX
  5
2FAE
  8
0
 10
124.17309943983059
 20
163.24475273707409
 30
0.0
  0
VERTEX
  5
2FAF
  8
0
 10
125.4052578589306
 20
163.42010813967411
 30
0.0
  0
VERTEX
  5
2FB0
  8
0
 10
126.9847064422307
 20
163.94573963677411
 30
0.0
  0
VERTEX
  5
2FB1
  8
0
 10
128.4258613436306
 20
164.56330244657411
 30
0.0
  0
SEQEND
  5
2FB2
  8
0
  0
LINE
  5
2491
  8
1
 10
62.848260960130631
 20
52.686325354274111
 30
0.0
 11
163.32824008532421
 21
52.686325354274111
 31
0.0
  0
LINE
  5
2492
  8
1
 10
77.848260960130631
 20
65.186325354274103
 30
0.0
 11
77.848260960130631
 21
40.186325354274111
 31
0.0
  0
POLYLINE
  5
2494
  8
0
 66
     1
 10
0.0
 20
0.0
 30
0.0
 70
   128
  0
VERTEX
  5
2FB3
  8
0
 10
149.3628322343736
 20
43.672698621701883
 30
0.0
  0
VERTEX
  5
2FB4
  8
0
 10
148.4093444329306
 20
43.74582356147409
 30
0.0
  0
VERTEX
  5
2FB5
  8
0
 10
147.26997573313059
 20
43.870481489774093
 30
0.0
  0
VERTEX
  5
2FB6
  8
0
 10
146.0440379557306
 20
43.972441861474103
 30
0.0
  0
VERTEX
  5
2FB7
  8
0
 10
144.8466212226306
 20
44.091677567574109
 30
0.0
  0
VERTEX
  5
2FB8
  8
0
 10
143.73597858503061
 20
44.237095500274101
 30
0.0
  0
VERTEX
  5
2FB9
  8
0
 10
142.71554576983061
 20
44.3944835807741
 30
0.0
  0
VERTEX
  5
2FBA
  8
0
 10
141.77887551533061
 20
44.5400801000741
 30
0.0
  0
VERTEX
  5
2FBB
  8
0
 10
140.8175085120306
 20
44.684361362574109
 30
0.0
  0
VERTEX
  5
2FBC
  8
0
 10
138.83622346773069
 20
44.964652318074101
 30
0.0
  0
VERTEX
  5
2FBD
  8
0
 10
136.57225027803059
 20
45.255267085674092
 30
0.0
  0
VERTEX
  5
2FBE
  8
0
 10
134.0264911446306
 20
45.541893203874089
 30
0.0
  0
VERTEX
  5
2FBF
  8
0
 10
131.08499270463059
 20
45.817062045874088
 30
0.0
  0
VERTEX
  5
2FC0
  8
0
 10
127.90476860953061
 20
46.04058506307409
 30
0.0
  0
VERTEX
  5
2FC1
  8
0
 10
124.60546529713071
 20
46.179275884674091
 30
0.0
  0
VERTEX
  5
2FC2
  8
0
 10
121.19800104823059
 20
46.243260265374097
 30
0.0
  0
VERTEX
  5
2FC3
  8
0
 10
117.6896681844306
 20
46.234706339574117
 30
0.0
  0
VERTEX
  5
2FC4
  8
0
 10
115.8930360656808
 20
46.16581574947412
 30
0.0
  0
SEQEND
  5
2FC5
  8
0
  0
POLYLINE
  5
2495
  8
0
 66
     1
 10
0.0
 20
0.0
 30
0.0
 70
   128
  0
VERTEX
  5
2FC6
  8
0
 10
90.586999021930694
 20
43.686325354274103
 30
0.0
  0
VERTEX
  5
2FC7
  8
0
 10
94.899277539830621
 20
43.804081978474102
 30
0.0
  0
VERTEX
  5
2FC8
  8
0
 10
99.188331178930653
 20
44.154825257574103
 30
0.0
  0
VERTEX
  5
2FC9
  8
0
 10
103.4318320232306
 20
44.739454774974106
 30
0.0
  0
VERTEX
  5
2FCA
  8
0
 10
107.62227272643059
 20
45.422716943774113
 30
0.0
  0
VERTEX
  5
2FCB
  8
0
 10
111.7792464399306
 20
45.896523830974097
 30
0.0
  0
VERTEX
  5
2FCC
  8
0
 10
115.8930360656806
 20
46.165815749474099
 30
0.0
  0
SEQEND
  5
2FCD
  8
0
  0
LINE
  5
2496
  8
0
 10
89.397621881830673
 20
43.686325354274103
 30
0.0
 11
90.586999021930694
 21
43.686325354274103
 31
0.0
  0
LINE
  5
2524
  8
1
 10
62.848260960130638
 20
222.68632535427409
 30
0.0
 11
163.31825291605301
 21
222.68632535427409
 31
0.0
  0
LINE
  5
2525
  8
1
 10
77.848260960130645
 20
235.18632535427409
 30
0.0
 11
77.848260960130645
 21
210.18632535427409
 31
0.0
  0
LINE
  5
2527
  8
1
 10
87.848260960130645
 20
167.2069628328741
 30
0.0
 11
67.848260960130645
 21
167.2069628328741
 31
0.0
  0
LINE
  5
2528
  8
1
 10
77.848260960130645
 20
95.207546196674116
 30
0.0
 11
77.848260960130645
 21
183.08122797791711
 31
0.0
  0
LINE
  5
2765
  8
0
 10
19.088575659729582
 20
175.95696283297411
 30
0.0
 11
19.088575659729582
 21
174.00993807931789
 31
0.0
  0
LINE
  5
2766
  8
0
 10
19.088575659729582
 20
160.40458156649399
 30
0.0
 11
19.088575659729582
 21
159.70696283297411
 31
0.0
  0
LINE
  5
2767
  8
0
 10
27.088575659729589
 20
159.70696283297411
 30
0.0
 11
27.088575659729582
 21
160.4050872395629
 31
0.0
  0
LINE
  5
2768
  8
0
 10
27.088575659729589
 20
174.00883238862991
 30
0.0
 11
27.088575659729589
 21
175.95696283297411
 31
0.0
  0
LINE
  5
276D
  8
0
 10
19.838575659729582
 20
176.70696283297411
 30
0.0
 11
19.088575659729582
 21
175.95696283297411
 31
0.0
  0
LINE
  5
276E
  8
0
 10
27.088575659729589
 20
175.95696283297411
 30
0.0
 11
26.338575659729589
 21
176.70696283297411
 31
0.0
  0
LINE
  5
276F
  8
0
 10
19.38857565972959
 20
159.70696283297411
 30
0.0
 11
19.38857565972959
 21
157.20696283297411
 31
0.0
  0
LINE
  5
2770
  8
0
 10
26.788575659729581
 20
157.20696283297411
 30
0.0
 11
26.788575659729581
 21
159.70696283297411
 31
0.0
  0
LINE
  5
2771
  8
0
 10
19.53857565972957
 20
157.20696283297411
 30
0.0
 11
19.53857565972957
 21
155.20754619667409
 31
0.0
  0
LINE
  5
2772
  8
0
 10
26.6385756597296
 20
155.20754619667409
 30
0.0
 11
26.6385756597296
 21
157.20696283297411
 31
0.0
  0
LINE
  5
2784
  8
0
 10
19.088575659729582
 20
159.70696283297411
 30
0.0
 11
27.088575659729589
 21
159.70696283297411
 31
0.0
  0
LINE
  5
2785
  8
0
 10
27.088575659729582
 20
175.95696283297411
 30
0.0
 11
19.088575659729582
 21
175.95696283297411
 31
0.0
  0
LINE
  5
278C
  8
0
 10
19.838575659729582
 20
176.70696283297411
 30
0.0
 11
26.338575659729571
 21
176.70696283297411
 31
0.0
  0
LINE
  5
2790
  8
0
 10
19.38857565972959
 20
157.20696283297411
 30
0.0
 11
26.788575659729581
 21
157.20696283297411
 31
0.0
  0
ARC
  5
2797
  8
0
 10
23.090160853229591
 20
185.4787302670741
 30
0.0
 40
12.146846434642059
 50
248.2475577208003
 51
291.73634220960002
  0
ARC
  5
2798
  8
0
 10
23.089300656129598
 20
148.93502998257409
 30
0.0
 40
12.14728010844485
 50
68.260105357700184
 51
111.74725778760001
  0
ARC
  5
27F1
  8
0
 10
77.848260960130645
 20
222.68632535427409
 30
0.0
 40
3.2500000000000289
 50
281.53695903279981
 51
78.463040967200143
  0
ARC
  5
27F5
  8
0
 10
77.848260960130645
 20
222.68632535427409
 30
0.0
 40
3.2500000000000289
 50
101.5369590327998
 51
258.46304096720019
  0
LINE
  5
27F9
  8
0
 10
78.498260960130651
 20
218.73949117990091
 30
0.0
 11
78.498260960130651
 21
226.6331595286473
 31
0.0
  0
LINE
  5
27FA
  8
0
 10
77.198260960130639
 20
226.6331595286473
 30
0.0
 11
77.198260960130639
 21
218.73949117990091
 31
0.0
  0
CIRCLE
  5
2840
  8
0
 10
77.848260960130645
 20
222.68632535427409
 30
0.0
 40
4.0000000000000027
  0
LINE
  5
284E
  8
3
 10
26.41485530702543
 20
159.70696283297411
 30
0.0
 11
26.41485530702543
 21
160.61822733162731
 31
0.0
  0
LINE
  5
284F
  8
3
 10
19.762296012433708
 20
159.70696283297411
 30
0.0
 11
19.762296012433708
 21
160.61781450227861
 31
0.0
  0
LINE
  5
2850
  8
3
 10
19.762296012433708
 20
173.7966416734975
 30
0.0
 11
19.762296012433708
 21
176.63068318567821
 31
0.0
  0
LINE
  5
2851
  8
3
 10
26.41485530702543
 20
173.79573899361699
 30
0.0
 11
26.41485530702543
 21
176.63068318567821
 31
0.0
  0
LINE
  5
2854
  8
0
 10
73.848260960130645
 20
101.45754618623199
 30
0.0
 11
75.098260960130645
 21
100.20754618623199
 31
0.0
  0
LINE
  5
2855
  8
0
 10
80.598260960130645
 20
100.20754618623199
 30
0.0
 11
81.848260960130645
 21
101.45754618623199
 31
0.0
  0
LINE
  5
2858
  8
0
 10
74.297809184052753
 20
155.82702862941269
 30
0.0
 11
74.297809184052738
 21
155.20754619667409
 31
0.0
  0
LINE
  5
285A
  8
0
 10
73.848260960130645
 20
101.45754618623199
 30
0.0
 11
81.848260960130645
 21
101.45754618623199
 31
0.0
  0
LINE
  5
285B
  8
0
 10
80.598260960130645
 20
100.20754618623199
 30
0.0
 11
75.098260960130645
 21
100.20754618623199
 31
0.0
  0
LINE
  5
2863
  8
0
 10
199.3881238836517
 20
159.14732281301539
 30
0.0
 11
199.3881238836517
 21
157.20696283297411
 31
0.0
  0
LINE
  5
2864
  8
0
 10
206.78812388365171
 20
157.20696283297411
 30
0.0
 11
206.78812388365171
 21
159.15372066270359
 31
0.0
  0
LINE
  5
2865
  8
0
 10
199.53812388365171
 20
157.20696283297411
 30
0.0
 11
199.53812388365171
 21
155.20754619667409
 31
0.0
  0
LINE
  5
2866
  8
0
 10
206.6381238836517
 20
155.20754619667409
 30
0.0
 11
206.6381238836517
 21
157.20696283297411
 31
0.0
  0
LINE
  5
2869
  8
0
 10
199.3881238836517
 20
157.20696283297411
 30
0.0
 11
206.78812388365171
 21
157.20696283297411
 31
0.0
  0
CIRCLE
  5
286E
  8
3
 10
77.848260960130631
 20
52.686325354274111
 30
0.0
 40
3.3262796472958658
  0
CIRCLE
  5
286F
  8
0
 10
77.848260960130631
 20
52.686325354274111
 30
0.0
 40
4.0
  0
ARC
  5
2870
  8
3
 10
77.848180174546314
 20
222.68632535427409
 30
0.0
 40
3.3262796472958658
 50
101.26746213555001
 51
258.73253786445002
  0
ARC
  5
2871
  8
3
 10
77.848180174546314
 20
222.68632535427409
 30
0.0
 40
3.3262796472958658
 50
281.27029993887328
 51
78.729700061126792
  0
LINE
  5
29F7
  8
1
 10
190.58857565972951
 20
167.2069628328741
 30
0.0
 11
215.5885756597296
 21
167.2069628328741
 31
0.0
  0
LINE
  5
29FC
  8
1
 10
203.0885756597296
 20
183.08122797791711
 30
0.0
 11
203.0885756597296
 21
95.207546196674116
 31
0.0
  0
LINE
  5
29FD
  8
1
 10
10.58857565972955
 20
167.2069628328741
 30
0.0
 11
35.588575659729557
 21
167.2069628328741
 31
0.0
  0
LINE
  5
2A04
  8
1
 10
23.088575659729582
 20
183.08122797791711
 30
0.0
 11
23.088575659729582
 21
95.207546196674116
 31
0.0
  0
LINE
  5
2A07
  8
0
 10
73.848260960130631
 20
101.45754618623199
 30
0.0
 11
73.848260960130631
 21
152.20754619667409
 31
0.0
  0
LINE
  5
2A08
  8
3
 10
74.521981312834768
 20
100.7838258335279
 30
0.0
 11
74.521981312834768
 21
152.20754619667409
 31
0.0
  0
LINE
  5
2A09
  8
3
 10
81.174540607426493
 20
100.7838258335278
 30
0.0
 11
81.174540607426493
 21
152.20754619667409
 31
0.0
  0
LINE
  5
2A0A
  8
0
 10
81.848260960130631
 20
101.45754618623189
 30
0.0
 11
81.848260960130631
 21
152.20754619667409
 31
0.0
  0
LINE
  5
2A13
  8
0
 10
19.088575659729582
 20
101.45754618623199
 30
0.0
 11
20.338575659729582
 21
100.20754618623199
 31
0.0
  0
LINE
  5
2A14
  8
0
 10
25.838575659729589
 20
100.20754618623199
 30
0.0
 11
27.088575659729589
 21
101.45754618623199
 31
0.0
  0
LINE
  5
2A15
  8
0
 10
19.088575659729582
 20
101.45754618623199
 30
0.0
 11
27.088575659729589
 21
101.45754618623199
 31
0.0
  0
LINE
  5
2A16
  8
0
 10
25.838575659729589
 20
100.20754618623199
 30
0.0
 11
20.338575659729582
 21
100.20754618623199
 31
0.0
  0
LINE
  5
2A17
  8
0
 10
19.088575659729571
 20
101.45754618623199
 30
0.0
 11
19.088575659729571
 21
152.20754619667409
 31
0.0
  0
LINE
  5
2A18
  8
3
 10
19.762296012433708
 20
100.7838258335279
 30
0.0
 11
19.762296012433708
 21
152.20754619667409
 31
0.0
  0
LINE
  5
2A19
  8
3
 10
26.41485530702543
 20
100.7838258335278
 30
0.0
 11
26.41485530702543
 21
152.20754619667409
 31
0.0
  0
LINE
  5
2A1A
  8
0
 10
27.088575659729571
 20
101.45754618623189
 30
0.0
 11
27.088575659729571
 21
152.20754619667409
 31
0.0
  0
LINE
  5
2A1B
  8
0
 10
199.0885756597296
 20
101.45754618623199
 30
0.0
 11
200.3385756597296
 21
100.20754618623199
 31
0.0
  0
LINE
  5
2A1C
  8
0
 10
205.8385756597296
 20
100.20754618623199
 30
0.0
 11
207.0885756597296
 21
101.45754618623199
 31
0.0
  0
LINE
  5
2A1D
  8
0
 10
199.0885756597296
 20
101.45754618623199
 30
0.0
 11
207.0885756597296
 21
101.45754618623199
 31
0.0
  0
LINE
  5
2A1E
  8
0
 10
205.8385756597296
 20
100.20754618623199
 30
0.0
 11
200.3385756597296
 21
100.20754618623199
 31
0.0
  0
LINE
  5
2A1F
  8
0
 10
199.0885756597296
 20
101.45754618623199
 30
0.0
 11
199.0885756597296
 21
152.20754619667409
 31
0.0
  0
LINE
  5
2A20
  8
3
 10
199.76229601243369
 20
100.7838258335279
 30
0.0
 11
199.76229601243369
 21
152.20754619667409
 31
0.0
  0
LINE
  5
2A21
  8
3
 10
206.41485530702539
 20
100.7838258335278
 30
0.0
 11
206.41485530702539
 21
152.20754619667409
 31
0.0
  0
LINE
  5
2A22
  8
0
 10
207.0885756597296
 20
101.45754618623189
 30
0.0
 11
207.0885756597296
 21
152.20754619667409
 31
0.0
  0
ENDSEC
  0
EOF
