  0
SECTION
  2
HEADER
  9
$ACADVER
  1
AC1009
  9
$INSBASE
 10
0.0
 20
0.0
 30
0.0
  9
$EXTMIN
 10
0.0
 20
-2.960436562073669
 30
0.0
  9
$EXTMAX
 10
317.8362451794269
 20
301.64323645759242
 30
0.0
  9
$LIMMIN
 10
0.0
 20
0.0
  9
$LIMMAX
 10
0.0
 20
0.0
  9
$ORTHOMODE
 70
     0
  9
$REGENMODE
 70
     1
  9
$FILLMODE
 70
     1
  9
$QTEXTMODE
 70
     0
  9
$MIRRTEXT
 70
     0
  9
$DRAGMODE
 70
     2
  9
$LTSCALE
 40
1.0
  9
$OSMODE
 70
    37
  9
$ATTMODE
 70
     1
  9
$TEXTSIZE
 40
0.0
  9
$TRACEWID
 40
0.05
  9
$TEXTSTYLE
  7
STANDARD
  9
$CLAYER
  8
0
  9
$CELTYPE
  6
BYLAYER
  9
$CECOLOR
 62
   256
  9
$DIMSCALE
 40
1.0
  9
$DIMASZ
 40
6.0
  9
$DIMEXO
 40
1.0
  9
$DIMDLI
 40
0.38
  9
$DIMRND
 40
0.0
  9
$DIMDLE
 40
1.0
  9
$DIMEXE
 40
0.18
  9
$DIMTP
 40
0.0
  9
$DIMTM
 40
0.0
  9
$DIMTXT
 40
3.5
  9
$DIMCEN
 40
0.09
  9
$DIMTSZ
 40
0.0
  9
$DIMTOL
 70
     0
  9
$DIMLIM
 70
     0
  9
$DIMTIH
 70
     1
  9
$DIMTOH
 70
     1
  9
$DIMSE1
 70
     0
  9
$DIMSE2
 70
     0
  9
$DIMTAD
 70
     1
  9
$DIMZIN
 70
     0
  9
$DIMBLK
  1

  9
$DIMASO
 70
     1
  9
$DIMSHO
 70
     1
  9
$DIMPOST
  1

  9
$DIMAPOST
  1

  9
$DIMALT
 70
     0
  9
$DIMALTD
 70
     2
  9
$DIMALTF
 40
0.0394
  9
$DIMLFAC
 40
2.0
  9
$DIMTOFL
 70
     0
  9
$DIMTVP
 40
0.0
  9
$DIMTIX
 70
     0
  9
$DIMSOXD
 70
     0
  9
$DIMSAH
 70
     0
  9
$DIMBLK1
  1

  9
$DIMBLK2
  1

  9
$DIMSTYLE
  2
STANDARD
  9
$DIMCLRD
 70
     0
  9
$DIMCLRE
 70
     0
  9
$DIMCLRT
 70
     0
  9
$DIMTFAC
 40
1.0
  9
$DIMGAP
 40
1.0
  9
$LUNITS
 70
     2
  9
$LUPREC
 70
     2
  9
$SKETCHINC
 40
0.1
  9
$FILLETRAD
 40
0.0
  9
$AUNITS
 70
     0
  9
$AUPREC
 70
     2
  9
$MENU
  1
acad
  9
$ELEVATION
 40
0.0
  9
$PELEVATION
 40
0.0
  9
$THICKNESS
 40
0.0
  9
$LIMCHECK
 70
     0
  9
$BLIPMODE
 70
     0
  9
$CHAMFERA
 40
0.0
  9
$CHAMFERB
 40
0.0
  9
$SKPOLY
 70
     0
  9
$TDCREATE
 40
2444972.375
  9
$TDUPDATE
 40
2456952.4803491202
  9
$TDINDWG
 40
0.2135067477
  9
$TDUSRTIMER
 40
0.2135067477
  9
$USRTIMER
 70
     1
  9
$ANGBASE
 50
0.0
  9
$ANGDIR
 70
     0
  9
$PDMODE
 70
     0
  9
$PDSIZE
 40
-1.0
  9
$PLINEWID
 40
0.0
  9
$COORDS
 70
     1
  9
$SPLFRAME
 70
     0
  9
$SPLINETYPE
 70
     6
  9
$SPLINESEGS
 70
     8
  9
$ATTDIA
 70
     0
  9
$ATTREQ
 70
     1
  9
$HANDLING
 70
     1
  9
$HANDSEED
  5
369A
  9
$SURFTAB1
 70
     6
  9
$SURFTAB2
 70
     6
  9
$SURFTYPE
 70
     6
  9
$SURFU
 70
     6
  9
$SURFV
 70
     6
  9
$UCSNAME
  2

  9
$UCSORG
 10
0.0
 20
0.0
 30
0.0
  9
$UCSXDIR
 10
1.0
 20
0.0
 30
0.0
  9
$UCSYDIR
 10
0.0
 20
1.0
 30
0.0
  9
$PUCSNAME
  2

  9
$PUCSORG
 10
0.0
 20
0.0
 30
0.0
  9
$PUCSXDIR
 10
1.0
 20
0.0
 30
0.0
  9
$PUCSYDIR
 10
0.0
 20
1.0
 30
0.0
  9
$USERI1
 70
     0
  9
$USERI2
 70
     1
  9
$USERI3
 70
     0
  9
$USERI4
 70
     0
  9
$USERI5
 70
     0
  9
$USERR1
 40
0.0
  9
$USERR2
 40
0.0
  9
$USERR3
 40
0.0
  9
$USERR4
 40
0.0
  9
$USERR5
 40
0.0
  9
$WORLDVIEW
 70
     1
  9
$SHADEDGE
 70
     3
  9
$SHADEDIF
 70
    70
  9
$TILEMODE
 70
     1
  9
$MAXACTVP
 70
    16
  9
$PLIMCHECK
 70
     0
  9
$PEXTMIN
 10
1.0000000000000000E+020
 20
1.0000000000000000E+020
 30
1.0000000000000000E+020
  9
$PEXTMAX
 10
-1.0000000000000000E+020
 20
-1.0000000000000000E+020
 30
-1.0000000000000000E+020
  9
$PLIMMIN
 10
0.0
 20
0.0
  9
$PLIMMAX
 10
12.0
 20
9.0
  9
$UNITMODE
 70
     0
  9
$VISRETAIN
 70
     0
  9
$PLINEGEN
 70
     1
  9
$PSLTSCALE
 70
     1
  0
ENDSEC
  0
SECTION
  2
TABLES
  0
TABLE
  2
VPORT
 70
     1
  0
VPORT
  2
*ACTIVE
 70
     0
 10
0.0
 20
0.0
 11
1.0
 21
1.0
 12
314.18636995827541
 22
180.0
 13
0.0
 23
0.0
 14
1.0
 24
1.0
 15
0.0
 25
0.0
 16
0.0
 26
0.0
 36
1.0
 17
0.0
 27
0.0
 37
0.0
 40
360.0
 41
1.7454798331015291
 42
50.0
 43
0.0
 44
0.0
 50
0.0
 51
0.0
 71
     0
 72
  2000
 73
     1
 74
     0
 75
     0
 76
     0
 77
     0
 78
     0
  0
ENDTAB
  0
TABLE
  2
LTYPE
 70
     3
  0
LTYPE
  2
CONTINUOUS
 70
     0
  3
Solid Line
 72
    65
 73
     0
 40
0.0
  0
LTYPE
  2
CENTERX2
 70
     0
  3
Center (2x) ________  __  ________  __  _____
 72
    65
 73
     4
 40
20.32
 49
12.699999999999999
 49
-2.54
 49
2.54
 49
-2.54
  0
LTYPE
  2
PHANTOM2
 70
     0
  3
___ _ _ ___ _ _ ___ _ _ ___ _ _
 72
    65
 73
     6
 40
1.25
 49
0.625
 49
-0.125
 49
0.125
 49
-0.125
 49
0.125
 49
-0.125
  0
ENDTAB
  0
TABLE
  2
LAYER
 70
     4
  0
LAYER
  2
0
 70
     0
 62
     7
  6
CONTINUOUS
  0
LAYER
  2
DEFPOINTS
 70
     0
 62
     7
  6
CONTINUOUS
  0
LAYER
  2
1
 70
     0
 62
     1
  6
CENTERX2
  0
LAYER
  2
3
 70
     0
 62
     3
  6
CONTINUOUS
  0
ENDTAB
  0
TABLE
  2
STYLE
 70
     2
  0
STYLE
  2
STANDARD
 70
     0
 40
0.0
 41
1.0
 50
0.0
 71
     0
 42
0.0
  3
txt
  4
bigfont
  0
STYLE
  2
STANDARD1
 70
     0
 40
0.0
 41
1.0
 50
0.0
 71
     0
 42
3.0
  3
txt
  4

  0
ENDTAB
  0
TABLE
  2
VIEW
 70
     0
  0
ENDTAB
  0
TABLE
  2
UCS
 70
     0
  0
ENDTAB
  0
TABLE
  2
APPID
 70
    30
  0
APPID
  2
ACAD
 70
     0
  0
APPID
  2
DCO15
 70
     0
  0
APPID
  2
GENIUS_GENOREF_13
 70
     0
  0
APPID
  2
GENIUS_GENOENT_13
 70
     0
  0
APPID
  2
GENIUS_GENBH_13
 70
     0
  0
APPID
  2
GENIUS_GENOBJ_13
 70
     0
  0
APPID
  2
GENIUS_GENODEF_13
 70
     0
  0
APPID
  2
GENIUS_GENOLIS_13
 70
     0
  0
APPID
  2
GENIUS_GENOBJ-NBEHI-BHF_13
 70
     0
  0
APPID
  2
GENIUS_GENOBJ-NBEHI-BHB_13
 70
     0
  0
APPID
  2
GENIUS_GENOBJ-F-PART_13
 70
     0
  0
APPID
  2
GENIUS_GEFSTDP_13
 70
     0
  0
APPID
  2
GENIUS_GENOBJ-N-RSSYM_13
 70
     0
  0
APPID
  2
GENIUS_GENSYMENT_13
 70
     0
  0
APPID
  2
GENIUS_GENOBJ-N-TIT_13
 70
     0
  0
APPID
  2
GENIUS_GENTITLE_13
 70
     0
  0
APPID
  2
GENIUS_GENZVEED_13
 70
     0
  0
APPID
  2
GENIUS_GENOBJ-N-LEADER_13
 70
     0
  0
APPID
  2
GENIUS_GENOBJ-N-FIL_13
 70
     0
  0
APPID
  2
GENIUS_GENOBJ-N-SEC_13
 70
     0
  0
APPID
  2
GENIUS_GENOBJ-N-CRS_13
 70
     0
  0
APPID
  2
GENIUS_GENOBJ-N-ZOO_13
 70
     0
  0
APPID
  2
GENIUS_GENZOO_13
 70
     0
  0
APPID
  2
GENIUS_GENOBJ-F-TOL_13
 70
     0
  0
APPID
  2
GENIUS_GENFIL_13
 70
     0
  0
APPID
  2
GENIUS_GENOBJ-N-CHA_13
 70
     0
  0
APPID
  2
_CALL_MAC$
 70
     0
  0
APPID
  2
ACAD_MLEADERVER
 70
     0
  0
APPID
  2
ACAD_NAV_VCDISPLAY
 70
     0
  0
APPID
  2
ACAD_EXEMPT_FROM_CAD_STANDARDS
 70
     0
  0
ENDTAB
  0
TABLE
  2
DIMSTYLE
 70
     1
  0
DIMSTYLE
  2
STANDARD
 70
     0
  3

  4

  5

  6

  7

 40
1.0
 41
0.18
 42
0.0625
 43
0.38
 44
0.18
 45
0.0
 46
0.0
 47
0.0
 48
0.0
140
0.18
141
0.09
142
0.0
143
25.399999999999999
144
1.0
145
0.0
146
1.0
147
0.09
 71
     0
 72
     0
 73
     1
 74
     1
 75
     0
 76
     0
 77
     0
 78
     0
170
     0
171
     2
172
     0
173
     0
174
     0
175
     0
176
     0
177
     0
178
     0
  0
ENDTAB
  0
ENDSEC
  0
SECTION
  2
BLOCKS
  0
BLOCK
  8
0
  2
$MODEL_SPACE
 70
     0
 10
0.0
 20
0.0
 30
0.0
  3
$MODEL_SPACE
  1

  0
ENDBLK
  5
E
  8
0
  0
BLOCK
 67
     1
  8
0
  2
$PAPER_SPACE
 70
     0
 10
0.0
 20
0.0
 30
0.0
  3
$PAPER_SPACE
  1

  0
ENDBLK
  5
10
 67
     1
  8
0
  0
ENDSEC
  0
SECTION
  2
ENTITIES
  0
TEXT
  5
1201
  8
0
 62
     3
 10
0.0
 20
0.0
 30
0.0
 40
10.0
  1
QLPD150NL
  7
STANDARD1
  0
LINE
  5
1647
  8
0
 10
217.83624855703391
 20
168.84233093935711
 30
0.0
 11
217.83624855703391
 21
183.44233128357379
 31
0.0
  0
LINE
  5
1648
  8
0
 10
177.83624945110361
 20
183.44233128357379
 30
0.0
 11
177.83624945110361
 21
168.842330939357
 31
0.0
  0
LINE
  5
1649
  8
0
 10
177.83624945110361
 20
168.842330939357
 30
0.0
 11
178.03624911135711
 21
168.64233081344219
 31
0.0
  0
LINE
  5
164A
  8
0
 10
217.63624889678039
 20
168.64233081344219
 30
0.0
 11
217.83624855703391
 21
168.842330939357
 31
0.0
  0
LINE
  5
164B
  8
0
 10
217.83624855703391
 20
183.44233128357379
 30
0.0
 11
217.63624889678039
 21
183.64233094382729
 31
0.0
  0
LINE
  5
164C
  8
0
 10
178.03624911135711
 20
183.64233094382729
 30
0.0
 11
177.83624945110361
 21
183.44233128357379
 31
0.0
  0
LINE
  5
164D
  8
0
 10
177.83624945110361
 20
167.64233088236
 30
0.0
 11
178.3362486017374
 21
167.14233103323431
 31
0.0
  0
LINE
  5
164E
  8
0
 10
217.3362494064001
 20
167.14233103323431
 30
0.0
 11
217.83624855703391
 21
167.64233088236
 31
0.0
  0
LINE
  5
164F
  8
0
 10
217.83624855703391
 20
168.44233092035799
 30
0.0
 11
217.63624889678039
 21
168.64233081344219
 31
0.0
  0
LINE
  5
1650
  8
0
 10
178.03624911135711
 20
168.64233081344219
 30
0.0
 11
177.83624945110361
 21
168.44233092035799
 31
0.0
  0
LINE
  5
1651
  8
0
 10
217.83624855703391
 20
167.64233088236
 30
0.0
 11
217.83624855703391
 21
168.44233092035799
 31
0.0
  0
LINE
  5
1652
  8
0
 10
177.83624945110361
 20
168.44233092035799
 30
0.0
 11
177.83624945110361
 21
167.64233088236
 31
0.0
  0
ARC
  5
1653
  8
0
 10
181.33624900406869
 20
192.6423309981609
 30
0.0
 40
2.0
 50
90.0
 51
180.0
  0
ARC
  5
1654
  8
0
 10
214.33624900406869
 20
192.6423309981609
 30
0.0
 40
2.0
 50
22.024281766621979
 51
90.0
  0
LINE
  5
1655
  8
0
 10
216.3362492424873
 20
183.64233094382729
 30
0.0
 11
216.3362492424873
 21
184.90091282058211
 31
0.0
  0
LINE
  5
1656
  8
0
 10
179.33624876565011
 20
192.6423305563971
 30
0.0
 11
179.33624876565011
 21
183.64233094382729
 31
0.0
  0
LINE
  5
1657
  8
0
 10
210.33624919033321
 20
165.143234961421
 30
0.0
 11
210.33624919033321
 21
167.14233103323431
 31
0.0
  0
LINE
  5
1658
  8
0
 10
185.3362488178042
 20
167.14233103323431
 30
0.0
 11
185.3362488178042
 21
165.143234961421
 31
0.0
  0
LINE
  5
1659
  8
0
 10
185.3362488178042
 20
165.143234961421
 30
0.0
 11
185.83624889976059
 21
164.6432349376723
 31
0.0
  0
LINE
  5
165A
  8
0
 10
209.8362491083769
 20
164.6432349376723
 30
0.0
 11
210.33624919033321
 21
165.143234961421
 31
0.0
  0
LINE
  5
165B
  8
0
 10
204.58624917915739
 20
196.14323544431181
 30
0.0
 11
204.08624909720101
 21
196.6432364575908
 31
0.0
  0
LINE
  5
165C
  8
0
 10
191.58624891093649
 20
196.6432364575908
 30
0.0
 11
191.0862488289801
 21
196.14323544431181
 31
0.0
  0
LINE
  5
165D
  8
0
 10
204.58624917915739
 20
194.6423308842227
 30
0.0
 11
204.58624917915739
 21
196.14323544431181
 31
0.0
  0
LINE
  5
165E
  8
0
 10
191.0862488289801
 20
196.14323544431181
 30
0.0
 11
191.0862488289801
 21
194.6423308842227
 31
0.0
  0
LINE
  5
1678
  8
0
 10
217.83624855703391
 20
183.44233128357379
 30
0.0
 11
177.83624945110361
 21
183.44233128357379
 31
0.0
  0
LINE
  5
167A
  8
0
 10
177.83624945110361
 20
168.842330939357
 30
0.0
 11
217.83624855703391
 21
168.842330939357
 31
0.0
  0
LINE
  5
167D
  8
0
 10
178.03624911135699
 20
183.64233094382729
 30
0.0
 11
217.63624889678039
 21
183.64233094382729
 31
0.0
  0
LINE
  5
167F
  8
0
 10
217.3362494064001
 20
167.14233103323431
 30
0.0
 11
178.3362486017374
 21
167.14233103323431
 31
0.0
  0
LINE
  5
1680
  8
0
 10
177.83624945110361
 20
167.64233088236
 30
0.0
 11
217.83624855703391
 21
167.64233088236
 31
0.0
  0
LINE
  5
1681
  8
0
 10
217.8362485570338
 20
168.44233092035799
 30
0.0
 11
177.83624945110361
 21
168.44233092035799
 31
0.0
  0
LINE
  5
1684
  8
0
 10
178.03624911135711
 20
168.64233081344219
 30
0.0
 11
217.63624889678039
 21
168.64233081344219
 31
0.0
  0
POLYLINE
  5
1685
  8
0
 66
     1
 10
0.0
 20
0.0
 30
0.0
 70
   128
  0
VERTEX
  5
2D60
  8
0
 10
216.1902990325533
 20
193.39232999274461
 30
0.0
  0
VERTEX
  5
2D61
  8
0
 10
216.19031844562571
 20
193.3922147296712
 30
0.0
  0
VERTEX
  5
2D62
  8
0
 10
216.20015693730389
 20
193.3288251899526
 30
0.0
  0
VERTEX
  5
2D63
  8
0
 10
216.2166506601003
 20
193.14398373592351
 30
0.0
  0
VERTEX
  5
2D64
  8
0
 10
216.17848133570229
 20
192.6423305563971
 30
0.0
  0
SEQEND
  5
2D65
  8
0
  0
LINE
  5
1686
  8
0
 10
216.17848133570229
 20
192.6423305563971
 30
0.0
 11
214.82062630515259
 21
192.6423305563971
 31
0.0
  0
LINE
  5
1689
  8
0
 10
181.33624909347569
 20
194.6423308842227
 30
0.0
 11
214.3369240986064
 21
194.6423308842227
 31
0.0
  0
POLYLINE
  5
168A
  8
0
 66
     1
 10
0.0
 20
0.0
 30
0.0
 70
   128
  0
VERTEX
  5
2D66
  8
0
 10
216.17848133570229
 20
192.6423305563971
 30
0.0
  0
VERTEX
  5
2D67
  8
0
 10
216.10190985626261
 20
192.21591147709341
 30
0.0
  0
VERTEX
  5
2D68
  8
0
 10
216.02046383446731
 20
191.68755169141741
 30
0.0
  0
VERTEX
  5
2D69
  8
0
 10
215.94435801631491
 20
191.07005688477011
 30
0.0
  0
VERTEX
  5
2D6A
  8
0
 10
215.8861913335947
 20
190.4123345308349
 30
0.0
  0
VERTEX
  5
2D6B
  8
0
 10
215.84997406131299
 20
189.69618844914879
 30
0.0
  0
VERTEX
  5
2D6C
  8
0
 10
215.84201684123551
 20
189.00030422139619
 30
0.0
  0
VERTEX
  5
2D6D
  8
0
 10
215.8617124510435
 20
188.2880268536851
 30
0.0
  0
VERTEX
  5
2D6E
  8
0
 10
215.9692336422828
 20
186.99346426058261
 30
0.0
  0
VERTEX
  5
2D6F
  8
0
 10
216.1283799064783
 20
185.91516967046709
 30
0.0
  0
VERTEX
  5
2D70
  8
0
 10
216.20616769320051
 20
185.5000195943162
 30
0.0
  0
VERTEX
  5
2D71
  8
0
 10
216.27264922386681
 20
185.17832587588279
 30
0.0
  0
VERTEX
  5
2D72
  8
0
 10
216.3165201050667
 20
184.9790451966569
 30
0.0
  0
VERTEX
  5
2D73
  8
0
 10
216.33579661971601
 20
184.89429670501201
 30
0.0
  0
VERTEX
  5
2D74
  8
0
 10
216.33428415185489
 20
184.90091282058211
 30
0.0
  0
SEQEND
  5
2D75
  8
0
  0
LINE
  5
1691
  8
0
 10
185.3362488178042
 20
165.143234961421
 30
0.0
 11
210.33624919033321
 21
165.143234961421
 31
0.0
  0
LINE
  5
1692
  8
0
 10
209.8362491083769
 20
164.6432349376723
 30
0.0
 11
185.83624889976059
 21
164.6432349376723
 31
0.0
  0
LINE
  5
1694
  8
0
 10
204.58624917915739
 20
196.14323544431181
 30
0.0
 11
191.0862488289801
 21
196.14323544431181
 31
0.0
  0
LINE
  5
1695
  8
0
 10
191.58624891093649
 20
196.6432364575908
 30
0.0
 11
204.08624909720101
 21
196.6432364575908
 31
0.0
  0
LINE
  5
1697
  8
0
 10
212.40962788773911
 20
192.6423305563971
 30
0.0
 11
179.33624876565011
 21
192.6423305563971
 31
0.0
  0
LINE
  5
1699
  8
0
 10
317.8362451794269
 20
183.44233128357541
 30
0.0
 11
317.63624551917343
 21
183.64233094382899
 31
0.0
  0
LINE
  5
169A
  8
0
 10
278.03624573375009
 20
183.64233094382899
 30
0.0
 11
277.83624607349662
 21
183.44233128357541
 31
0.0
  0
LINE
  5
169B
  8
0
 10
317.8362451794269
 20
168.84233093935859
 30
0.0
 11
317.8362451794269
 21
183.44233128357541
 31
0.0
  0
LINE
  5
169C
  8
0
 10
277.83624607349662
 20
183.44233128357541
 30
0.0
 11
277.83624607349662
 21
168.84233093935859
 31
0.0
  0
LINE
  5
169D
  8
0
 10
277.83624607349662
 20
168.84233093935859
 30
0.0
 11
278.03624573375009
 21
168.64233081344381
 31
0.0
  0
LINE
  5
169E
  8
0
 10
317.63624551917343
 20
168.64233081344381
 30
0.0
 11
317.8362451794269
 21
168.84233093935859
 31
0.0
  0
LINE
  5
169F
  8
0
 10
277.83624607349662
 20
167.6423308823617
 30
0.0
 11
278.33624522413038
 21
167.14233103323591
 31
0.0
  0
LINE
  5
16A0
  8
0
 10
317.33624602879308
 20
167.14233103323591
 30
0.0
 11
317.8362451794269
 21
167.6423308823617
 31
0.0
  0
LINE
  5
16A1
  8
0
 10
317.8362451794269
 20
167.6423308823617
 30
0.0
 11
317.8362451794269
 21
168.44233092035961
 31
0.0
  0
LINE
  5
16A2
  8
0
 10
277.83624607349662
 20
168.44233092035961
 30
0.0
 11
277.83624607349662
 21
167.6423308823617
 31
0.0
  0
LINE
  5
16A3
  8
0
 10
317.8362451794269
 20
168.44233092035961
 30
0.0
 11
317.63624551917343
 21
168.64233081344381
 31
0.0
  0
LINE
  5
16A4
  8
0
 10
278.03624573375009
 20
168.64233081344381
 30
0.0
 11
277.83624607349662
 21
168.44233092035961
 31
0.0
  0
ARC
  5
16A5
  8
0
 10
281.33624562646179
 20
192.64233099816249
 30
0.0
 40
2.0
 50
90.0
 51
180.0
  0
ARC
  5
16A6
  8
0
 10
314.33624562646179
 20
192.64233099816249
 30
0.0
 40
2.0
 50
0.0
 51
90.0
  0
LINE
  5
16A7
  8
0
 10
316.33624586488042
 20
183.64233094382899
 30
0.0
 11
316.33624586488042
 21
192.6423305563988
 31
0.0
  0
LINE
  5
16A8
  8
0
 10
279.33624538804321
 20
192.6423305563988
 30
0.0
 11
279.33624538804321
 21
183.64233094382899
 31
0.0
  0
LINE
  5
16A9
  8
0
 10
310.3362458127263
 20
165.14323496142271
 30
0.0
 11
310.3362458127263
 21
167.14233103323591
 31
0.0
  0
LINE
  5
16AA
  8
0
 10
285.33624544019727
 20
167.14233103323591
 30
0.0
 11
285.33624544019727
 21
165.14323496142271
 31
0.0
  0
LINE
  5
16AB
  8
0
 10
285.33624544019727
 20
165.14323496142271
 30
0.0
 11
285.8362455221536
 21
164.64323493767401
 31
0.0
  0
LINE
  5
16AC
  8
0
 10
309.83624573076992
 20
164.64323493767401
 30
0.0
 11
310.3362458127263
 21
165.14323496142271
 31
0.0
  0
LINE
  5
16AF
  8
0
 10
299.33559930163341
 20
173.14233061972871
 30
0.0
 11
299.33559930163341
 21
174.6423308655979
 31
0.0
  0
LINE
  5
16B0
  8
0
 10
291.44576809580349
 20
174.6423308655979
 30
0.0
 11
299.33559930163341
 21
174.6423308655979
 31
0.0
  0
LINE
  5
16B1
  8
0
 10
291.44576809580349
 20
174.6423308655979
 30
0.0
 11
291.44576809580349
 21
177.64233042601359
 31
0.0
  0
LINE
  5
16B2
  8
0
 10
291.44576809580349
 20
177.64233042601359
 30
0.0
 11
299.33559930163341
 21
177.64233042601359
 31
0.0
  0
LINE
  5
16B3
  8
0
 10
299.33559930163341
 20
177.64233042601359
 30
0.0
 11
299.33559930163341
 21
179.1423306718828
 31
0.0
  0
LINE
  5
16B4
  8
0
 10
305.02199580172908
 20
172.39233096245539
 30
0.0
 11
305.02199580172908
 21
179.89233079481741
 31
0.0
  0
LINE
  5
16B5
  8
0
 10
290.65049545119422
 20
172.39233096245539
 30
0.0
 11
305.02199580172908
 21
172.39233096245539
 31
0.0
  0
LINE
  5
16B7
  8
0
 10
290.65049545119422
 20
172.39233096245539
 30
0.0
 11
290.65049545119422
 21
179.89233079481741
 31
0.0
  0
LINE
  5
16B8
  8
0
 10
290.65049545119422
 20
179.89233079481741
 30
0.0
 11
305.02199580172908
 21
179.89233079481741
 31
0.0
  0
LINE
  5
16BD
  8
0
 10
278.03624573374998
 20
183.64233094382899
 30
0.0
 11
317.63624551917343
 21
183.64233094382899
 31
0.0
  0
LINE
  5
16C2
  8
0
 10
317.8362451794269
 20
183.44233128357541
 30
0.0
 11
277.83624607349662
 21
183.44233128357541
 31
0.0
  0
LINE
  5
16C3
  8
0
 10
277.83624607349662
 20
168.84233093935859
 30
0.0
 11
317.8362451794269
 21
168.84233093935859
 31
0.0
  0
LINE
  5
16C7
  8
0
 10
317.33624602879308
 20
167.14233103323591
 30
0.0
 11
278.33624522413038
 21
167.14233103323591
 31
0.0
  0
LINE
  5
16C8
  8
0
 10
277.83624607349662
 20
167.6423308823617
 30
0.0
 11
317.8362451794269
 21
167.6423308823617
 31
0.0
  0
LINE
  5
16C9
  8
0
 10
317.8362451794269
 20
168.44233092035961
 30
0.0
 11
277.83624607349662
 21
168.44233092035961
 31
0.0
  0
LINE
  5
16CA
  8
0
 10
278.03624573375009
 20
168.64233081344381
 30
0.0
 11
317.63624551917343
 21
168.64233081344381
 31
0.0
  0
LINE
  5
16CE
  8
0
 10
281.33557053187781
 20
194.64233088422429
 30
0.0
 11
314.33624553705482
 21
194.64233088422429
 31
0.0
  0
LINE
  5
16DA
  8
0
 10
285.33624544019727
 20
165.14323496142271
 30
0.0
 11
310.3362458127263
 21
165.14323496142271
 31
0.0
  0
LINE
  5
16DB
  8
0
 10
309.83624573076992
 20
164.64323493767401
 30
0.0
 11
285.8362455221536
 21
164.64323493767401
 31
0.0
  0
LINE
  5
16DD
  8
0
 10
316.33624586488042
 20
192.6423305563988
 30
0.0
 11
309.03381648784961
 21
192.6423305563988
 31
0.0
  0
LINE
  5
16DF
  8
0
 10
117.8362451794265
 20
168.84233093935859
 30
0.0
 11
117.8362451794265
 21
183.44233128357541
 31
0.0
  0
LINE
  5
16E0
  8
0
 10
77.836246073496227
 20
183.44233128357541
 30
0.0
 11
77.836246073496227
 21
168.84233093935859
 31
0.0
  0
LINE
  5
16E1
  8
0
 10
77.836246073496227
 20
168.84233093935859
 30
0.0
 11
78.036245733749752
 21
168.64233081344381
 31
0.0
  0
LINE
  5
16E2
  8
0
 10
117.6362455191729
 20
168.64233081344381
 30
0.0
 11
117.8362451794265
 21
168.84233093935859
 31
0.0
  0
LINE
  5
16E3
  8
0
 10
117.8362451794265
 20
183.44233128357541
 30
0.0
 11
117.6362455191729
 21
183.64233094382899
 31
0.0
  0
LINE
  5
16E4
  8
0
 10
78.036245733749752
 20
183.64233094382899
 30
0.0
 11
77.836246073496227
 21
183.44233128357541
 31
0.0
  0
LINE
  5
16E5
  8
0
 10
117.8362451794265
 20
167.6423308823617
 30
0.0
 11
117.8362451794265
 21
168.44233092035961
 31
0.0
  0
LINE
  5
16E6
  8
0
 10
77.836246073496227
 20
168.44233092035961
 30
0.0
 11
77.836246073496227
 21
167.6423308823617
 31
0.0
  0
LINE
  5
16E7
  8
0
 10
77.836246073496227
 20
167.6423308823617
 30
0.0
 11
78.336245224130025
 21
167.14233103323591
 31
0.0
  0
LINE
  5
16E8
  8
0
 10
117.3362460287927
 20
167.14233103323591
 30
0.0
 11
117.8362451794265
 21
167.6423308823617
 31
0.0
  0
LINE
  5
16E9
  8
0
 10
117.8362451794265
 20
168.44233092035961
 30
0.0
 11
117.6362455191729
 21
168.64233081344381
 31
0.0
  0
LINE
  5
16EA
  8
0
 10
78.036245733749752
 20
168.64233081344381
 30
0.0
 11
77.836246073496227
 21
168.44233092035961
 31
0.0
  0
ARC
  5
16EB
  8
0
 10
81.336245626461377
 20
192.64233099816249
 30
0.0
 40
2.0000000000000071
 50
90.0
 51
180.0
  0
ARC
  5
16EC
  8
0
 10
114.33624562646131
 20
192.64233099816249
 30
0.0
 40
2.0000000000000142
 50
0.0
 51
90.0
  0
LINE
  5
16ED
  8
0
 10
116.3362458648799
 20
183.64233094382899
 30
0.0
 11
116.3362458648799
 21
192.6423305563988
 31
0.0
  0
LINE
  5
16EE
  8
0
 10
79.336245388042812
 20
192.6423305563988
 30
0.0
 11
79.336245388042812
 21
183.64233094382899
 31
0.0
  0
LINE
  5
16EF
  8
0
 10
110.33624581272581
 20
165.14323496142271
 30
0.0
 11
110.33624581272581
 21
167.14233103323591
 31
0.0
  0
LINE
  5
16F0
  8
0
 10
85.336245440196876
 20
167.14233103323591
 30
0.0
 11
85.336245440196876
 21
165.14323496142271
 31
0.0
  0
LINE
  5
16F1
  8
0
 10
85.336245440196876
 20
165.14323496142271
 30
0.0
 11
85.836245522153263
 21
164.64323493767401
 31
0.0
  0
LINE
  5
16F2
  8
0
 10
109.83624573076941
 20
164.64323493767401
 30
0.0
 11
110.33624581272581
 21
165.14323496142271
 31
0.0
  0
LINE
  5
16F3
  8
0
 10
104.58624580155001
 20
196.1432354443134
 30
0.0
 11
104.08624571959361
 21
196.64323645759239
 31
0.0
  0
LINE
  5
16F4
  8
0
 10
91.586245533329134
 20
196.64323645759239
 30
0.0
 11
91.086245451372747
 21
196.1432354443134
 31
0.0
  0
LINE
  5
16F5
  8
0
 10
104.58624580155001
 20
194.64233088422429
 30
0.0
 11
104.58624580155001
 21
196.1432354443134
 31
0.0
  0
LINE
  5
16F6
  8
0
 10
91.086245451372747
 20
196.1432354443134
 30
0.0
 11
91.086245451372747
 21
194.64233088422429
 31
0.0
  0
LINE
  5
16F7
  8
0
 10
117.8362451794265
 20
183.44233128357541
 30
0.0
 11
77.836246073496227
 21
183.44233128357541
 31
0.0
  0
LINE
  5
16F8
  8
0
 10
77.836246073496227
 20
168.84233093935859
 30
0.0
 11
117.8362451794265
 21
168.84233093935859
 31
0.0
  0
LINE
  5
16FA
  8
0
 10
78.036245733749752
 20
183.64233094382899
 30
0.0
 11
117.6362455191729
 21
183.64233094382899
 31
0.0
  0
LINE
  5
16FB
  8
0
 10
77.836246073496227
 20
167.6423308823617
 30
0.0
 11
117.8362451794265
 21
167.6423308823617
 31
0.0
  0
LINE
  5
16FC
  8
0
 10
117.8362451794265
 20
168.44233092035961
 30
0.0
 11
77.836246073496227
 21
168.44233092035961
 31
0.0
  0
LINE
  5
16FD
  8
0
 10
117.3362460287927
 20
167.14233103323591
 30
0.0
 11
78.336245224130025
 21
167.14233103323591
 31
0.0
  0
LINE
  5
16FE
  8
0
 10
78.036245733749752
 20
168.64233081344381
 30
0.0
 11
117.6362455191729
 21
168.64233081344381
 31
0.0
  0
LINE
  5
16FF
  8
0
 10
81.336245715868344
 20
194.64233088422429
 30
0.0
 11
114.3362455370543
 21
194.64233088422429
 31
0.0
  0
LINE
  5
1700
  8
0
 10
85.336245440196876
 20
165.14323496142271
 30
0.0
 11
110.33624581272581
 21
165.14323496142271
 31
0.0
  0
LINE
  5
1701
  8
0
 10
109.83624573076941
 20
164.64323493767401
 30
0.0
 11
85.836245522153263
 21
164.64323493767401
 31
0.0
  0
LINE
  5
1702
  8
0
 10
104.58624580155001
 20
196.1432354443134
 30
0.0
 11
91.086245451372747
 21
196.1432354443134
 31
0.0
  0
LINE
  5
1703
  8
0
 10
91.586245533329134
 20
196.64323645759239
 30
0.0
 11
104.08624571959361
 21
196.64323645759239
 31
0.0
  0
LINE
  5
1704
  8
0
 10
116.3362458648799
 20
192.6423305563988
 30
0.0
 11
79.336245388042812
 21
192.6423305563988
 31
0.0
  0
ARC
  5
1705
  8
0
 10
195.29866446164669
 20
281.03845596338169
 30
0.0
 40
2.9999999999999818
 50
279.41791242009549
 51
320.58208757990542
  0
ARC
  5
1706
  8
0
 10
195.29866446164661
 20
272.24801695180321
 30
0.0
 40
2.9999999999999818
 50
39.417912420095057
 51
80.582087579904439
  0
ARC
  5
1707
  8
0
 10
202.91140795609141
 20
276.64323645759242
 30
0.0
 40
3.0000000000000142
 50
159.41791242009671
 51
200.58208757990479
  0
CIRCLE
  5
1735
  8
0
 10
197.8362456264615
 20
276.64323645759242
 30
0.0
 40
6.7499999999999707
  0
CIRCLE
  5
1737
  8
0
 10
197.8362456264615
 20
276.64323645759242
 30
0.0
 40
4.25
  0
CIRCLE
  5
1739
  8
0
 10
197.8362456264615
 20
276.64323645759242
 30
0.0
 40
2.5
  0
ARC
  5
173E
  8
0
 10
202.91140795609141
 20
84.643234937672304
 30
0.0
 40
2.9999999999999991
 50
159.4179124200956
 51
200.5820875799044
  0
CIRCLE
  5
1765
  8
0
 10
197.8362456264615
 20
84.643234937672375
 30
0.0
 40
19.999999999999979
  0
CIRCLE
  5
1767
  8
0
 10
197.8362456264615
 20
84.643234937672375
 30
0.0
 40
12.0
  0
CIRCLE
  5
1768
  8
0
 10
197.8362456264615
 20
84.643234937672375
 30
0.0
 40
12.5
  0
CIRCLE
  5
1772
  8
0
 10
197.8362456264615
 20
84.643234937672375
 30
0.0
 40
4.0
  0
CIRCLE
  5
1777
  8
0
 10
197.8362456264615
 20
84.643234937672332
 30
0.0
 40
2.75
  0
CIRCLE
  5
1778
  8
0
 10
197.8362456264615
 20
84.643234937672304
 30
0.0
 40
2.5
  0
LINE
  5
194D
  8
1
 10
97.836245626461562
 20
201.64323645759239
 30
0.0
 11
97.836245626461562
 21
159.64323493767401
 31
0.0
  0
CIRCLE
  5
1959
  8
0
 10
197.8362456264615
 20
276.64323645759242
 30
0.0
 40
18.5
  0
LINE
  5
196D
  8
1
 10
172.8362456264615
 20
276.64323645759242
 30
0.0
 11
222.83624562646159
 21
276.64323645759242
 31
0.0
  0
LINE
  5
196E
  8
1
 10
197.8362456264615
 20
251.64323645759239
 30
0.0
 11
197.8362456264615
 21
301.64323645759242
 31
0.0
  0
LINE
  5
197D
  8
1
 10
188.29030408044341
 20
75.097293391653849
 30
0.0
 11
194.6542651111221
 21
81.461254422332956
 31
0.0
  0
LINE
  5
197E
  8
1
 10
207.38218717248
 20
75.09729339165402
 30
0.0
 11
201.01822614180119
 21
81.461254422333027
 31
0.0
  0
LINE
  5
197F
  8
1
 10
207.3821871724798
 20
94.189176483690787
 30
0.0
 11
201.01822614180099
 21
87.825215453011765
 31
0.0
  0
LINE
  5
1980
  8
1
 10
188.29030408044321
 20
94.189176483690787
 30
0.0
 11
194.65426511112199
 21
87.825215453011765
 31
0.0
  0
LINE
  5
1981
  8
1
 10
197.8362456264615
 20
59.643234937672382
 30
0.0
 11
197.8362456264615
 21
109.6432349376723
 31
0.0
  0
LINE
  5
1982
  8
1
 10
172.8362456264615
 20
84.643234937672304
 30
0.0
 11
222.83624562646159
 21
84.643234937672304
 31
0.0
  0
CIRCLE
  5
198B
  8
1
 10
197.8362456264615
 20
84.643234937672304
 30
0.0
 40
8.999999999999952
  0
LINE
  5
19C7
  8
1
 10
282.65303380067371
 20
189.14233099816241
 30
0.0
 11
313.01945745224981
 21
189.14233099816241
 31
0.0
  0
LINE
  5
19DA
  8
1
 10
297.83624562646162
 20
201.64323645759239
 30
0.0
 11
297.8362456264615
 21
159.64323493767401
 31
0.0
  0
LINE
  5
1A4E
  8
1
 10
197.8362456264615
 20
201.64323645759239
 30
0.0
 11
197.8362456264615
 21
159.6432349376723
 31
0.0
  0
LINE
  5
1A50
  8
1
 10
208.8063856576953
 20
189.14233289921441
 30
0.0
 11
220.84364089506749
 21
189.14233289921441
 31
0.0
  0
LINE
  5
1A51
  8
0
 10
304.22672315711992
 20
176.14233111146709
 30
0.0
 11
299.33559930163341
 21
179.1423306718828
 31
0.0
  0
LINE
  5
1A52
  8
0
 10
304.22672315711992
 20
176.14233111146709
 30
0.0
 11
299.33559930163341
 21
173.14233155105131
 31
0.0
  0
POLYLINE
  5
1BB0
  8
0
 10
213.8577237238209
 20
193.39323645759069
 30
0.0
 66
     1
 70
     8
  0
VERTEX
  8
0
  5
2D76
 10
213.858
 20
193.393
 30
0.000000
  70
    32
  0
VERTEX
  8
0
  5
2D77
 10
213.795
 20
193.392
 30
0.000000
  70
    32
  0
VERTEX
  8
0
  5
2D78
 10
213.733
 20
193.388
 30
0.000000
  70
    32
  0
VERTEX
  8
0
  5
2D79
 10
213.670
 20
193.382
 30
0.000000
  70
    32
  0
VERTEX
  8
0
  5
2D7A
 10
213.608
 20
193.373
 30
0.000000
  70
    32
  0
VERTEX
  8
0
  5
2D7B
 10
213.545
 20
193.361
 30
0.000000
  70
    32
  0
VERTEX
  8
0
  5
2D7C
 10
213.483
 20
193.347
 30
0.000000
  70
    32
  0
VERTEX
  8
0
  5
2D7D
 10
213.422
 20
193.331
 30
0.000000
  70
    32
  0
VERTEX
  8
0
  5
2D7E
 10
213.360
 20
193.312
 30
0.000000
  70
    32
  0
VERTEX
  8
0
  5
2D7F
 10
213.299
 20
193.290
 30
0.000000
  70
    32
  0
VERTEX
  8
0
  5
2D80
 10
213.238
 20
193.266
 30
0.000000
  70
    32
  0
VERTEX
  8
0
  5
2D81
 10
213.177
 20
193.239
 30
0.000000
  70
    32
  0
VERTEX
  8
0
  5
2D82
 10
213.117
 20
193.210
 30
0.000000
  70
    32
  0
VERTEX
  8
0
  5
2D83
 10
213.057
 20
193.179
 30
0.000000
  70
    32
  0
VERTEX
  8
0
  5
2D84
 10
212.998
 20
193.145
 30
0.000000
  70
    32
  0
VERTEX
  8
0
  5
2D85
 10
212.940
 20
193.108
 30
0.000000
  70
    32
  0
VERTEX
  8
0
  5
2D86
 10
212.881
 20
193.070
 30
0.000000
  70
    32
  0
VERTEX
  8
0
  5
2D87
 10
212.824
 20
193.029
 30
0.000000
  70
    32
  0
VERTEX
  8
0
  5
2D88
 10
212.767
 20
192.985
 30
0.000000
  70
    32
  0
VERTEX
  8
0
  5
2D89
 10
212.711
 20
192.939
 30
0.000000
  70
    32
  0
VERTEX
  8
0
  5
2D8A
 10
212.655
 20
192.891
 30
0.000000
  70
    32
  0
VERTEX
  8
0
  5
2D8B
 10
212.600
 20
192.841
 30
0.000000
  70
    32
  0
VERTEX
  8
0
  5
2D8C
 10
212.546
 20
192.789
 30
0.000000
  70
    32
  0
VERTEX
  8
0
  5
2D8D
 10
212.493
 20
192.734
 30
0.000000
  70
    32
  0
VERTEX
  8
0
  5
2D8E
 10
212.440
 20
192.677
 30
0.000000
  70
    32
  0
VERTEX
  8
0
  5
2D8F
 10
212.389
 20
192.618
 30
0.000000
  70
    32
  0
VERTEX
  8
0
  5
2D90
 10
212.338
 20
192.557
 30
0.000000
  70
    32
  0
VERTEX
  8
0
  5
2D91
 10
212.288
 20
192.494
 30
0.000000
  70
    32
  0
VERTEX
  8
0
  5
2D92
 10
212.239
 20
192.429
 30
0.000000
  70
    32
  0
VERTEX
  8
0
  5
2D93
 10
212.191
 20
192.361
 30
0.000000
  70
    32
  0
VERTEX
  8
0
  5
2D94
 10
212.144
 20
192.292
 30
0.000000
  70
    32
  0
VERTEX
  8
0
  5
2D95
 10
212.098
 20
192.221
 30
0.000000
  70
    32
  0
VERTEX
  8
0
  5
2D96
 10
212.054
 20
192.148
 30
0.000000
  70
    32
  0
VERTEX
  8
0
  5
2D97
 10
212.010
 20
192.074
 30
0.000000
  70
    32
  0
VERTEX
  8
0
  5
2D98
 10
211.967
 20
191.997
 30
0.000000
  70
    32
  0
VERTEX
  8
0
  5
2D99
 10
211.926
 20
191.919
 30
0.000000
  70
    32
  0
VERTEX
  8
0
  5
2D9A
 10
211.886
 20
191.839
 30
0.000000
  70
    32
  0
VERTEX
  8
0
  5
2D9B
 10
211.846
 20
191.758
 30
0.000000
  70
    32
  0
VERTEX
  8
0
  5
2D9C
 10
211.808
 20
191.675
 30
0.000000
  70
    32
  0
VERTEX
  8
0
  5
2D9D
 10
211.772
 20
191.590
 30
0.000000
  70
    32
  0
VERTEX
  8
0
  5
2D9E
 10
211.736
 20
191.504
 30
0.000000
  70
    32
  0
VERTEX
  8
0
  5
2D9F
 10
211.702
 20
191.417
 30
0.000000
  70
    32
  0
VERTEX
  8
0
  5
2DA0
 10
211.669
 20
191.328
 30
0.000000
  70
    32
  0
VERTEX
  8
0
  5
2DA1
 10
211.638
 20
191.238
 30
0.000000
  70
    32
  0
VERTEX
  8
0
  5
2DA2
 10
211.608
 20
191.147
 30
0.000000
  70
    32
  0
VERTEX
  8
0
  5
2DA3
 10
211.579
 20
191.054
 30
0.000000
  70
    32
  0
VERTEX
  8
0
  5
2DA4
 10
211.551
 20
190.960
 30
0.000000
  70
    32
  0
VERTEX
  8
0
  5
2DA5
 10
211.525
 20
190.866
 30
0.000000
  70
    32
  0
VERTEX
  8
0
  5
2DA6
 10
211.501
 20
190.770
 30
0.000000
  70
    32
  0
VERTEX
  8
0
  5
2DA7
 10
211.477
 20
190.673
 30
0.000000
  70
    32
  0
VERTEX
  8
0
  5
2DA8
 10
211.456
 20
190.575
 30
0.000000
  70
    32
  0
VERTEX
  8
0
  5
2DA9
 10
211.435
 20
190.476
 30
0.000000
  70
    32
  0
VERTEX
  8
0
  5
2DAA
 10
211.416
 20
190.377
 30
0.000000
  70
    32
  0
VERTEX
  8
0
  5
2DAB
 10
211.399
 20
190.277
 30
0.000000
  70
    32
  0
VERTEX
  8
0
  5
2DAC
 10
211.383
 20
190.176
 30
0.000000
  70
    32
  0
VERTEX
  8
0
  5
2DAD
 10
211.368
 20
190.074
 30
0.000000
  70
    32
  0
VERTEX
  8
0
  5
2DAE
 10
211.355
 20
189.972
 30
0.000000
  70
    32
  0
VERTEX
  8
0
  5
2DAF
 10
211.344
 20
189.870
 30
0.000000
  70
    32
  0
VERTEX
  8
0
  5
2DB0
 10
211.334
 20
189.767
 30
0.000000
  70
    32
  0
VERTEX
  8
0
  5
2DB1
 10
211.326
 20
189.663
 30
0.000000
  70
    32
  0
VERTEX
  8
0
  5
2DB2
 10
211.319
 20
189.560
 30
0.000000
  70
    32
  0
VERTEX
  8
0
  5
2DB3
 10
211.313
 20
189.456
 30
0.000000
  70
    32
  0
VERTEX
  8
0
  5
2DB4
 10
211.309
 20
189.352
 30
0.000000
  70
    32
  0
VERTEX
  8
0
  5
2DB5
 10
211.307
 20
189.248
 30
0.000000
  70
    32
  0
VERTEX
  8
0
  5
2DB6
 10
211.306
 20
189.143
 30
0.000000
  70
    32
  0
VERTEX
  8
0
  5
2DB7
 10
211.307
 20
189.039
 30
0.000000
  70
    32
  0
VERTEX
  8
0
  5
2DB8
 10
211.309
 20
188.935
 30
0.000000
  70
    32
  0
VERTEX
  8
0
  5
2DB9
 10
211.313
 20
188.831
 30
0.000000
  70
    32
  0
VERTEX
  8
0
  5
2DBA
 10
211.319
 20
188.727
 30
0.000000
  70
    32
  0
VERTEX
  8
0
  5
2DBB
 10
211.326
 20
188.623
 30
0.000000
  70
    32
  0
VERTEX
  8
0
  5
2DBC
 10
211.334
 20
188.520
 30
0.000000
  70
    32
  0
VERTEX
  8
0
  5
2DBD
 10
211.344
 20
188.417
 30
0.000000
  70
    32
  0
VERTEX
  8
0
  5
2DBE
 10
211.355
 20
188.314
 30
0.000000
  70
    32
  0
VERTEX
  8
0
  5
2DBF
 10
211.368
 20
188.212
 30
0.000000
  70
    32
  0
VERTEX
  8
0
  5
2DC0
 10
211.383
 20
188.111
 30
0.000000
  70
    32
  0
VERTEX
  8
0
  5
2DC1
 10
211.399
 20
188.010
 30
0.000000
  70
    32
  0
VERTEX
  8
0
  5
2DC2
 10
211.416
 20
187.910
 30
0.000000
  70
    32
  0
VERTEX
  8
0
  5
2DC3
 10
211.435
 20
187.810
 30
0.000000
  70
    32
  0
VERTEX
  8
0
  5
2DC4
 10
211.456
 20
187.711
 30
0.000000
  70
    32
  0
VERTEX
  8
0
  5
2DC5
 10
211.477
 20
187.614
 30
0.000000
  70
    32
  0
VERTEX
  8
0
  5
2DC6
 10
211.501
 20
187.517
 30
0.000000
  70
    32
  0
VERTEX
  8
0
  5
2DC7
 10
211.525
 20
187.421
 30
0.000000
  70
    32
  0
VERTEX
  8
0
  5
2DC8
 10
211.551
 20
187.326
 30
0.000000
  70
    32
  0
VERTEX
  8
0
  5
2DC9
 10
211.579
 20
187.232
 30
0.000000
  70
    32
  0
VERTEX
  8
0
  5
2DCA
 10
211.608
 20
187.140
 30
0.000000
  70
    32
  0
VERTEX
  8
0
  5
2DCB
 10
211.638
 20
187.048
 30
0.000000
  70
    32
  0
VERTEX
  8
0
  5
2DCC
 10
211.669
 20
186.958
 30
0.000000
  70
    32
  0
VERTEX
  8
0
  5
2DCD
 10
211.702
 20
186.869
 30
0.000000
  70
    32
  0
VERTEX
  8
0
  5
2DCE
 10
211.736
 20
186.782
 30
0.000000
  70
    32
  0
VERTEX
  8
0
  5
2DCF
 10
211.772
 20
186.696
 30
0.000000
  70
    32
  0
VERTEX
  8
0
  5
2DD0
 10
211.808
 20
186.612
 30
0.000000
  70
    32
  0
VERTEX
  8
0
  5
2DD1
 10
211.846
 20
186.529
 30
0.000000
  70
    32
  0
VERTEX
  8
0
  5
2DD2
 10
211.886
 20
186.447
 30
0.000000
  70
    32
  0
VERTEX
  8
0
  5
2DD3
 10
211.926
 20
186.367
 30
0.000000
  70
    32
  0
VERTEX
  8
0
  5
2DD4
 10
211.967
 20
186.289
 30
0.000000
  70
    32
  0
VERTEX
  8
0
  5
2DD5
 10
212.010
 20
186.213
 30
0.000000
  70
    32
  0
VERTEX
  8
0
  5
2DD6
 10
212.054
 20
186.138
 30
0.000000
  70
    32
  0
VERTEX
  8
0
  5
2DD7
 10
212.098
 20
186.065
 30
0.000000
  70
    32
  0
VERTEX
  8
0
  5
2DD8
 10
212.144
 20
185.994
 30
0.000000
  70
    32
  0
VERTEX
  8
0
  5
2DD9
 10
212.191
 20
185.925
 30
0.000000
  70
    32
  0
VERTEX
  8
0
  5
2DDA
 10
212.239
 20
185.858
 30
0.000000
  70
    32
  0
VERTEX
  8
0
  5
2DDB
 10
212.288
 20
185.793
 30
0.000000
  70
    32
  0
VERTEX
  8
0
  5
2DDC
 10
212.338
 20
185.730
 30
0.000000
  70
    32
  0
VERTEX
  8
0
  5
2DDD
 10
212.389
 20
185.669
 30
0.000000
  70
    32
  0
VERTEX
  8
0
  5
2DDE
 10
212.440
 20
185.609
 30
0.000000
  70
    32
  0
VERTEX
  8
0
  5
2DDF
 10
212.493
 20
185.553
 30
0.000000
  70
    32
  0
VERTEX
  8
0
  5
2DE0
 10
212.546
 20
185.498
 30
0.000000
  70
    32
  0
VERTEX
  8
0
  5
2DE1
 10
212.600
 20
185.445
 30
0.000000
  70
    32
  0
VERTEX
  8
0
  5
2DE2
 10
212.655
 20
185.395
 30
0.000000
  70
    32
  0
VERTEX
  8
0
  5
2DE3
 10
212.711
 20
185.347
 30
0.000000
  70
    32
  0
VERTEX
  8
0
  5
2DE4
 10
212.767
 20
185.301
 30
0.000000
  70
    32
  0
VERTEX
  8
0
  5
2DE5
 10
212.824
 20
185.258
 30
0.000000
  70
    32
  0
VERTEX
  8
0
  5
2DE6
 10
212.881
 20
185.217
 30
0.000000
  70
    32
  0
VERTEX
  8
0
  5
2DE7
 10
212.940
 20
185.178
 30
0.000000
  70
    32
  0
VERTEX
  8
0
  5
2DE8
 10
212.998
 20
185.142
 30
0.000000
  70
    32
  0
VERTEX
  8
0
  5
2DE9
 10
213.057
 20
185.108
 30
0.000000
  70
    32
  0
VERTEX
  8
0
  5
2DEA
 10
213.117
 20
185.076
 30
0.000000
  70
    32
  0
VERTEX
  8
0
  5
2DEB
 10
213.177
 20
185.047
 30
0.000000
  70
    32
  0
VERTEX
  8
0
  5
2DEC
 10
213.238
 20
185.021
 30
0.000000
  70
    32
  0
VERTEX
  8
0
  5
2DED
 10
213.299
 20
184.997
 30
0.000000
  70
    32
  0
VERTEX
  8
0
  5
2DEE
 10
213.360
 20
184.975
 30
0.000000
  70
    32
  0
VERTEX
  8
0
  5
2DEF
 10
213.422
 20
184.956
 30
0.000000
  70
    32
  0
VERTEX
  8
0
  5
2DF0
 10
213.483
 20
184.939
 30
0.000000
  70
    32
  0
VERTEX
  8
0
  5
2DF1
 10
213.545
 20
184.925
 30
0.000000
  70
    32
  0
VERTEX
  8
0
  5
2DF2
 10
213.608
 20
184.914
 30
0.000000
  70
    32
  0
VERTEX
  8
0
  5
2DF3
 10
213.670
 20
184.905
 30
0.000000
  70
    32
  0
VERTEX
  8
0
  5
2DF4
 10
213.733
 20
184.898
 30
0.000000
  70
    32
  0
VERTEX
  8
0
  5
2DF5
 10
213.795
 20
184.895
 30
0.000000
  70
    32
  0
VERTEX
  8
0
  5
2DF6
 10
213.858
 20
184.893
 30
0.000000
  70
    32
  0
SEQEND
  8
0
  5
2DF7
  0
POLYLINE
  5
1BB1
  8
0
 10
213.8577237238209
 20
184.89323645759069
 30
0.0
 66
     1
 70
     8
  0
VERTEX
  8
0
  5
2DF8
 10
213.858
 20
184.893
 30
0.000000
  70
    32
  0
VERTEX
  8
0
  5
2DF9
 10
213.899
 20
184.895
 30
0.000000
  70
    32
  0
VERTEX
  8
0
  5
2DFA
 10
213.941
 20
184.898
 30
0.000000
  70
    32
  0
VERTEX
  8
0
  5
2DFB
 10
213.983
 20
184.905
 30
0.000000
  70
    32
  0
VERTEX
  8
0
  5
2DFC
 10
214.024
 20
184.914
 30
0.000000
  70
    32
  0
VERTEX
  8
0
  5
2DFD
 10
214.065
 20
184.925
 30
0.000000
  70
    32
  0
VERTEX
  8
0
  5
2DFE
 10
214.107
 20
184.939
 30
0.000000
  70
    32
  0
VERTEX
  8
0
  5
2DFF
 10
214.148
 20
184.956
 30
0.000000
  70
    32
  0
VERTEX
  8
0
  5
2E00
 10
214.189
 20
184.975
 30
0.000000
  70
    32
  0
VERTEX
  8
0
  5
2E01
 10
214.229
 20
184.997
 30
0.000000
  70
    32
  0
VERTEX
  8
0
  5
2E02
 10
214.270
 20
185.021
 30
0.000000
  70
    32
  0
VERTEX
  8
0
  5
2E03
 10
214.310
 20
185.047
 30
0.000000
  70
    32
  0
VERTEX
  8
0
  5
2E04
 10
214.350
 20
185.076
 30
0.000000
  70
    32
  0
VERTEX
  8
0
  5
2E05
 10
214.390
 20
185.108
 30
0.000000
  70
    32
  0
VERTEX
  8
0
  5
2E06
 10
214.429
 20
185.142
 30
0.000000
  70
    32
  0
VERTEX
  8
0
  5
2E07
 10
214.468
 20
185.178
 30
0.000000
  70
    32
  0
VERTEX
  8
0
  5
2E08
 10
214.507
 20
185.217
 30
0.000000
  70
    32
  0
VERTEX
  8
0
  5
2E09
 10
214.545
 20
185.258
 30
0.000000
  70
    32
  0
VERTEX
  8
0
  5
2E0A
 10
214.583
 20
185.301
 30
0.000000
  70
    32
  0
VERTEX
  8
0
  5
2E0B
 10
214.620
 20
185.347
 30
0.000000
  70
    32
  0
VERTEX
  8
0
  5
2E0C
 10
214.657
 20
185.395
 30
0.000000
  70
    32
  0
VERTEX
  8
0
  5
2E0D
 10
214.694
 20
185.445
 30
0.000000
  70
    32
  0
VERTEX
  8
0
  5
2E0E
 10
214.730
 20
185.498
 30
0.000000
  70
    32
  0
VERTEX
  8
0
  5
2E0F
 10
214.765
 20
185.553
 30
0.000000
  70
    32
  0
VERTEX
  8
0
  5
2E10
 10
214.800
 20
185.609
 30
0.000000
  70
    32
  0
VERTEX
  8
0
  5
2E11
 10
214.835
 20
185.669
 30
0.000000
  70
    32
  0
VERTEX
  8
0
  5
2E12
 10
214.868
 20
185.730
 30
0.000000
  70
    32
  0
VERTEX
  8
0
  5
2E13
 10
214.901
 20
185.793
 30
0.000000
  70
    32
  0
VERTEX
  8
0
  5
2E14
 10
214.934
 20
185.858
 30
0.000000
  70
    32
  0
VERTEX
  8
0
  5
2E15
 10
214.966
 20
185.925
 30
0.000000
  70
    32
  0
VERTEX
  8
0
  5
2E16
 10
214.997
 20
185.994
 30
0.000000
  70
    32
  0
VERTEX
  8
0
  5
2E17
 10
215.028
 20
186.065
 30
0.000000
  70
    32
  0
VERTEX
  8
0
  5
2E18
 10
215.057
 20
186.138
 30
0.000000
  70
    32
  0
VERTEX
  8
0
  5
2E19
 10
215.086
 20
186.213
 30
0.000000
  70
    32
  0
VERTEX
  8
0
  5
2E1A
 10
215.115
 20
186.289
 30
0.000000
  70
    32
  0
VERTEX
  8
0
  5
2E1B
 10
215.142
 20
186.367
 30
0.000000
  70
    32
  0
VERTEX
  8
0
  5
2E1C
 10
215.169
 20
186.447
 30
0.000000
  70
    32
  0
VERTEX
  8
0
  5
2E1D
 10
215.195
 20
186.529
 30
0.000000
  70
    32
  0
VERTEX
  8
0
  5
2E1E
 10
215.220
 20
186.612
 30
0.000000
  70
    32
  0
VERTEX
  8
0
  5
2E1F
 10
215.245
 20
186.696
 30
0.000000
  70
    32
  0
VERTEX
  8
0
  5
2E20
 10
215.268
 20
186.782
 30
0.000000
  70
    32
  0
VERTEX
  8
0
  5
2E21
 10
215.291
 20
186.869
 30
0.000000
  70
    32
  0
VERTEX
  8
0
  5
2E22
 10
215.313
 20
186.958
 30
0.000000
  70
    32
  0
VERTEX
  8
0
  5
2E23
 10
215.334
 20
187.048
 30
0.000000
  70
    32
  0
VERTEX
  8
0
  5
2E24
 10
215.354
 20
187.140
 30
0.000000
  70
    32
  0
VERTEX
  8
0
  5
2E25
 10
215.373
 20
187.232
 30
0.000000
  70
    32
  0
VERTEX
  8
0
  5
2E26
 10
215.391
 20
187.326
 30
0.000000
  70
    32
  0
VERTEX
  8
0
  5
2E27
 10
215.409
 20
187.421
 30
0.000000
  70
    32
  0
VERTEX
  8
0
  5
2E28
 10
215.425
 20
187.517
 30
0.000000
  70
    32
  0
VERTEX
  8
0
  5
2E29
 10
215.441
 20
187.614
 30
0.000000
  70
    32
  0
VERTEX
  8
0
  5
2E2A
 10
215.455
 20
187.711
 30
0.000000
  70
    32
  0
VERTEX
  8
0
  5
2E2B
 10
215.469
 20
187.810
 30
0.000000
  70
    32
  0
VERTEX
  8
0
  5
2E2C
 10
215.481
 20
187.910
 30
0.000000
  70
    32
  0
VERTEX
  8
0
  5
2E2D
 10
215.493
 20
188.010
 30
0.000000
  70
    32
  0
VERTEX
  8
0
  5
2E2E
 10
215.503
 20
188.111
 30
0.000000
  70
    32
  0
VERTEX
  8
0
  5
2E2F
 10
215.513
 20
188.212
 30
0.000000
  70
    32
  0
VERTEX
  8
0
  5
2E30
 10
215.522
 20
188.314
 30
0.000000
  70
    32
  0
VERTEX
  8
0
  5
2E31
 10
215.529
 20
188.417
 30
0.000000
  70
    32
  0
VERTEX
  8
0
  5
2E32
 10
215.536
 20
188.520
 30
0.000000
  70
    32
  0
VERTEX
  8
0
  5
2E33
 10
215.541
 20
188.623
 30
0.000000
  70
    32
  0
VERTEX
  8
0
  5
2E34
 10
215.546
 20
188.727
 30
0.000000
  70
    32
  0
VERTEX
  8
0
  5
2E35
 10
215.550
 20
188.831
 30
0.000000
  70
    32
  0
VERTEX
  8
0
  5
2E36
 10
215.552
 20
188.935
 30
0.000000
  70
    32
  0
VERTEX
  8
0
  5
2E37
 10
215.554
 20
189.039
 30
0.000000
  70
    32
  0
VERTEX
  8
0
  5
2E38
 10
215.554
 20
189.143
 30
0.000000
  70
    32
  0
VERTEX
  8
0
  5
2E39
 10
215.554
 20
189.248
 30
0.000000
  70
    32
  0
VERTEX
  8
0
  5
2E3A
 10
215.552
 20
189.352
 30
0.000000
  70
    32
  0
VERTEX
  8
0
  5
2E3B
 10
215.550
 20
189.456
 30
0.000000
  70
    32
  0
VERTEX
  8
0
  5
2E3C
 10
215.546
 20
189.560
 30
0.000000
  70
    32
  0
VERTEX
  8
0
  5
2E3D
 10
215.541
 20
189.663
 30
0.000000
  70
    32
  0
VERTEX
  8
0
  5
2E3E
 10
215.536
 20
189.767
 30
0.000000
  70
    32
  0
VERTEX
  8
0
  5
2E3F
 10
215.529
 20
189.870
 30
0.000000
  70
    32
  0
VERTEX
  8
0
  5
2E40
 10
215.522
 20
189.972
 30
0.000000
  70
    32
  0
VERTEX
  8
0
  5
2E41
 10
215.513
 20
190.074
 30
0.000000
  70
    32
  0
VERTEX
  8
0
  5
2E42
 10
215.503
 20
190.176
 30
0.000000
  70
    32
  0
VERTEX
  8
0
  5
2E43
 10
215.493
 20
190.277
 30
0.000000
  70
    32
  0
VERTEX
  8
0
  5
2E44
 10
215.481
 20
190.377
 30
0.000000
  70
    32
  0
VERTEX
  8
0
  5
2E45
 10
215.469
 20
190.476
 30
0.000000
  70
    32
  0
VERTEX
  8
0
  5
2E46
 10
215.455
 20
190.575
 30
0.000000
  70
    32
  0
VERTEX
  8
0
  5
2E47
 10
215.441
 20
190.673
 30
0.000000
  70
    32
  0
VERTEX
  8
0
  5
2E48
 10
215.425
 20
190.770
 30
0.000000
  70
    32
  0
VERTEX
  8
0
  5
2E49
 10
215.409
 20
190.866
 30
0.000000
  70
    32
  0
VERTEX
  8
0
  5
2E4A
 10
215.391
 20
190.960
 30
0.000000
  70
    32
  0
VERTEX
  8
0
  5
2E4B
 10
215.373
 20
191.054
 30
0.000000
  70
    32
  0
VERTEX
  8
0
  5
2E4C
 10
215.354
 20
191.147
 30
0.000000
  70
    32
  0
VERTEX
  8
0
  5
2E4D
 10
215.334
 20
191.238
 30
0.000000
  70
    32
  0
VERTEX
  8
0
  5
2E4E
 10
215.313
 20
191.328
 30
0.000000
  70
    32
  0
VERTEX
  8
0
  5
2E4F
 10
215.291
 20
191.417
 30
0.000000
  70
    32
  0
VERTEX
  8
0
  5
2E50
 10
215.268
 20
191.504
 30
0.000000
  70
    32
  0
VERTEX
  8
0
  5
2E51
 10
215.245
 20
191.590
 30
0.000000
  70
    32
  0
VERTEX
  8
0
  5
2E52
 10
215.220
 20
191.675
 30
0.000000
  70
    32
  0
VERTEX
  8
0
  5
2E53
 10
215.195
 20
191.758
 30
0.000000
  70
    32
  0
VERTEX
  8
0
  5
2E54
 10
215.169
 20
191.839
 30
0.000000
  70
    32
  0
VERTEX
  8
0
  5
2E55
 10
215.142
 20
191.919
 30
0.000000
  70
    32
  0
VERTEX
  8
0
  5
2E56
 10
215.115
 20
191.997
 30
0.000000
  70
    32
  0
VERTEX
  8
0
  5
2E57
 10
215.086
 20
192.074
 30
0.000000
  70
    32
  0
VERTEX
  8
0
  5
2E58
 10
215.057
 20
192.148
 30
0.000000
  70
    32
  0
VERTEX
  8
0
  5
2E59
 10
215.028
 20
192.221
 30
0.000000
  70
    32
  0
VERTEX
  8
0
  5
2E5A
 10
214.997
 20
192.292
 30
0.000000
  70
    32
  0
VERTEX
  8
0
  5
2E5B
 10
214.966
 20
192.361
 30
0.000000
  70
    32
  0
VERTEX
  8
0
  5
2E5C
 10
214.934
 20
192.429
 30
0.000000
  70
    32
  0
VERTEX
  8
0
  5
2E5D
 10
214.901
 20
192.494
 30
0.000000
  70
    32
  0
VERTEX
  8
0
  5
2E5E
 10
214.868
 20
192.557
 30
0.000000
  70
    32
  0
VERTEX
  8
0
  5
2E5F
 10
214.835
 20
192.618
 30
0.000000
  70
    32
  0
VERTEX
  8
0
  5
2E60
 10
214.800
 20
192.677
 30
0.000000
  70
    32
  0
VERTEX
  8
0
  5
2E61
 10
214.765
 20
192.734
 30
0.000000
  70
    32
  0
VERTEX
  8
0
  5
2E62
 10
214.730
 20
192.789
 30
0.000000
  70
    32
  0
VERTEX
  8
0
  5
2E63
 10
214.694
 20
192.841
 30
0.000000
  70
    32
  0
VERTEX
  8
0
  5
2E64
 10
214.657
 20
192.891
 30
0.000000
  70
    32
  0
VERTEX
  8
0
  5
2E65
 10
214.620
 20
192.939
 30
0.000000
  70
    32
  0
VERTEX
  8
0
  5
2E66
 10
214.583
 20
192.985
 30
0.000000
  70
    32
  0
VERTEX
  8
0
  5
2E67
 10
214.545
 20
193.029
 30
0.000000
  70
    32
  0
VERTEX
  8
0
  5
2E68
 10
214.507
 20
193.070
 30
0.000000
  70
    32
  0
VERTEX
  8
0
  5
2E69
 10
214.468
 20
193.108
 30
0.000000
  70
    32
  0
VERTEX
  8
0
  5
2E6A
 10
214.429
 20
193.145
 30
0.000000
  70
    32
  0
VERTEX
  8
0
  5
2E6B
 10
214.390
 20
193.179
 30
0.000000
  70
    32
  0
VERTEX
  8
0
  5
2E6C
 10
214.350
 20
193.210
 30
0.000000
  70
    32
  0
VERTEX
  8
0
  5
2E6D
 10
214.310
 20
193.239
 30
0.000000
  70
    32
  0
VERTEX
  8
0
  5
2E6E
 10
214.270
 20
193.266
 30
0.000000
  70
    32
  0
VERTEX
  8
0
  5
2E6F
 10
214.229
 20
193.290
 30
0.000000
  70
    32
  0
VERTEX
  8
0
  5
2E70
 10
214.189
 20
193.312
 30
0.000000
  70
    32
  0
VERTEX
  8
0
  5
2E71
 10
214.148
 20
193.331
 30
0.000000
  70
    32
  0
VERTEX
  8
0
  5
2E72
 10
214.107
 20
193.347
 30
0.000000
  70
    32
  0
VERTEX
  8
0
  5
2E73
 10
214.065
 20
193.361
 30
0.000000
  70
    32
  0
VERTEX
  8
0
  5
2E74
 10
214.024
 20
193.373
 30
0.000000
  70
    32
  0
VERTEX
  8
0
  5
2E75
 10
213.983
 20
193.382
 30
0.000000
  70
    32
  0
VERTEX
  8
0
  5
2E76
 10
213.941
 20
193.388
 30
0.000000
  70
    32
  0
VERTEX
  8
0
  5
2E77
 10
213.899
 20
193.392
 30
0.000000
  70
    32
  0
VERTEX
  8
0
  5
2E78
 10
213.858
 20
193.393
 30
0.000000
  70
    32
  0
SEQEND
  8
0
  5
2E79
  0
POLYLINE
  5
1BB2
  8
3
 10
212.29887840970096
 20
186.64323645759069
 30
0.0
 66
     1
 70
     8
  0
VERTEX
  8
3
  5
2E7A
 10
212.299
 20
186.643
 30
0.000000
  70
    32
  0
VERTEX
  8
3
  5
2E7B
 10
212.337
 20
186.644
 30
0.000000
  70
    32
  0
VERTEX
  8
3
  5
2E7C
 10
212.375
 20
186.646
 30
0.000000
  70
    32
  0
VERTEX
  8
3
  5
2E7D
 10
212.414
 20
186.650
 30
0.000000
  70
    32
  0
VERTEX
  8
3
  5
2E7E
 10
212.452
 20
186.655
 30
0.000000
  70
    32
  0
VERTEX
  8
3
  5
2E7F
 10
212.490
 20
186.662
 30
0.000000
  70
    32
  0
VERTEX
  8
3
  5
2E80
 10
212.528
 20
186.670
 30
0.000000
  70
    32
  0
VERTEX
  8
3
  5
2E81
 10
212.565
 20
186.680
 30
0.000000
  70
    32
  0
VERTEX
  8
3
  5
2E82
 10
212.603
 20
186.691
 30
0.000000
  70
    32
  0
VERTEX
  8
3
  5
2E83
 10
212.640
 20
186.704
 30
0.000000
  70
    32
  0
VERTEX
  8
3
  5
2E84
 10
212.678
 20
186.718
 30
0.000000
  70
    32
  0
VERTEX
  8
3
  5
2E85
 10
212.715
 20
186.734
 30
0.000000
  70
    32
  0
VERTEX
  8
3
  5
2E86
 10
212.751
 20
186.751
 30
0.000000
  70
    32
  0
VERTEX
  8
3
  5
2E87
 10
212.788
 20
186.769
 30
0.000000
  70
    32
  0
VERTEX
  8
3
  5
2E88
 10
212.824
 20
186.789
 30
0.000000
  70
    32
  0
VERTEX
  8
3
  5
2E89
 10
212.860
 20
186.811
 30
0.000000
  70
    32
  0
VERTEX
  8
3
  5
2E8A
 10
212.895
 20
186.834
 30
0.000000
  70
    32
  0
VERTEX
  8
3
  5
2E8B
 10
212.931
 20
186.858
 30
0.000000
  70
    32
  0
VERTEX
  8
3
  5
2E8C
 10
212.965
 20
186.883
 30
0.000000
  70
    32
  0
VERTEX
  8
3
  5
2E8D
 10
213.000
 20
186.910
 30
0.000000
  70
    32
  0
VERTEX
  8
3
  5
2E8E
 10
213.034
 20
186.938
 30
0.000000
  70
    32
  0
VERTEX
  8
3
  5
2E8F
 10
213.067
 20
186.968
 30
0.000000
  70
    32
  0
VERTEX
  8
3
  5
2E90
 10
213.100
 20
186.999
 30
0.000000
  70
    32
  0
VERTEX
  8
3
  5
2E91
 10
213.133
 20
187.031
 30
0.000000
  70
    32
  0
VERTEX
  8
3
  5
2E92
 10
213.165
 20
187.065
 30
0.000000
  70
    32
  0
VERTEX
  8
3
  5
2E93
 10
213.196
 20
187.099
 30
0.000000
  70
    32
  0
VERTEX
  8
3
  5
2E94
 10
213.227
 20
187.135
 30
0.000000
  70
    32
  0
VERTEX
  8
3
  5
2E95
 10
213.258
 20
187.172
 30
0.000000
  70
    32
  0
VERTEX
  8
3
  5
2E96
 10
213.288
 20
187.211
 30
0.000000
  70
    32
  0
VERTEX
  8
3
  5
2E97
 10
213.317
 20
187.250
 30
0.000000
  70
    32
  0
VERTEX
  8
3
  5
2E98
 10
213.346
 20
187.291
 30
0.000000
  70
    32
  0
VERTEX
  8
3
  5
2E99
 10
213.374
 20
187.333
 30
0.000000
  70
    32
  0
VERTEX
  8
3
  5
2E9A
 10
213.401
 20
187.375
 30
0.000000
  70
    32
  0
VERTEX
  8
3
  5
2E9B
 10
213.428
 20
187.419
 30
0.000000
  70
    32
  0
VERTEX
  8
3
  5
2E9C
 10
213.454
 20
187.464
 30
0.000000
  70
    32
  0
VERTEX
  8
3
  5
2E9D
 10
213.479
 20
187.510
 30
0.000000
  70
    32
  0
VERTEX
  8
3
  5
2E9E
 10
213.504
 20
187.557
 30
0.000000
  70
    32
  0
VERTEX
  8
3
  5
2E9F
 10
213.528
 20
187.605
 30
0.000000
  70
    32
  0
VERTEX
  8
3
  5
2EA0
 10
213.551
 20
187.654
 30
0.000000
  70
    32
  0
VERTEX
  8
3
  5
2EA1
 10
213.573
 20
187.704
 30
0.000000
  70
    32
  0
VERTEX
  8
3
  5
2EA2
 10
213.595
 20
187.754
 30
0.000000
  70
    32
  0
VERTEX
  8
3
  5
2EA3
 10
213.616
 20
187.806
 30
0.000000
  70
    32
  0
VERTEX
  8
3
  5
2EA4
 10
213.636
 20
187.858
 30
0.000000
  70
    32
  0
VERTEX
  8
3
  5
2EA5
 10
213.655
 20
187.911
 30
0.000000
  70
    32
  0
VERTEX
  8
3
  5
2EA6
 10
213.674
 20
187.965
 30
0.000000
  70
    32
  0
VERTEX
  8
3
  5
2EA7
 10
213.691
 20
188.019
 30
0.000000
  70
    32
  0
VERTEX
  8
3
  5
2EA8
 10
213.708
 20
188.074
 30
0.000000
  70
    32
  0
VERTEX
  8
3
  5
2EA9
 10
213.724
 20
188.130
 30
0.000000
  70
    32
  0
VERTEX
  8
3
  5
2EAA
 10
213.739
 20
188.187
 30
0.000000
  70
    32
  0
VERTEX
  8
3
  5
2EAB
 10
213.753
 20
188.243
 30
0.000000
  70
    32
  0
VERTEX
  8
3
  5
2EAC
 10
213.767
 20
188.301
 30
0.000000
  70
    32
  0
VERTEX
  8
3
  5
2EAD
 10
213.779
 20
188.359
 30
0.000000
  70
    32
  0
VERTEX
  8
3
  5
2EAE
 10
213.791
 20
188.418
 30
0.000000
  70
    32
  0
VERTEX
  8
3
  5
2EAF
 10
213.801
 20
188.476
 30
0.000000
  70
    32
  0
VERTEX
  8
3
  5
2EB0
 10
213.811
 20
188.536
 30
0.000000
  70
    32
  0
VERTEX
  8
3
  5
2EB1
 10
213.820
 20
188.595
 30
0.000000
  70
    32
  0
VERTEX
  8
3
  5
2EB2
 10
213.828
 20
188.656
 30
0.000000
  70
    32
  0
VERTEX
  8
3
  5
2EB3
 10
213.835
 20
188.716
 30
0.000000
  70
    32
  0
VERTEX
  8
3
  5
2EB4
 10
213.841
 20
188.776
 30
0.000000
  70
    32
  0
VERTEX
  8
3
  5
2EB5
 10
213.846
 20
188.837
 30
0.000000
  70
    32
  0
VERTEX
  8
3
  5
2EB6
 10
213.850
 20
188.898
 30
0.000000
  70
    32
  0
VERTEX
  8
3
  5
2EB7
 10
213.853
 20
188.959
 30
0.000000
  70
    32
  0
VERTEX
  8
3
  5
2EB8
 10
213.856
 20
189.021
 30
0.000000
  70
    32
  0
VERTEX
  8
3
  5
2EB9
 10
213.857
 20
189.082
 30
0.000000
  70
    32
  0
VERTEX
  8
3
  5
2EBA
 10
213.858
 20
189.143
 30
0.000000
  70
    32
  0
VERTEX
  8
3
  5
2EBB
 10
213.857
 20
189.205
 30
0.000000
  70
    32
  0
VERTEX
  8
3
  5
2EBC
 10
213.856
 20
189.266
 30
0.000000
  70
    32
  0
VERTEX
  8
3
  5
2EBD
 10
213.853
 20
189.327
 30
0.000000
  70
    32
  0
VERTEX
  8
3
  5
2EBE
 10
213.850
 20
189.388
 30
0.000000
  70
    32
  0
VERTEX
  8
3
  5
2EBF
 10
213.846
 20
189.449
 30
0.000000
  70
    32
  0
VERTEX
  8
3
  5
2EC0
 10
213.841
 20
189.510
 30
0.000000
  70
    32
  0
VERTEX
  8
3
  5
2EC1
 10
213.835
 20
189.571
 30
0.000000
  70
    32
  0
VERTEX
  8
3
  5
2EC2
 10
213.828
 20
189.631
 30
0.000000
  70
    32
  0
VERTEX
  8
3
  5
2EC3
 10
213.820
 20
189.691
 30
0.000000
  70
    32
  0
VERTEX
  8
3
  5
2EC4
 10
213.811
 20
189.751
 30
0.000000
  70
    32
  0
VERTEX
  8
3
  5
2EC5
 10
213.801
 20
189.810
 30
0.000000
  70
    32
  0
VERTEX
  8
3
  5
2EC6
 10
213.791
 20
189.869
 30
0.000000
  70
    32
  0
VERTEX
  8
3
  5
2EC7
 10
213.779
 20
189.927
 30
0.000000
  70
    32
  0
VERTEX
  8
3
  5
2EC8
 10
213.767
 20
189.985
 30
0.000000
  70
    32
  0
VERTEX
  8
3
  5
2EC9
 10
213.753
 20
190.043
 30
0.000000
  70
    32
  0
VERTEX
  8
3
  5
2ECA
 10
213.739
 20
190.100
 30
0.000000
  70
    32
  0
VERTEX
  8
3
  5
2ECB
 10
213.724
 20
190.156
 30
0.000000
  70
    32
  0
VERTEX
  8
3
  5
2ECC
 10
213.708
 20
190.212
 30
0.000000
  70
    32
  0
VERTEX
  8
3
  5
2ECD
 10
213.691
 20
190.267
 30
0.000000
  70
    32
  0
VERTEX
  8
3
  5
2ECE
 10
213.674
 20
190.322
 30
0.000000
  70
    32
  0
VERTEX
  8
3
  5
2ECF
 10
213.655
 20
190.375
 30
0.000000
  70
    32
  0
VERTEX
  8
3
  5
2ED0
 10
213.636
 20
190.428
 30
0.000000
  70
    32
  0
VERTEX
  8
3
  5
2ED1
 10
213.616
 20
190.481
 30
0.000000
  70
    32
  0
VERTEX
  8
3
  5
2ED2
 10
213.595
 20
190.532
 30
0.000000
  70
    32
  0
VERTEX
  8
3
  5
2ED3
 10
213.573
 20
190.583
 30
0.000000
  70
    32
  0
VERTEX
  8
3
  5
2ED4
 10
213.551
 20
190.632
 30
0.000000
  70
    32
  0
VERTEX
  8
3
  5
2ED5
 10
213.528
 20
190.681
 30
0.000000
  70
    32
  0
VERTEX
  8
3
  5
2ED6
 10
213.504
 20
190.729
 30
0.000000
  70
    32
  0
VERTEX
  8
3
  5
2ED7
 10
213.479
 20
190.776
 30
0.000000
  70
    32
  0
VERTEX
  8
3
  5
2ED8
 10
213.454
 20
190.822
 30
0.000000
  70
    32
  0
VERTEX
  8
3
  5
2ED9
 10
213.428
 20
190.867
 30
0.000000
  70
    32
  0
VERTEX
  8
3
  5
2EDA
 10
213.401
 20
190.911
 30
0.000000
  70
    32
  0
VERTEX
  8
3
  5
2EDB
 10
213.374
 20
190.954
 30
0.000000
  70
    32
  0
VERTEX
  8
3
  5
2EDC
 10
213.346
 20
190.996
 30
0.000000
  70
    32
  0
VERTEX
  8
3
  5
2EDD
 10
213.317
 20
191.036
 30
0.000000
  70
    32
  0
VERTEX
  8
3
  5
2EDE
 10
213.288
 20
191.076
 30
0.000000
  70
    32
  0
VERTEX
  8
3
  5
2EDF
 10
213.258
 20
191.114
 30
0.000000
  70
    32
  0
VERTEX
  8
3
  5
2EE0
 10
213.227
 20
191.151
 30
0.000000
  70
    32
  0
VERTEX
  8
3
  5
2EE1
 10
213.196
 20
191.187
 30
0.000000
  70
    32
  0
VERTEX
  8
3
  5
2EE2
 10
213.165
 20
191.222
 30
0.000000
  70
    32
  0
VERTEX
  8
3
  5
2EE3
 10
213.133
 20
191.255
 30
0.000000
  70
    32
  0
VERTEX
  8
3
  5
2EE4
 10
213.100
 20
191.288
 30
0.000000
  70
    32
  0
VERTEX
  8
3
  5
2EE5
 10
213.067
 20
191.318
 30
0.000000
  70
    32
  0
VERTEX
  8
3
  5
2EE6
 10
213.034
 20
191.348
 30
0.000000
  70
    32
  0
VERTEX
  8
3
  5
2EE7
 10
213.000
 20
191.376
 30
0.000000
  70
    32
  0
VERTEX
  8
3
  5
2EE8
 10
212.965
 20
191.403
 30
0.000000
  70
    32
  0
VERTEX
  8
3
  5
2EE9
 10
212.931
 20
191.429
 30
0.000000
  70
    32
  0
VERTEX
  8
3
  5
2EEA
 10
212.895
 20
191.453
 30
0.000000
  70
    32
  0
VERTEX
  8
3
  5
2EEB
 10
212.860
 20
191.476
 30
0.000000
  70
    32
  0
VERTEX
  8
3
  5
2EEC
 10
212.824
 20
191.497
 30
0.000000
  70
    32
  0
VERTEX
  8
3
  5
2EED
 10
212.788
 20
191.517
 30
0.000000
  70
    32
  0
VERTEX
  8
3
  5
2EEE
 10
212.751
 20
191.536
 30
0.000000
  70
    32
  0
VERTEX
  8
3
  5
2EEF
 10
212.715
 20
191.553
 30
0.000000
  70
    32
  0
VERTEX
  8
3
  5
2EF0
 10
212.678
 20
191.568
 30
0.000000
  70
    32
  0
VERTEX
  8
3
  5
2EF1
 10
212.640
 20
191.582
 30
0.000000
  70
    32
  0
VERTEX
  8
3
  5
2EF2
 10
212.603
 20
191.595
 30
0.000000
  70
    32
  0
VERTEX
  8
3
  5
2EF3
 10
212.565
 20
191.606
 30
0.000000
  70
    32
  0
VERTEX
  8
3
  5
2EF4
 10
212.528
 20
191.616
 30
0.000000
  70
    32
  0
VERTEX
  8
3
  5
2EF5
 10
212.490
 20
191.624
 30
0.000000
  70
    32
  0
VERTEX
  8
3
  5
2EF6
 10
212.452
 20
191.631
 30
0.000000
  70
    32
  0
VERTEX
  8
3
  5
2EF7
 10
212.414
 20
191.636
 30
0.000000
  70
    32
  0
VERTEX
  8
3
  5
2EF8
 10
212.375
 20
191.640
 30
0.000000
  70
    32
  0
VERTEX
  8
3
  5
2EF9
 10
212.337
 20
191.642
 30
0.000000
  70
    32
  0
VERTEX
  8
3
  5
2EFA
 10
212.299
 20
191.643
 30
0.000000
  70
    32
  0
SEQEND
  8
3
  5
2EFB
  0
POLYLINE
  5
1BB3
  8
3
 10
212.2988784097009
 20
191.64323645759069
 30
0.0
 66
     1
 70
     8
  0
VERTEX
  8
3
  5
2EFC
 10
212.299
 20
191.643
 30
0.000000
  70
    32
  0
VERTEX
  8
3
  5
2EFD
 10
212.275
 20
191.642
 30
0.000000
  70
    32
  0
VERTEX
  8
3
  5
2EFE
 10
212.250
 20
191.640
 30
0.000000
  70
    32
  0
VERTEX
  8
3
  5
2EFF
 10
212.226
 20
191.636
 30
0.000000
  70
    32
  0
VERTEX
  8
3
  5
2F00
 10
212.202
 20
191.631
 30
0.000000
  70
    32
  0
VERTEX
  8
3
  5
2F01
 10
212.177
 20
191.624
 30
0.000000
  70
    32
  0
VERTEX
  8
3
  5
2F02
 10
212.153
 20
191.616
 30
0.000000
  70
    32
  0
VERTEX
  8
3
  5
2F03
 10
212.129
 20
191.606
 30
0.000000
  70
    32
  0
VERTEX
  8
3
  5
2F04
 10
212.105
 20
191.595
 30
0.000000
  70
    32
  0
VERTEX
  8
3
  5
2F05
 10
212.081
 20
191.582
 30
0.000000
  70
    32
  0
VERTEX
  8
3
  5
2F06
 10
212.058
 20
191.568
 30
0.000000
  70
    32
  0
VERTEX
  8
3
  5
2F07
 10
212.034
 20
191.553
 30
0.000000
  70
    32
  0
VERTEX
  8
3
  5
2F08
 10
212.011
 20
191.536
 30
0.000000
  70
    32
  0
VERTEX
  8
3
  5
2F09
 10
211.988
 20
191.517
 30
0.000000
  70
    32
  0
VERTEX
  8
3
  5
2F0A
 10
211.965
 20
191.497
 30
0.000000
  70
    32
  0
VERTEX
  8
3
  5
2F0B
 10
211.942
 20
191.476
 30
0.000000
  70
    32
  0
VERTEX
  8
3
  5
2F0C
 10
211.919
 20
191.453
 30
0.000000
  70
    32
  0
VERTEX
  8
3
  5
2F0D
 10
211.897
 20
191.429
 30
0.000000
  70
    32
  0
VERTEX
  8
3
  5
2F0E
 10
211.875
 20
191.403
 30
0.000000
  70
    32
  0
VERTEX
  8
3
  5
2F0F
 10
211.853
 20
191.376
 30
0.000000
  70
    32
  0
VERTEX
  8
3
  5
2F10
 10
211.831
 20
191.348
 30
0.000000
  70
    32
  0
VERTEX
  8
3
  5
2F11
 10
211.810
 20
191.318
 30
0.000000
  70
    32
  0
VERTEX
  8
3
  5
2F12
 10
211.789
 20
191.288
 30
0.000000
  70
    32
  0
VERTEX
  8
3
  5
2F13
 10
211.768
 20
191.255
 30
0.000000
  70
    32
  0
VERTEX
  8
3
  5
2F14
 10
211.747
 20
191.222
 30
0.000000
  70
    32
  0
VERTEX
  8
3
  5
2F15
 10
211.727
 20
191.187
 30
0.000000
  70
    32
  0
VERTEX
  8
3
  5
2F16
 10
211.708
 20
191.151
 30
0.000000
  70
    32
  0
VERTEX
  8
3
  5
2F17
 10
211.688
 20
191.114
 30
0.000000
  70
    32
  0
VERTEX
  8
3
  5
2F18
 10
211.669
 20
191.076
 30
0.000000
  70
    32
  0
VERTEX
  8
3
  5
2F19
 10
211.651
 20
191.036
 30
0.000000
  70
    32
  0
VERTEX
  8
3
  5
2F1A
 10
211.632
 20
190.996
 30
0.000000
  70
    32
  0
VERTEX
  8
3
  5
2F1B
 10
211.615
 20
190.954
 30
0.000000
  70
    32
  0
VERTEX
  8
3
  5
2F1C
 10
211.597
 20
190.911
 30
0.000000
  70
    32
  0
VERTEX
  8
3
  5
2F1D
 10
211.580
 20
190.867
 30
0.000000
  70
    32
  0
VERTEX
  8
3
  5
2F1E
 10
211.563
 20
190.822
 30
0.000000
  70
    32
  0
VERTEX
  8
3
  5
2F1F
 10
211.547
 20
190.776
 30
0.000000
  70
    32
  0
VERTEX
  8
3
  5
2F20
 10
211.532
 20
190.729
 30
0.000000
  70
    32
  0
VERTEX
  8
3
  5
2F21
 10
211.516
 20
190.681
 30
0.000000
  70
    32
  0
VERTEX
  8
3
  5
2F22
 10
211.502
 20
190.632
 30
0.000000
  70
    32
  0
VERTEX
  8
3
  5
2F23
 10
211.487
 20
190.583
 30
0.000000
  70
    32
  0
VERTEX
  8
3
  5
2F24
 10
211.474
 20
190.532
 30
0.000000
  70
    32
  0
VERTEX
  8
3
  5
2F25
 10
211.460
 20
190.481
 30
0.000000
  70
    32
  0
VERTEX
  8
3
  5
2F26
 10
211.448
 20
190.428
 30
0.000000
  70
    32
  0
VERTEX
  8
3
  5
2F27
 10
211.435
 20
190.375
 30
0.000000
  70
    32
  0
VERTEX
  8
3
  5
2F28
 10
211.424
 20
190.322
 30
0.000000
  70
    32
  0
VERTEX
  8
3
  5
2F29
 10
211.412
 20
190.267
 30
0.000000
  70
    32
  0
VERTEX
  8
3
  5
2F2A
 10
211.402
 20
190.212
 30
0.000000
  70
    32
  0
VERTEX
  8
3
  5
2F2B
 10
211.392
 20
190.156
 30
0.000000
  70
    32
  0
VERTEX
  8
3
  5
2F2C
 10
211.382
 20
190.100
 30
0.000000
  70
    32
  0
VERTEX
  8
3
  5
2F2D
 10
211.373
 20
190.043
 30
0.000000
  70
    32
  0
VERTEX
  8
3
  5
2F2E
 10
211.364
 20
189.985
 30
0.000000
  70
    32
  0
VERTEX
  8
3
  5
2F2F
 10
211.356
 20
189.927
 30
0.000000
  70
    32
  0
VERTEX
  8
3
  5
2F30
 10
211.349
 20
189.869
 30
0.000000
  70
    32
  0
VERTEX
  8
3
  5
2F31
 10
211.342
 20
189.810
 30
0.000000
  70
    32
  0
VERTEX
  8
3
  5
2F32
 10
211.336
 20
189.751
 30
0.000000
  70
    32
  0
VERTEX
  8
3
  5
2F33
 10
211.331
 20
189.691
 30
0.000000
  70
    32
  0
VERTEX
  8
3
  5
2F34
 10
211.325
 20
189.631
 30
0.000000
  70
    32
  0
VERTEX
  8
3
  5
2F35
 10
211.321
 20
189.571
 30
0.000000
  70
    32
  0
VERTEX
  8
3
  5
2F36
 10
211.317
 20
189.510
 30
0.000000
  70
    32
  0
VERTEX
  8
3
  5
2F37
 10
211.314
 20
189.449
 30
0.000000
  70
    32
  0
VERTEX
  8
3
  5
2F38
 10
211.311
 20
189.388
 30
0.000000
  70
    32
  0
VERTEX
  8
3
  5
2F39
 10
211.309
 20
189.327
 30
0.000000
  70
    32
  0
VERTEX
  8
3
  5
2F3A
 10
211.308
 20
189.266
 30
0.000000
  70
    32
  0
VERTEX
  8
3
  5
2F3B
 10
211.307
 20
189.205
 30
0.000000
  70
    32
  0
VERTEX
  8
3
  5
2F3C
 10
211.306
 20
189.143
 30
0.000000
  70
    32
  0
VERTEX
  8
3
  5
2F3D
 10
211.307
 20
189.082
 30
0.000000
  70
    32
  0
VERTEX
  8
3
  5
2F3E
 10
211.308
 20
189.021
 30
0.000000
  70
    32
  0
VERTEX
  8
3
  5
2F3F
 10
211.309
 20
188.959
 30
0.000000
  70
    32
  0
VERTEX
  8
3
  5
2F40
 10
211.311
 20
188.898
 30
0.000000
  70
    32
  0
VERTEX
  8
3
  5
2F41
 10
211.314
 20
188.837
 30
0.000000
  70
    32
  0
VERTEX
  8
3
  5
2F42
 10
211.317
 20
188.776
 30
0.000000
  70
    32
  0
VERTEX
  8
3
  5
2F43
 10
211.321
 20
188.716
 30
0.000000
  70
    32
  0
VERTEX
  8
3
  5
2F44
 10
211.325
 20
188.656
 30
0.000000
  70
    32
  0
VERTEX
  8
3
  5
2F45
 10
211.331
 20
188.595
 30
0.000000
  70
    32
  0
VERTEX
  8
3
  5
2F46
 10
211.336
 20
188.536
 30
0.000000
  70
    32
  0
VERTEX
  8
3
  5
2F47
 10
211.342
 20
188.476
 30
0.000000
  70
    32
  0
VERTEX
  8
3
  5
2F48
 10
211.349
 20
188.418
 30
0.000000
  70
    32
  0
VERTEX
  8
3
  5
2F49
 10
211.356
 20
188.359
 30
0.000000
  70
    32
  0
VERTEX
  8
3
  5
2F4A
 10
211.364
 20
188.301
 30
0.000000
  70
    32
  0
VERTEX
  8
3
  5
2F4B
 10
211.373
 20
188.243
 30
0.000000
  70
    32
  0
VERTEX
  8
3
  5
2F4C
 10
211.382
 20
188.187
 30
0.000000
  70
    32
  0
VERTEX
  8
3
  5
2F4D
 10
211.392
 20
188.130
 30
0.000000
  70
    32
  0
VERTEX
  8
3
  5
2F4E
 10
211.402
 20
188.074
 30
0.000000
  70
    32
  0
VERTEX
  8
3
  5
2F4F
 10
211.412
 20
188.019
 30
0.000000
  70
    32
  0
VERTEX
  8
3
  5
2F50
 10
211.424
 20
187.965
 30
0.000000
  70
    32
  0
VERTEX
  8
3
  5
2F51
 10
211.435
 20
187.911
 30
0.000000
  70
    32
  0
VERTEX
  8
3
  5
2F52
 10
211.448
 20
187.858
 30
0.000000
  70
    32
  0
VERTEX
  8
3
  5
2F53
 10
211.460
 20
187.806
 30
0.000000
  70
    32
  0
VERTEX
  8
3
  5
2F54
 10
211.474
 20
187.754
 30
0.000000
  70
    32
  0
VERTEX
  8
3
  5
2F55
 10
211.487
 20
187.704
 30
0.000000
  70
    32
  0
VERTEX
  8
3
  5
2F56
 10
211.502
 20
187.654
 30
0.000000
  70
    32
  0
VERTEX
  8
3
  5
2F57
 10
211.516
 20
187.605
 30
0.000000
  70
    32
  0
VERTEX
  8
3
  5
2F58
 10
211.532
 20
187.557
 30
0.000000
  70
    32
  0
VERTEX
  8
3
  5
2F59
 10
211.547
 20
187.510
 30
0.000000
  70
    32
  0
VERTEX
  8
3
  5
2F5A
 10
211.563
 20
187.464
 30
0.000000
  70
    32
  0
VERTEX
  8
3
  5
2F5B
 10
211.580
 20
187.419
 30
0.000000
  70
    32
  0
VERTEX
  8
3
  5
2F5C
 10
211.597
 20
187.375
 30
0.000000
  70
    32
  0
VERTEX
  8
3
  5
2F5D
 10
211.615
 20
187.333
 30
0.000000
  70
    32
  0
VERTEX
  8
3
  5
2F5E
 10
211.632
 20
187.291
 30
0.000000
  70
    32
  0
VERTEX
  8
3
  5
2F5F
 10
211.651
 20
187.250
 30
0.000000
  70
    32
  0
VERTEX
  8
3
  5
2F60
 10
211.669
 20
187.211
 30
0.000000
  70
    32
  0
VERTEX
  8
3
  5
2F61
 10
211.688
 20
187.172
 30
0.000000
  70
    32
  0
VERTEX
  8
3
  5
2F62
 10
211.708
 20
187.135
 30
0.000000
  70
    32
  0
VERTEX
  8
3
  5
2F63
 10
211.727
 20
187.099
 30
0.000000
  70
    32
  0
VERTEX
  8
3
  5
2F64
 10
211.747
 20
187.065
 30
0.000000
  70
    32
  0
VERTEX
  8
3
  5
2F65
 10
211.768
 20
187.031
 30
0.000000
  70
    32
  0
VERTEX
  8
3
  5
2F66
 10
211.789
 20
186.999
 30
0.000000
  70
    32
  0
VERTEX
  8
3
  5
2F67
 10
211.810
 20
186.968
 30
0.000000
  70
    32
  0
VERTEX
  8
3
  5
2F68
 10
211.831
 20
186.938
 30
0.000000
  70
    32
  0
VERTEX
  8
3
  5
2F69
 10
211.853
 20
186.910
 30
0.000000
  70
    32
  0
VERTEX
  8
3
  5
2F6A
 10
211.875
 20
186.883
 30
0.000000
  70
    32
  0
VERTEX
  8
3
  5
2F6B
 10
211.897
 20
186.858
 30
0.000000
  70
    32
  0
VERTEX
  8
3
  5
2F6C
 10
211.919
 20
186.834
 30
0.000000
  70
    32
  0
VERTEX
  8
3
  5
2F6D
 10
211.942
 20
186.811
 30
0.000000
  70
    32
  0
VERTEX
  8
3
  5
2F6E
 10
211.965
 20
186.789
 30
0.000000
  70
    32
  0
VERTEX
  8
3
  5
2F6F
 10
211.988
 20
186.769
 30
0.000000
  70
    32
  0
VERTEX
  8
3
  5
2F70
 10
212.011
 20
186.751
 30
0.000000
  70
    32
  0
VERTEX
  8
3
  5
2F71
 10
212.034
 20
186.734
 30
0.000000
  70
    32
  0
VERTEX
  8
3
  5
2F72
 10
212.058
 20
186.718
 30
0.000000
  70
    32
  0
VERTEX
  8
3
  5
2F73
 10
212.081
 20
186.704
 30
0.000000
  70
    32
  0
VERTEX
  8
3
  5
2F74
 10
212.105
 20
186.691
 30
0.000000
  70
    32
  0
VERTEX
  8
3
  5
2F75
 10
212.129
 20
186.680
 30
0.000000
  70
    32
  0
VERTEX
  8
3
  5
2F76
 10
212.153
 20
186.670
 30
0.000000
  70
    32
  0
VERTEX
  8
3
  5
2F77
 10
212.177
 20
186.662
 30
0.000000
  70
    32
  0
VERTEX
  8
3
  5
2F78
 10
212.202
 20
186.655
 30
0.000000
  70
    32
  0
VERTEX
  8
3
  5
2F79
 10
212.226
 20
186.650
 30
0.000000
  70
    32
  0
VERTEX
  8
3
  5
2F7A
 10
212.250
 20
186.646
 30
0.000000
  70
    32
  0
VERTEX
  8
3
  5
2F7B
 10
212.275
 20
186.644
 30
0.000000
  70
    32
  0
VERTEX
  8
3
  5
2F7C
 10
212.299
 20
186.643
 30
0.000000
  70
    32
  0
SEQEND
  8
3
  5
2F7D
  0
POLYLINE
  5
1BB4
  8
0
 10
211.48148185509714
 20
187.7252338511278
 30
0.0
 66
     1
 70
     8
  0
VERTEX
  8
0
  5
2F7E
 10
211.481
 20
187.725
 30
0.000000
  70
    32
  0
VERTEX
  8
0
  5
2F7F
 10
211.508
 20
187.670
 30
0.000000
  70
    32
  0
VERTEX
  8
0
  5
2F80
 10
211.536
 20
187.617
 30
0.000000
  70
    32
  0
VERTEX
  8
0
  5
2F81
 10
211.565
 20
187.566
 30
0.000000
  70
    32
  0
VERTEX
  8
0
  5
2F82
 10
211.595
 20
187.518
 30
0.000000
  70
    32
  0
VERTEX
  8
0
  5
2F83
 10
211.626
 20
187.471
 30
0.000000
  70
    32
  0
VERTEX
  8
0
  5
2F84
 10
211.657
 20
187.427
 30
0.000000
  70
    32
  0
VERTEX
  8
0
  5
2F85
 10
211.690
 20
187.385
 30
0.000000
  70
    32
  0
VERTEX
  8
0
  5
2F86
 10
211.723
 20
187.346
 30
0.000000
  70
    32
  0
VERTEX
  8
0
  5
2F87
 10
211.757
 20
187.309
 30
0.000000
  70
    32
  0
VERTEX
  8
0
  5
2F88
 10
211.791
 20
187.275
 30
0.000000
  70
    32
  0
VERTEX
  8
0
  5
2F89
 10
211.826
 20
187.243
 30
0.000000
  70
    32
  0
VERTEX
  8
0
  5
2F8A
 10
211.862
 20
187.214
 30
0.000000
  70
    32
  0
VERTEX
  8
0
  5
2F8B
 10
211.898
 20
187.188
 30
0.000000
  70
    32
  0
VERTEX
  8
0
  5
2F8C
 10
211.935
 20
187.164
 30
0.000000
  70
    32
  0
VERTEX
  8
0
  5
2F8D
 10
211.972
 20
187.143
 30
0.000000
  70
    32
  0
VERTEX
  8
0
  5
2F8E
 10
212.010
 20
187.125
 30
0.000000
  70
    32
  0
VERTEX
  8
0
  5
2F8F
 10
212.047
 20
187.110
 30
0.000000
  70
    32
  0
VERTEX
  8
0
  5
2F90
 10
212.085
 20
187.098
 30
0.000000
  70
    32
  0
VERTEX
  8
0
  5
2F91
 10
212.124
 20
187.088
 30
0.000000
  70
    32
  0
VERTEX
  8
0
  5
2F92
 10
212.162
 20
187.081
 30
0.000000
  70
    32
  0
VERTEX
  8
0
  5
2F93
 10
212.200
 20
187.077
 30
0.000000
  70
    32
  0
VERTEX
  8
0
  5
2F94
 10
212.239
 20
187.076
 30
0.000000
  70
    32
  0
VERTEX
  8
0
  5
2F95
 10
212.277
 20
187.078
 30
0.000000
  70
    32
  0
VERTEX
  8
0
  5
2F96
 10
212.316
 20
187.083
 30
0.000000
  70
    32
  0
VERTEX
  8
0
  5
2F97
 10
212.354
 20
187.090
 30
0.000000
  70
    32
  0
VERTEX
  8
0
  5
2F98
 10
212.392
 20
187.101
 30
0.000000
  70
    32
  0
VERTEX
  8
0
  5
2F99
 10
212.430
 20
187.114
 30
0.000000
  70
    32
  0
VERTEX
  8
0
  5
2F9A
 10
212.468
 20
187.130
 30
0.000000
  70
    32
  0
VERTEX
  8
0
  5
2F9B
 10
212.505
 20
187.149
 30
0.000000
  70
    32
  0
VERTEX
  8
0
  5
2F9C
 10
212.542
 20
187.171
 30
0.000000
  70
    32
  0
VERTEX
  8
0
  5
2F9D
 10
212.579
 20
187.195
 30
0.000000
  70
    32
  0
VERTEX
  8
0
  5
2F9E
 10
212.615
 20
187.222
 30
0.000000
  70
    32
  0
VERTEX
  8
0
  5
2F9F
 10
212.650
 20
187.252
 30
0.000000
  70
    32
  0
VERTEX
  8
0
  5
2FA0
 10
212.685
 20
187.284
 30
0.000000
  70
    32
  0
VERTEX
  8
0
  5
2FA1
 10
212.720
 20
187.319
 30
0.000000
  70
    32
  0
VERTEX
  8
0
  5
2FA2
 10
212.753
 20
187.357
 30
0.000000
  70
    32
  0
VERTEX
  8
0
  5
2FA3
 10
212.786
 20
187.397
 30
0.000000
  70
    32
  0
VERTEX
  8
0
  5
2FA4
 10
212.818
 20
187.439
 30
0.000000
  70
    32
  0
VERTEX
  8
0
  5
2FA5
 10
212.850
 20
187.484
 30
0.000000
  70
    32
  0
VERTEX
  8
0
  5
2FA6
 10
212.880
 20
187.531
 30
0.000000
  70
    32
  0
VERTEX
  8
0
  5
2FA7
 10
212.910
 20
187.580
 30
0.000000
  70
    32
  0
VERTEX
  8
0
  5
2FA8
 10
212.938
 20
187.632
 30
0.000000
  70
    32
  0
VERTEX
  8
0
  5
2FA9
 10
212.966
 20
187.685
 30
0.000000
  70
    32
  0
VERTEX
  8
0
  5
2FAA
 10
212.993
 20
187.741
 30
0.000000
  70
    32
  0
VERTEX
  8
0
  5
2FAB
 10
213.018
 20
187.799
 30
0.000000
  70
    32
  0
VERTEX
  8
0
  5
2FAC
 10
213.043
 20
187.858
 30
0.000000
  70
    32
  0
VERTEX
  8
0
  5
2FAD
 10
213.066
 20
187.919
 30
0.000000
  70
    32
  0
VERTEX
  8
0
  5
2FAE
 10
213.089
 20
187.982
 30
0.000000
  70
    32
  0
VERTEX
  8
0
  5
2FAF
 10
213.110
 20
188.047
 30
0.000000
  70
    32
  0
VERTEX
  8
0
  5
2FB0
 10
213.129
 20
188.113
 30
0.000000
  70
    32
  0
VERTEX
  8
0
  5
2FB1
 10
213.148
 20
188.180
 30
0.000000
  70
    32
  0
VERTEX
  8
0
  5
2FB2
 10
213.165
 20
188.249
 30
0.000000
  70
    32
  0
VERTEX
  8
0
  5
2FB3
 10
213.181
 20
188.319
 30
0.000000
  70
    32
  0
VERTEX
  8
0
  5
2FB4
 10
213.196
 20
188.390
 30
0.000000
  70
    32
  0
VERTEX
  8
0
  5
2FB5
 10
213.209
 20
188.463
 30
0.000000
  70
    32
  0
VERTEX
  8
0
  5
2FB6
 10
213.221
 20
188.536
 30
0.000000
  70
    32
  0
VERTEX
  8
0
  5
2FB7
 10
213.232
 20
188.610
 30
0.000000
  70
    32
  0
VERTEX
  8
0
  5
2FB8
 10
213.241
 20
188.685
 30
0.000000
  70
    32
  0
VERTEX
  8
0
  5
2FB9
 10
213.249
 20
188.760
 30
0.000000
  70
    32
  0
VERTEX
  8
0
  5
2FBA
 10
213.255
 20
188.836
 30
0.000000
  70
    32
  0
VERTEX
  8
0
  5
2FBB
 10
213.260
 20
188.913
 30
0.000000
  70
    32
  0
VERTEX
  8
0
  5
2FBC
 10
213.264
 20
188.989
 30
0.000000
  70
    32
  0
VERTEX
  8
0
  5
2FBD
 10
213.266
 20
189.066
 30
0.000000
  70
    32
  0
VERTEX
  8
0
  5
2FBE
 10
213.267
 20
189.143
 30
0.000000
  70
    32
  0
VERTEX
  8
0
  5
2FBF
 10
213.266
 20
189.220
 30
0.000000
  70
    32
  0
VERTEX
  8
0
  5
2FC0
 10
213.264
 20
189.297
 30
0.000000
  70
    32
  0
VERTEX
  8
0
  5
2FC1
 10
213.260
 20
189.374
 30
0.000000
  70
    32
  0
VERTEX
  8
0
  5
2FC2
 10
213.255
 20
189.450
 30
0.000000
  70
    32
  0
VERTEX
  8
0
  5
2FC3
 10
213.249
 20
189.526
 30
0.000000
  70
    32
  0
VERTEX
  8
0
  5
2FC4
 10
213.241
 20
189.602
 30
0.000000
  70
    32
  0
VERTEX
  8
0
  5
2FC5
 10
213.232
 20
189.676
 30
0.000000
  70
    32
  0
VERTEX
  8
0
  5
2FC6
 10
213.221
 20
189.751
 30
0.000000
  70
    32
  0
VERTEX
  8
0
  5
2FC7
 10
213.209
 20
189.824
 30
0.000000
  70
    32
  0
VERTEX
  8
0
  5
2FC8
 10
213.196
 20
189.896
 30
0.000000
  70
    32
  0
VERTEX
  8
0
  5
2FC9
 10
213.181
 20
189.967
 30
0.000000
  70
    32
  0
VERTEX
  8
0
  5
2FCA
 10
213.165
 20
190.037
 30
0.000000
  70
    32
  0
VERTEX
  8
0
  5
2FCB
 10
213.148
 20
190.106
 30
0.000000
  70
    32
  0
VERTEX
  8
0
  5
2FCC
 10
213.129
 20
190.174
 30
0.000000
  70
    32
  0
VERTEX
  8
0
  5
2FCD
 10
213.110
 20
190.240
 30
0.000000
  70
    32
  0
VERTEX
  8
0
  5
2FCE
 10
213.089
 20
190.304
 30
0.000000
  70
    32
  0
VERTEX
  8
0
  5
2FCF
 10
213.066
 20
190.367
 30
0.000000
  70
    32
  0
VERTEX
  8
0
  5
2FD0
 10
213.043
 20
190.428
 30
0.000000
  70
    32
  0
VERTEX
  8
0
  5
2FD1
 10
213.018
 20
190.488
 30
0.000000
  70
    32
  0
VERTEX
  8
0
  5
2FD2
 10
212.993
 20
190.545
 30
0.000000
  70
    32
  0
VERTEX
  8
0
  5
2FD3
 10
212.966
 20
190.601
 30
0.000000
  70
    32
  0
VERTEX
  8
0
  5
2FD4
 10
212.938
 20
190.655
 30
0.000000
  70
    32
  0
VERTEX
  8
0
  5
2FD5
 10
212.910
 20
190.706
 30
0.000000
  70
    32
  0
VERTEX
  8
0
  5
2FD6
 10
212.880
 20
190.755
 30
0.000000
  70
    32
  0
VERTEX
  8
0
  5
2FD7
 10
212.850
 20
190.802
 30
0.000000
  70
    32
  0
VERTEX
  8
0
  5
2FD8
 10
212.818
 20
190.847
 30
0.000000
  70
    32
  0
VERTEX
  8
0
  5
2FD9
 10
212.786
 20
190.890
 30
0.000000
  70
    32
  0
VERTEX
  8
0
  5
2FDA
 10
212.753
 20
190.930
 30
0.000000
  70
    32
  0
VERTEX
  8
0
  5
2FDB
 10
212.720
 20
190.967
 30
0.000000
  70
    32
  0
VERTEX
  8
0
  5
2FDC
 10
212.685
 20
191.002
 30
0.000000
  70
    32
  0
VERTEX
  8
0
  5
2FDD
 10
212.650
 20
191.035
 30
0.000000
  70
    32
  0
VERTEX
  8
0
  5
2FDE
 10
212.615
 20
191.064
 30
0.000000
  70
    32
  0
VERTEX
  8
0
  5
2FDF
 10
212.579
 20
191.091
 30
0.000000
  70
    32
  0
VERTEX
  8
0
  5
2FE0
 10
212.542
 20
191.116
 30
0.000000
  70
    32
  0
VERTEX
  8
0
  5
2FE1
 10
212.505
 20
191.137
 30
0.000000
  70
    32
  0
VERTEX
  8
0
  5
2FE2
 10
212.468
 20
191.156
 30
0.000000
  70
    32
  0
VERTEX
  8
0
  5
2FE3
 10
212.430
 20
191.172
 30
0.000000
  70
    32
  0
VERTEX
  8
0
  5
2FE4
 10
212.392
 20
191.186
 30
0.000000
  70
    32
  0
VERTEX
  8
0
  5
2FE5
 10
212.354
 20
191.196
 30
0.000000
  70
    32
  0
VERTEX
  8
0
  5
2FE6
 10
212.316
 20
191.204
 30
0.000000
  70
    32
  0
VERTEX
  8
0
  5
2FE7
 10
212.277
 20
191.208
 30
0.000000
  70
    32
  0
VERTEX
  8
0
  5
2FE8
 10
212.239
 20
191.210
 30
0.000000
  70
    32
  0
VERTEX
  8
0
  5
2FE9
 10
212.200
 20
191.209
 30
0.000000
  70
    32
  0
VERTEX
  8
0
  5
2FEA
 10
212.162
 20
191.205
 30
0.000000
  70
    32
  0
VERTEX
  8
0
  5
2FEB
 10
212.124
 20
191.199
 30
0.000000
  70
    32
  0
VERTEX
  8
0
  5
2FEC
 10
212.085
 20
191.189
 30
0.000000
  70
    32
  0
VERTEX
  8
0
  5
2FED
 10
212.047
 20
191.176
 30
0.000000
  70
    32
  0
VERTEX
  8
0
  5
2FEE
 10
212.010
 20
191.161
 30
0.000000
  70
    32
  0
VERTEX
  8
0
  5
2FEF
 10
211.972
 20
191.143
 30
0.000000
  70
    32
  0
VERTEX
  8
0
  5
2FF0
 10
211.935
 20
191.122
 30
0.000000
  70
    32
  0
VERTEX
  8
0
  5
2FF1
 10
211.898
 20
191.099
 30
0.000000
  70
    32
  0
VERTEX
  8
0
  5
2FF2
 10
211.862
 20
191.072
 30
0.000000
  70
    32
  0
VERTEX
  8
0
  5
2FF3
 10
211.826
 20
191.043
 30
0.000000
  70
    32
  0
VERTEX
  8
0
  5
2FF4
 10
211.791
 20
191.012
 30
0.000000
  70
    32
  0
VERTEX
  8
0
  5
2FF5
 10
211.757
 20
190.977
 30
0.000000
  70
    32
  0
VERTEX
  8
0
  5
2FF6
 10
211.723
 20
190.941
 30
0.000000
  70
    32
  0
VERTEX
  8
0
  5
2FF7
 10
211.690
 20
190.901
 30
0.000000
  70
    32
  0
VERTEX
  8
0
  5
2FF8
 10
211.657
 20
190.859
 30
0.000000
  70
    32
  0
VERTEX
  8
0
  5
2FF9
 10
211.626
 20
190.815
 30
0.000000
  70
    32
  0
VERTEX
  8
0
  5
2FFA
 10
211.595
 20
190.769
 30
0.000000
  70
    32
  0
VERTEX
  8
0
  5
2FFB
 10
211.565
 20
190.720
 30
0.000000
  70
    32
  0
VERTEX
  8
0
  5
2FFC
 10
211.536
 20
190.669
 30
0.000000
  70
    32
  0
VERTEX
  8
0
  5
2FFD
 10
211.508
 20
190.616
 30
0.000000
  70
    32
  0
VERTEX
  8
0
  5
2FFE
 10
211.481
 20
190.561
 30
0.000000
  70
    32
  0
SEQEND
  8
0
  5
2FFF
  0
CIRCLE
  5
1F43
  8
0
 10
197.8362456264615
 20
276.64323645759242
 30
0.0
 40
20.0
  0
POLYLINE
  5
1F4C
  8
0
 10
288.58624562646162
 20
184.89233099816241
 30
0.0
 66
     1
 70
     8
  0
VERTEX
  8
0
  5
3000
 10
288.586
 20
184.892
 30
0.000000
  70
    32
  0
VERTEX
  8
0
  5
3001
 10
288.502
 20
184.894
 30
0.000000
  70
    32
  0
VERTEX
  8
0
  5
3002
 10
288.418
 20
184.897
 30
0.000000
  70
    32
  0
VERTEX
  8
0
  5
3003
 10
288.334
 20
184.904
 30
0.000000
  70
    32
  0
VERTEX
  8
0
  5
3004
 10
288.250
 20
184.913
 30
0.000000
  70
    32
  0
VERTEX
  8
0
  5
3005
 10
288.166
 20
184.924
 30
0.000000
  70
    32
  0
VERTEX
  8
0
  5
3006
 10
288.082
 20
184.938
 30
0.000000
  70
    32
  0
VERTEX
  8
0
  5
3007
 10
287.999
 20
184.955
 30
0.000000
  70
    32
  0
VERTEX
  8
0
  5
3008
 10
287.916
 20
184.974
 30
0.000000
  70
    32
  0
VERTEX
  8
0
  5
3009
 10
287.834
 20
184.996
 30
0.000000
  70
    32
  0
VERTEX
  8
0
  5
300A
 10
287.752
 20
185.020
 30
0.000000
  70
    32
  0
VERTEX
  8
0
  5
300B
 10
287.671
 20
185.046
 30
0.000000
  70
    32
  0
VERTEX
  8
0
  5
300C
 10
287.590
 20
185.075
 30
0.000000
  70
    32
  0
VERTEX
  8
0
  5
300D
 10
287.509
 20
185.107
 30
0.000000
  70
    32
  0
VERTEX
  8
0
  5
300E
 10
287.430
 20
185.141
 30
0.000000
  70
    32
  0
VERTEX
  8
0
  5
300F
 10
287.351
 20
185.177
 30
0.000000
  70
    32
  0
VERTEX
  8
0
  5
3010
 10
287.272
 20
185.216
 30
0.000000
  70
    32
  0
VERTEX
  8
0
  5
3011
 10
287.195
 20
185.257
 30
0.000000
  70
    32
  0
VERTEX
  8
0
  5
3012
 10
287.118
 20
185.300
 30
0.000000
  70
    32
  0
VERTEX
  8
0
  5
3013
 10
287.043
 20
185.346
 30
0.000000
  70
    32
  0
VERTEX
  8
0
  5
3014
 10
286.968
 20
185.394
 30
0.000000
  70
    32
  0
VERTEX
  8
0
  5
3015
 10
286.894
 20
185.444
 30
0.000000
  70
    32
  0
VERTEX
  8
0
  5
3016
 10
286.821
 20
185.497
 30
0.000000
  70
    32
  0
VERTEX
  8
0
  5
3017
 10
286.749
 20
185.552
 30
0.000000
  70
    32
  0
VERTEX
  8
0
  5
3018
 10
286.679
 20
185.609
 30
0.000000
  70
    32
  0
VERTEX
  8
0
  5
3019
 10
286.609
 20
185.668
 30
0.000000
  70
    32
  0
VERTEX
  8
0
  5
301A
 10
286.541
 20
185.729
 30
0.000000
  70
    32
  0
VERTEX
  8
0
  5
301B
 10
286.474
 20
185.792
 30
0.000000
  70
    32
  0
VERTEX
  8
0
  5
301C
 10
286.408
 20
185.857
 30
0.000000
  70
    32
  0
VERTEX
  8
0
  5
301D
 10
286.344
 20
185.924
 30
0.000000
  70
    32
  0
VERTEX
  8
0
  5
301E
 10
286.281
 20
185.993
 30
0.000000
  70
    32
  0
VERTEX
  8
0
  5
301F
 10
286.219
 20
186.064
 30
0.000000
  70
    32
  0
VERTEX
  8
0
  5
3020
 10
286.159
 20
186.137
 30
0.000000
  70
    32
  0
VERTEX
  8
0
  5
3021
 10
286.100
 20
186.212
 30
0.000000
  70
    32
  0
VERTEX
  8
0
  5
3022
 10
286.042
 20
186.288
 30
0.000000
  70
    32
  0
VERTEX
  8
0
  5
3023
 10
285.987
 20
186.366
 30
0.000000
  70
    32
  0
VERTEX
  8
0
  5
3024
 10
285.932
 20
186.446
 30
0.000000
  70
    32
  0
VERTEX
  8
0
  5
3025
 10
285.880
 20
186.528
 30
0.000000
  70
    32
  0
VERTEX
  8
0
  5
3026
 10
285.829
 20
186.611
 30
0.000000
  70
    32
  0
VERTEX
  8
0
  5
3027
 10
285.779
 20
186.695
 30
0.000000
  70
    32
  0
VERTEX
  8
0
  5
3028
 10
285.732
 20
186.781
 30
0.000000
  70
    32
  0
VERTEX
  8
0
  5
3029
 10
285.686
 20
186.869
 30
0.000000
  70
    32
  0
VERTEX
  8
0
  5
302A
 10
285.641
 20
186.957
 30
0.000000
  70
    32
  0
VERTEX
  8
0
  5
302B
 10
285.599
 20
187.048
 30
0.000000
  70
    32
  0
VERTEX
  8
0
  5
302C
 10
285.558
 20
187.139
 30
0.000000
  70
    32
  0
VERTEX
  8
0
  5
302D
 10
285.520
 20
187.231
 30
0.000000
  70
    32
  0
VERTEX
  8
0
  5
302E
 10
285.483
 20
187.325
 30
0.000000
  70
    32
  0
VERTEX
  8
0
  5
302F
 10
285.448
 20
187.420
 30
0.000000
  70
    32
  0
VERTEX
  8
0
  5
3030
 10
285.414
 20
187.516
 30
0.000000
  70
    32
  0
VERTEX
  8
0
  5
3031
 10
285.383
 20
187.613
 30
0.000000
  70
    32
  0
VERTEX
  8
0
  5
3032
 10
285.354
 20
187.711
 30
0.000000
  70
    32
  0
VERTEX
  8
0
  5
3033
 10
285.326
 20
187.809
 30
0.000000
  70
    32
  0
VERTEX
  8
0
  5
3034
 10
285.301
 20
187.909
 30
0.000000
  70
    32
  0
VERTEX
  8
0
  5
3035
 10
285.277
 20
188.009
 30
0.000000
  70
    32
  0
VERTEX
  8
0
  5
3036
 10
285.256
 20
188.110
 30
0.000000
  70
    32
  0
VERTEX
  8
0
  5
3037
 10
285.236
 20
188.211
 30
0.000000
  70
    32
  0
VERTEX
  8
0
  5
3038
 10
285.219
 20
188.313
 30
0.000000
  70
    32
  0
VERTEX
  8
0
  5
3039
 10
285.204
 20
188.416
 30
0.000000
  70
    32
  0
VERTEX
  8
0
  5
303A
 10
285.190
 20
188.519
 30
0.000000
  70
    32
  0
VERTEX
  8
0
  5
303B
 10
285.179
 20
188.622
 30
0.000000
  70
    32
  0
VERTEX
  8
0
  5
303C
 10
285.170
 20
188.726
 30
0.000000
  70
    32
  0
VERTEX
  8
0
  5
303D
 10
285.162
 20
188.830
 30
0.000000
  70
    32
  0
VERTEX
  8
0
  5
303E
 10
285.157
 20
188.934
 30
0.000000
  70
    32
  0
VERTEX
  8
0
  5
303F
 10
285.154
 20
189.038
 30
0.000000
  70
    32
  0
VERTEX
  8
0
  5
3040
 10
285.153
 20
189.142
 30
0.000000
  70
    32
  0
VERTEX
  8
0
  5
3041
 10
285.154
 20
189.247
 30
0.000000
  70
    32
  0
VERTEX
  8
0
  5
3042
 10
285.157
 20
189.351
 30
0.000000
  70
    32
  0
VERTEX
  8
0
  5
3043
 10
285.162
 20
189.455
 30
0.000000
  70
    32
  0
VERTEX
  8
0
  5
3044
 10
285.170
 20
189.559
 30
0.000000
  70
    32
  0
VERTEX
  8
0
  5
3045
 10
285.179
 20
189.663
 30
0.000000
  70
    32
  0
VERTEX
  8
0
  5
3046
 10
285.190
 20
189.766
 30
0.000000
  70
    32
  0
VERTEX
  8
0
  5
3047
 10
285.204
 20
189.869
 30
0.000000
  70
    32
  0
VERTEX
  8
0
  5
3048
 10
285.219
 20
189.971
 30
0.000000
  70
    32
  0
VERTEX
  8
0
  5
3049
 10
285.236
 20
190.074
 30
0.000000
  70
    32
  0
VERTEX
  8
0
  5
304A
 10
285.256
 20
190.175
 30
0.000000
  70
    32
  0
VERTEX
  8
0
  5
304B
 10
285.277
 20
190.276
 30
0.000000
  70
    32
  0
VERTEX
  8
0
  5
304C
 10
285.301
 20
190.376
 30
0.000000
  70
    32
  0
VERTEX
  8
0
  5
304D
 10
285.326
 20
190.475
 30
0.000000
  70
    32
  0
VERTEX
  8
0
  5
304E
 10
285.354
 20
190.574
 30
0.000000
  70
    32
  0
VERTEX
  8
0
  5
304F
 10
285.383
 20
190.672
 30
0.000000
  70
    32
  0
VERTEX
  8
0
  5
3050
 10
285.414
 20
190.769
 30
0.000000
  70
    32
  0
VERTEX
  8
0
  5
3051
 10
285.448
 20
190.865
 30
0.000000
  70
    32
  0
VERTEX
  8
0
  5
3052
 10
285.483
 20
190.959
 30
0.000000
  70
    32
  0
VERTEX
  8
0
  5
3053
 10
285.520
 20
191.053
 30
0.000000
  70
    32
  0
VERTEX
  8
0
  5
3054
 10
285.558
 20
191.146
 30
0.000000
  70
    32
  0
VERTEX
  8
0
  5
3055
 10
285.599
 20
191.237
 30
0.000000
  70
    32
  0
VERTEX
  8
0
  5
3056
 10
285.641
 20
191.327
 30
0.000000
  70
    32
  0
VERTEX
  8
0
  5
3057
 10
285.686
 20
191.416
 30
0.000000
  70
    32
  0
VERTEX
  8
0
  5
3058
 10
285.732
 20
191.504
 30
0.000000
  70
    32
  0
VERTEX
  8
0
  5
3059
 10
285.779
 20
191.590
 30
0.000000
  70
    32
  0
VERTEX
  8
0
  5
305A
 10
285.829
 20
191.674
 30
0.000000
  70
    32
  0
VERTEX
  8
0
  5
305B
 10
285.880
 20
191.757
 30
0.000000
  70
    32
  0
VERTEX
  8
0
  5
305C
 10
285.932
 20
191.839
 30
0.000000
  70
    32
  0
VERTEX
  8
0
  5
305D
 10
285.987
 20
191.918
 30
0.000000
  70
    32
  0
VERTEX
  8
0
  5
305E
 10
286.042
 20
191.996
 30
0.000000
  70
    32
  0
VERTEX
  8
0
  5
305F
 10
286.100
 20
192.073
 30
0.000000
  70
    32
  0
VERTEX
  8
0
  5
3060
 10
286.159
 20
192.148
 30
0.000000
  70
    32
  0
VERTEX
  8
0
  5
3061
 10
286.219
 20
192.220
 30
0.000000
  70
    32
  0
VERTEX
  8
0
  5
3062
 10
286.281
 20
192.291
 30
0.000000
  70
    32
  0
VERTEX
  8
0
  5
3063
 10
286.344
 20
192.360
 30
0.000000
  70
    32
  0
VERTEX
  8
0
  5
3064
 10
286.408
 20
192.428
 30
0.000000
  70
    32
  0
VERTEX
  8
0
  5
3065
 10
286.474
 20
192.493
 30
0.000000
  70
    32
  0
VERTEX
  8
0
  5
3066
 10
286.541
 20
192.556
 30
0.000000
  70
    32
  0
VERTEX
  8
0
  5
3067
 10
286.609
 20
192.617
 30
0.000000
  70
    32
  0
VERTEX
  8
0
  5
3068
 10
286.679
 20
192.676
 30
0.000000
  70
    32
  0
VERTEX
  8
0
  5
3069
 10
286.749
 20
192.733
 30
0.000000
  70
    32
  0
VERTEX
  8
0
  5
306A
 10
286.821
 20
192.788
 30
0.000000
  70
    32
  0
VERTEX
  8
0
  5
306B
 10
286.894
 20
192.840
 30
0.000000
  70
    32
  0
VERTEX
  8
0
  5
306C
 10
286.968
 20
192.890
 30
0.000000
  70
    32
  0
VERTEX
  8
0
  5
306D
 10
287.043
 20
192.939
 30
0.000000
  70
    32
  0
VERTEX
  8
0
  5
306E
 10
287.118
 20
192.984
 30
0.000000
  70
    32
  0
VERTEX
  8
0
  5
306F
 10
287.195
 20
193.028
 30
0.000000
  70
    32
  0
VERTEX
  8
0
  5
3070
 10
287.272
 20
193.069
 30
0.000000
  70
    32
  0
VERTEX
  8
0
  5
3071
 10
287.351
 20
193.108
 30
0.000000
  70
    32
  0
VERTEX
  8
0
  5
3072
 10
287.430
 20
193.144
 30
0.000000
  70
    32
  0
VERTEX
  8
0
  5
3073
 10
287.509
 20
193.178
 30
0.000000
  70
    32
  0
VERTEX
  8
0
  5
3074
 10
287.590
 20
193.209
 30
0.000000
  70
    32
  0
VERTEX
  8
0
  5
3075
 10
287.671
 20
193.238
 30
0.000000
  70
    32
  0
VERTEX
  8
0
  5
3076
 10
287.752
 20
193.265
 30
0.000000
  70
    32
  0
VERTEX
  8
0
  5
3077
 10
287.834
 20
193.289
 30
0.000000
  70
    32
  0
VERTEX
  8
0
  5
3078
 10
287.916
 20
193.311
 30
0.000000
  70
    32
  0
VERTEX
  8
0
  5
3079
 10
287.999
 20
193.330
 30
0.000000
  70
    32
  0
VERTEX
  8
0
  5
307A
 10
288.082
 20
193.346
 30
0.000000
  70
    32
  0
VERTEX
  8
0
  5
307B
 10
288.166
 20
193.360
 30
0.000000
  70
    32
  0
VERTEX
  8
0
  5
307C
 10
288.250
 20
193.372
 30
0.000000
  70
    32
  0
VERTEX
  8
0
  5
307D
 10
288.334
 20
193.381
 30
0.000000
  70
    32
  0
VERTEX
  8
0
  5
307E
 10
288.418
 20
193.387
 30
0.000000
  70
    32
  0
VERTEX
  8
0
  5
307F
 10
288.502
 20
193.391
 30
0.000000
  70
    32
  0
VERTEX
  8
0
  5
3080
 10
288.586
 20
193.392
 30
0.000000
  70
    32
  0
SEQEND
  8
0
  5
3081
  0
POLYLINE
  5
1F4D
  8
0
 10
288.58624562646162
 20
193.39233099816241
 30
0.0
 66
     1
 70
     8
  0
VERTEX
  8
0
  5
3082
 10
288.586
 20
193.392
 30
0.000000
  70
    32
  0
VERTEX
  8
0
  5
3083
 10
288.683
 20
193.391
 30
0.000000
  70
    32
  0
VERTEX
  8
0
  5
3084
 10
288.779
 20
193.387
 30
0.000000
  70
    32
  0
VERTEX
  8
0
  5
3085
 10
288.875
 20
193.381
 30
0.000000
  70
    32
  0
VERTEX
  8
0
  5
3086
 10
288.971
 20
193.372
 30
0.000000
  70
    32
  0
VERTEX
  8
0
  5
3087
 10
289.067
 20
193.360
 30
0.000000
  70
    32
  0
VERTEX
  8
0
  5
3088
 10
289.162
 20
193.346
 30
0.000000
  70
    32
  0
VERTEX
  8
0
  5
3089
 10
289.258
 20
193.330
 30
0.000000
  70
    32
  0
VERTEX
  8
0
  5
308A
 10
289.352
 20
193.311
 30
0.000000
  70
    32
  0
VERTEX
  8
0
  5
308B
 10
289.447
 20
193.289
 30
0.000000
  70
    32
  0
VERTEX
  8
0
  5
308C
 10
289.540
 20
193.265
 30
0.000000
  70
    32
  0
VERTEX
  8
0
  5
308D
 10
289.634
 20
193.238
 30
0.000000
  70
    32
  0
VERTEX
  8
0
  5
308E
 10
289.726
 20
193.209
 30
0.000000
  70
    32
  0
VERTEX
  8
0
  5
308F
 10
289.818
 20
193.178
 30
0.000000
  70
    32
  0
VERTEX
  8
0
  5
3090
 10
289.909
 20
193.144
 30
0.000000
  70
    32
  0
VERTEX
  8
0
  5
3091
 10
289.999
 20
193.108
 30
0.000000
  70
    32
  0
VERTEX
  8
0
  5
3092
 10
290.089
 20
193.069
 30
0.000000
  70
    32
  0
VERTEX
  8
0
  5
3093
 10
290.178
 20
193.028
 30
0.000000
  70
    32
  0
VERTEX
  8
0
  5
3094
 10
290.265
 20
192.984
 30
0.000000
  70
    32
  0
VERTEX
  8
0
  5
3095
 10
290.352
 20
192.939
 30
0.000000
  70
    32
  0
VERTEX
  8
0
  5
3096
 10
290.437
 20
192.890
 30
0.000000
  70
    32
  0
VERTEX
  8
0
  5
3097
 10
290.522
 20
192.840
 30
0.000000
  70
    32
  0
VERTEX
  8
0
  5
3098
 10
290.605
 20
192.788
 30
0.000000
  70
    32
  0
VERTEX
  8
0
  5
3099
 10
290.687
 20
192.733
 30
0.000000
  70
    32
  0
VERTEX
  8
0
  5
309A
 10
290.768
 20
192.676
 30
0.000000
  70
    32
  0
VERTEX
  8
0
  5
309B
 10
290.847
 20
192.617
 30
0.000000
  70
    32
  0
VERTEX
  8
0
  5
309C
 10
290.925
 20
192.556
 30
0.000000
  70
    32
  0
VERTEX
  8
0
  5
309D
 10
291.002
 20
192.493
 30
0.000000
  70
    32
  0
VERTEX
  8
0
  5
309E
 10
291.077
 20
192.428
 30
0.000000
  70
    32
  0
VERTEX
  8
0
  5
309F
 10
291.151
 20
192.360
 30
0.000000
  70
    32
  0
VERTEX
  8
0
  5
30A0
 10
291.223
 20
192.291
 30
0.000000
  70
    32
  0
VERTEX
  8
0
  5
30A1
 10
291.294
 20
192.220
 30
0.000000
  70
    32
  0
VERTEX
  8
0
  5
30A2
 10
291.363
 20
192.148
 30
0.000000
  70
    32
  0
VERTEX
  8
0
  5
30A3
 10
291.430
 20
192.073
 30
0.000000
  70
    32
  0
VERTEX
  8
0
  5
30A4
 10
291.496
 20
191.996
 30
0.000000
  70
    32
  0
VERTEX
  8
0
  5
30A5
 10
291.560
 20
191.918
 30
0.000000
  70
    32
  0
VERTEX
  8
0
  5
30A6
 10
291.622
 20
191.839
 30
0.000000
  70
    32
  0
VERTEX
  8
0
  5
30A7
 10
291.682
 20
191.757
 30
0.000000
  70
    32
  0
VERTEX
  8
0
  5
30A8
 10
291.740
 20
191.674
 30
0.000000
  70
    32
  0
VERTEX
  8
0
  5
30A9
 10
291.797
 20
191.590
 30
0.000000
  70
    32
  0
VERTEX
  8
0
  5
30AA
 10
291.851
 20
191.504
 30
0.000000
  70
    32
  0
VERTEX
  8
0
  5
30AB
 10
291.904
 20
191.416
 30
0.000000
  70
    32
  0
VERTEX
  8
0
  5
30AC
 10
291.954
 20
191.327
 30
0.000000
  70
    32
  0
VERTEX
  8
0
  5
30AD
 10
292.003
 20
191.237
 30
0.000000
  70
    32
  0
VERTEX
  8
0
  5
30AE
 10
292.049
 20
191.146
 30
0.000000
  70
    32
  0
VERTEX
  8
0
  5
30AF
 10
292.094
 20
191.053
 30
0.000000
  70
    32
  0
VERTEX
  8
0
  5
30B0
 10
292.136
 20
190.959
 30
0.000000
  70
    32
  0
VERTEX
  8
0
  5
30B1
 10
292.176
 20
190.865
 30
0.000000
  70
    32
  0
VERTEX
  8
0
  5
30B2
 10
292.214
 20
190.769
 30
0.000000
  70
    32
  0
VERTEX
  8
0
  5
30B3
 10
292.250
 20
190.672
 30
0.000000
  70
    32
  0
VERTEX
  8
0
  5
30B4
 10
292.283
 20
190.574
 30
0.000000
  70
    32
  0
VERTEX
  8
0
  5
30B5
 10
292.315
 20
190.475
 30
0.000000
  70
    32
  0
VERTEX
  8
0
  5
30B6
 10
292.344
 20
190.376
 30
0.000000
  70
    32
  0
VERTEX
  8
0
  5
30B7
 10
292.371
 20
190.276
 30
0.000000
  70
    32
  0
VERTEX
  8
0
  5
30B8
 10
292.395
 20
190.175
 30
0.000000
  70
    32
  0
VERTEX
  8
0
  5
30B9
 10
292.418
 20
190.074
 30
0.000000
  70
    32
  0
VERTEX
  8
0
  5
30BA
 10
292.438
 20
189.971
 30
0.000000
  70
    32
  0
VERTEX
  8
0
  5
30BB
 10
292.455
 20
189.869
 30
0.000000
  70
    32
  0
VERTEX
  8
0
  5
30BC
 10
292.470
 20
189.766
 30
0.000000
  70
    32
  0
VERTEX
  8
0
  5
30BD
 10
292.483
 20
189.663
 30
0.000000
  70
    32
  0
VERTEX
  8
0
  5
30BE
 10
292.494
 20
189.559
 30
0.000000
  70
    32
  0
VERTEX
  8
0
  5
30BF
 10
292.502
 20
189.455
 30
0.000000
  70
    32
  0
VERTEX
  8
0
  5
30C0
 10
292.508
 20
189.351
 30
0.000000
  70
    32
  0
VERTEX
  8
0
  5
30C1
 10
292.512
 20
189.247
 30
0.000000
  70
    32
  0
VERTEX
  8
0
  5
30C2
 10
292.513
 20
189.142
 30
0.000000
  70
    32
  0
VERTEX
  8
0
  5
30C3
 10
292.512
 20
189.038
 30
0.000000
  70
    32
  0
VERTEX
  8
0
  5
30C4
 10
292.508
 20
188.934
 30
0.000000
  70
    32
  0
VERTEX
  8
0
  5
30C5
 10
292.502
 20
188.830
 30
0.000000
  70
    32
  0
VERTEX
  8
0
  5
30C6
 10
292.494
 20
188.726
 30
0.000000
  70
    32
  0
VERTEX
  8
0
  5
30C7
 10
292.483
 20
188.622
 30
0.000000
  70
    32
  0
VERTEX
  8
0
  5
30C8
 10
292.470
 20
188.519
 30
0.000000
  70
    32
  0
VERTEX
  8
0
  5
30C9
 10
292.455
 20
188.416
 30
0.000000
  70
    32
  0
VERTEX
  8
0
  5
30CA
 10
292.438
 20
188.313
 30
0.000000
  70
    32
  0
VERTEX
  8
0
  5
30CB
 10
292.418
 20
188.211
 30
0.000000
  70
    32
  0
VERTEX
  8
0
  5
30CC
 10
292.395
 20
188.110
 30
0.000000
  70
    32
  0
VERTEX
  8
0
  5
30CD
 10
292.371
 20
188.009
 30
0.000000
  70
    32
  0
VERTEX
  8
0
  5
30CE
 10
292.344
 20
187.909
 30
0.000000
  70
    32
  0
VERTEX
  8
0
  5
30CF
 10
292.315
 20
187.809
 30
0.000000
  70
    32
  0
VERTEX
  8
0
  5
30D0
 10
292.283
 20
187.711
 30
0.000000
  70
    32
  0
VERTEX
  8
0
  5
30D1
 10
292.250
 20
187.613
 30
0.000000
  70
    32
  0
VERTEX
  8
0
  5
30D2
 10
292.214
 20
187.516
 30
0.000000
  70
    32
  0
VERTEX
  8
0
  5
30D3
 10
292.176
 20
187.420
 30
0.000000
  70
    32
  0
VERTEX
  8
0
  5
30D4
 10
292.136
 20
187.325
 30
0.000000
  70
    32
  0
VERTEX
  8
0
  5
30D5
 10
292.094
 20
187.231
 30
0.000000
  70
    32
  0
VERTEX
  8
0
  5
30D6
 10
292.049
 20
187.139
 30
0.000000
  70
    32
  0
VERTEX
  8
0
  5
30D7
 10
292.003
 20
187.048
 30
0.000000
  70
    32
  0
VERTEX
  8
0
  5
30D8
 10
291.954
 20
186.957
 30
0.000000
  70
    32
  0
VERTEX
  8
0
  5
30D9
 10
291.904
 20
186.869
 30
0.000000
  70
    32
  0
VERTEX
  8
0
  5
30DA
 10
291.851
 20
186.781
 30
0.000000
  70
    32
  0
VERTEX
  8
0
  5
30DB
 10
291.797
 20
186.695
 30
0.000000
  70
    32
  0
VERTEX
  8
0
  5
30DC
 10
291.740
 20
186.611
 30
0.000000
  70
    32
  0
VERTEX
  8
0
  5
30DD
 10
291.682
 20
186.528
 30
0.000000
  70
    32
  0
VERTEX
  8
0
  5
30DE
 10
291.622
 20
186.446
 30
0.000000
  70
    32
  0
VERTEX
  8
0
  5
30DF
 10
291.560
 20
186.366
 30
0.000000
  70
    32
  0
VERTEX
  8
0
  5
30E0
 10
291.496
 20
186.288
 30
0.000000
  70
    32
  0
VERTEX
  8
0
  5
30E1
 10
291.430
 20
186.212
 30
0.000000
  70
    32
  0
VERTEX
  8
0
  5
30E2
 10
291.363
 20
186.137
 30
0.000000
  70
    32
  0
VERTEX
  8
0
  5
30E3
 10
291.294
 20
186.064
 30
0.000000
  70
    32
  0
VERTEX
  8
0
  5
30E4
 10
291.223
 20
185.993
 30
0.000000
  70
    32
  0
VERTEX
  8
0
  5
30E5
 10
291.151
 20
185.924
 30
0.000000
  70
    32
  0
VERTEX
  8
0
  5
30E6
 10
291.077
 20
185.857
 30
0.000000
  70
    32
  0
VERTEX
  8
0
  5
30E7
 10
291.002
 20
185.792
 30
0.000000
  70
    32
  0
VERTEX
  8
0
  5
30E8
 10
290.925
 20
185.729
 30
0.000000
  70
    32
  0
VERTEX
  8
0
  5
30E9
 10
290.847
 20
185.668
 30
0.000000
  70
    32
  0
VERTEX
  8
0
  5
30EA
 10
290.768
 20
185.609
 30
0.000000
  70
    32
  0
VERTEX
  8
0
  5
30EB
 10
290.687
 20
185.552
 30
0.000000
  70
    32
  0
VERTEX
  8
0
  5
30EC
 10
290.605
 20
185.497
 30
0.000000
  70
    32
  0
VERTEX
  8
0
  5
30ED
 10
290.522
 20
185.444
 30
0.000000
  70
    32
  0
VERTEX
  8
0
  5
30EE
 10
290.437
 20
185.394
 30
0.000000
  70
    32
  0
VERTEX
  8
0
  5
30EF
 10
290.352
 20
185.346
 30
0.000000
  70
    32
  0
VERTEX
  8
0
  5
30F0
 10
290.265
 20
185.300
 30
0.000000
  70
    32
  0
VERTEX
  8
0
  5
30F1
 10
290.178
 20
185.257
 30
0.000000
  70
    32
  0
VERTEX
  8
0
  5
30F2
 10
290.089
 20
185.216
 30
0.000000
  70
    32
  0
VERTEX
  8
0
  5
30F3
 10
289.999
 20
185.177
 30
0.000000
  70
    32
  0
VERTEX
  8
0
  5
30F4
 10
289.909
 20
185.141
 30
0.000000
  70
    32
  0
VERTEX
  8
0
  5
30F5
 10
289.818
 20
185.107
 30
0.000000
  70
    32
  0
VERTEX
  8
0
  5
30F6
 10
289.726
 20
185.075
 30
0.000000
  70
    32
  0
VERTEX
  8
0
  5
30F7
 10
289.634
 20
185.046
 30
0.000000
  70
    32
  0
VERTEX
  8
0
  5
30F8
 10
289.540
 20
185.020
 30
0.000000
  70
    32
  0
VERTEX
  8
0
  5
30F9
 10
289.447
 20
184.996
 30
0.000000
  70
    32
  0
VERTEX
  8
0
  5
30FA
 10
289.352
 20
184.974
 30
0.000000
  70
    32
  0
VERTEX
  8
0
  5
30FB
 10
289.258
 20
184.955
 30
0.000000
  70
    32
  0
VERTEX
  8
0
  5
30FC
 10
289.162
 20
184.938
 30
0.000000
  70
    32
  0
VERTEX
  8
0
  5
30FD
 10
289.067
 20
184.924
 30
0.000000
  70
    32
  0
VERTEX
  8
0
  5
30FE
 10
288.971
 20
184.913
 30
0.000000
  70
    32
  0
VERTEX
  8
0
  5
30FF
 10
288.875
 20
184.904
 30
0.000000
  70
    32
  0
VERTEX
  8
0
  5
3100
 10
288.779
 20
184.897
 30
0.000000
  70
    32
  0
VERTEX
  8
0
  5
3101
 10
288.683
 20
184.894
 30
0.000000
  70
    32
  0
VERTEX
  8
0
  5
3102
 10
288.586
 20
184.892
 30
0.000000
  70
    32
  0
SEQEND
  8
0
  5
3103
  0
POLYLINE
  5
1F4E
  8
3
 10
289.08624556712476
 20
186.64233099816244
 30
0.0
 66
     1
 70
     8
  0
VERTEX
  8
3
  5
3104
 10
289.086
 20
186.642
 30
0.000000
  70
    32
  0
VERTEX
  8
3
  5
3105
 10
289.040
 20
186.643
 30
0.000000
  70
    32
  0
VERTEX
  8
3
  5
3106
 10
288.995
 20
186.645
 30
0.000000
  70
    32
  0
VERTEX
  8
3
  5
3107
 10
288.949
 20
186.649
 30
0.000000
  70
    32
  0
VERTEX
  8
3
  5
3108
 10
288.903
 20
186.654
 30
0.000000
  70
    32
  0
VERTEX
  8
3
  5
3109
 10
288.858
 20
186.661
 30
0.000000
  70
    32
  0
VERTEX
  8
3
  5
310A
 10
288.812
 20
186.669
 30
0.000000
  70
    32
  0
VERTEX
  8
3
  5
310B
 10
288.767
 20
186.679
 30
0.000000
  70
    32
  0
VERTEX
  8
3
  5
310C
 10
288.722
 20
186.690
 30
0.000000
  70
    32
  0
VERTEX
  8
3
  5
310D
 10
288.677
 20
186.703
 30
0.000000
  70
    32
  0
VERTEX
  8
3
  5
310E
 10
288.632
 20
186.717
 30
0.000000
  70
    32
  0
VERTEX
  8
3
  5
310F
 10
288.588
 20
186.733
 30
0.000000
  70
    32
  0
VERTEX
  8
3
  5
3110
 10
288.544
 20
186.750
 30
0.000000
  70
    32
  0
VERTEX
  8
3
  5
3111
 10
288.500
 20
186.769
 30
0.000000
  70
    32
  0
VERTEX
  8
3
  5
3112
 10
288.457
 20
186.788
 30
0.000000
  70
    32
  0
VERTEX
  8
3
  5
3113
 10
288.414
 20
186.810
 30
0.000000
  70
    32
  0
VERTEX
  8
3
  5
3114
 10
288.371
 20
186.833
 30
0.000000
  70
    32
  0
VERTEX
  8
3
  5
3115
 10
288.329
 20
186.857
 30
0.000000
  70
    32
  0
VERTEX
  8
3
  5
3116
 10
288.287
 20
186.882
 30
0.000000
  70
    32
  0
VERTEX
  8
3
  5
3117
 10
288.246
 20
186.909
 30
0.000000
  70
    32
  0
VERTEX
  8
3
  5
3118
 10
288.206
 20
186.938
 30
0.000000
  70
    32
  0
VERTEX
  8
3
  5
3119
 10
288.165
 20
186.967
 30
0.000000
  70
    32
  0
VERTEX
  8
3
  5
311A
 10
288.126
 20
186.998
 30
0.000000
  70
    32
  0
VERTEX
  8
3
  5
311B
 10
288.087
 20
187.030
 30
0.000000
  70
    32
  0
VERTEX
  8
3
  5
311C
 10
288.048
 20
187.064
 30
0.000000
  70
    32
  0
VERTEX
  8
3
  5
311D
 10
288.011
 20
187.098
 30
0.000000
  70
    32
  0
VERTEX
  8
3
  5
311E
 10
287.973
 20
187.134
 30
0.000000
  70
    32
  0
VERTEX
  8
3
  5
311F
 10
287.937
 20
187.171
 30
0.000000
  70
    32
  0
VERTEX
  8
3
  5
3120
 10
287.901
 20
187.210
 30
0.000000
  70
    32
  0
VERTEX
  8
3
  5
3121
 10
287.866
 20
187.249
 30
0.000000
  70
    32
  0
VERTEX
  8
3
  5
3122
 10
287.832
 20
187.290
 30
0.000000
  70
    32
  0
VERTEX
  8
3
  5
3123
 10
287.798
 20
187.332
 30
0.000000
  70
    32
  0
VERTEX
  8
3
  5
3124
 10
287.765
 20
187.375
 30
0.000000
  70
    32
  0
VERTEX
  8
3
  5
3125
 10
287.733
 20
187.418
 30
0.000000
  70
    32
  0
VERTEX
  8
3
  5
3126
 10
287.702
 20
187.463
 30
0.000000
  70
    32
  0
VERTEX
  8
3
  5
3127
 10
287.672
 20
187.509
 30
0.000000
  70
    32
  0
VERTEX
  8
3
  5
3128
 10
287.642
 20
187.556
 30
0.000000
  70
    32
  0
VERTEX
  8
3
  5
3129
 10
287.613
 20
187.604
 30
0.000000
  70
    32
  0
VERTEX
  8
3
  5
312A
 10
287.586
 20
187.653
 30
0.000000
  70
    32
  0
VERTEX
  8
3
  5
312B
 10
287.559
 20
187.703
 30
0.000000
  70
    32
  0
VERTEX
  8
3
  5
312C
 10
287.533
 20
187.753
 30
0.000000
  70
    32
  0
VERTEX
  8
3
  5
312D
 10
287.508
 20
187.805
 30
0.000000
  70
    32
  0
VERTEX
  8
3
  5
312E
 10
287.484
 20
187.857
 30
0.000000
  70
    32
  0
VERTEX
  8
3
  5
312F
 10
287.461
 20
187.910
 30
0.000000
  70
    32
  0
VERTEX
  8
3
  5
3130
 10
287.439
 20
187.964
 30
0.000000
  70
    32
  0
VERTEX
  8
3
  5
3131
 10
287.418
 20
188.018
 30
0.000000
  70
    32
  0
VERTEX
  8
3
  5
3132
 10
287.397
 20
188.073
 30
0.000000
  70
    32
  0
VERTEX
  8
3
  5
3133
 10
287.378
 20
188.129
 30
0.000000
  70
    32
  0
VERTEX
  8
3
  5
3134
 10
287.360
 20
188.186
 30
0.000000
  70
    32
  0
VERTEX
  8
3
  5
3135
 10
287.343
 20
188.243
 30
0.000000
  70
    32
  0
VERTEX
  8
3
  5
3136
 10
287.327
 20
188.300
 30
0.000000
  70
    32
  0
VERTEX
  8
3
  5
3137
 10
287.312
 20
188.358
 30
0.000000
  70
    32
  0
VERTEX
  8
3
  5
3138
 10
287.298
 20
188.417
 30
0.000000
  70
    32
  0
VERTEX
  8
3
  5
3139
 10
287.286
 20
188.476
 30
0.000000
  70
    32
  0
VERTEX
  8
3
  5
313A
 10
287.274
 20
188.535
 30
0.000000
  70
    32
  0
VERTEX
  8
3
  5
313B
 10
287.263
 20
188.595
 30
0.000000
  70
    32
  0
VERTEX
  8
3
  5
313C
 10
287.254
 20
188.655
 30
0.000000
  70
    32
  0
VERTEX
  8
3
  5
313D
 10
287.246
 20
188.715
 30
0.000000
  70
    32
  0
VERTEX
  8
3
  5
313E
 10
287.238
 20
188.776
 30
0.000000
  70
    32
  0
VERTEX
  8
3
  5
313F
 10
287.232
 20
188.836
 30
0.000000
  70
    32
  0
VERTEX
  8
3
  5
3140
 10
287.227
 20
188.897
 30
0.000000
  70
    32
  0
VERTEX
  8
3
  5
3141
 10
287.223
 20
188.958
 30
0.000000
  70
    32
  0
VERTEX
  8
3
  5
3142
 10
287.220
 20
189.020
 30
0.000000
  70
    32
  0
VERTEX
  8
3
  5
3143
 10
287.219
 20
189.081
 30
0.000000
  70
    32
  0
VERTEX
  8
3
  5
3144
 10
287.218
 20
189.142
 30
0.000000
  70
    32
  0
VERTEX
  8
3
  5
3145
 10
287.219
 20
189.204
 30
0.000000
  70
    32
  0
VERTEX
  8
3
  5
3146
 10
287.220
 20
189.265
 30
0.000000
  70
    32
  0
VERTEX
  8
3
  5
3147
 10
287.223
 20
189.326
 30
0.000000
  70
    32
  0
VERTEX
  8
3
  5
3148
 10
287.227
 20
189.387
 30
0.000000
  70
    32
  0
VERTEX
  8
3
  5
3149
 10
287.232
 20
189.448
 30
0.000000
  70
    32
  0
VERTEX
  8
3
  5
314A
 10
287.238
 20
189.509
 30
0.000000
  70
    32
  0
VERTEX
  8
3
  5
314B
 10
287.246
 20
189.570
 30
0.000000
  70
    32
  0
VERTEX
  8
3
  5
314C
 10
287.254
 20
189.630
 30
0.000000
  70
    32
  0
VERTEX
  8
3
  5
314D
 10
287.263
 20
189.690
 30
0.000000
  70
    32
  0
VERTEX
  8
3
  5
314E
 10
287.274
 20
189.750
 30
0.000000
  70
    32
  0
VERTEX
  8
3
  5
314F
 10
287.286
 20
189.809
 30
0.000000
  70
    32
  0
VERTEX
  8
3
  5
3150
 10
287.298
 20
189.868
 30
0.000000
  70
    32
  0
VERTEX
  8
3
  5
3151
 10
287.312
 20
189.927
 30
0.000000
  70
    32
  0
VERTEX
  8
3
  5
3152
 10
287.327
 20
189.985
 30
0.000000
  70
    32
  0
VERTEX
  8
3
  5
3153
 10
287.343
 20
190.042
 30
0.000000
  70
    32
  0
VERTEX
  8
3
  5
3154
 10
287.360
 20
190.099
 30
0.000000
  70
    32
  0
VERTEX
  8
3
  5
3155
 10
287.378
 20
190.155
 30
0.000000
  70
    32
  0
VERTEX
  8
3
  5
3156
 10
287.397
 20
190.211
 30
0.000000
  70
    32
  0
VERTEX
  8
3
  5
3157
 10
287.418
 20
190.266
 30
0.000000
  70
    32
  0
VERTEX
  8
3
  5
3158
 10
287.439
 20
190.321
 30
0.000000
  70
    32
  0
VERTEX
  8
3
  5
3159
 10
287.461
 20
190.375
 30
0.000000
  70
    32
  0
VERTEX
  8
3
  5
315A
 10
287.484
 20
190.428
 30
0.000000
  70
    32
  0
VERTEX
  8
3
  5
315B
 10
287.508
 20
190.480
 30
0.000000
  70
    32
  0
VERTEX
  8
3
  5
315C
 10
287.533
 20
190.531
 30
0.000000
  70
    32
  0
VERTEX
  8
3
  5
315D
 10
287.559
 20
190.582
 30
0.000000
  70
    32
  0
VERTEX
  8
3
  5
315E
 10
287.586
 20
190.632
 30
0.000000
  70
    32
  0
VERTEX
  8
3
  5
315F
 10
287.613
 20
190.680
 30
0.000000
  70
    32
  0
VERTEX
  8
3
  5
3160
 10
287.642
 20
190.728
 30
0.000000
  70
    32
  0
VERTEX
  8
3
  5
3161
 10
287.672
 20
190.775
 30
0.000000
  70
    32
  0
VERTEX
  8
3
  5
3162
 10
287.702
 20
190.821
 30
0.000000
  70
    32
  0
VERTEX
  8
3
  5
3163
 10
287.733
 20
190.866
 30
0.000000
  70
    32
  0
VERTEX
  8
3
  5
3164
 10
287.765
 20
190.910
 30
0.000000
  70
    32
  0
VERTEX
  8
3
  5
3165
 10
287.798
 20
190.953
 30
0.000000
  70
    32
  0
VERTEX
  8
3
  5
3166
 10
287.832
 20
190.995
 30
0.000000
  70
    32
  0
VERTEX
  8
3
  5
3167
 10
287.866
 20
191.035
 30
0.000000
  70
    32
  0
VERTEX
  8
3
  5
3168
 10
287.901
 20
191.075
 30
0.000000
  70
    32
  0
VERTEX
  8
3
  5
3169
 10
287.937
 20
191.113
 30
0.000000
  70
    32
  0
VERTEX
  8
3
  5
316A
 10
287.973
 20
191.150
 30
0.000000
  70
    32
  0
VERTEX
  8
3
  5
316B
 10
288.011
 20
191.186
 30
0.000000
  70
    32
  0
VERTEX
  8
3
  5
316C
 10
288.048
 20
191.221
 30
0.000000
  70
    32
  0
VERTEX
  8
3
  5
316D
 10
288.087
 20
191.254
 30
0.000000
  70
    32
  0
VERTEX
  8
3
  5
316E
 10
288.126
 20
191.287
 30
0.000000
  70
    32
  0
VERTEX
  8
3
  5
316F
 10
288.165
 20
191.318
 30
0.000000
  70
    32
  0
VERTEX
  8
3
  5
3170
 10
288.206
 20
191.347
 30
0.000000
  70
    32
  0
VERTEX
  8
3
  5
3171
 10
288.246
 20
191.375
 30
0.000000
  70
    32
  0
VERTEX
  8
3
  5
3172
 10
288.287
 20
191.402
 30
0.000000
  70
    32
  0
VERTEX
  8
3
  5
3173
 10
288.329
 20
191.428
 30
0.000000
  70
    32
  0
VERTEX
  8
3
  5
3174
 10
288.371
 20
191.452
 30
0.000000
  70
    32
  0
VERTEX
  8
3
  5
3175
 10
288.414
 20
191.475
 30
0.000000
  70
    32
  0
VERTEX
  8
3
  5
3176
 10
288.457
 20
191.496
 30
0.000000
  70
    32
  0
VERTEX
  8
3
  5
3177
 10
288.500
 20
191.516
 30
0.000000
  70
    32
  0
VERTEX
  8
3
  5
3178
 10
288.544
 20
191.535
 30
0.000000
  70
    32
  0
VERTEX
  8
3
  5
3179
 10
288.588
 20
191.552
 30
0.000000
  70
    32
  0
VERTEX
  8
3
  5
317A
 10
288.632
 20
191.567
 30
0.000000
  70
    32
  0
VERTEX
  8
3
  5
317B
 10
288.677
 20
191.582
 30
0.000000
  70
    32
  0
VERTEX
  8
3
  5
317C
 10
288.722
 20
191.594
 30
0.000000
  70
    32
  0
VERTEX
  8
3
  5
317D
 10
288.767
 20
191.606
 30
0.000000
  70
    32
  0
VERTEX
  8
3
  5
317E
 10
288.812
 20
191.615
 30
0.000000
  70
    32
  0
VERTEX
  8
3
  5
317F
 10
288.858
 20
191.624
 30
0.000000
  70
    32
  0
VERTEX
  8
3
  5
3180
 10
288.903
 20
191.630
 30
0.000000
  70
    32
  0
VERTEX
  8
3
  5
3181
 10
288.949
 20
191.636
 30
0.000000
  70
    32
  0
VERTEX
  8
3
  5
3182
 10
288.995
 20
191.639
 30
0.000000
  70
    32
  0
VERTEX
  8
3
  5
3183
 10
289.040
 20
191.642
 30
0.000000
  70
    32
  0
VERTEX
  8
3
  5
3184
 10
289.086
 20
191.642
 30
0.000000
  70
    32
  0
SEQEND
  8
3
  5
3185
  0
POLYLINE
  5
1F4F
  8
3
 10
289.08624556712488
 20
191.64233099816238
 30
0.0
 66
     1
 70
     8
  0
VERTEX
  8
3
  5
3186
 10
289.086
 20
191.642
 30
0.000000
  70
    32
  0
VERTEX
  8
3
  5
3187
 10
289.147
 20
191.642
 30
0.000000
  70
    32
  0
VERTEX
  8
3
  5
3188
 10
289.207
 20
191.639
 30
0.000000
  70
    32
  0
VERTEX
  8
3
  5
3189
 10
289.267
 20
191.636
 30
0.000000
  70
    32
  0
VERTEX
  8
3
  5
318A
 10
289.328
 20
191.630
 30
0.000000
  70
    32
  0
VERTEX
  8
3
  5
318B
 10
289.388
 20
191.624
 30
0.000000
  70
    32
  0
VERTEX
  8
3
  5
318C
 10
289.447
 20
191.615
 30
0.000000
  70
    32
  0
VERTEX
  8
3
  5
318D
 10
289.507
 20
191.606
 30
0.000000
  70
    32
  0
VERTEX
  8
3
  5
318E
 10
289.567
 20
191.594
 30
0.000000
  70
    32
  0
VERTEX
  8
3
  5
318F
 10
289.626
 20
191.582
 30
0.000000
  70
    32
  0
VERTEX
  8
3
  5
3190
 10
289.684
 20
191.567
 30
0.000000
  70
    32
  0
VERTEX
  8
3
  5
3191
 10
289.743
 20
191.552
 30
0.000000
  70
    32
  0
VERTEX
  8
3
  5
3192
 10
289.801
 20
191.535
 30
0.000000
  70
    32
  0
VERTEX
  8
3
  5
3193
 10
289.859
 20
191.516
 30
0.000000
  70
    32
  0
VERTEX
  8
3
  5
3194
 10
289.916
 20
191.496
 30
0.000000
  70
    32
  0
VERTEX
  8
3
  5
3195
 10
289.972
 20
191.475
 30
0.000000
  70
    32
  0
VERTEX
  8
3
  5
3196
 10
290.028
 20
191.452
 30
0.000000
  70
    32
  0
VERTEX
  8
3
  5
3197
 10
290.084
 20
191.428
 30
0.000000
  70
    32
  0
VERTEX
  8
3
  5
3198
 10
290.139
 20
191.402
 30
0.000000
  70
    32
  0
VERTEX
  8
3
  5
3199
 10
290.193
 20
191.375
 30
0.000000
  70
    32
  0
VERTEX
  8
3
  5
319A
 10
290.247
 20
191.347
 30
0.000000
  70
    32
  0
VERTEX
  8
3
  5
319B
 10
290.300
 20
191.318
 30
0.000000
  70
    32
  0
VERTEX
  8
3
  5
319C
 10
290.352
 20
191.287
 30
0.000000
  70
    32
  0
VERTEX
  8
3
  5
319D
 10
290.403
 20
191.254
 30
0.000000
  70
    32
  0
VERTEX
  8
3
  5
319E
 10
290.454
 20
191.221
 30
0.000000
  70
    32
  0
VERTEX
  8
3
  5
319F
 10
290.504
 20
191.186
 30
0.000000
  70
    32
  0
VERTEX
  8
3
  5
31A0
 10
290.553
 20
191.150
 30
0.000000
  70
    32
  0
VERTEX
  8
3
  5
31A1
 10
290.601
 20
191.113
 30
0.000000
  70
    32
  0
VERTEX
  8
3
  5
31A2
 10
290.648
 20
191.075
 30
0.000000
  70
    32
  0
VERTEX
  8
3
  5
31A3
 10
290.694
 20
191.035
 30
0.000000
  70
    32
  0
VERTEX
  8
3
  5
31A4
 10
290.740
 20
190.995
 30
0.000000
  70
    32
  0
VERTEX
  8
3
  5
31A5
 10
290.784
 20
190.953
 30
0.000000
  70
    32
  0
VERTEX
  8
3
  5
31A6
 10
290.827
 20
190.910
 30
0.000000
  70
    32
  0
VERTEX
  8
3
  5
31A7
 10
290.869
 20
190.866
 30
0.000000
  70
    32
  0
VERTEX
  8
3
  5
31A8
 10
290.910
 20
190.821
 30
0.000000
  70
    32
  0
VERTEX
  8
3
  5
31A9
 10
290.950
 20
190.775
 30
0.000000
  70
    32
  0
VERTEX
  8
3
  5
31AA
 10
290.989
 20
190.728
 30
0.000000
  70
    32
  0
VERTEX
  8
3
  5
31AB
 10
291.027
 20
190.680
 30
0.000000
  70
    32
  0
VERTEX
  8
3
  5
31AC
 10
291.064
 20
190.632
 30
0.000000
  70
    32
  0
VERTEX
  8
3
  5
31AD
 10
291.099
 20
190.582
 30
0.000000
  70
    32
  0
VERTEX
  8
3
  5
31AE
 10
291.133
 20
190.531
 30
0.000000
  70
    32
  0
VERTEX
  8
3
  5
31AF
 10
291.166
 20
190.480
 30
0.000000
  70
    32
  0
VERTEX
  8
3
  5
31B0
 10
291.198
 20
190.428
 30
0.000000
  70
    32
  0
VERTEX
  8
3
  5
31B1
 10
291.228
 20
190.375
 30
0.000000
  70
    32
  0
VERTEX
  8
3
  5
31B2
 10
291.257
 20
190.321
 30
0.000000
  70
    32
  0
VERTEX
  8
3
  5
31B3
 10
291.285
 20
190.266
 30
0.000000
  70
    32
  0
VERTEX
  8
3
  5
31B4
 10
291.312
 20
190.211
 30
0.000000
  70
    32
  0
VERTEX
  8
3
  5
31B5
 10
291.337
 20
190.155
 30
0.000000
  70
    32
  0
VERTEX
  8
3
  5
31B6
 10
291.361
 20
190.099
 30
0.000000
  70
    32
  0
VERTEX
  8
3
  5
31B7
 10
291.383
 20
190.042
 30
0.000000
  70
    32
  0
VERTEX
  8
3
  5
31B8
 10
291.404
 20
189.985
 30
0.000000
  70
    32
  0
VERTEX
  8
3
  5
31B9
 10
291.424
 20
189.927
 30
0.000000
  70
    32
  0
VERTEX
  8
3
  5
31BA
 10
291.442
 20
189.868
 30
0.000000
  70
    32
  0
VERTEX
  8
3
  5
31BB
 10
291.459
 20
189.809
 30
0.000000
  70
    32
  0
VERTEX
  8
3
  5
31BC
 10
291.474
 20
189.750
 30
0.000000
  70
    32
  0
VERTEX
  8
3
  5
31BD
 10
291.488
 20
189.690
 30
0.000000
  70
    32
  0
VERTEX
  8
3
  5
31BE
 10
291.501
 20
189.630
 30
0.000000
  70
    32
  0
VERTEX
  8
3
  5
31BF
 10
291.512
 20
189.570
 30
0.000000
  70
    32
  0
VERTEX
  8
3
  5
31C0
 10
291.522
 20
189.509
 30
0.000000
  70
    32
  0
VERTEX
  8
3
  5
31C1
 10
291.530
 20
189.448
 30
0.000000
  70
    32
  0
VERTEX
  8
3
  5
31C2
 10
291.536
 20
189.387
 30
0.000000
  70
    32
  0
VERTEX
  8
3
  5
31C3
 10
291.541
 20
189.326
 30
0.000000
  70
    32
  0
VERTEX
  8
3
  5
31C4
 10
291.545
 20
189.265
 30
0.000000
  70
    32
  0
VERTEX
  8
3
  5
31C5
 10
291.547
 20
189.204
 30
0.000000
  70
    32
  0
VERTEX
  8
3
  5
31C6
 10
291.548
 20
189.142
 30
0.000000
  70
    32
  0
VERTEX
  8
3
  5
31C7
 10
291.547
 20
189.081
 30
0.000000
  70
    32
  0
VERTEX
  8
3
  5
31C8
 10
291.545
 20
189.020
 30
0.000000
  70
    32
  0
VERTEX
  8
3
  5
31C9
 10
291.541
 20
188.958
 30
0.000000
  70
    32
  0
VERTEX
  8
3
  5
31CA
 10
291.536
 20
188.897
 30
0.000000
  70
    32
  0
VERTEX
  8
3
  5
31CB
 10
291.530
 20
188.836
 30
0.000000
  70
    32
  0
VERTEX
  8
3
  5
31CC
 10
291.522
 20
188.776
 30
0.000000
  70
    32
  0
VERTEX
  8
3
  5
31CD
 10
291.512
 20
188.715
 30
0.000000
  70
    32
  0
VERTEX
  8
3
  5
31CE
 10
291.501
 20
188.655
 30
0.000000
  70
    32
  0
VERTEX
  8
3
  5
31CF
 10
291.488
 20
188.595
 30
0.000000
  70
    32
  0
VERTEX
  8
3
  5
31D0
 10
291.474
 20
188.535
 30
0.000000
  70
    32
  0
VERTEX
  8
3
  5
31D1
 10
291.459
 20
188.476
 30
0.000000
  70
    32
  0
VERTEX
  8
3
  5
31D2
 10
291.442
 20
188.417
 30
0.000000
  70
    32
  0
VERTEX
  8
3
  5
31D3
 10
291.424
 20
188.358
 30
0.000000
  70
    32
  0
VERTEX
  8
3
  5
31D4
 10
291.404
 20
188.300
 30
0.000000
  70
    32
  0
VERTEX
  8
3
  5
31D5
 10
291.383
 20
188.243
 30
0.000000
  70
    32
  0
VERTEX
  8
3
  5
31D6
 10
291.361
 20
188.186
 30
0.000000
  70
    32
  0
VERTEX
  8
3
  5
31D7
 10
291.337
 20
188.129
 30
0.000000
  70
    32
  0
VERTEX
  8
3
  5
31D8
 10
291.312
 20
188.073
 30
0.000000
  70
    32
  0
VERTEX
  8
3
  5
31D9
 10
291.285
 20
188.018
 30
0.000000
  70
    32
  0
VERTEX
  8
3
  5
31DA
 10
291.257
 20
187.964
 30
0.000000
  70
    32
  0
VERTEX
  8
3
  5
31DB
 10
291.228
 20
187.910
 30
0.000000
  70
    32
  0
VERTEX
  8
3
  5
31DC
 10
291.198
 20
187.857
 30
0.000000
  70
    32
  0
VERTEX
  8
3
  5
31DD
 10
291.166
 20
187.805
 30
0.000000
  70
    32
  0
VERTEX
  8
3
  5
31DE
 10
291.133
 20
187.753
 30
0.000000
  70
    32
  0
VERTEX
  8
3
  5
31DF
 10
291.099
 20
187.703
 30
0.000000
  70
    32
  0
VERTEX
  8
3
  5
31E0
 10
291.064
 20
187.653
 30
0.000000
  70
    32
  0
VERTEX
  8
3
  5
31E1
 10
291.027
 20
187.604
 30
0.000000
  70
    32
  0
VERTEX
  8
3
  5
31E2
 10
290.989
 20
187.556
 30
0.000000
  70
    32
  0
VERTEX
  8
3
  5
31E3
 10
290.950
 20
187.509
 30
0.000000
  70
    32
  0
VERTEX
  8
3
  5
31E4
 10
290.910
 20
187.463
 30
0.000000
  70
    32
  0
VERTEX
  8
3
  5
31E5
 10
290.869
 20
187.418
 30
0.000000
  70
    32
  0
VERTEX
  8
3
  5
31E6
 10
290.827
 20
187.375
 30
0.000000
  70
    32
  0
VERTEX
  8
3
  5
31E7
 10
290.784
 20
187.332
 30
0.000000
  70
    32
  0
VERTEX
  8
3
  5
31E8
 10
290.740
 20
187.290
 30
0.000000
  70
    32
  0
VERTEX
  8
3
  5
31E9
 10
290.694
 20
187.249
 30
0.000000
  70
    32
  0
VERTEX
  8
3
  5
31EA
 10
290.648
 20
187.210
 30
0.000000
  70
    32
  0
VERTEX
  8
3
  5
31EB
 10
290.601
 20
187.171
 30
0.000000
  70
    32
  0
VERTEX
  8
3
  5
31EC
 10
290.553
 20
187.134
 30
0.000000
  70
    32
  0
VERTEX
  8
3
  5
31ED
 10
290.504
 20
187.098
 30
0.000000
  70
    32
  0
VERTEX
  8
3
  5
31EE
 10
290.454
 20
187.064
 30
0.000000
  70
    32
  0
VERTEX
  8
3
  5
31EF
 10
290.403
 20
187.030
 30
0.000000
  70
    32
  0
VERTEX
  8
3
  5
31F0
 10
290.352
 20
186.998
 30
0.000000
  70
    32
  0
VERTEX
  8
3
  5
31F1
 10
290.300
 20
186.967
 30
0.000000
  70
    32
  0
VERTEX
  8
3
  5
31F2
 10
290.247
 20
186.938
 30
0.000000
  70
    32
  0
VERTEX
  8
3
  5
31F3
 10
290.193
 20
186.909
 30
0.000000
  70
    32
  0
VERTEX
  8
3
  5
31F4
 10
290.139
 20
186.882
 30
0.000000
  70
    32
  0
VERTEX
  8
3
  5
31F5
 10
290.084
 20
186.857
 30
0.000000
  70
    32
  0
VERTEX
  8
3
  5
31F6
 10
290.028
 20
186.833
 30
0.000000
  70
    32
  0
VERTEX
  8
3
  5
31F7
 10
289.972
 20
186.810
 30
0.000000
  70
    32
  0
VERTEX
  8
3
  5
31F8
 10
289.916
 20
186.788
 30
0.000000
  70
    32
  0
VERTEX
  8
3
  5
31F9
 10
289.859
 20
186.769
 30
0.000000
  70
    32
  0
VERTEX
  8
3
  5
31FA
 10
289.801
 20
186.750
 30
0.000000
  70
    32
  0
VERTEX
  8
3
  5
31FB
 10
289.743
 20
186.733
 30
0.000000
  70
    32
  0
VERTEX
  8
3
  5
31FC
 10
289.684
 20
186.717
 30
0.000000
  70
    32
  0
VERTEX
  8
3
  5
31FD
 10
289.626
 20
186.703
 30
0.000000
  70
    32
  0
VERTEX
  8
3
  5
31FE
 10
289.567
 20
186.690
 30
0.000000
  70
    32
  0
VERTEX
  8
3
  5
31FF
 10
289.507
 20
186.679
 30
0.000000
  70
    32
  0
VERTEX
  8
3
  5
3200
 10
289.447
 20
186.669
 30
0.000000
  70
    32
  0
VERTEX
  8
3
  5
3201
 10
289.388
 20
186.661
 30
0.000000
  70
    32
  0
VERTEX
  8
3
  5
3202
 10
289.328
 20
186.654
 30
0.000000
  70
    32
  0
VERTEX
  8
3
  5
3203
 10
289.267
 20
186.649
 30
0.000000
  70
    32
  0
VERTEX
  8
3
  5
3204
 10
289.207
 20
186.645
 30
0.000000
  70
    32
  0
VERTEX
  8
3
  5
3205
 10
289.147
 20
186.643
 30
0.000000
  70
    32
  0
VERTEX
  8
3
  5
3206
 10
289.086
 20
186.642
 30
0.000000
  70
    32
  0
SEQEND
  8
3
  5
3207
  0
POLYLINE
  5
1F50
  8
0
 10
289.08624556712482
 20
187.07533099816243
 30
0.0
 66
     1
 70
     8
  0
VERTEX
  8
0
  5
3208
 10
289.086
 20
187.075
 30
0.000000
  70
    32
  0
VERTEX
  8
0
  5
3209
 10
289.055
 20
187.076
 30
0.000000
  70
    32
  0
VERTEX
  8
0
  5
320A
 10
289.024
 20
187.078
 30
0.000000
  70
    32
  0
VERTEX
  8
0
  5
320B
 10
288.992
 20
187.081
 30
0.000000
  70
    32
  0
VERTEX
  8
0
  5
320C
 10
288.961
 20
187.085
 30
0.000000
  70
    32
  0
VERTEX
  8
0
  5
320D
 10
288.930
 20
187.091
 30
0.000000
  70
    32
  0
VERTEX
  8
0
  5
320E
 10
288.899
 20
187.098
 30
0.000000
  70
    32
  0
VERTEX
  8
0
  5
320F
 10
288.868
 20
187.106
 30
0.000000
  70
    32
  0
VERTEX
  8
0
  5
3210
 10
288.837
 20
187.115
 30
0.000000
  70
    32
  0
VERTEX
  8
0
  5
3211
 10
288.807
 20
187.126
 30
0.000000
  70
    32
  0
VERTEX
  8
0
  5
3212
 10
288.776
 20
187.137
 30
0.000000
  70
    32
  0
VERTEX
  8
0
  5
3213
 10
288.746
 20
187.150
 30
0.000000
  70
    32
  0
VERTEX
  8
0
  5
3214
 10
288.716
 20
187.164
 30
0.000000
  70
    32
  0
VERTEX
  8
0
  5
3215
 10
288.686
 20
187.180
 30
0.000000
  70
    32
  0
VERTEX
  8
0
  5
3216
 10
288.656
 20
187.196
 30
0.000000
  70
    32
  0
VERTEX
  8
0
  5
3217
 10
288.627
 20
187.214
 30
0.000000
  70
    32
  0
VERTEX
  8
0
  5
3218
 10
288.598
 20
187.233
 30
0.000000
  70
    32
  0
VERTEX
  8
0
  5
3219
 10
288.569
 20
187.253
 30
0.000000
  70
    32
  0
VERTEX
  8
0
  5
321A
 10
288.540
 20
187.274
 30
0.000000
  70
    32
  0
VERTEX
  8
0
  5
321B
 10
288.512
 20
187.296
 30
0.000000
  70
    32
  0
VERTEX
  8
0
  5
321C
 10
288.484
 20
187.319
 30
0.000000
  70
    32
  0
VERTEX
  8
0
  5
321D
 10
288.457
 20
187.344
 30
0.000000
  70
    32
  0
VERTEX
  8
0
  5
321E
 10
288.430
 20
187.369
 30
0.000000
  70
    32
  0
VERTEX
  8
0
  5
321F
 10
288.403
 20
187.396
 30
0.000000
  70
    32
  0
VERTEX
  8
0
  5
3220
 10
288.377
 20
187.424
 30
0.000000
  70
    32
  0
VERTEX
  8
0
  5
3221
 10
288.351
 20
187.452
 30
0.000000
  70
    32
  0
VERTEX
  8
0
  5
3222
 10
288.326
 20
187.482
 30
0.000000
  70
    32
  0
VERTEX
  8
0
  5
3223
 10
288.301
 20
187.513
 30
0.000000
  70
    32
  0
VERTEX
  8
0
  5
3224
 10
288.276
 20
187.545
 30
0.000000
  70
    32
  0
VERTEX
  8
0
  5
3225
 10
288.252
 20
187.577
 30
0.000000
  70
    32
  0
VERTEX
  8
0
  5
3226
 10
288.229
 20
187.611
 30
0.000000
  70
    32
  0
VERTEX
  8
0
  5
3227
 10
288.206
 20
187.645
 30
0.000000
  70
    32
  0
VERTEX
  8
0
  5
3228
 10
288.183
 20
187.681
 30
0.000000
  70
    32
  0
VERTEX
  8
0
  5
3229
 10
288.162
 20
187.717
 30
0.000000
  70
    32
  0
VERTEX
  8
0
  5
322A
 10
288.140
 20
187.754
 30
0.000000
  70
    32
  0
VERTEX
  8
0
  5
322B
 10
288.119
 20
187.792
 30
0.000000
  70
    32
  0
VERTEX
  8
0
  5
322C
 10
288.099
 20
187.831
 30
0.000000
  70
    32
  0
VERTEX
  8
0
  5
322D
 10
288.080
 20
187.871
 30
0.000000
  70
    32
  0
VERTEX
  8
0
  5
322E
 10
288.061
 20
187.911
 30
0.000000
  70
    32
  0
VERTEX
  8
0
  5
322F
 10
288.042
 20
187.952
 30
0.000000
  70
    32
  0
VERTEX
  8
0
  5
3230
 10
288.025
 20
187.994
 30
0.000000
  70
    32
  0
VERTEX
  8
0
  5
3231
 10
288.008
 20
188.036
 30
0.000000
  70
    32
  0
VERTEX
  8
0
  5
3232
 10
287.991
 20
188.080
 30
0.000000
  70
    32
  0
VERTEX
  8
0
  5
3233
 10
287.975
 20
188.124
 30
0.000000
  70
    32
  0
VERTEX
  8
0
  5
3234
 10
287.960
 20
188.168
 30
0.000000
  70
    32
  0
VERTEX
  8
0
  5
3235
 10
287.946
 20
188.213
 30
0.000000
  70
    32
  0
VERTEX
  8
0
  5
3236
 10
287.932
 20
188.259
 30
0.000000
  70
    32
  0
VERTEX
  8
0
  5
3237
 10
287.919
 20
188.305
 30
0.000000
  70
    32
  0
VERTEX
  8
0
  5
3238
 10
287.907
 20
188.351
 30
0.000000
  70
    32
  0
VERTEX
  8
0
  5
3239
 10
287.895
 20
188.398
 30
0.000000
  70
    32
  0
VERTEX
  8
0
  5
323A
 10
287.884
 20
188.446
 30
0.000000
  70
    32
  0
VERTEX
  8
0
  5
323B
 10
287.874
 20
188.494
 30
0.000000
  70
    32
  0
VERTEX
  8
0
  5
323C
 10
287.864
 20
188.542
 30
0.000000
  70
    32
  0
VERTEX
  8
0
  5
323D
 10
287.856
 20
188.591
 30
0.000000
  70
    32
  0
VERTEX
  8
0
  5
323E
 10
287.848
 20
188.640
 30
0.000000
  70
    32
  0
VERTEX
  8
0
  5
323F
 10
287.841
 20
188.689
 30
0.000000
  70
    32
  0
VERTEX
  8
0
  5
3240
 10
287.834
 20
188.739
 30
0.000000
  70
    32
  0
VERTEX
  8
0
  5
3241
 10
287.828
 20
188.789
 30
0.000000
  70
    32
  0
VERTEX
  8
0
  5
3242
 10
287.823
 20
188.839
 30
0.000000
  70
    32
  0
VERTEX
  8
0
  5
3243
 10
287.819
 20
188.889
 30
0.000000
  70
    32
  0
VERTEX
  8
0
  5
3244
 10
287.816
 20
188.940
 30
0.000000
  70
    32
  0
VERTEX
  8
0
  5
3245
 10
287.813
 20
188.990
 30
0.000000
  70
    32
  0
VERTEX
  8
0
  5
3246
 10
287.811
 20
189.041
 30
0.000000
  70
    32
  0
VERTEX
  8
0
  5
3247
 10
287.810
 20
189.092
 30
0.000000
  70
    32
  0
VERTEX
  8
0
  5
3248
 10
287.810
 20
189.142
 30
0.000000
  70
    32
  0
VERTEX
  8
0
  5
3249
 10
287.810
 20
189.193
 30
0.000000
  70
    32
  0
VERTEX
  8
0
  5
324A
 10
287.811
 20
189.244
 30
0.000000
  70
    32
  0
VERTEX
  8
0
  5
324B
 10
287.813
 20
189.294
 30
0.000000
  70
    32
  0
VERTEX
  8
0
  5
324C
 10
287.816
 20
189.345
 30
0.000000
  70
    32
  0
VERTEX
  8
0
  5
324D
 10
287.819
 20
189.395
 30
0.000000
  70
    32
  0
VERTEX
  8
0
  5
324E
 10
287.823
 20
189.446
 30
0.000000
  70
    32
  0
VERTEX
  8
0
  5
324F
 10
287.828
 20
189.496
 30
0.000000
  70
    32
  0
VERTEX
  8
0
  5
3250
 10
287.834
 20
189.546
 30
0.000000
  70
    32
  0
VERTEX
  8
0
  5
3251
 10
287.841
 20
189.595
 30
0.000000
  70
    32
  0
VERTEX
  8
0
  5
3252
 10
287.848
 20
189.645
 30
0.000000
  70
    32
  0
VERTEX
  8
0
  5
3253
 10
287.856
 20
189.694
 30
0.000000
  70
    32
  0
VERTEX
  8
0
  5
3254
 10
287.864
 20
189.742
 30
0.000000
  70
    32
  0
VERTEX
  8
0
  5
3255
 10
287.874
 20
189.791
 30
0.000000
  70
    32
  0
VERTEX
  8
0
  5
3256
 10
287.884
 20
189.839
 30
0.000000
  70
    32
  0
VERTEX
  8
0
  5
3257
 10
287.895
 20
189.886
 30
0.000000
  70
    32
  0
VERTEX
  8
0
  5
3258
 10
287.907
 20
189.933
 30
0.000000
  70
    32
  0
VERTEX
  8
0
  5
3259
 10
287.919
 20
189.980
 30
0.000000
  70
    32
  0
VERTEX
  8
0
  5
325A
 10
287.932
 20
190.026
 30
0.000000
  70
    32
  0
VERTEX
  8
0
  5
325B
 10
287.946
 20
190.072
 30
0.000000
  70
    32
  0
VERTEX
  8
0
  5
325C
 10
287.960
 20
190.117
 30
0.000000
  70
    32
  0
VERTEX
  8
0
  5
325D
 10
287.975
 20
190.161
 30
0.000000
  70
    32
  0
VERTEX
  8
0
  5
325E
 10
287.991
 20
190.205
 30
0.000000
  70
    32
  0
VERTEX
  8
0
  5
325F
 10
288.008
 20
190.248
 30
0.000000
  70
    32
  0
VERTEX
  8
0
  5
3260
 10
288.025
 20
190.291
 30
0.000000
  70
    32
  0
VERTEX
  8
0
  5
3261
 10
288.042
 20
190.333
 30
0.000000
  70
    32
  0
VERTEX
  8
0
  5
3262
 10
288.061
 20
190.374
 30
0.000000
  70
    32
  0
VERTEX
  8
0
  5
3263
 10
288.080
 20
190.414
 30
0.000000
  70
    32
  0
VERTEX
  8
0
  5
3264
 10
288.099
 20
190.454
 30
0.000000
  70
    32
  0
VERTEX
  8
0
  5
3265
 10
288.119
 20
190.492
 30
0.000000
  70
    32
  0
VERTEX
  8
0
  5
3266
 10
288.140
 20
190.530
 30
0.000000
  70
    32
  0
VERTEX
  8
0
  5
3267
 10
288.162
 20
190.568
 30
0.000000
  70
    32
  0
VERTEX
  8
0
  5
3268
 10
288.183
 20
190.604
 30
0.000000
  70
    32
  0
VERTEX
  8
0
  5
3269
 10
288.206
 20
190.639
 30
0.000000
  70
    32
  0
VERTEX
  8
0
  5
326A
 10
288.229
 20
190.674
 30
0.000000
  70
    32
  0
VERTEX
  8
0
  5
326B
 10
288.252
 20
190.707
 30
0.000000
  70
    32
  0
VERTEX
  8
0
  5
326C
 10
288.276
 20
190.740
 30
0.000000
  70
    32
  0
VERTEX
  8
0
  5
326D
 10
288.301
 20
190.772
 30
0.000000
  70
    32
  0
VERTEX
  8
0
  5
326E
 10
288.326
 20
190.803
 30
0.000000
  70
    32
  0
VERTEX
  8
0
  5
326F
 10
288.351
 20
190.832
 30
0.000000
  70
    32
  0
VERTEX
  8
0
  5
3270
 10
288.377
 20
190.861
 30
0.000000
  70
    32
  0
VERTEX
  8
0
  5
3271
 10
288.403
 20
190.889
 30
0.000000
  70
    32
  0
VERTEX
  8
0
  5
3272
 10
288.430
 20
190.915
 30
0.000000
  70
    32
  0
VERTEX
  8
0
  5
3273
 10
288.457
 20
190.941
 30
0.000000
  70
    32
  0
VERTEX
  8
0
  5
3274
 10
288.484
 20
190.965
 30
0.000000
  70
    32
  0
VERTEX
  8
0
  5
3275
 10
288.512
 20
190.989
 30
0.000000
  70
    32
  0
VERTEX
  8
0
  5
3276
 10
288.540
 20
191.011
 30
0.000000
  70
    32
  0
VERTEX
  8
0
  5
3277
 10
288.569
 20
191.032
 30
0.000000
  70
    32
  0
VERTEX
  8
0
  5
3278
 10
288.598
 20
191.052
 30
0.000000
  70
    32
  0
VERTEX
  8
0
  5
3279
 10
288.627
 20
191.071
 30
0.000000
  70
    32
  0
VERTEX
  8
0
  5
327A
 10
288.656
 20
191.089
 30
0.000000
  70
    32
  0
VERTEX
  8
0
  5
327B
 10
288.686
 20
191.105
 30
0.000000
  70
    32
  0
VERTEX
  8
0
  5
327C
 10
288.716
 20
191.120
 30
0.000000
  70
    32
  0
VERTEX
  8
0
  5
327D
 10
288.746
 20
191.134
 30
0.000000
  70
    32
  0
VERTEX
  8
0
  5
327E
 10
288.776
 20
191.147
 30
0.000000
  70
    32
  0
VERTEX
  8
0
  5
327F
 10
288.807
 20
191.159
 30
0.000000
  70
    32
  0
VERTEX
  8
0
  5
3280
 10
288.837
 20
191.170
 30
0.000000
  70
    32
  0
VERTEX
  8
0
  5
3281
 10
288.868
 20
191.179
 30
0.000000
  70
    32
  0
VERTEX
  8
0
  5
3282
 10
288.899
 20
191.187
 30
0.000000
  70
    32
  0
VERTEX
  8
0
  5
3283
 10
288.930
 20
191.194
 30
0.000000
  70
    32
  0
VERTEX
  8
0
  5
3284
 10
288.961
 20
191.199
 30
0.000000
  70
    32
  0
VERTEX
  8
0
  5
3285
 10
288.992
 20
191.204
 30
0.000000
  70
    32
  0
VERTEX
  8
0
  5
3286
 10
289.024
 20
191.207
 30
0.000000
  70
    32
  0
VERTEX
  8
0
  5
3287
 10
289.055
 20
191.209
 30
0.000000
  70
    32
  0
VERTEX
  8
0
  5
3288
 10
289.086
 20
191.209
 30
0.000000
  70
    32
  0
SEQEND
  8
0
  5
3289
  0
POLYLINE
  5
1F51
  8
0
 10
289.08624556712488
 20
191.20933099816239
 30
0.0
 66
     1
 70
     8
  0
VERTEX
  8
0
  5
328A
 10
289.086
 20
191.209
 30
0.000000
  70
    32
  0
VERTEX
  8
0
  5
328B
 10
289.143
 20
191.209
 30
0.000000
  70
    32
  0
VERTEX
  8
0
  5
328C
 10
289.199
 20
191.207
 30
0.000000
  70
    32
  0
VERTEX
  8
0
  5
328D
 10
289.256
 20
191.204
 30
0.000000
  70
    32
  0
VERTEX
  8
0
  5
328E
 10
289.312
 20
191.199
 30
0.000000
  70
    32
  0
VERTEX
  8
0
  5
328F
 10
289.368
 20
191.194
 30
0.000000
  70
    32
  0
VERTEX
  8
0
  5
3290
 10
289.424
 20
191.187
 30
0.000000
  70
    32
  0
VERTEX
  8
0
  5
3291
 10
289.480
 20
191.179
 30
0.000000
  70
    32
  0
VERTEX
  8
0
  5
3292
 10
289.536
 20
191.170
 30
0.000000
  70
    32
  0
VERTEX
  8
0
  5
3293
 10
289.591
 20
191.159
 30
0.000000
  70
    32
  0
VERTEX
  8
0
  5
3294
 10
289.646
 20
191.147
 30
0.000000
  70
    32
  0
VERTEX
  8
0
  5
3295
 10
289.701
 20
191.134
 30
0.000000
  70
    32
  0
VERTEX
  8
0
  5
3296
 10
289.755
 20
191.120
 30
0.000000
  70
    32
  0
VERTEX
  8
0
  5
3297
 10
289.809
 20
191.105
 30
0.000000
  70
    32
  0
VERTEX
  8
0
  5
3298
 10
289.862
 20
191.089
 30
0.000000
  70
    32
  0
VERTEX
  8
0
  5
3299
 10
289.915
 20
191.071
 30
0.000000
  70
    32
  0
VERTEX
  8
0
  5
329A
 10
289.968
 20
191.052
 30
0.000000
  70
    32
  0
VERTEX
  8
0
  5
329B
 10
290.020
 20
191.032
 30
0.000000
  70
    32
  0
VERTEX
  8
0
  5
329C
 10
290.071
 20
191.011
 30
0.000000
  70
    32
  0
VERTEX
  8
0
  5
329D
 10
290.122
 20
190.989
 30
0.000000
  70
    32
  0
VERTEX
  8
0
  5
329E
 10
290.172
 20
190.965
 30
0.000000
  70
    32
  0
VERTEX
  8
0
  5
329F
 10
290.222
 20
190.941
 30
0.000000
  70
    32
  0
VERTEX
  8
0
  5
32A0
 10
290.270
 20
190.915
 30
0.000000
  70
    32
  0
VERTEX
  8
0
  5
32A1
 10
290.319
 20
190.889
 30
0.000000
  70
    32
  0
VERTEX
  8
0
  5
32A2
 10
290.366
 20
190.861
 30
0.000000
  70
    32
  0
VERTEX
  8
0
  5
32A3
 10
290.413
 20
190.832
 30
0.000000
  70
    32
  0
VERTEX
  8
0
  5
32A4
 10
290.458
 20
190.803
 30
0.000000
  70
    32
  0
VERTEX
  8
0
  5
32A5
 10
290.503
 20
190.772
 30
0.000000
  70
    32
  0
VERTEX
  8
0
  5
32A6
 10
290.548
 20
190.740
 30
0.000000
  70
    32
  0
VERTEX
  8
0
  5
32A7
 10
290.591
 20
190.707
 30
0.000000
  70
    32
  0
VERTEX
  8
0
  5
32A8
 10
290.633
 20
190.674
 30
0.000000
  70
    32
  0
VERTEX
  8
0
  5
32A9
 10
290.675
 20
190.639
 30
0.000000
  70
    32
  0
VERTEX
  8
0
  5
32AA
 10
290.715
 20
190.604
 30
0.000000
  70
    32
  0
VERTEX
  8
0
  5
32AB
 10
290.754
 20
190.568
 30
0.000000
  70
    32
  0
VERTEX
  8
0
  5
32AC
 10
290.793
 20
190.530
 30
0.000000
  70
    32
  0
VERTEX
  8
0
  5
32AD
 10
290.830
 20
190.492
 30
0.000000
  70
    32
  0
VERTEX
  8
0
  5
32AE
 10
290.867
 20
190.454
 30
0.000000
  70
    32
  0
VERTEX
  8
0
  5
32AF
 10
290.902
 20
190.414
 30
0.000000
  70
    32
  0
VERTEX
  8
0
  5
32B0
 10
290.936
 20
190.374
 30
0.000000
  70
    32
  0
VERTEX
  8
0
  5
32B1
 10
290.969
 20
190.333
 30
0.000000
  70
    32
  0
VERTEX
  8
0
  5
32B2
 10
291.001
 20
190.291
 30
0.000000
  70
    32
  0
VERTEX
  8
0
  5
32B3
 10
291.032
 20
190.248
 30
0.000000
  70
    32
  0
VERTEX
  8
0
  5
32B4
 10
291.062
 20
190.205
 30
0.000000
  70
    32
  0
VERTEX
  8
0
  5
32B5
 10
291.090
 20
190.161
 30
0.000000
  70
    32
  0
VERTEX
  8
0
  5
32B6
 10
291.118
 20
190.117
 30
0.000000
  70
    32
  0
VERTEX
  8
0
  5
32B7
 10
291.144
 20
190.072
 30
0.000000
  70
    32
  0
VERTEX
  8
0
  5
32B8
 10
291.169
 20
190.026
 30
0.000000
  70
    32
  0
VERTEX
  8
0
  5
32B9
 10
291.192
 20
189.980
 30
0.000000
  70
    32
  0
VERTEX
  8
0
  5
32BA
 10
291.214
 20
189.933
 30
0.000000
  70
    32
  0
VERTEX
  8
0
  5
32BB
 10
291.235
 20
189.886
 30
0.000000
  70
    32
  0
VERTEX
  8
0
  5
32BC
 10
291.255
 20
189.839
 30
0.000000
  70
    32
  0
VERTEX
  8
0
  5
32BD
 10
291.273
 20
189.791
 30
0.000000
  70
    32
  0
VERTEX
  8
0
  5
32BE
 10
291.290
 20
189.742
 30
0.000000
  70
    32
  0
VERTEX
  8
0
  5
32BF
 10
291.306
 20
189.694
 30
0.000000
  70
    32
  0
VERTEX
  8
0
  5
32C0
 10
291.321
 20
189.645
 30
0.000000
  70
    32
  0
VERTEX
  8
0
  5
32C1
 10
291.334
 20
189.595
 30
0.000000
  70
    32
  0
VERTEX
  8
0
  5
32C2
 10
291.345
 20
189.546
 30
0.000000
  70
    32
  0
VERTEX
  8
0
  5
32C3
 10
291.356
 20
189.496
 30
0.000000
  70
    32
  0
VERTEX
  8
0
  5
32C4
 10
291.365
 20
189.446
 30
0.000000
  70
    32
  0
VERTEX
  8
0
  5
32C5
 10
291.372
 20
189.395
 30
0.000000
  70
    32
  0
VERTEX
  8
0
  5
32C6
 10
291.379
 20
189.345
 30
0.000000
  70
    32
  0
VERTEX
  8
0
  5
32C7
 10
291.383
 20
189.294
 30
0.000000
  70
    32
  0
VERTEX
  8
0
  5
32C8
 10
291.387
 20
189.244
 30
0.000000
  70
    32
  0
VERTEX
  8
0
  5
32C9
 10
291.389
 20
189.193
 30
0.000000
  70
    32
  0
VERTEX
  8
0
  5
32CA
 10
291.390
 20
189.142
 30
0.000000
  70
    32
  0
VERTEX
  8
0
  5
32CB
 10
291.389
 20
189.092
 30
0.000000
  70
    32
  0
VERTEX
  8
0
  5
32CC
 10
291.387
 20
189.041
 30
0.000000
  70
    32
  0
VERTEX
  8
0
  5
32CD
 10
291.383
 20
188.990
 30
0.000000
  70
    32
  0
VERTEX
  8
0
  5
32CE
 10
291.379
 20
188.940
 30
0.000000
  70
    32
  0
VERTEX
  8
0
  5
32CF
 10
291.372
 20
188.889
 30
0.000000
  70
    32
  0
VERTEX
  8
0
  5
32D0
 10
291.365
 20
188.839
 30
0.000000
  70
    32
  0
VERTEX
  8
0
  5
32D1
 10
291.356
 20
188.789
 30
0.000000
  70
    32
  0
VERTEX
  8
0
  5
32D2
 10
291.345
 20
188.739
 30
0.000000
  70
    32
  0
VERTEX
  8
0
  5
32D3
 10
291.334
 20
188.689
 30
0.000000
  70
    32
  0
VERTEX
  8
0
  5
32D4
 10
291.321
 20
188.640
 30
0.000000
  70
    32
  0
VERTEX
  8
0
  5
32D5
 10
291.306
 20
188.591
 30
0.000000
  70
    32
  0
VERTEX
  8
0
  5
32D6
 10
291.290
 20
188.542
 30
0.000000
  70
    32
  0
VERTEX
  8
0
  5
32D7
 10
291.273
 20
188.494
 30
0.000000
  70
    32
  0
VERTEX
  8
0
  5
32D8
 10
291.255
 20
188.446
 30
0.000000
  70
    32
  0
VERTEX
  8
0
  5
32D9
 10
291.235
 20
188.398
 30
0.000000
  70
    32
  0
VERTEX
  8
0
  5
32DA
 10
291.214
 20
188.351
 30
0.000000
  70
    32
  0
VERTEX
  8
0
  5
32DB
 10
291.192
 20
188.305
 30
0.000000
  70
    32
  0
VERTEX
  8
0
  5
32DC
 10
291.169
 20
188.259
 30
0.000000
  70
    32
  0
VERTEX
  8
0
  5
32DD
 10
291.144
 20
188.213
 30
0.000000
  70
    32
  0
VERTEX
  8
0
  5
32DE
 10
291.118
 20
188.168
 30
0.000000
  70
    32
  0
VERTEX
  8
0
  5
32DF
 10
291.090
 20
188.124
 30
0.000000
  70
    32
  0
VERTEX
  8
0
  5
32E0
 10
291.062
 20
188.080
 30
0.000000
  70
    32
  0
VERTEX
  8
0
  5
32E1
 10
291.032
 20
188.036
 30
0.000000
  70
    32
  0
VERTEX
  8
0
  5
32E2
 10
291.001
 20
187.994
 30
0.000000
  70
    32
  0
VERTEX
  8
0
  5
32E3
 10
290.969
 20
187.952
 30
0.000000
  70
    32
  0
VERTEX
  8
0
  5
32E4
 10
290.936
 20
187.911
 30
0.000000
  70
    32
  0
VERTEX
  8
0
  5
32E5
 10
290.902
 20
187.871
 30
0.000000
  70
    32
  0
VERTEX
  8
0
  5
32E6
 10
290.867
 20
187.831
 30
0.000000
  70
    32
  0
VERTEX
  8
0
  5
32E7
 10
290.830
 20
187.792
 30
0.000000
  70
    32
  0
VERTEX
  8
0
  5
32E8
 10
290.793
 20
187.754
 30
0.000000
  70
    32
  0
VERTEX
  8
0
  5
32E9
 10
290.754
 20
187.717
 30
0.000000
  70
    32
  0
VERTEX
  8
0
  5
32EA
 10
290.715
 20
187.681
 30
0.000000
  70
    32
  0
VERTEX
  8
0
  5
32EB
 10
290.675
 20
187.645
 30
0.000000
  70
    32
  0
VERTEX
  8
0
  5
32EC
 10
290.633
 20
187.611
 30
0.000000
  70
    32
  0
VERTEX
  8
0
  5
32ED
 10
290.591
 20
187.577
 30
0.000000
  70
    32
  0
VERTEX
  8
0
  5
32EE
 10
290.548
 20
187.545
 30
0.000000
  70
    32
  0
VERTEX
  8
0
  5
32EF
 10
290.503
 20
187.513
 30
0.000000
  70
    32
  0
VERTEX
  8
0
  5
32F0
 10
290.458
 20
187.482
 30
0.000000
  70
    32
  0
VERTEX
  8
0
  5
32F1
 10
290.413
 20
187.452
 30
0.000000
  70
    32
  0
VERTEX
  8
0
  5
32F2
 10
290.366
 20
187.424
 30
0.000000
  70
    32
  0
VERTEX
  8
0
  5
32F3
 10
290.319
 20
187.396
 30
0.000000
  70
    32
  0
VERTEX
  8
0
  5
32F4
 10
290.270
 20
187.369
 30
0.000000
  70
    32
  0
VERTEX
  8
0
  5
32F5
 10
290.222
 20
187.344
 30
0.000000
  70
    32
  0
VERTEX
  8
0
  5
32F6
 10
290.172
 20
187.319
 30
0.000000
  70
    32
  0
VERTEX
  8
0
  5
32F7
 10
290.122
 20
187.296
 30
0.000000
  70
    32
  0
VERTEX
  8
0
  5
32F8
 10
290.071
 20
187.274
 30
0.000000
  70
    32
  0
VERTEX
  8
0
  5
32F9
 10
290.020
 20
187.253
 30
0.000000
  70
    32
  0
VERTEX
  8
0
  5
32FA
 10
289.968
 20
187.233
 30
0.000000
  70
    32
  0
VERTEX
  8
0
  5
32FB
 10
289.915
 20
187.214
 30
0.000000
  70
    32
  0
VERTEX
  8
0
  5
32FC
 10
289.862
 20
187.196
 30
0.000000
  70
    32
  0
VERTEX
  8
0
  5
32FD
 10
289.809
 20
187.180
 30
0.000000
  70
    32
  0
VERTEX
  8
0
  5
32FE
 10
289.755
 20
187.164
 30
0.000000
  70
    32
  0
VERTEX
  8
0
  5
32FF
 10
289.701
 20
187.150
 30
0.000000
  70
    32
  0
VERTEX
  8
0
  5
3300
 10
289.646
 20
187.137
 30
0.000000
  70
    32
  0
VERTEX
  8
0
  5
3301
 10
289.591
 20
187.126
 30
0.000000
  70
    32
  0
VERTEX
  8
0
  5
3302
 10
289.536
 20
187.115
 30
0.000000
  70
    32
  0
VERTEX
  8
0
  5
3303
 10
289.480
 20
187.106
 30
0.000000
  70
    32
  0
VERTEX
  8
0
  5
3304
 10
289.424
 20
187.098
 30
0.000000
  70
    32
  0
VERTEX
  8
0
  5
3305
 10
289.368
 20
187.091
 30
0.000000
  70
    32
  0
VERTEX
  8
0
  5
3306
 10
289.312
 20
187.085
 30
0.000000
  70
    32
  0
VERTEX
  8
0
  5
3307
 10
289.256
 20
187.081
 30
0.000000
  70
    32
  0
VERTEX
  8
0
  5
3308
 10
289.199
 20
187.078
 30
0.000000
  70
    32
  0
VERTEX
  8
0
  5
3309
 10
289.143
 20
187.076
 30
0.000000
  70
    32
  0
VERTEX
  8
0
  5
330A
 10
289.086
 20
187.075
 30
0.000000
  70
    32
  0
SEQEND
  8
0
  5
330B
  0
POLYLINE
  5
1F52
  8
0
 10
306.58624568579864
 20
191.20933099816239
 30
0.0
 66
     1
 70
     8
  0
VERTEX
  8
0
  5
330C
 10
306.586
 20
191.209
 30
0.000000
  70
    32
  0
VERTEX
  8
0
  5
330D
 10
306.530
 20
191.209
 30
0.000000
  70
    32
  0
VERTEX
  8
0
  5
330E
 10
306.473
 20
191.207
 30
0.000000
  70
    32
  0
VERTEX
  8
0
  5
330F
 10
306.417
 20
191.204
 30
0.000000
  70
    32
  0
VERTEX
  8
0
  5
3310
 10
306.360
 20
191.199
 30
0.000000
  70
    32
  0
VERTEX
  8
0
  5
3311
 10
306.304
 20
191.194
 30
0.000000
  70
    32
  0
VERTEX
  8
0
  5
3312
 10
306.248
 20
191.187
 30
0.000000
  70
    32
  0
VERTEX
  8
0
  5
3313
 10
306.192
 20
191.179
 30
0.000000
  70
    32
  0
VERTEX
  8
0
  5
3314
 10
306.137
 20
191.170
 30
0.000000
  70
    32
  0
VERTEX
  8
0
  5
3315
 10
306.082
 20
191.159
 30
0.000000
  70
    32
  0
VERTEX
  8
0
  5
3316
 10
306.027
 20
191.147
 30
0.000000
  70
    32
  0
VERTEX
  8
0
  5
3317
 10
305.972
 20
191.134
 30
0.000000
  70
    32
  0
VERTEX
  8
0
  5
3318
 10
305.918
 20
191.120
 30
0.000000
  70
    32
  0
VERTEX
  8
0
  5
3319
 10
305.864
 20
191.105
 30
0.000000
  70
    32
  0
VERTEX
  8
0
  5
331A
 10
305.810
 20
191.089
 30
0.000000
  70
    32
  0
VERTEX
  8
0
  5
331B
 10
305.757
 20
191.071
 30
0.000000
  70
    32
  0
VERTEX
  8
0
  5
331C
 10
305.705
 20
191.052
 30
0.000000
  70
    32
  0
VERTEX
  8
0
  5
331D
 10
305.653
 20
191.032
 30
0.000000
  70
    32
  0
VERTEX
  8
0
  5
331E
 10
305.601
 20
191.011
 30
0.000000
  70
    32
  0
VERTEX
  8
0
  5
331F
 10
305.551
 20
190.989
 30
0.000000
  70
    32
  0
VERTEX
  8
0
  5
3320
 10
305.500
 20
190.965
 30
0.000000
  70
    32
  0
VERTEX
  8
0
  5
3321
 10
305.451
 20
190.941
 30
0.000000
  70
    32
  0
VERTEX
  8
0
  5
3322
 10
305.402
 20
190.915
 30
0.000000
  70
    32
  0
VERTEX
  8
0
  5
3323
 10
305.354
 20
190.889
 30
0.000000
  70
    32
  0
VERTEX
  8
0
  5
3324
 10
305.307
 20
190.861
 30
0.000000
  70
    32
  0
VERTEX
  8
0
  5
3325
 10
305.260
 20
190.832
 30
0.000000
  70
    32
  0
VERTEX
  8
0
  5
3326
 10
305.214
 20
190.803
 30
0.000000
  70
    32
  0
VERTEX
  8
0
  5
3327
 10
305.169
 20
190.772
 30
0.000000
  70
    32
  0
VERTEX
  8
0
  5
3328
 10
305.125
 20
190.740
 30
0.000000
  70
    32
  0
VERTEX
  8
0
  5
3329
 10
305.082
 20
190.707
 30
0.000000
  70
    32
  0
VERTEX
  8
0
  5
332A
 10
305.039
 20
190.674
 30
0.000000
  70
    32
  0
VERTEX
  8
0
  5
332B
 10
304.998
 20
190.639
 30
0.000000
  70
    32
  0
VERTEX
  8
0
  5
332C
 10
304.957
 20
190.604
 30
0.000000
  70
    32
  0
VERTEX
  8
0
  5
332D
 10
304.918
 20
190.568
 30
0.000000
  70
    32
  0
VERTEX
  8
0
  5
332E
 10
304.880
 20
190.530
 30
0.000000
  70
    32
  0
VERTEX
  8
0
  5
332F
 10
304.842
 20
190.492
 30
0.000000
  70
    32
  0
VERTEX
  8
0
  5
3330
 10
304.806
 20
190.454
 30
0.000000
  70
    32
  0
VERTEX
  8
0
  5
3331
 10
304.770
 20
190.414
 30
0.000000
  70
    32
  0
VERTEX
  8
0
  5
3332
 10
304.736
 20
190.374
 30
0.000000
  70
    32
  0
VERTEX
  8
0
  5
3333
 10
304.703
 20
190.333
 30
0.000000
  70
    32
  0
VERTEX
  8
0
  5
3334
 10
304.671
 20
190.291
 30
0.000000
  70
    32
  0
VERTEX
  8
0
  5
3335
 10
304.640
 20
190.248
 30
0.000000
  70
    32
  0
VERTEX
  8
0
  5
3336
 10
304.611
 20
190.205
 30
0.000000
  70
    32
  0
VERTEX
  8
0
  5
3337
 10
304.582
 20
190.161
 30
0.000000
  70
    32
  0
VERTEX
  8
0
  5
3338
 10
304.555
 20
190.117
 30
0.000000
  70
    32
  0
VERTEX
  8
0
  5
3339
 10
304.529
 20
190.072
 30
0.000000
  70
    32
  0
VERTEX
  8
0
  5
333A
 10
304.504
 20
190.026
 30
0.000000
  70
    32
  0
VERTEX
  8
0
  5
333B
 10
304.480
 20
189.980
 30
0.000000
  70
    32
  0
VERTEX
  8
0
  5
333C
 10
304.458
 20
189.933
 30
0.000000
  70
    32
  0
VERTEX
  8
0
  5
333D
 10
304.437
 20
189.886
 30
0.000000
  70
    32
  0
VERTEX
  8
0
  5
333E
 10
304.417
 20
189.839
 30
0.000000
  70
    32
  0
VERTEX
  8
0
  5
333F
 10
304.399
 20
189.791
 30
0.000000
  70
    32
  0
VERTEX
  8
0
  5
3340
 10
304.382
 20
189.742
 30
0.000000
  70
    32
  0
VERTEX
  8
0
  5
3341
 10
304.366
 20
189.694
 30
0.000000
  70
    32
  0
VERTEX
  8
0
  5
3342
 10
304.352
 20
189.645
 30
0.000000
  70
    32
  0
VERTEX
  8
0
  5
3343
 10
304.339
 20
189.595
 30
0.000000
  70
    32
  0
VERTEX
  8
0
  5
3344
 10
304.327
 20
189.546
 30
0.000000
  70
    32
  0
VERTEX
  8
0
  5
3345
 10
304.317
 20
189.496
 30
0.000000
  70
    32
  0
VERTEX
  8
0
  5
3346
 10
304.308
 20
189.446
 30
0.000000
  70
    32
  0
VERTEX
  8
0
  5
3347
 10
304.300
 20
189.395
 30
0.000000
  70
    32
  0
VERTEX
  8
0
  5
3348
 10
304.294
 20
189.345
 30
0.000000
  70
    32
  0
VERTEX
  8
0
  5
3349
 10
304.289
 20
189.294
 30
0.000000
  70
    32
  0
VERTEX
  8
0
  5
334A
 10
304.286
 20
189.244
 30
0.000000
  70
    32
  0
VERTEX
  8
0
  5
334B
 10
304.284
 20
189.193
 30
0.000000
  70
    32
  0
VERTEX
  8
0
  5
334C
 10
304.283
 20
189.142
 30
0.000000
  70
    32
  0
VERTEX
  8
0
  5
334D
 10
304.284
 20
189.092
 30
0.000000
  70
    32
  0
VERTEX
  8
0
  5
334E
 10
304.286
 20
189.041
 30
0.000000
  70
    32
  0
VERTEX
  8
0
  5
334F
 10
304.289
 20
188.990
 30
0.000000
  70
    32
  0
VERTEX
  8
0
  5
3350
 10
304.294
 20
188.940
 30
0.000000
  70
    32
  0
VERTEX
  8
0
  5
3351
 10
304.300
 20
188.889
 30
0.000000
  70
    32
  0
VERTEX
  8
0
  5
3352
 10
304.308
 20
188.839
 30
0.000000
  70
    32
  0
VERTEX
  8
0
  5
3353
 10
304.317
 20
188.789
 30
0.000000
  70
    32
  0
VERTEX
  8
0
  5
3354
 10
304.327
 20
188.739
 30
0.000000
  70
    32
  0
VERTEX
  8
0
  5
3355
 10
304.339
 20
188.689
 30
0.000000
  70
    32
  0
VERTEX
  8
0
  5
3356
 10
304.352
 20
188.640
 30
0.000000
  70
    32
  0
VERTEX
  8
0
  5
3357
 10
304.366
 20
188.591
 30
0.000000
  70
    32
  0
VERTEX
  8
0
  5
3358
 10
304.382
 20
188.542
 30
0.000000
  70
    32
  0
VERTEX
  8
0
  5
3359
 10
304.399
 20
188.494
 30
0.000000
  70
    32
  0
VERTEX
  8
0
  5
335A
 10
304.417
 20
188.446
 30
0.000000
  70
    32
  0
VERTEX
  8
0
  5
335B
 10
304.437
 20
188.398
 30
0.000000
  70
    32
  0
VERTEX
  8
0
  5
335C
 10
304.458
 20
188.351
 30
0.000000
  70
    32
  0
VERTEX
  8
0
  5
335D
 10
304.480
 20
188.305
 30
0.000000
  70
    32
  0
VERTEX
  8
0
  5
335E
 10
304.504
 20
188.259
 30
0.000000
  70
    32
  0
VERTEX
  8
0
  5
335F
 10
304.529
 20
188.213
 30
0.000000
  70
    32
  0
VERTEX
  8
0
  5
3360
 10
304.555
 20
188.168
 30
0.000000
  70
    32
  0
VERTEX
  8
0
  5
3361
 10
304.582
 20
188.124
 30
0.000000
  70
    32
  0
VERTEX
  8
0
  5
3362
 10
304.611
 20
188.080
 30
0.000000
  70
    32
  0
VERTEX
  8
0
  5
3363
 10
304.640
 20
188.036
 30
0.000000
  70
    32
  0
VERTEX
  8
0
  5
3364
 10
304.671
 20
187.994
 30
0.000000
  70
    32
  0
VERTEX
  8
0
  5
3365
 10
304.703
 20
187.952
 30
0.000000
  70
    32
  0
VERTEX
  8
0
  5
3366
 10
304.736
 20
187.911
 30
0.000000
  70
    32
  0
VERTEX
  8
0
  5
3367
 10
304.770
 20
187.871
 30
0.000000
  70
    32
  0
VERTEX
  8
0
  5
3368
 10
304.806
 20
187.831
 30
0.000000
  70
    32
  0
VERTEX
  8
0
  5
3369
 10
304.842
 20
187.792
 30
0.000000
  70
    32
  0
VERTEX
  8
0
  5
336A
 10
304.880
 20
187.754
 30
0.000000
  70
    32
  0
VERTEX
  8
0
  5
336B
 10
304.918
 20
187.717
 30
0.000000
  70
    32
  0
VERTEX
  8
0
  5
336C
 10
304.957
 20
187.681
 30
0.000000
  70
    32
  0
VERTEX
  8
0
  5
336D
 10
304.998
 20
187.645
 30
0.000000
  70
    32
  0
VERTEX
  8
0
  5
336E
 10
305.039
 20
187.611
 30
0.000000
  70
    32
  0
VERTEX
  8
0
  5
336F
 10
305.082
 20
187.577
 30
0.000000
  70
    32
  0
VERTEX
  8
0
  5
3370
 10
305.125
 20
187.545
 30
0.000000
  70
    32
  0
VERTEX
  8
0
  5
3371
 10
305.169
 20
187.513
 30
0.000000
  70
    32
  0
VERTEX
  8
0
  5
3372
 10
305.214
 20
187.482
 30
0.000000
  70
    32
  0
VERTEX
  8
0
  5
3373
 10
305.260
 20
187.452
 30
0.000000
  70
    32
  0
VERTEX
  8
0
  5
3374
 10
305.307
 20
187.424
 30
0.000000
  70
    32
  0
VERTEX
  8
0
  5
3375
 10
305.354
 20
187.396
 30
0.000000
  70
    32
  0
VERTEX
  8
0
  5
3376
 10
305.402
 20
187.369
 30
0.000000
  70
    32
  0
VERTEX
  8
0
  5
3377
 10
305.451
 20
187.344
 30
0.000000
  70
    32
  0
VERTEX
  8
0
  5
3378
 10
305.500
 20
187.319
 30
0.000000
  70
    32
  0
VERTEX
  8
0
  5
3379
 10
305.551
 20
187.296
 30
0.000000
  70
    32
  0
VERTEX
  8
0
  5
337A
 10
305.601
 20
187.274
 30
0.000000
  70
    32
  0
VERTEX
  8
0
  5
337B
 10
305.653
 20
187.253
 30
0.000000
  70
    32
  0
VERTEX
  8
0
  5
337C
 10
305.705
 20
187.233
 30
0.000000
  70
    32
  0
VERTEX
  8
0
  5
337D
 10
305.757
 20
187.214
 30
0.000000
  70
    32
  0
VERTEX
  8
0
  5
337E
 10
305.810
 20
187.196
 30
0.000000
  70
    32
  0
VERTEX
  8
0
  5
337F
 10
305.864
 20
187.180
 30
0.000000
  70
    32
  0
VERTEX
  8
0
  5
3380
 10
305.918
 20
187.164
 30
0.000000
  70
    32
  0
VERTEX
  8
0
  5
3381
 10
305.972
 20
187.150
 30
0.000000
  70
    32
  0
VERTEX
  8
0
  5
3382
 10
306.027
 20
187.137
 30
0.000000
  70
    32
  0
VERTEX
  8
0
  5
3383
 10
306.082
 20
187.126
 30
0.000000
  70
    32
  0
VERTEX
  8
0
  5
3384
 10
306.137
 20
187.115
 30
0.000000
  70
    32
  0
VERTEX
  8
0
  5
3385
 10
306.192
 20
187.106
 30
0.000000
  70
    32
  0
VERTEX
  8
0
  5
3386
 10
306.248
 20
187.098
 30
0.000000
  70
    32
  0
VERTEX
  8
0
  5
3387
 10
306.304
 20
187.091
 30
0.000000
  70
    32
  0
VERTEX
  8
0
  5
3388
 10
306.360
 20
187.085
 30
0.000000
  70
    32
  0
VERTEX
  8
0
  5
3389
 10
306.417
 20
187.081
 30
0.000000
  70
    32
  0
VERTEX
  8
0
  5
338A
 10
306.473
 20
187.078
 30
0.000000
  70
    32
  0
VERTEX
  8
0
  5
338B
 10
306.530
 20
187.076
 30
0.000000
  70
    32
  0
VERTEX
  8
0
  5
338C
 10
306.586
 20
187.075
 30
0.000000
  70
    32
  0
SEQEND
  8
0
  5
338D
  0
POLYLINE
  5
1F53
  8
0
 10
306.5862456857987
 20
187.07533099816243
 30
0.0
 66
     1
 70
     8
  0
VERTEX
  8
0
  5
338E
 10
306.586
 20
187.075
 30
0.000000
  70
    32
  0
VERTEX
  8
0
  5
338F
 10
306.618
 20
187.076
 30
0.000000
  70
    32
  0
VERTEX
  8
0
  5
3390
 10
306.649
 20
187.078
 30
0.000000
  70
    32
  0
VERTEX
  8
0
  5
3391
 10
306.680
 20
187.081
 30
0.000000
  70
    32
  0
VERTEX
  8
0
  5
3392
 10
306.711
 20
187.085
 30
0.000000
  70
    32
  0
VERTEX
  8
0
  5
3393
 10
306.743
 20
187.091
 30
0.000000
  70
    32
  0
VERTEX
  8
0
  5
3394
 10
306.774
 20
187.098
 30
0.000000
  70
    32
  0
VERTEX
  8
0
  5
3395
 10
306.805
 20
187.106
 30
0.000000
  70
    32
  0
VERTEX
  8
0
  5
3396
 10
306.835
 20
187.115
 30
0.000000
  70
    32
  0
VERTEX
  8
0
  5
3397
 10
306.866
 20
187.126
 30
0.000000
  70
    32
  0
VERTEX
  8
0
  5
3398
 10
306.896
 20
187.137
 30
0.000000
  70
    32
  0
VERTEX
  8
0
  5
3399
 10
306.927
 20
187.150
 30
0.000000
  70
    32
  0
VERTEX
  8
0
  5
339A
 10
306.957
 20
187.164
 30
0.000000
  70
    32
  0
VERTEX
  8
0
  5
339B
 10
306.987
 20
187.180
 30
0.000000
  70
    32
  0
VERTEX
  8
0
  5
339C
 10
307.016
 20
187.196
 30
0.000000
  70
    32
  0
VERTEX
  8
0
  5
339D
 10
307.046
 20
187.214
 30
0.000000
  70
    32
  0
VERTEX
  8
0
  5
339E
 10
307.075
 20
187.233
 30
0.000000
  70
    32
  0
VERTEX
  8
0
  5
339F
 10
307.104
 20
187.253
 30
0.000000
  70
    32
  0
VERTEX
  8
0
  5
33A0
 10
307.132
 20
187.274
 30
0.000000
  70
    32
  0
VERTEX
  8
0
  5
33A1
 10
307.160
 20
187.296
 30
0.000000
  70
    32
  0
VERTEX
  8
0
  5
33A2
 10
307.188
 20
187.319
 30
0.000000
  70
    32
  0
VERTEX
  8
0
  5
33A3
 10
307.216
 20
187.344
 30
0.000000
  70
    32
  0
VERTEX
  8
0
  5
33A4
 10
307.243
 20
187.369
 30
0.000000
  70
    32
  0
VERTEX
  8
0
  5
33A5
 10
307.269
 20
187.396
 30
0.000000
  70
    32
  0
VERTEX
  8
0
  5
33A6
 10
307.296
 20
187.424
 30
0.000000
  70
    32
  0
VERTEX
  8
0
  5
33A7
 10
307.321
 20
187.452
 30
0.000000
  70
    32
  0
VERTEX
  8
0
  5
33A8
 10
307.347
 20
187.482
 30
0.000000
  70
    32
  0
VERTEX
  8
0
  5
33A9
 10
307.372
 20
187.513
 30
0.000000
  70
    32
  0
VERTEX
  8
0
  5
33AA
 10
307.396
 20
187.545
 30
0.000000
  70
    32
  0
VERTEX
  8
0
  5
33AB
 10
307.420
 20
187.577
 30
0.000000
  70
    32
  0
VERTEX
  8
0
  5
33AC
 10
307.444
 20
187.611
 30
0.000000
  70
    32
  0
VERTEX
  8
0
  5
33AD
 10
307.467
 20
187.645
 30
0.000000
  70
    32
  0
VERTEX
  8
0
  5
33AE
 10
307.489
 20
187.681
 30
0.000000
  70
    32
  0
VERTEX
  8
0
  5
33AF
 10
307.511
 20
187.717
 30
0.000000
  70
    32
  0
VERTEX
  8
0
  5
33B0
 10
307.532
 20
187.754
 30
0.000000
  70
    32
  0
VERTEX
  8
0
  5
33B1
 10
307.553
 20
187.792
 30
0.000000
  70
    32
  0
VERTEX
  8
0
  5
33B2
 10
307.573
 20
187.831
 30
0.000000
  70
    32
  0
VERTEX
  8
0
  5
33B3
 10
307.593
 20
187.871
 30
0.000000
  70
    32
  0
VERTEX
  8
0
  5
33B4
 10
307.612
 20
187.911
 30
0.000000
  70
    32
  0
VERTEX
  8
0
  5
33B5
 10
307.630
 20
187.952
 30
0.000000
  70
    32
  0
VERTEX
  8
0
  5
33B6
 10
307.648
 20
187.994
 30
0.000000
  70
    32
  0
VERTEX
  8
0
  5
33B7
 10
307.665
 20
188.036
 30
0.000000
  70
    32
  0
VERTEX
  8
0
  5
33B8
 10
307.681
 20
188.080
 30
0.000000
  70
    32
  0
VERTEX
  8
0
  5
33B9
 10
307.697
 20
188.124
 30
0.000000
  70
    32
  0
VERTEX
  8
0
  5
33BA
 10
307.712
 20
188.168
 30
0.000000
  70
    32
  0
VERTEX
  8
0
  5
33BB
 10
307.727
 20
188.213
 30
0.000000
  70
    32
  0
VERTEX
  8
0
  5
33BC
 10
307.740
 20
188.259
 30
0.000000
  70
    32
  0
VERTEX
  8
0
  5
33BD
 10
307.753
 20
188.305
 30
0.000000
  70
    32
  0
VERTEX
  8
0
  5
33BE
 10
307.766
 20
188.351
 30
0.000000
  70
    32
  0
VERTEX
  8
0
  5
33BF
 10
307.777
 20
188.398
 30
0.000000
  70
    32
  0
VERTEX
  8
0
  5
33C0
 10
307.788
 20
188.446
 30
0.000000
  70
    32
  0
VERTEX
  8
0
  5
33C1
 10
307.799
 20
188.494
 30
0.000000
  70
    32
  0
VERTEX
  8
0
  5
33C2
 10
307.808
 20
188.542
 30
0.000000
  70
    32
  0
VERTEX
  8
0
  5
33C3
 10
307.817
 20
188.591
 30
0.000000
  70
    32
  0
VERTEX
  8
0
  5
33C4
 10
307.825
 20
188.640
 30
0.000000
  70
    32
  0
VERTEX
  8
0
  5
33C5
 10
307.832
 20
188.689
 30
0.000000
  70
    32
  0
VERTEX
  8
0
  5
33C6
 10
307.838
 20
188.739
 30
0.000000
  70
    32
  0
VERTEX
  8
0
  5
33C7
 10
307.844
 20
188.789
 30
0.000000
  70
    32
  0
VERTEX
  8
0
  5
33C8
 10
307.849
 20
188.839
 30
0.000000
  70
    32
  0
VERTEX
  8
0
  5
33C9
 10
307.853
 20
188.889
 30
0.000000
  70
    32
  0
VERTEX
  8
0
  5
33CA
 10
307.857
 20
188.940
 30
0.000000
  70
    32
  0
VERTEX
  8
0
  5
33CB
 10
307.860
 20
188.990
 30
0.000000
  70
    32
  0
VERTEX
  8
0
  5
33CC
 10
307.861
 20
189.041
 30
0.000000
  70
    32
  0
VERTEX
  8
0
  5
33CD
 10
307.863
 20
189.092
 30
0.000000
  70
    32
  0
VERTEX
  8
0
  5
33CE
 10
307.863
 20
189.142
 30
0.000000
  70
    32
  0
VERTEX
  8
0
  5
33CF
 10
307.863
 20
189.193
 30
0.000000
  70
    32
  0
VERTEX
  8
0
  5
33D0
 10
307.861
 20
189.244
 30
0.000000
  70
    32
  0
VERTEX
  8
0
  5
33D1
 10
307.860
 20
189.294
 30
0.000000
  70
    32
  0
VERTEX
  8
0
  5
33D2
 10
307.857
 20
189.345
 30
0.000000
  70
    32
  0
VERTEX
  8
0
  5
33D3
 10
307.853
 20
189.395
 30
0.000000
  70
    32
  0
VERTEX
  8
0
  5
33D4
 10
307.849
 20
189.446
 30
0.000000
  70
    32
  0
VERTEX
  8
0
  5
33D5
 10
307.844
 20
189.496
 30
0.000000
  70
    32
  0
VERTEX
  8
0
  5
33D6
 10
307.838
 20
189.546
 30
0.000000
  70
    32
  0
VERTEX
  8
0
  5
33D7
 10
307.832
 20
189.595
 30
0.000000
  70
    32
  0
VERTEX
  8
0
  5
33D8
 10
307.825
 20
189.645
 30
0.000000
  70
    32
  0
VERTEX
  8
0
  5
33D9
 10
307.817
 20
189.694
 30
0.000000
  70
    32
  0
VERTEX
  8
0
  5
33DA
 10
307.808
 20
189.742
 30
0.000000
  70
    32
  0
VERTEX
  8
0
  5
33DB
 10
307.799
 20
189.791
 30
0.000000
  70
    32
  0
VERTEX
  8
0
  5
33DC
 10
307.788
 20
189.839
 30
0.000000
  70
    32
  0
VERTEX
  8
0
  5
33DD
 10
307.777
 20
189.886
 30
0.000000
  70
    32
  0
VERTEX
  8
0
  5
33DE
 10
307.766
 20
189.933
 30
0.000000
  70
    32
  0
VERTEX
  8
0
  5
33DF
 10
307.753
 20
189.980
 30
0.000000
  70
    32
  0
VERTEX
  8
0
  5
33E0
 10
307.740
 20
190.026
 30
0.000000
  70
    32
  0
VERTEX
  8
0
  5
33E1
 10
307.727
 20
190.072
 30
0.000000
  70
    32
  0
VERTEX
  8
0
  5
33E2
 10
307.712
 20
190.117
 30
0.000000
  70
    32
  0
VERTEX
  8
0
  5
33E3
 10
307.697
 20
190.161
 30
0.000000
  70
    32
  0
VERTEX
  8
0
  5
33E4
 10
307.681
 20
190.205
 30
0.000000
  70
    32
  0
VERTEX
  8
0
  5
33E5
 10
307.665
 20
190.248
 30
0.000000
  70
    32
  0
VERTEX
  8
0
  5
33E6
 10
307.648
 20
190.291
 30
0.000000
  70
    32
  0
VERTEX
  8
0
  5
33E7
 10
307.630
 20
190.333
 30
0.000000
  70
    32
  0
VERTEX
  8
0
  5
33E8
 10
307.612
 20
190.374
 30
0.000000
  70
    32
  0
VERTEX
  8
0
  5
33E9
 10
307.593
 20
190.414
 30
0.000000
  70
    32
  0
VERTEX
  8
0
  5
33EA
 10
307.573
 20
190.454
 30
0.000000
  70
    32
  0
VERTEX
  8
0
  5
33EB
 10
307.553
 20
190.492
 30
0.000000
  70
    32
  0
VERTEX
  8
0
  5
33EC
 10
307.532
 20
190.530
 30
0.000000
  70
    32
  0
VERTEX
  8
0
  5
33ED
 10
307.511
 20
190.568
 30
0.000000
  70
    32
  0
VERTEX
  8
0
  5
33EE
 10
307.489
 20
190.604
 30
0.000000
  70
    32
  0
VERTEX
  8
0
  5
33EF
 10
307.467
 20
190.639
 30
0.000000
  70
    32
  0
VERTEX
  8
0
  5
33F0
 10
307.444
 20
190.674
 30
0.000000
  70
    32
  0
VERTEX
  8
0
  5
33F1
 10
307.420
 20
190.707
 30
0.000000
  70
    32
  0
VERTEX
  8
0
  5
33F2
 10
307.396
 20
190.740
 30
0.000000
  70
    32
  0
VERTEX
  8
0
  5
33F3
 10
307.372
 20
190.772
 30
0.000000
  70
    32
  0
VERTEX
  8
0
  5
33F4
 10
307.347
 20
190.803
 30
0.000000
  70
    32
  0
VERTEX
  8
0
  5
33F5
 10
307.321
 20
190.832
 30
0.000000
  70
    32
  0
VERTEX
  8
0
  5
33F6
 10
307.296
 20
190.861
 30
0.000000
  70
    32
  0
VERTEX
  8
0
  5
33F7
 10
307.269
 20
190.889
 30
0.000000
  70
    32
  0
VERTEX
  8
0
  5
33F8
 10
307.243
 20
190.915
 30
0.000000
  70
    32
  0
VERTEX
  8
0
  5
33F9
 10
307.216
 20
190.941
 30
0.000000
  70
    32
  0
VERTEX
  8
0
  5
33FA
 10
307.188
 20
190.965
 30
0.000000
  70
    32
  0
VERTEX
  8
0
  5
33FB
 10
307.160
 20
190.989
 30
0.000000
  70
    32
  0
VERTEX
  8
0
  5
33FC
 10
307.132
 20
191.011
 30
0.000000
  70
    32
  0
VERTEX
  8
0
  5
33FD
 10
307.104
 20
191.032
 30
0.000000
  70
    32
  0
VERTEX
  8
0
  5
33FE
 10
307.075
 20
191.052
 30
0.000000
  70
    32
  0
VERTEX
  8
0
  5
33FF
 10
307.046
 20
191.071
 30
0.000000
  70
    32
  0
VERTEX
  8
0
  5
3400
 10
307.016
 20
191.089
 30
0.000000
  70
    32
  0
VERTEX
  8
0
  5
3401
 10
306.987
 20
191.105
 30
0.000000
  70
    32
  0
VERTEX
  8
0
  5
3402
 10
306.957
 20
191.120
 30
0.000000
  70
    32
  0
VERTEX
  8
0
  5
3403
 10
306.927
 20
191.134
 30
0.000000
  70
    32
  0
VERTEX
  8
0
  5
3404
 10
306.896
 20
191.147
 30
0.000000
  70
    32
  0
VERTEX
  8
0
  5
3405
 10
306.866
 20
191.159
 30
0.000000
  70
    32
  0
VERTEX
  8
0
  5
3406
 10
306.835
 20
191.170
 30
0.000000
  70
    32
  0
VERTEX
  8
0
  5
3407
 10
306.805
 20
191.179
 30
0.000000
  70
    32
  0
VERTEX
  8
0
  5
3408
 10
306.774
 20
191.187
 30
0.000000
  70
    32
  0
VERTEX
  8
0
  5
3409
 10
306.743
 20
191.194
 30
0.000000
  70
    32
  0
VERTEX
  8
0
  5
340A
 10
306.711
 20
191.199
 30
0.000000
  70
    32
  0
VERTEX
  8
0
  5
340B
 10
306.680
 20
191.204
 30
0.000000
  70
    32
  0
VERTEX
  8
0
  5
340C
 10
306.649
 20
191.207
 30
0.000000
  70
    32
  0
VERTEX
  8
0
  5
340D
 10
306.618
 20
191.209
 30
0.000000
  70
    32
  0
VERTEX
  8
0
  5
340E
 10
306.586
 20
191.209
 30
0.000000
  70
    32
  0
SEQEND
  8
0
  5
340F
  0
POLYLINE
  5
1F54
  8
3
 10
306.58624568579864
 20
191.64233099816238
 30
0.0
 66
     1
 70
     8
  0
VERTEX
  8
3
  5
3410
 10
306.586
 20
191.642
 30
0.000000
  70
    32
  0
VERTEX
  8
3
  5
3411
 10
306.526
 20
191.642
 30
0.000000
  70
    32
  0
VERTEX
  8
3
  5
3412
 10
306.465
 20
191.639
 30
0.000000
  70
    32
  0
VERTEX
  8
3
  5
3413
 10
306.405
 20
191.636
 30
0.000000
  70
    32
  0
VERTEX
  8
3
  5
3414
 10
306.345
 20
191.630
 30
0.000000
  70
    32
  0
VERTEX
  8
3
  5
3415
 10
306.285
 20
191.624
 30
0.000000
  70
    32
  0
VERTEX
  8
3
  5
3416
 10
306.225
 20
191.615
 30
0.000000
  70
    32
  0
VERTEX
  8
3
  5
3417
 10
306.165
 20
191.606
 30
0.000000
  70
    32
  0
VERTEX
  8
3
  5
3418
 10
306.106
 20
191.594
 30
0.000000
  70
    32
  0
VERTEX
  8
3
  5
3419
 10
306.047
 20
191.582
 30
0.000000
  70
    32
  0
VERTEX
  8
3
  5
341A
 10
305.988
 20
191.567
 30
0.000000
  70
    32
  0
VERTEX
  8
3
  5
341B
 10
305.930
 20
191.552
 30
0.000000
  70
    32
  0
VERTEX
  8
3
  5
341C
 10
305.872
 20
191.535
 30
0.000000
  70
    32
  0
VERTEX
  8
3
  5
341D
 10
305.814
 20
191.516
 30
0.000000
  70
    32
  0
VERTEX
  8
3
  5
341E
 10
305.757
 20
191.496
 30
0.000000
  70
    32
  0
VERTEX
  8
3
  5
341F
 10
305.700
 20
191.475
 30
0.000000
  70
    32
  0
VERTEX
  8
3
  5
3420
 10
305.644
 20
191.452
 30
0.000000
  70
    32
  0
VERTEX
  8
3
  5
3421
 10
305.589
 20
191.428
 30
0.000000
  70
    32
  0
VERTEX
  8
3
  5
3422
 10
305.534
 20
191.402
 30
0.000000
  70
    32
  0
VERTEX
  8
3
  5
3423
 10
305.479
 20
191.375
 30
0.000000
  70
    32
  0
VERTEX
  8
3
  5
3424
 10
305.426
 20
191.347
 30
0.000000
  70
    32
  0
VERTEX
  8
3
  5
3425
 10
305.373
 20
191.318
 30
0.000000
  70
    32
  0
VERTEX
  8
3
  5
3426
 10
305.321
 20
191.287
 30
0.000000
  70
    32
  0
VERTEX
  8
3
  5
3427
 10
305.269
 20
191.254
 30
0.000000
  70
    32
  0
VERTEX
  8
3
  5
3428
 10
305.218
 20
191.221
 30
0.000000
  70
    32
  0
VERTEX
  8
3
  5
3429
 10
305.169
 20
191.186
 30
0.000000
  70
    32
  0
VERTEX
  8
3
  5
342A
 10
305.120
 20
191.150
 30
0.000000
  70
    32
  0
VERTEX
  8
3
  5
342B
 10
305.072
 20
191.113
 30
0.000000
  70
    32
  0
VERTEX
  8
3
  5
342C
 10
305.024
 20
191.075
 30
0.000000
  70
    32
  0
VERTEX
  8
3
  5
342D
 10
304.978
 20
191.035
 30
0.000000
  70
    32
  0
VERTEX
  8
3
  5
342E
 10
304.933
 20
190.995
 30
0.000000
  70
    32
  0
VERTEX
  8
3
  5
342F
 10
304.889
 20
190.953
 30
0.000000
  70
    32
  0
VERTEX
  8
3
  5
3430
 10
304.845
 20
190.910
 30
0.000000
  70
    32
  0
VERTEX
  8
3
  5
3431
 10
304.803
 20
190.866
 30
0.000000
  70
    32
  0
VERTEX
  8
3
  5
3432
 10
304.762
 20
190.821
 30
0.000000
  70
    32
  0
VERTEX
  8
3
  5
3433
 10
304.722
 20
190.775
 30
0.000000
  70
    32
  0
VERTEX
  8
3
  5
3434
 10
304.683
 20
190.728
 30
0.000000
  70
    32
  0
VERTEX
  8
3
  5
3435
 10
304.645
 20
190.680
 30
0.000000
  70
    32
  0
VERTEX
  8
3
  5
3436
 10
304.609
 20
190.632
 30
0.000000
  70
    32
  0
VERTEX
  8
3
  5
3437
 10
304.573
 20
190.582
 30
0.000000
  70
    32
  0
VERTEX
  8
3
  5
3438
 10
304.539
 20
190.531
 30
0.000000
  70
    32
  0
VERTEX
  8
3
  5
3439
 10
304.506
 20
190.480
 30
0.000000
  70
    32
  0
VERTEX
  8
3
  5
343A
 10
304.475
 20
190.428
 30
0.000000
  70
    32
  0
VERTEX
  8
3
  5
343B
 10
304.444
 20
190.375
 30
0.000000
  70
    32
  0
VERTEX
  8
3
  5
343C
 10
304.415
 20
190.321
 30
0.000000
  70
    32
  0
VERTEX
  8
3
  5
343D
 10
304.387
 20
190.266
 30
0.000000
  70
    32
  0
VERTEX
  8
3
  5
343E
 10
304.361
 20
190.211
 30
0.000000
  70
    32
  0
VERTEX
  8
3
  5
343F
 10
304.336
 20
190.155
 30
0.000000
  70
    32
  0
VERTEX
  8
3
  5
3440
 10
304.312
 20
190.099
 30
0.000000
  70
    32
  0
VERTEX
  8
3
  5
3441
 10
304.289
 20
190.042
 30
0.000000
  70
    32
  0
VERTEX
  8
3
  5
3442
 10
304.268
 20
189.985
 30
0.000000
  70
    32
  0
VERTEX
  8
3
  5
3443
 10
304.249
 20
189.927
 30
0.000000
  70
    32
  0
VERTEX
  8
3
  5
3444
 10
304.230
 20
189.868
 30
0.000000
  70
    32
  0
VERTEX
  8
3
  5
3445
 10
304.214
 20
189.809
 30
0.000000
  70
    32
  0
VERTEX
  8
3
  5
3446
 10
304.198
 20
189.750
 30
0.000000
  70
    32
  0
VERTEX
  8
3
  5
3447
 10
304.184
 20
189.690
 30
0.000000
  70
    32
  0
VERTEX
  8
3
  5
3448
 10
304.172
 20
189.630
 30
0.000000
  70
    32
  0
VERTEX
  8
3
  5
3449
 10
304.161
 20
189.570
 30
0.000000
  70
    32
  0
VERTEX
  8
3
  5
344A
 10
304.151
 20
189.509
 30
0.000000
  70
    32
  0
VERTEX
  8
3
  5
344B
 10
304.143
 20
189.448
 30
0.000000
  70
    32
  0
VERTEX
  8
3
  5
344C
 10
304.136
 20
189.387
 30
0.000000
  70
    32
  0
VERTEX
  8
3
  5
344D
 10
304.131
 20
189.326
 30
0.000000
  70
    32
  0
VERTEX
  8
3
  5
344E
 10
304.127
 20
189.265
 30
0.000000
  70
    32
  0
VERTEX
  8
3
  5
344F
 10
304.125
 20
189.204
 30
0.000000
  70
    32
  0
VERTEX
  8
3
  5
3450
 10
304.124
 20
189.142
 30
0.000000
  70
    32
  0
VERTEX
  8
3
  5
3451
 10
304.125
 20
189.081
 30
0.000000
  70
    32
  0
VERTEX
  8
3
  5
3452
 10
304.127
 20
189.020
 30
0.000000
  70
    32
  0
VERTEX
  8
3
  5
3453
 10
304.131
 20
188.958
 30
0.000000
  70
    32
  0
VERTEX
  8
3
  5
3454
 10
304.136
 20
188.897
 30
0.000000
  70
    32
  0
VERTEX
  8
3
  5
3455
 10
304.143
 20
188.836
 30
0.000000
  70
    32
  0
VERTEX
  8
3
  5
3456
 10
304.151
 20
188.776
 30
0.000000
  70
    32
  0
VERTEX
  8
3
  5
3457
 10
304.161
 20
188.715
 30
0.000000
  70
    32
  0
VERTEX
  8
3
  5
3458
 10
304.172
 20
188.655
 30
0.000000
  70
    32
  0
VERTEX
  8
3
  5
3459
 10
304.184
 20
188.595
 30
0.000000
  70
    32
  0
VERTEX
  8
3
  5
345A
 10
304.198
 20
188.535
 30
0.000000
  70
    32
  0
VERTEX
  8
3
  5
345B
 10
304.214
 20
188.476
 30
0.000000
  70
    32
  0
VERTEX
  8
3
  5
345C
 10
304.230
 20
188.417
 30
0.000000
  70
    32
  0
VERTEX
  8
3
  5
345D
 10
304.249
 20
188.358
 30
0.000000
  70
    32
  0
VERTEX
  8
3
  5
345E
 10
304.268
 20
188.300
 30
0.000000
  70
    32
  0
VERTEX
  8
3
  5
345F
 10
304.289
 20
188.243
 30
0.000000
  70
    32
  0
VERTEX
  8
3
  5
3460
 10
304.312
 20
188.186
 30
0.000000
  70
    32
  0
VERTEX
  8
3
  5
3461
 10
304.336
 20
188.129
 30
0.000000
  70
    32
  0
VERTEX
  8
3
  5
3462
 10
304.361
 20
188.073
 30
0.000000
  70
    32
  0
VERTEX
  8
3
  5
3463
 10
304.387
 20
188.018
 30
0.000000
  70
    32
  0
VERTEX
  8
3
  5
3464
 10
304.415
 20
187.964
 30
0.000000
  70
    32
  0
VERTEX
  8
3
  5
3465
 10
304.444
 20
187.910
 30
0.000000
  70
    32
  0
VERTEX
  8
3
  5
3466
 10
304.475
 20
187.857
 30
0.000000
  70
    32
  0
VERTEX
  8
3
  5
3467
 10
304.506
 20
187.805
 30
0.000000
  70
    32
  0
VERTEX
  8
3
  5
3468
 10
304.539
 20
187.753
 30
0.000000
  70
    32
  0
VERTEX
  8
3
  5
3469
 10
304.573
 20
187.703
 30
0.000000
  70
    32
  0
VERTEX
  8
3
  5
346A
 10
304.609
 20
187.653
 30
0.000000
  70
    32
  0
VERTEX
  8
3
  5
346B
 10
304.645
 20
187.604
 30
0.000000
  70
    32
  0
VERTEX
  8
3
  5
346C
 10
304.683
 20
187.556
 30
0.000000
  70
    32
  0
VERTEX
  8
3
  5
346D
 10
304.722
 20
187.509
 30
0.000000
  70
    32
  0
VERTEX
  8
3
  5
346E
 10
304.762
 20
187.463
 30
0.000000
  70
    32
  0
VERTEX
  8
3
  5
346F
 10
304.803
 20
187.418
 30
0.000000
  70
    32
  0
VERTEX
  8
3
  5
3470
 10
304.845
 20
187.375
 30
0.000000
  70
    32
  0
VERTEX
  8
3
  5
3471
 10
304.889
 20
187.332
 30
0.000000
  70
    32
  0
VERTEX
  8
3
  5
3472
 10
304.933
 20
187.290
 30
0.000000
  70
    32
  0
VERTEX
  8
3
  5
3473
 10
304.978
 20
187.249
 30
0.000000
  70
    32
  0
VERTEX
  8
3
  5
3474
 10
305.024
 20
187.210
 30
0.000000
  70
    32
  0
VERTEX
  8
3
  5
3475
 10
305.072
 20
187.171
 30
0.000000
  70
    32
  0
VERTEX
  8
3
  5
3476
 10
305.120
 20
187.134
 30
0.000000
  70
    32
  0
VERTEX
  8
3
  5
3477
 10
305.169
 20
187.098
 30
0.000000
  70
    32
  0
VERTEX
  8
3
  5
3478
 10
305.218
 20
187.064
 30
0.000000
  70
    32
  0
VERTEX
  8
3
  5
3479
 10
305.269
 20
187.030
 30
0.000000
  70
    32
  0
VERTEX
  8
3
  5
347A
 10
305.321
 20
186.998
 30
0.000000
  70
    32
  0
VERTEX
  8
3
  5
347B
 10
305.373
 20
186.967
 30
0.000000
  70
    32
  0
VERTEX
  8
3
  5
347C
 10
305.426
 20
186.938
 30
0.000000
  70
    32
  0
VERTEX
  8
3
  5
347D
 10
305.479
 20
186.909
 30
0.000000
  70
    32
  0
VERTEX
  8
3
  5
347E
 10
305.534
 20
186.882
 30
0.000000
  70
    32
  0
VERTEX
  8
3
  5
347F
 10
305.589
 20
186.857
 30
0.000000
  70
    32
  0
VERTEX
  8
3
  5
3480
 10
305.644
 20
186.833
 30
0.000000
  70
    32
  0
VERTEX
  8
3
  5
3481
 10
305.700
 20
186.810
 30
0.000000
  70
    32
  0
VERTEX
  8
3
  5
3482
 10
305.757
 20
186.788
 30
0.000000
  70
    32
  0
VERTEX
  8
3
  5
3483
 10
305.814
 20
186.769
 30
0.000000
  70
    32
  0
VERTEX
  8
3
  5
3484
 10
305.872
 20
186.750
 30
0.000000
  70
    32
  0
VERTEX
  8
3
  5
3485
 10
305.930
 20
186.733
 30
0.000000
  70
    32
  0
VERTEX
  8
3
  5
3486
 10
305.988
 20
186.717
 30
0.000000
  70
    32
  0
VERTEX
  8
3
  5
3487
 10
306.047
 20
186.703
 30
0.000000
  70
    32
  0
VERTEX
  8
3
  5
3488
 10
306.106
 20
186.690
 30
0.000000
  70
    32
  0
VERTEX
  8
3
  5
3489
 10
306.165
 20
186.679
 30
0.000000
  70
    32
  0
VERTEX
  8
3
  5
348A
 10
306.225
 20
186.669
 30
0.000000
  70
    32
  0
VERTEX
  8
3
  5
348B
 10
306.285
 20
186.661
 30
0.000000
  70
    32
  0
VERTEX
  8
3
  5
348C
 10
306.345
 20
186.654
 30
0.000000
  70
    32
  0
VERTEX
  8
3
  5
348D
 10
306.405
 20
186.649
 30
0.000000
  70
    32
  0
VERTEX
  8
3
  5
348E
 10
306.465
 20
186.645
 30
0.000000
  70
    32
  0
VERTEX
  8
3
  5
348F
 10
306.526
 20
186.643
 30
0.000000
  70
    32
  0
VERTEX
  8
3
  5
3490
 10
306.586
 20
186.642
 30
0.000000
  70
    32
  0
SEQEND
  8
3
  5
3491
  0
POLYLINE
  5
1F55
  8
3
 10
306.58624568579876
 20
186.64233099816244
 30
0.0
 66
     1
 70
     8
  0
VERTEX
  8
3
  5
3492
 10
306.586
 20
186.642
 30
0.000000
  70
    32
  0
VERTEX
  8
3
  5
3493
 10
306.632
 20
186.643
 30
0.000000
  70
    32
  0
VERTEX
  8
3
  5
3494
 10
306.678
 20
186.645
 30
0.000000
  70
    32
  0
VERTEX
  8
3
  5
3495
 10
306.724
 20
186.649
 30
0.000000
  70
    32
  0
VERTEX
  8
3
  5
3496
 10
306.769
 20
186.654
 30
0.000000
  70
    32
  0
VERTEX
  8
3
  5
3497
 10
306.815
 20
186.661
 30
0.000000
  70
    32
  0
VERTEX
  8
3
  5
3498
 10
306.860
 20
186.669
 30
0.000000
  70
    32
  0
VERTEX
  8
3
  5
3499
 10
306.906
 20
186.679
 30
0.000000
  70
    32
  0
VERTEX
  8
3
  5
349A
 10
306.951
 20
186.690
 30
0.000000
  70
    32
  0
VERTEX
  8
3
  5
349B
 10
306.996
 20
186.703
 30
0.000000
  70
    32
  0
VERTEX
  8
3
  5
349C
 10
307.040
 20
186.717
 30
0.000000
  70
    32
  0
VERTEX
  8
3
  5
349D
 10
307.085
 20
186.733
 30
0.000000
  70
    32
  0
VERTEX
  8
3
  5
349E
 10
307.129
 20
186.750
 30
0.000000
  70
    32
  0
VERTEX
  8
3
  5
349F
 10
307.172
 20
186.769
 30
0.000000
  70
    32
  0
VERTEX
  8
3
  5
34A0
 10
307.216
 20
186.788
 30
0.000000
  70
    32
  0
VERTEX
  8
3
  5
34A1
 10
307.259
 20
186.810
 30
0.000000
  70
    32
  0
VERTEX
  8
3
  5
34A2
 10
307.301
 20
186.833
 30
0.000000
  70
    32
  0
VERTEX
  8
3
  5
34A3
 10
307.343
 20
186.857
 30
0.000000
  70
    32
  0
VERTEX
  8
3
  5
34A4
 10
307.385
 20
186.882
 30
0.000000
  70
    32
  0
VERTEX
  8
3
  5
34A5
 10
307.426
 20
186.909
 30
0.000000
  70
    32
  0
VERTEX
  8
3
  5
34A6
 10
307.467
 20
186.938
 30
0.000000
  70
    32
  0
VERTEX
  8
3
  5
34A7
 10
307.507
 20
186.967
 30
0.000000
  70
    32
  0
VERTEX
  8
3
  5
34A8
 10
307.547
 20
186.998
 30
0.000000
  70
    32
  0
VERTEX
  8
3
  5
34A9
 10
307.586
 20
187.030
 30
0.000000
  70
    32
  0
VERTEX
  8
3
  5
34AA
 10
307.624
 20
187.064
 30
0.000000
  70
    32
  0
VERTEX
  8
3
  5
34AB
 10
307.662
 20
187.098
 30
0.000000
  70
    32
  0
VERTEX
  8
3
  5
34AC
 10
307.699
 20
187.134
 30
0.000000
  70
    32
  0
VERTEX
  8
3
  5
34AD
 10
307.736
 20
187.171
 30
0.000000
  70
    32
  0
VERTEX
  8
3
  5
34AE
 10
307.771
 20
187.210
 30
0.000000
  70
    32
  0
VERTEX
  8
3
  5
34AF
 10
307.807
 20
187.249
 30
0.000000
  70
    32
  0
VERTEX
  8
3
  5
34B0
 10
307.841
 20
187.290
 30
0.000000
  70
    32
  0
VERTEX
  8
3
  5
34B1
 10
307.874
 20
187.332
 30
0.000000
  70
    32
  0
VERTEX
  8
3
  5
34B2
 10
307.907
 20
187.375
 30
0.000000
  70
    32
  0
VERTEX
  8
3
  5
34B3
 10
307.939
 20
187.418
 30
0.000000
  70
    32
  0
VERTEX
  8
3
  5
34B4
 10
307.971
 20
187.463
 30
0.000000
  70
    32
  0
VERTEX
  8
3
  5
34B5
 10
308.001
 20
187.509
 30
0.000000
  70
    32
  0
VERTEX
  8
3
  5
34B6
 10
308.030
 20
187.556
 30
0.000000
  70
    32
  0
VERTEX
  8
3
  5
34B7
 10
308.059
 20
187.604
 30
0.000000
  70
    32
  0
VERTEX
  8
3
  5
34B8
 10
308.087
 20
187.653
 30
0.000000
  70
    32
  0
VERTEX
  8
3
  5
34B9
 10
308.114
 20
187.703
 30
0.000000
  70
    32
  0
VERTEX
  8
3
  5
34BA
 10
308.140
 20
187.753
 30
0.000000
  70
    32
  0
VERTEX
  8
3
  5
34BB
 10
308.165
 20
187.805
 30
0.000000
  70
    32
  0
VERTEX
  8
3
  5
34BC
 10
308.189
 20
187.857
 30
0.000000
  70
    32
  0
VERTEX
  8
3
  5
34BD
 10
308.212
 20
187.910
 30
0.000000
  70
    32
  0
VERTEX
  8
3
  5
34BE
 10
308.234
 20
187.964
 30
0.000000
  70
    32
  0
VERTEX
  8
3
  5
34BF
 10
308.255
 20
188.018
 30
0.000000
  70
    32
  0
VERTEX
  8
3
  5
34C0
 10
308.275
 20
188.073
 30
0.000000
  70
    32
  0
VERTEX
  8
3
  5
34C1
 10
308.294
 20
188.129
 30
0.000000
  70
    32
  0
VERTEX
  8
3
  5
34C2
 10
308.312
 20
188.186
 30
0.000000
  70
    32
  0
VERTEX
  8
3
  5
34C3
 10
308.329
 20
188.243
 30
0.000000
  70
    32
  0
VERTEX
  8
3
  5
34C4
 10
308.345
 20
188.300
 30
0.000000
  70
    32
  0
VERTEX
  8
3
  5
34C5
 10
308.360
 20
188.358
 30
0.000000
  70
    32
  0
VERTEX
  8
3
  5
34C6
 10
308.374
 20
188.417
 30
0.000000
  70
    32
  0
VERTEX
  8
3
  5
34C7
 10
308.387
 20
188.476
 30
0.000000
  70
    32
  0
VERTEX
  8
3
  5
34C8
 10
308.398
 20
188.535
 30
0.000000
  70
    32
  0
VERTEX
  8
3
  5
34C9
 10
308.409
 20
188.595
 30
0.000000
  70
    32
  0
VERTEX
  8
3
  5
34CA
 10
308.419
 20
188.655
 30
0.000000
  70
    32
  0
VERTEX
  8
3
  5
34CB
 10
308.427
 20
188.715
 30
0.000000
  70
    32
  0
VERTEX
  8
3
  5
34CC
 10
308.434
 20
188.776
 30
0.000000
  70
    32
  0
VERTEX
  8
3
  5
34CD
 10
308.440
 20
188.836
 30
0.000000
  70
    32
  0
VERTEX
  8
3
  5
34CE
 10
308.445
 20
188.897
 30
0.000000
  70
    32
  0
VERTEX
  8
3
  5
34CF
 10
308.449
 20
188.958
 30
0.000000
  70
    32
  0
VERTEX
  8
3
  5
34D0
 10
308.452
 20
189.020
 30
0.000000
  70
    32
  0
VERTEX
  8
3
  5
34D1
 10
308.454
 20
189.081
 30
0.000000
  70
    32
  0
VERTEX
  8
3
  5
34D2
 10
308.454
 20
189.142
 30
0.000000
  70
    32
  0
VERTEX
  8
3
  5
34D3
 10
308.454
 20
189.204
 30
0.000000
  70
    32
  0
VERTEX
  8
3
  5
34D4
 10
308.452
 20
189.265
 30
0.000000
  70
    32
  0
VERTEX
  8
3
  5
34D5
 10
308.449
 20
189.326
 30
0.000000
  70
    32
  0
VERTEX
  8
3
  5
34D6
 10
308.445
 20
189.387
 30
0.000000
  70
    32
  0
VERTEX
  8
3
  5
34D7
 10
308.440
 20
189.448
 30
0.000000
  70
    32
  0
VERTEX
  8
3
  5
34D8
 10
308.434
 20
189.509
 30
0.000000
  70
    32
  0
VERTEX
  8
3
  5
34D9
 10
308.427
 20
189.570
 30
0.000000
  70
    32
  0
VERTEX
  8
3
  5
34DA
 10
308.419
 20
189.630
 30
0.000000
  70
    32
  0
VERTEX
  8
3
  5
34DB
 10
308.409
 20
189.690
 30
0.000000
  70
    32
  0
VERTEX
  8
3
  5
34DC
 10
308.398
 20
189.750
 30
0.000000
  70
    32
  0
VERTEX
  8
3
  5
34DD
 10
308.387
 20
189.809
 30
0.000000
  70
    32
  0
VERTEX
  8
3
  5
34DE
 10
308.374
 20
189.868
 30
0.000000
  70
    32
  0
VERTEX
  8
3
  5
34DF
 10
308.360
 20
189.927
 30
0.000000
  70
    32
  0
VERTEX
  8
3
  5
34E0
 10
308.345
 20
189.985
 30
0.000000
  70
    32
  0
VERTEX
  8
3
  5
34E1
 10
308.329
 20
190.042
 30
0.000000
  70
    32
  0
VERTEX
  8
3
  5
34E2
 10
308.312
 20
190.099
 30
0.000000
  70
    32
  0
VERTEX
  8
3
  5
34E3
 10
308.294
 20
190.155
 30
0.000000
  70
    32
  0
VERTEX
  8
3
  5
34E4
 10
308.275
 20
190.211
 30
0.000000
  70
    32
  0
VERTEX
  8
3
  5
34E5
 10
308.255
 20
190.266
 30
0.000000
  70
    32
  0
VERTEX
  8
3
  5
34E6
 10
308.234
 20
190.321
 30
0.000000
  70
    32
  0
VERTEX
  8
3
  5
34E7
 10
308.212
 20
190.375
 30
0.000000
  70
    32
  0
VERTEX
  8
3
  5
34E8
 10
308.189
 20
190.428
 30
0.000000
  70
    32
  0
VERTEX
  8
3
  5
34E9
 10
308.165
 20
190.480
 30
0.000000
  70
    32
  0
VERTEX
  8
3
  5
34EA
 10
308.140
 20
190.531
 30
0.000000
  70
    32
  0
VERTEX
  8
3
  5
34EB
 10
308.114
 20
190.582
 30
0.000000
  70
    32
  0
VERTEX
  8
3
  5
34EC
 10
308.087
 20
190.632
 30
0.000000
  70
    32
  0
VERTEX
  8
3
  5
34ED
 10
308.059
 20
190.680
 30
0.000000
  70
    32
  0
VERTEX
  8
3
  5
34EE
 10
308.030
 20
190.728
 30
0.000000
  70
    32
  0
VERTEX
  8
3
  5
34EF
 10
308.001
 20
190.775
 30
0.000000
  70
    32
  0
VERTEX
  8
3
  5
34F0
 10
307.971
 20
190.821
 30
0.000000
  70
    32
  0
VERTEX
  8
3
  5
34F1
 10
307.939
 20
190.866
 30
0.000000
  70
    32
  0
VERTEX
  8
3
  5
34F2
 10
307.907
 20
190.910
 30
0.000000
  70
    32
  0
VERTEX
  8
3
  5
34F3
 10
307.874
 20
190.953
 30
0.000000
  70
    32
  0
VERTEX
  8
3
  5
34F4
 10
307.841
 20
190.995
 30
0.000000
  70
    32
  0
VERTEX
  8
3
  5
34F5
 10
307.807
 20
191.035
 30
0.000000
  70
    32
  0
VERTEX
  8
3
  5
34F6
 10
307.771
 20
191.075
 30
0.000000
  70
    32
  0
VERTEX
  8
3
  5
34F7
 10
307.736
 20
191.113
 30
0.000000
  70
    32
  0
VERTEX
  8
3
  5
34F8
 10
307.699
 20
191.150
 30
0.000000
  70
    32
  0
VERTEX
  8
3
  5
34F9
 10
307.662
 20
191.186
 30
0.000000
  70
    32
  0
VERTEX
  8
3
  5
34FA
 10
307.624
 20
191.221
 30
0.000000
  70
    32
  0
VERTEX
  8
3
  5
34FB
 10
307.586
 20
191.254
 30
0.000000
  70
    32
  0
VERTEX
  8
3
  5
34FC
 10
307.547
 20
191.287
 30
0.000000
  70
    32
  0
VERTEX
  8
3
  5
34FD
 10
307.507
 20
191.318
 30
0.000000
  70
    32
  0
VERTEX
  8
3
  5
34FE
 10
307.467
 20
191.347
 30
0.000000
  70
    32
  0
VERTEX
  8
3
  5
34FF
 10
307.426
 20
191.375
 30
0.000000
  70
    32
  0
VERTEX
  8
3
  5
3500
 10
307.385
 20
191.402
 30
0.000000
  70
    32
  0
VERTEX
  8
3
  5
3501
 10
307.343
 20
191.428
 30
0.000000
  70
    32
  0
VERTEX
  8
3
  5
3502
 10
307.301
 20
191.452
 30
0.000000
  70
    32
  0
VERTEX
  8
3
  5
3503
 10
307.259
 20
191.475
 30
0.000000
  70
    32
  0
VERTEX
  8
3
  5
3504
 10
307.216
 20
191.496
 30
0.000000
  70
    32
  0
VERTEX
  8
3
  5
3505
 10
307.172
 20
191.516
 30
0.000000
  70
    32
  0
VERTEX
  8
3
  5
3506
 10
307.129
 20
191.535
 30
0.000000
  70
    32
  0
VERTEX
  8
3
  5
3507
 10
307.085
 20
191.552
 30
0.000000
  70
    32
  0
VERTEX
  8
3
  5
3508
 10
307.040
 20
191.567
 30
0.000000
  70
    32
  0
VERTEX
  8
3
  5
3509
 10
306.996
 20
191.582
 30
0.000000
  70
    32
  0
VERTEX
  8
3
  5
350A
 10
306.951
 20
191.594
 30
0.000000
  70
    32
  0
VERTEX
  8
3
  5
350B
 10
306.906
 20
191.606
 30
0.000000
  70
    32
  0
VERTEX
  8
3
  5
350C
 10
306.860
 20
191.615
 30
0.000000
  70
    32
  0
VERTEX
  8
3
  5
350D
 10
306.815
 20
191.624
 30
0.000000
  70
    32
  0
VERTEX
  8
3
  5
350E
 10
306.769
 20
191.630
 30
0.000000
  70
    32
  0
VERTEX
  8
3
  5
350F
 10
306.724
 20
191.636
 30
0.000000
  70
    32
  0
VERTEX
  8
3
  5
3510
 10
306.678
 20
191.639
 30
0.000000
  70
    32
  0
VERTEX
  8
3
  5
3511
 10
306.632
 20
191.642
 30
0.000000
  70
    32
  0
VERTEX
  8
3
  5
3512
 10
306.586
 20
191.642
 30
0.000000
  70
    32
  0
SEQEND
  8
3
  5
3513
  0
POLYLINE
  5
1F56
  8
0
 10
307.08624562646179
 20
193.39233099816241
 30
0.0
 66
     1
 70
     8
  0
VERTEX
  8
0
  5
3514
 10
307.086
 20
193.392
 30
0.000000
  70
    32
  0
VERTEX
  8
0
  5
3515
 10
306.990
 20
193.391
 30
0.000000
  70
    32
  0
VERTEX
  8
0
  5
3516
 10
306.894
 20
193.387
 30
0.000000
  70
    32
  0
VERTEX
  8
0
  5
3517
 10
306.797
 20
193.381
 30
0.000000
  70
    32
  0
VERTEX
  8
0
  5
3518
 10
306.701
 20
193.372
 30
0.000000
  70
    32
  0
VERTEX
  8
0
  5
3519
 10
306.606
 20
193.360
 30
0.000000
  70
    32
  0
VERTEX
  8
0
  5
351A
 10
306.510
 20
193.346
 30
0.000000
  70
    32
  0
VERTEX
  8
0
  5
351B
 10
306.415
 20
193.330
 30
0.000000
  70
    32
  0
VERTEX
  8
0
  5
351C
 10
306.320
 20
193.311
 30
0.000000
  70
    32
  0
VERTEX
  8
0
  5
351D
 10
306.226
 20
193.289
 30
0.000000
  70
    32
  0
VERTEX
  8
0
  5
351E
 10
306.132
 20
193.265
 30
0.000000
  70
    32
  0
VERTEX
  8
0
  5
351F
 10
306.039
 20
193.238
 30
0.000000
  70
    32
  0
VERTEX
  8
0
  5
3520
 10
305.946
 20
193.209
 30
0.000000
  70
    32
  0
VERTEX
  8
0
  5
3521
 10
305.854
 20
193.178
 30
0.000000
  70
    32
  0
VERTEX
  8
0
  5
3522
 10
305.763
 20
193.144
 30
0.000000
  70
    32
  0
VERTEX
  8
0
  5
3523
 10
305.673
 20
193.108
 30
0.000000
  70
    32
  0
VERTEX
  8
0
  5
3524
 10
305.584
 20
193.069
 30
0.000000
  70
    32
  0
VERTEX
  8
0
  5
3525
 10
305.495
 20
193.028
 30
0.000000
  70
    32
  0
VERTEX
  8
0
  5
3526
 10
305.407
 20
192.984
 30
0.000000
  70
    32
  0
VERTEX
  8
0
  5
3527
 10
305.321
 20
192.939
 30
0.000000
  70
    32
  0
VERTEX
  8
0
  5
3528
 10
305.235
 20
192.890
 30
0.000000
  70
    32
  0
VERTEX
  8
0
  5
3529
 10
305.151
 20
192.840
 30
0.000000
  70
    32
  0
VERTEX
  8
0
  5
352A
 10
305.067
 20
192.788
 30
0.000000
  70
    32
  0
VERTEX
  8
0
  5
352B
 10
304.985
 20
192.733
 30
0.000000
  70
    32
  0
VERTEX
  8
0
  5
352C
 10
304.905
 20
192.676
 30
0.000000
  70
    32
  0
VERTEX
  8
0
  5
352D
 10
304.825
 20
192.617
 30
0.000000
  70
    32
  0
VERTEX
  8
0
  5
352E
 10
304.747
 20
192.556
 30
0.000000
  70
    32
  0
VERTEX
  8
0
  5
352F
 10
304.670
 20
192.493
 30
0.000000
  70
    32
  0
VERTEX
  8
0
  5
3530
 10
304.595
 20
192.428
 30
0.000000
  70
    32
  0
VERTEX
  8
0
  5
3531
 10
304.521
 20
192.360
 30
0.000000
  70
    32
  0
VERTEX
  8
0
  5
3532
 10
304.449
 20
192.291
 30
0.000000
  70
    32
  0
VERTEX
  8
0
  5
3533
 10
304.379
 20
192.220
 30
0.000000
  70
    32
  0
VERTEX
  8
0
  5
3534
 10
304.310
 20
192.148
 30
0.000000
  70
    32
  0
VERTEX
  8
0
  5
3535
 10
304.242
 20
192.073
 30
0.000000
  70
    32
  0
VERTEX
  8
0
  5
3536
 10
304.177
 20
191.996
 30
0.000000
  70
    32
  0
VERTEX
  8
0
  5
3537
 10
304.113
 20
191.918
 30
0.000000
  70
    32
  0
VERTEX
  8
0
  5
3538
 10
304.051
 20
191.839
 30
0.000000
  70
    32
  0
VERTEX
  8
0
  5
3539
 10
303.991
 20
191.757
 30
0.000000
  70
    32
  0
VERTEX
  8
0
  5
353A
 10
303.932
 20
191.674
 30
0.000000
  70
    32
  0
VERTEX
  8
0
  5
353B
 10
303.876
 20
191.590
 30
0.000000
  70
    32
  0
VERTEX
  8
0
  5
353C
 10
303.821
 20
191.504
 30
0.000000
  70
    32
  0
VERTEX
  8
0
  5
353D
 10
303.769
 20
191.416
 30
0.000000
  70
    32
  0
VERTEX
  8
0
  5
353E
 10
303.718
 20
191.327
 30
0.000000
  70
    32
  0
VERTEX
  8
0
  5
353F
 10
303.670
 20
191.237
 30
0.000000
  70
    32
  0
VERTEX
  8
0
  5
3540
 10
303.623
 20
191.146
 30
0.000000
  70
    32
  0
VERTEX
  8
0
  5
3541
 10
303.579
 20
191.053
 30
0.000000
  70
    32
  0
VERTEX
  8
0
  5
3542
 10
303.537
 20
190.959
 30
0.000000
  70
    32
  0
VERTEX
  8
0
  5
3543
 10
303.496
 20
190.865
 30
0.000000
  70
    32
  0
VERTEX
  8
0
  5
3544
 10
303.458
 20
190.769
 30
0.000000
  70
    32
  0
VERTEX
  8
0
  5
3545
 10
303.423
 20
190.672
 30
0.000000
  70
    32
  0
VERTEX
  8
0
  5
3546
 10
303.389
 20
190.574
 30
0.000000
  70
    32
  0
VERTEX
  8
0
  5
3547
 10
303.358
 20
190.475
 30
0.000000
  70
    32
  0
VERTEX
  8
0
  5
3548
 10
303.329
 20
190.376
 30
0.000000
  70
    32
  0
VERTEX
  8
0
  5
3549
 10
303.302
 20
190.276
 30
0.000000
  70
    32
  0
VERTEX
  8
0
  5
354A
 10
303.277
 20
190.175
 30
0.000000
  70
    32
  0
VERTEX
  8
0
  5
354B
 10
303.255
 20
190.074
 30
0.000000
  70
    32
  0
VERTEX
  8
0
  5
354C
 10
303.235
 20
189.971
 30
0.000000
  70
    32
  0
VERTEX
  8
0
  5
354D
 10
303.217
 20
189.869
 30
0.000000
  70
    32
  0
VERTEX
  8
0
  5
354E
 10
303.202
 20
189.766
 30
0.000000
  70
    32
  0
VERTEX
  8
0
  5
354F
 10
303.189
 20
189.663
 30
0.000000
  70
    32
  0
VERTEX
  8
0
  5
3550
 10
303.178
 20
189.559
 30
0.000000
  70
    32
  0
VERTEX
  8
0
  5
3551
 10
303.170
 20
189.455
 30
0.000000
  70
    32
  0
VERTEX
  8
0
  5
3552
 10
303.164
 20
189.351
 30
0.000000
  70
    32
  0
VERTEX
  8
0
  5
3553
 10
303.161
 20
189.247
 30
0.000000
  70
    32
  0
VERTEX
  8
0
  5
3554
 10
303.159
 20
189.142
 30
0.000000
  70
    32
  0
VERTEX
  8
0
  5
3555
 10
303.161
 20
189.038
 30
0.000000
  70
    32
  0
VERTEX
  8
0
  5
3556
 10
303.164
 20
188.934
 30
0.000000
  70
    32
  0
VERTEX
  8
0
  5
3557
 10
303.170
 20
188.830
 30
0.000000
  70
    32
  0
VERTEX
  8
0
  5
3558
 10
303.178
 20
188.726
 30
0.000000
  70
    32
  0
VERTEX
  8
0
  5
3559
 10
303.189
 20
188.622
 30
0.000000
  70
    32
  0
VERTEX
  8
0
  5
355A
 10
303.202
 20
188.519
 30
0.000000
  70
    32
  0
VERTEX
  8
0
  5
355B
 10
303.217
 20
188.416
 30
0.000000
  70
    32
  0
VERTEX
  8
0
  5
355C
 10
303.235
 20
188.313
 30
0.000000
  70
    32
  0
VERTEX
  8
0
  5
355D
 10
303.255
 20
188.211
 30
0.000000
  70
    32
  0
VERTEX
  8
0
  5
355E
 10
303.277
 20
188.110
 30
0.000000
  70
    32
  0
VERTEX
  8
0
  5
355F
 10
303.302
 20
188.009
 30
0.000000
  70
    32
  0
VERTEX
  8
0
  5
3560
 10
303.329
 20
187.909
 30
0.000000
  70
    32
  0
VERTEX
  8
0
  5
3561
 10
303.358
 20
187.809
 30
0.000000
  70
    32
  0
VERTEX
  8
0
  5
3562
 10
303.389
 20
187.711
 30
0.000000
  70
    32
  0
VERTEX
  8
0
  5
3563
 10
303.423
 20
187.613
 30
0.000000
  70
    32
  0
VERTEX
  8
0
  5
3564
 10
303.458
 20
187.516
 30
0.000000
  70
    32
  0
VERTEX
  8
0
  5
3565
 10
303.496
 20
187.420
 30
0.000000
  70
    32
  0
VERTEX
  8
0
  5
3566
 10
303.537
 20
187.325
 30
0.000000
  70
    32
  0
VERTEX
  8
0
  5
3567
 10
303.579
 20
187.231
 30
0.000000
  70
    32
  0
VERTEX
  8
0
  5
3568
 10
303.623
 20
187.139
 30
0.000000
  70
    32
  0
VERTEX
  8
0
  5
3569
 10
303.670
 20
187.048
 30
0.000000
  70
    32
  0
VERTEX
  8
0
  5
356A
 10
303.718
 20
186.957
 30
0.000000
  70
    32
  0
VERTEX
  8
0
  5
356B
 10
303.769
 20
186.869
 30
0.000000
  70
    32
  0
VERTEX
  8
0
  5
356C
 10
303.821
 20
186.781
 30
0.000000
  70
    32
  0
VERTEX
  8
0
  5
356D
 10
303.876
 20
186.695
 30
0.000000
  70
    32
  0
VERTEX
  8
0
  5
356E
 10
303.932
 20
186.611
 30
0.000000
  70
    32
  0
VERTEX
  8
0
  5
356F
 10
303.991
 20
186.528
 30
0.000000
  70
    32
  0
VERTEX
  8
0
  5
3570
 10
304.051
 20
186.446
 30
0.000000
  70
    32
  0
VERTEX
  8
0
  5
3571
 10
304.113
 20
186.366
 30
0.000000
  70
    32
  0
VERTEX
  8
0
  5
3572
 10
304.177
 20
186.288
 30
0.000000
  70
    32
  0
VERTEX
  8
0
  5
3573
 10
304.242
 20
186.212
 30
0.000000
  70
    32
  0
VERTEX
  8
0
  5
3574
 10
304.310
 20
186.137
 30
0.000000
  70
    32
  0
VERTEX
  8
0
  5
3575
 10
304.379
 20
186.064
 30
0.000000
  70
    32
  0
VERTEX
  8
0
  5
3576
 10
304.449
 20
185.993
 30
0.000000
  70
    32
  0
VERTEX
  8
0
  5
3577
 10
304.521
 20
185.924
 30
0.000000
  70
    32
  0
VERTEX
  8
0
  5
3578
 10
304.595
 20
185.857
 30
0.000000
  70
    32
  0
VERTEX
  8
0
  5
3579
 10
304.670
 20
185.792
 30
0.000000
  70
    32
  0
VERTEX
  8
0
  5
357A
 10
304.747
 20
185.729
 30
0.000000
  70
    32
  0
VERTEX
  8
0
  5
357B
 10
304.825
 20
185.668
 30
0.000000
  70
    32
  0
VERTEX
  8
0
  5
357C
 10
304.905
 20
185.609
 30
0.000000
  70
    32
  0
VERTEX
  8
0
  5
357D
 10
304.985
 20
185.552
 30
0.000000
  70
    32
  0
VERTEX
  8
0
  5
357E
 10
305.067
 20
185.497
 30
0.000000
  70
    32
  0
VERTEX
  8
0
  5
357F
 10
305.151
 20
185.444
 30
0.000000
  70
    32
  0
VERTEX
  8
0
  5
3580
 10
305.235
 20
185.394
 30
0.000000
  70
    32
  0
VERTEX
  8
0
  5
3581
 10
305.321
 20
185.346
 30
0.000000
  70
    32
  0
VERTEX
  8
0
  5
3582
 10
305.407
 20
185.300
 30
0.000000
  70
    32
  0
VERTEX
  8
0
  5
3583
 10
305.495
 20
185.257
 30
0.000000
  70
    32
  0
VERTEX
  8
0
  5
3584
 10
305.584
 20
185.216
 30
0.000000
  70
    32
  0
VERTEX
  8
0
  5
3585
 10
305.673
 20
185.177
 30
0.000000
  70
    32
  0
VERTEX
  8
0
  5
3586
 10
305.763
 20
185.141
 30
0.000000
  70
    32
  0
VERTEX
  8
0
  5
3587
 10
305.854
 20
185.107
 30
0.000000
  70
    32
  0
VERTEX
  8
0
  5
3588
 10
305.946
 20
185.075
 30
0.000000
  70
    32
  0
VERTEX
  8
0
  5
3589
 10
306.039
 20
185.046
 30
0.000000
  70
    32
  0
VERTEX
  8
0
  5
358A
 10
306.132
 20
185.020
 30
0.000000
  70
    32
  0
VERTEX
  8
0
  5
358B
 10
306.226
 20
184.996
 30
0.000000
  70
    32
  0
VERTEX
  8
0
  5
358C
 10
306.320
 20
184.974
 30
0.000000
  70
    32
  0
VERTEX
  8
0
  5
358D
 10
306.415
 20
184.955
 30
0.000000
  70
    32
  0
VERTEX
  8
0
  5
358E
 10
306.510
 20
184.938
 30
0.000000
  70
    32
  0
VERTEX
  8
0
  5
358F
 10
306.606
 20
184.924
 30
0.000000
  70
    32
  0
VERTEX
  8
0
  5
3590
 10
306.701
 20
184.913
 30
0.000000
  70
    32
  0
VERTEX
  8
0
  5
3591
 10
306.797
 20
184.904
 30
0.000000
  70
    32
  0
VERTEX
  8
0
  5
3592
 10
306.894
 20
184.897
 30
0.000000
  70
    32
  0
VERTEX
  8
0
  5
3593
 10
306.990
 20
184.894
 30
0.000000
  70
    32
  0
VERTEX
  8
0
  5
3594
 10
307.086
 20
184.892
 30
0.000000
  70
    32
  0
SEQEND
  8
0
  5
3595
  0
POLYLINE
  5
1F57
  8
0
 10
307.08624562646179
 20
184.89233099816241
 30
0.0
 66
     1
 70
     8
  0
VERTEX
  8
0
  5
3596
 10
307.086
 20
184.892
 30
0.000000
  70
    32
  0
VERTEX
  8
0
  5
3597
 10
307.171
 20
184.894
 30
0.000000
  70
    32
  0
VERTEX
  8
0
  5
3598
 10
307.255
 20
184.897
 30
0.000000
  70
    32
  0
VERTEX
  8
0
  5
3599
 10
307.339
 20
184.904
 30
0.000000
  70
    32
  0
VERTEX
  8
0
  5
359A
 10
307.423
 20
184.913
 30
0.000000
  70
    32
  0
VERTEX
  8
0
  5
359B
 10
307.507
 20
184.924
 30
0.000000
  70
    32
  0
VERTEX
  8
0
  5
359C
 10
307.590
 20
184.938
 30
0.000000
  70
    32
  0
VERTEX
  8
0
  5
359D
 10
307.673
 20
184.955
 30
0.000000
  70
    32
  0
VERTEX
  8
0
  5
359E
 10
307.756
 20
184.974
 30
0.000000
  70
    32
  0
VERTEX
  8
0
  5
359F
 10
307.838
 20
184.996
 30
0.000000
  70
    32
  0
VERTEX
  8
0
  5
35A0
 10
307.920
 20
185.020
 30
0.000000
  70
    32
  0
VERTEX
  8
0
  5
35A1
 10
308.002
 20
185.046
 30
0.000000
  70
    32
  0
VERTEX
  8
0
  5
35A2
 10
308.083
 20
185.075
 30
0.000000
  70
    32
  0
VERTEX
  8
0
  5
35A3
 10
308.163
 20
185.107
 30
0.000000
  70
    32
  0
VERTEX
  8
0
  5
35A4
 10
308.243
 20
185.141
 30
0.000000
  70
    32
  0
VERTEX
  8
0
  5
35A5
 10
308.322
 20
185.177
 30
0.000000
  70
    32
  0
VERTEX
  8
0
  5
35A6
 10
308.400
 20
185.216
 30
0.000000
  70
    32
  0
VERTEX
  8
0
  5
35A7
 10
308.478
 20
185.257
 30
0.000000
  70
    32
  0
VERTEX
  8
0
  5
35A8
 10
308.554
 20
185.300
 30
0.000000
  70
    32
  0
VERTEX
  8
0
  5
35A9
 10
308.630
 20
185.346
 30
0.000000
  70
    32
  0
VERTEX
  8
0
  5
35AA
 10
308.705
 20
185.394
 30
0.000000
  70
    32
  0
VERTEX
  8
0
  5
35AB
 10
308.778
 20
185.444
 30
0.000000
  70
    32
  0
VERTEX
  8
0
  5
35AC
 10
308.851
 20
185.497
 30
0.000000
  70
    32
  0
VERTEX
  8
0
  5
35AD
 10
308.923
 20
185.552
 30
0.000000
  70
    32
  0
VERTEX
  8
0
  5
35AE
 10
308.994
 20
185.609
 30
0.000000
  70
    32
  0
VERTEX
  8
0
  5
35AF
 10
309.063
 20
185.668
 30
0.000000
  70
    32
  0
VERTEX
  8
0
  5
35B0
 10
309.131
 20
185.729
 30
0.000000
  70
    32
  0
VERTEX
  8
0
  5
35B1
 10
309.198
 20
185.792
 30
0.000000
  70
    32
  0
VERTEX
  8
0
  5
35B2
 10
309.264
 20
185.857
 30
0.000000
  70
    32
  0
VERTEX
  8
0
  5
35B3
 10
309.329
 20
185.924
 30
0.000000
  70
    32
  0
VERTEX
  8
0
  5
35B4
 10
309.392
 20
185.993
 30
0.000000
  70
    32
  0
VERTEX
  8
0
  5
35B5
 10
309.454
 20
186.064
 30
0.000000
  70
    32
  0
VERTEX
  8
0
  5
35B6
 10
309.514
 20
186.137
 30
0.000000
  70
    32
  0
VERTEX
  8
0
  5
35B7
 10
309.573
 20
186.212
 30
0.000000
  70
    32
  0
VERTEX
  8
0
  5
35B8
 10
309.630
 20
186.288
 30
0.000000
  70
    32
  0
VERTEX
  8
0
  5
35B9
 10
309.686
 20
186.366
 30
0.000000
  70
    32
  0
VERTEX
  8
0
  5
35BA
 10
309.740
 20
186.446
 30
0.000000
  70
    32
  0
VERTEX
  8
0
  5
35BB
 10
309.793
 20
186.528
 30
0.000000
  70
    32
  0
VERTEX
  8
0
  5
35BC
 10
309.844
 20
186.611
 30
0.000000
  70
    32
  0
VERTEX
  8
0
  5
35BD
 10
309.893
 20
186.695
 30
0.000000
  70
    32
  0
VERTEX
  8
0
  5
35BE
 10
309.941
 20
186.781
 30
0.000000
  70
    32
  0
VERTEX
  8
0
  5
35BF
 10
309.987
 20
186.869
 30
0.000000
  70
    32
  0
VERTEX
  8
0
  5
35C0
 10
310.031
 20
186.957
 30
0.000000
  70
    32
  0
VERTEX
  8
0
  5
35C1
 10
310.073
 20
187.048
 30
0.000000
  70
    32
  0
VERTEX
  8
0
  5
35C2
 10
310.114
 20
187.139
 30
0.000000
  70
    32
  0
VERTEX
  8
0
  5
35C3
 10
310.153
 20
187.231
 30
0.000000
  70
    32
  0
VERTEX
  8
0
  5
35C4
 10
310.190
 20
187.325
 30
0.000000
  70
    32
  0
VERTEX
  8
0
  5
35C5
 10
310.225
 20
187.420
 30
0.000000
  70
    32
  0
VERTEX
  8
0
  5
35C6
 10
310.258
 20
187.516
 30
0.000000
  70
    32
  0
VERTEX
  8
0
  5
35C7
 10
310.289
 20
187.613
 30
0.000000
  70
    32
  0
VERTEX
  8
0
  5
35C8
 10
310.319
 20
187.711
 30
0.000000
  70
    32
  0
VERTEX
  8
0
  5
35C9
 10
310.346
 20
187.809
 30
0.000000
  70
    32
  0
VERTEX
  8
0
  5
35CA
 10
310.372
 20
187.909
 30
0.000000
  70
    32
  0
VERTEX
  8
0
  5
35CB
 10
310.395
 20
188.009
 30
0.000000
  70
    32
  0
VERTEX
  8
0
  5
35CC
 10
310.417
 20
188.110
 30
0.000000
  70
    32
  0
VERTEX
  8
0
  5
35CD
 10
310.436
 20
188.211
 30
0.000000
  70
    32
  0
VERTEX
  8
0
  5
35CE
 10
310.453
 20
188.313
 30
0.000000
  70
    32
  0
VERTEX
  8
0
  5
35CF
 10
310.469
 20
188.416
 30
0.000000
  70
    32
  0
VERTEX
  8
0
  5
35D0
 10
310.482
 20
188.519
 30
0.000000
  70
    32
  0
VERTEX
  8
0
  5
35D1
 10
310.494
 20
188.622
 30
0.000000
  70
    32
  0
VERTEX
  8
0
  5
35D2
 10
310.503
 20
188.726
 30
0.000000
  70
    32
  0
VERTEX
  8
0
  5
35D3
 10
310.510
 20
188.830
 30
0.000000
  70
    32
  0
VERTEX
  8
0
  5
35D4
 10
310.515
 20
188.934
 30
0.000000
  70
    32
  0
VERTEX
  8
0
  5
35D5
 10
310.518
 20
189.038
 30
0.000000
  70
    32
  0
VERTEX
  8
0
  5
35D6
 10
310.519
 20
189.142
 30
0.000000
  70
    32
  0
VERTEX
  8
0
  5
35D7
 10
310.518
 20
189.247
 30
0.000000
  70
    32
  0
VERTEX
  8
0
  5
35D8
 10
310.515
 20
189.351
 30
0.000000
  70
    32
  0
VERTEX
  8
0
  5
35D9
 10
310.510
 20
189.455
 30
0.000000
  70
    32
  0
VERTEX
  8
0
  5
35DA
 10
310.503
 20
189.559
 30
0.000000
  70
    32
  0
VERTEX
  8
0
  5
35DB
 10
310.494
 20
189.663
 30
0.000000
  70
    32
  0
VERTEX
  8
0
  5
35DC
 10
310.482
 20
189.766
 30
0.000000
  70
    32
  0
VERTEX
  8
0
  5
35DD
 10
310.469
 20
189.869
 30
0.000000
  70
    32
  0
VERTEX
  8
0
  5
35DE
 10
310.453
 20
189.971
 30
0.000000
  70
    32
  0
VERTEX
  8
0
  5
35DF
 10
310.436
 20
190.074
 30
0.000000
  70
    32
  0
VERTEX
  8
0
  5
35E0
 10
310.417
 20
190.175
 30
0.000000
  70
    32
  0
VERTEX
  8
0
  5
35E1
 10
310.395
 20
190.276
 30
0.000000
  70
    32
  0
VERTEX
  8
0
  5
35E2
 10
310.372
 20
190.376
 30
0.000000
  70
    32
  0
VERTEX
  8
0
  5
35E3
 10
310.346
 20
190.475
 30
0.000000
  70
    32
  0
VERTEX
  8
0
  5
35E4
 10
310.319
 20
190.574
 30
0.000000
  70
    32
  0
VERTEX
  8
0
  5
35E5
 10
310.289
 20
190.672
 30
0.000000
  70
    32
  0
VERTEX
  8
0
  5
35E6
 10
310.258
 20
190.769
 30
0.000000
  70
    32
  0
VERTEX
  8
0
  5
35E7
 10
310.225
 20
190.865
 30
0.000000
  70
    32
  0
VERTEX
  8
0
  5
35E8
 10
310.190
 20
190.959
 30
0.000000
  70
    32
  0
VERTEX
  8
0
  5
35E9
 10
310.153
 20
191.053
 30
0.000000
  70
    32
  0
VERTEX
  8
0
  5
35EA
 10
310.114
 20
191.146
 30
0.000000
  70
    32
  0
VERTEX
  8
0
  5
35EB
 10
310.073
 20
191.237
 30
0.000000
  70
    32
  0
VERTEX
  8
0
  5
35EC
 10
310.031
 20
191.327
 30
0.000000
  70
    32
  0
VERTEX
  8
0
  5
35ED
 10
309.987
 20
191.416
 30
0.000000
  70
    32
  0
VERTEX
  8
0
  5
35EE
 10
309.941
 20
191.504
 30
0.000000
  70
    32
  0
VERTEX
  8
0
  5
35EF
 10
309.893
 20
191.590
 30
0.000000
  70
    32
  0
VERTEX
  8
0
  5
35F0
 10
309.844
 20
191.674
 30
0.000000
  70
    32
  0
VERTEX
  8
0
  5
35F1
 10
309.793
 20
191.757
 30
0.000000
  70
    32
  0
VERTEX
  8
0
  5
35F2
 10
309.740
 20
191.839
 30
0.000000
  70
    32
  0
VERTEX
  8
0
  5
35F3
 10
309.686
 20
191.918
 30
0.000000
  70
    32
  0
VERTEX
  8
0
  5
35F4
 10
309.630
 20
191.996
 30
0.000000
  70
    32
  0
VERTEX
  8
0
  5
35F5
 10
309.573
 20
192.073
 30
0.000000
  70
    32
  0
VERTEX
  8
0
  5
35F6
 10
309.514
 20
192.148
 30
0.000000
  70
    32
  0
VERTEX
  8
0
  5
35F7
 10
309.454
 20
192.220
 30
0.000000
  70
    32
  0
VERTEX
  8
0
  5
35F8
 10
309.392
 20
192.291
 30
0.000000
  70
    32
  0
VERTEX
  8
0
  5
35F9
 10
309.329
 20
192.360
 30
0.000000
  70
    32
  0
VERTEX
  8
0
  5
35FA
 10
309.264
 20
192.428
 30
0.000000
  70
    32
  0
VERTEX
  8
0
  5
35FB
 10
309.198
 20
192.493
 30
0.000000
  70
    32
  0
VERTEX
  8
0
  5
35FC
 10
309.131
 20
192.556
 30
0.000000
  70
    32
  0
VERTEX
  8
0
  5
35FD
 10
309.063
 20
192.617
 30
0.000000
  70
    32
  0
VERTEX
  8
0
  5
35FE
 10
308.994
 20
192.676
 30
0.000000
  70
    32
  0
VERTEX
  8
0
  5
35FF
 10
308.923
 20
192.733
 30
0.000000
  70
    32
  0
VERTEX
  8
0
  5
3600
 10
308.851
 20
192.788
 30
0.000000
  70
    32
  0
VERTEX
  8
0
  5
3601
 10
308.778
 20
192.840
 30
0.000000
  70
    32
  0
VERTEX
  8
0
  5
3602
 10
308.705
 20
192.890
 30
0.000000
  70
    32
  0
VERTEX
  8
0
  5
3603
 10
308.630
 20
192.939
 30
0.000000
  70
    32
  0
VERTEX
  8
0
  5
3604
 10
308.554
 20
192.984
 30
0.000000
  70
    32
  0
VERTEX
  8
0
  5
3605
 10
308.478
 20
193.028
 30
0.000000
  70
    32
  0
VERTEX
  8
0
  5
3606
 10
308.400
 20
193.069
 30
0.000000
  70
    32
  0
VERTEX
  8
0
  5
3607
 10
308.322
 20
193.108
 30
0.000000
  70
    32
  0
VERTEX
  8
0
  5
3608
 10
308.243
 20
193.144
 30
0.000000
  70
    32
  0
VERTEX
  8
0
  5
3609
 10
308.163
 20
193.178
 30
0.000000
  70
    32
  0
VERTEX
  8
0
  5
360A
 10
308.083
 20
193.209
 30
0.000000
  70
    32
  0
VERTEX
  8
0
  5
360B
 10
308.002
 20
193.238
 30
0.000000
  70
    32
  0
VERTEX
  8
0
  5
360C
 10
307.920
 20
193.265
 30
0.000000
  70
    32
  0
VERTEX
  8
0
  5
360D
 10
307.838
 20
193.289
 30
0.000000
  70
    32
  0
VERTEX
  8
0
  5
360E
 10
307.756
 20
193.311
 30
0.000000
  70
    32
  0
VERTEX
  8
0
  5
360F
 10
307.673
 20
193.330
 30
0.000000
  70
    32
  0
VERTEX
  8
0
  5
3610
 10
307.590
 20
193.346
 30
0.000000
  70
    32
  0
VERTEX
  8
0
  5
3611
 10
307.507
 20
193.360
 30
0.000000
  70
    32
  0
VERTEX
  8
0
  5
3612
 10
307.423
 20
193.372
 30
0.000000
  70
    32
  0
VERTEX
  8
0
  5
3613
 10
307.339
 20
193.381
 30
0.000000
  70
    32
  0
VERTEX
  8
0
  5
3614
 10
307.255
 20
193.387
 30
0.000000
  70
    32
  0
VERTEX
  8
0
  5
3615
 10
307.171
 20
193.391
 30
0.000000
  70
    32
  0
VERTEX
  8
0
  5
3616
 10
307.086
 20
193.392
 30
0.000000
  70
    32
  0
SEQEND
  8
0
  5
3617
  0
CIRCLE
  5
1F58
  8
0
 10
297.8362456264619
 20
189.14233099816241
 30
0.0
 40
2.0670000000002342
  0
CIRCLE
  5
1F59
  8
3
 10
297.8362456264619
 20
189.14233099816241
 30
0.0
 40
2.5
  0
POLYLINE
  5
1F5A
  8
0
 10
293.58624539549396
 20
189.14233099816241
 30
0.0
 66
     1
 70
     8
  0
VERTEX
  8
0
  5
3618
 10
293.586
 20
189.142
 30
0.000000
  70
    32
  0
VERTEX
  8
0
  5
3619
 10
293.591
 20
188.934
 30
0.000000
  70
    32
  0
VERTEX
  8
0
  5
361A
 10
293.607
 20
188.726
 30
0.000000
  70
    32
  0
VERTEX
  8
0
  5
361B
 10
293.632
 20
188.519
 30
0.000000
  70
    32
  0
VERTEX
  8
0
  5
361C
 10
293.668
 20
188.313
 30
0.000000
  70
    32
  0
VERTEX
  8
0
  5
361D
 10
293.714
 20
188.110
 30
0.000000
  70
    32
  0
VERTEX
  8
0
  5
361E
 10
293.769
 20
187.909
 30
0.000000
  70
    32
  0
VERTEX
  8
0
  5
361F
 10
293.835
 20
187.711
 30
0.000000
  70
    32
  0
VERTEX
  8
0
  5
3620
 10
293.910
 20
187.516
 30
0.000000
  70
    32
  0
VERTEX
  8
0
  5
3621
 10
293.994
 20
187.325
 30
0.000000
  70
    32
  0
VERTEX
  8
0
  5
3622
 10
294.088
 20
187.139
 30
0.000000
  70
    32
  0
VERTEX
  8
0
  5
3623
 10
294.191
 20
186.957
 30
0.000000
  70
    32
  0
VERTEX
  8
0
  5
3624
 10
294.302
 20
186.781
 30
0.000000
  70
    32
  0
VERTEX
  8
0
  5
3625
 10
294.423
 20
186.611
 30
0.000000
  70
    32
  0
VERTEX
  8
0
  5
3626
 10
294.551
 20
186.446
 30
0.000000
  70
    32
  0
VERTEX
  8
0
  5
3627
 10
294.687
 20
186.288
 30
0.000000
  70
    32
  0
VERTEX
  8
0
  5
3628
 10
294.831
 20
186.137
 30
0.000000
  70
    32
  0
VERTEX
  8
0
  5
3629
 10
294.982
 20
185.993
 30
0.000000
  70
    32
  0
VERTEX
  8
0
  5
362A
 10
295.140
 20
185.857
 30
0.000000
  70
    32
  0
VERTEX
  8
0
  5
362B
 10
295.305
 20
185.729
 30
0.000000
  70
    32
  0
VERTEX
  8
0
  5
362C
 10
295.475
 20
185.609
 30
0.000000
  70
    32
  0
VERTEX
  8
0
  5
362D
 10
295.651
 20
185.497
 30
0.000000
  70
    32
  0
VERTEX
  8
0
  5
362E
 10
295.833
 20
185.394
 30
0.000000
  70
    32
  0
VERTEX
  8
0
  5
362F
 10
296.019
 20
185.300
 30
0.000000
  70
    32
  0
VERTEX
  8
0
  5
3630
 10
296.210
 20
185.216
 30
0.000000
  70
    32
  0
VERTEX
  8
0
  5
3631
 10
296.404
 20
185.141
 30
0.000000
  70
    32
  0
VERTEX
  8
0
  5
3632
 10
296.603
 20
185.075
 30
0.000000
  70
    32
  0
VERTEX
  8
0
  5
3633
 10
296.804
 20
185.020
 30
0.000000
  70
    32
  0
VERTEX
  8
0
  5
3634
 10
297.007
 20
184.974
 30
0.000000
  70
    32
  0
VERTEX
  8
0
  5
3635
 10
297.213
 20
184.938
 30
0.000000
  70
    32
  0
VERTEX
  8
0
  5
3636
 10
297.420
 20
184.913
 30
0.000000
  70
    32
  0
VERTEX
  8
0
  5
3637
 10
297.628
 20
184.897
 30
0.000000
  70
    32
  0
VERTEX
  8
0
  5
3638
 10
297.836
 20
184.892
 30
0.000000
  70
    32
  0
VERTEX
  8
0
  5
3639
 10
298.045
 20
184.897
 30
0.000000
  70
    32
  0
VERTEX
  8
0
  5
363A
 10
298.253
 20
184.913
 30
0.000000
  70
    32
  0
VERTEX
  8
0
  5
363B
 10
298.460
 20
184.938
 30
0.000000
  70
    32
  0
VERTEX
  8
0
  5
363C
 10
298.665
 20
184.974
 30
0.000000
  70
    32
  0
VERTEX
  8
0
  5
363D
 10
298.869
 20
185.020
 30
0.000000
  70
    32
  0
VERTEX
  8
0
  5
363E
 10
299.070
 20
185.075
 30
0.000000
  70
    32
  0
VERTEX
  8
0
  5
363F
 10
299.268
 20
185.141
 30
0.000000
  70
    32
  0
VERTEX
  8
0
  5
3640
 10
299.463
 20
185.216
 30
0.000000
  70
    32
  0
VERTEX
  8
0
  5
3641
 10
299.653
 20
185.300
 30
0.000000
  70
    32
  0
VERTEX
  8
0
  5
3642
 10
299.840
 20
185.394
 30
0.000000
  70
    32
  0
VERTEX
  8
0
  5
3643
 10
300.021
 20
185.497
 30
0.000000
  70
    32
  0
VERTEX
  8
0
  5
3644
 10
300.197
 20
185.609
 30
0.000000
  70
    32
  0
VERTEX
  8
0
  5
3645
 10
300.368
 20
185.729
 30
0.000000
  70
    32
  0
VERTEX
  8
0
  5
3646
 10
300.532
 20
185.857
 30
0.000000
  70
    32
  0
VERTEX
  8
0
  5
3647
 10
300.690
 20
185.993
 30
0.000000
  70
    32
  0
VERTEX
  8
0
  5
3648
 10
300.841
 20
186.137
 30
0.000000
  70
    32
  0
VERTEX
  8
0
  5
3649
 10
300.985
 20
186.288
 30
0.000000
  70
    32
  0
VERTEX
  8
0
  5
364A
 10
301.122
 20
186.446
 30
0.000000
  70
    32
  0
VERTEX
  8
0
  5
364B
 10
301.250
 20
186.611
 30
0.000000
  70
    32
  0
VERTEX
  8
0
  5
364C
 10
301.370
 20
186.781
 30
0.000000
  70
    32
  0
VERTEX
  8
0
  5
364D
 10
301.482
 20
186.957
 30
0.000000
  70
    32
  0
VERTEX
  8
0
  5
364E
 10
301.584
 20
187.139
 30
0.000000
  70
    32
  0
VERTEX
  8
0
  5
364F
 10
301.678
 20
187.325
 30
0.000000
  70
    32
  0
VERTEX
  8
0
  5
3650
 10
301.763
 20
187.516
 30
0.000000
  70
    32
  0
VERTEX
  8
0
  5
3651
 10
301.838
 20
187.711
 30
0.000000
  70
    32
  0
VERTEX
  8
0
  5
3652
 10
301.903
 20
187.909
 30
0.000000
  70
    32
  0
VERTEX
  8
0
  5
3653
 10
301.959
 20
188.110
 30
0.000000
  70
    32
  0
VERTEX
  8
0
  5
3654
 10
302.005
 20
188.313
 30
0.000000
  70
    32
  0
VERTEX
  8
0
  5
3655
 10
302.040
 20
188.519
 30
0.000000
  70
    32
  0
VERTEX
  8
0
  5
3656
 10
302.066
 20
188.726
 30
0.000000
  70
    32
  0
VERTEX
  8
0
  5
3657
 10
302.081
 20
188.934
 30
0.000000
  70
    32
  0
VERTEX
  8
0
  5
3658
 10
302.086
 20
189.142
 30
0.000000
  70
    32
  0
VERTEX
  8
0
  5
3659
 10
302.081
 20
189.351
 30
0.000000
  70
    32
  0
VERTEX
  8
0
  5
365A
 10
302.066
 20
189.559
 30
0.000000
  70
    32
  0
VERTEX
  8
0
  5
365B
 10
302.040
 20
189.766
 30
0.000000
  70
    32
  0
VERTEX
  8
0
  5
365C
 10
302.005
 20
189.971
 30
0.000000
  70
    32
  0
VERTEX
  8
0
  5
365D
 10
301.959
 20
190.175
 30
0.000000
  70
    32
  0
VERTEX
  8
0
  5
365E
 10
301.903
 20
190.376
 30
0.000000
  70
    32
  0
VERTEX
  8
0
  5
365F
 10
301.838
 20
190.574
 30
0.000000
  70
    32
  0
VERTEX
  8
0
  5
3660
 10
301.763
 20
190.769
 30
0.000000
  70
    32
  0
VERTEX
  8
0
  5
3661
 10
301.678
 20
190.959
 30
0.000000
  70
    32
  0
VERTEX
  8
0
  5
3662
 10
301.584
 20
191.146
 30
0.000000
  70
    32
  0
VERTEX
  8
0
  5
3663
 10
301.482
 20
191.327
 30
0.000000
  70
    32
  0
VERTEX
  8
0
  5
3664
 10
301.370
 20
191.504
 30
0.000000
  70
    32
  0
VERTEX
  8
0
  5
3665
 10
301.250
 20
191.674
 30
0.000000
  70
    32
  0
VERTEX
  8
0
  5
3666
 10
301.122
 20
191.839
 30
0.000000
  70
    32
  0
VERTEX
  8
0
  5
3667
 10
300.985
 20
191.996
 30
0.000000
  70
    32
  0
VERTEX
  8
0
  5
3668
 10
300.841
 20
192.148
 30
0.000000
  70
    32
  0
VERTEX
  8
0
  5
3669
 10
300.690
 20
192.291
 30
0.000000
  70
    32
  0
VERTEX
  8
0
  5
366A
 10
300.532
 20
192.428
 30
0.000000
  70
    32
  0
VERTEX
  8
0
  5
366B
 10
300.368
 20
192.556
 30
0.000000
  70
    32
  0
VERTEX
  8
0
  5
366C
 10
300.197
 20
192.676
 30
0.000000
  70
    32
  0
VERTEX
  8
0
  5
366D
 10
300.021
 20
192.788
 30
0.000000
  70
    32
  0
VERTEX
  8
0
  5
366E
 10
299.840
 20
192.890
 30
0.000000
  70
    32
  0
VERTEX
  8
0
  5
366F
 10
299.653
 20
192.984
 30
0.000000
  70
    32
  0
VERTEX
  8
0
  5
3670
 10
299.463
 20
193.069
 30
0.000000
  70
    32
  0
VERTEX
  8
0
  5
3671
 10
299.268
 20
193.144
 30
0.000000
  70
    32
  0
VERTEX
  8
0
  5
3672
 10
299.070
 20
193.209
 30
0.000000
  70
    32
  0
VERTEX
  8
0
  5
3673
 10
298.869
 20
193.265
 30
0.000000
  70
    32
  0
VERTEX
  8
0
  5
3674
 10
298.665
 20
193.311
 30
0.000000
  70
    32
  0
VERTEX
  8
0
  5
3675
 10
298.460
 20
193.346
 30
0.000000
  70
    32
  0
VERTEX
  8
0
  5
3676
 10
298.253
 20
193.372
 30
0.000000
  70
    32
  0
VERTEX
  8
0
  5
3677
 10
298.045
 20
193.387
 30
0.000000
  70
    32
  0
VERTEX
  8
0
  5
3678
 10
297.836
 20
193.392
 30
0.000000
  70
    32
  0
VERTEX
  8
0
  5
3679
 10
297.628
 20
193.387
 30
0.000000
  70
    32
  0
VERTEX
  8
0
  5
367A
 10
297.420
 20
193.372
 30
0.000000
  70
    32
  0
VERTEX
  8
0
  5
367B
 10
297.213
 20
193.346
 30
0.000000
  70
    32
  0
VERTEX
  8
0
  5
367C
 10
297.007
 20
193.311
 30
0.000000
  70
    32
  0
VERTEX
  8
0
  5
367D
 10
296.804
 20
193.265
 30
0.000000
  70
    32
  0
VERTEX
  8
0
  5
367E
 10
296.603
 20
193.209
 30
0.000000
  70
    32
  0
VERTEX
  8
0
  5
367F
 10
296.404
 20
193.144
 30
0.000000
  70
    32
  0
VERTEX
  8
0
  5
3680
 10
296.210
 20
193.069
 30
0.000000
  70
    32
  0
VERTEX
  8
0
  5
3681
 10
296.019
 20
192.984
 30
0.000000
  70
    32
  0
VERTEX
  8
0
  5
3682
 10
295.833
 20
192.890
 30
0.000000
  70
    32
  0
VERTEX
  8
0
  5
3683
 10
295.651
 20
192.788
 30
0.000000
  70
    32
  0
VERTEX
  8
0
  5
3684
 10
295.475
 20
192.676
 30
0.000000
  70
    32
  0
VERTEX
  8
0
  5
3685
 10
295.305
 20
192.556
 30
0.000000
  70
    32
  0
VERTEX
  8
0
  5
3686
 10
295.140
 20
192.428
 30
0.000000
  70
    32
  0
VERTEX
  8
0
  5
3687
 10
294.982
 20
192.291
 30
0.000000
  70
    32
  0
VERTEX
  8
0
  5
3688
 10
294.831
 20
192.148
 30
0.000000
  70
    32
  0
VERTEX
  8
0
  5
3689
 10
294.687
 20
191.996
 30
0.000000
  70
    32
  0
VERTEX
  8
0
  5
368A
 10
294.551
 20
191.839
 30
0.000000
  70
    32
  0
VERTEX
  8
0
  5
368B
 10
294.423
 20
191.674
 30
0.000000
  70
    32
  0
VERTEX
  8
0
  5
368C
 10
294.302
 20
191.504
 30
0.000000
  70
    32
  0
VERTEX
  8
0
  5
368D
 10
294.191
 20
191.327
 30
0.000000
  70
    32
  0
VERTEX
  8
0
  5
368E
 10
294.088
 20
191.146
 30
0.000000
  70
    32
  0
VERTEX
  8
0
  5
368F
 10
293.994
 20
190.959
 30
0.000000
  70
    32
  0
VERTEX
  8
0
  5
3690
 10
293.910
 20
190.769
 30
0.000000
  70
    32
  0
VERTEX
  8
0
  5
3691
 10
293.835
 20
190.574
 30
0.000000
  70
    32
  0
VERTEX
  8
0
  5
3692
 10
293.769
 20
190.376
 30
0.000000
  70
    32
  0
VERTEX
  8
0
  5
3693
 10
293.714
 20
190.175
 30
0.000000
  70
    32
  0
VERTEX
  8
0
  5
3694
 10
293.668
 20
189.971
 30
0.000000
  70
    32
  0
VERTEX
  8
0
  5
3695
 10
293.632
 20
189.766
 30
0.000000
  70
    32
  0
VERTEX
  8
0
  5
3696
 10
293.607
 20
189.559
 30
0.000000
  70
    32
  0
VERTEX
  8
0
  5
3697
 10
293.591
 20
189.351
 30
0.000000
  70
    32
  0
VERTEX
  8
0
  5
3698
 10
293.586
 20
189.142
 30
0.000000
  70
    32
  0
SEQEND
  8
0
  5
3699
  0
LINE
  5
1F5B
  8
0
 10
286.6386747650738
 20
192.6423305563988
 30
0.0
 11
279.3362456264619
 21
192.6423305563988
 31
0.0
  0
LINE
  5
1F5C
  8
0
 10
295.4253321638692
 20
192.6423305563988
 30
0.0
 11
290.81379019078321
 21
192.6423305563988
 31
0.0
  0
LINE
  5
1F5D
  8
0
 10
304.85870106214031
 20
192.6423305563988
 30
0.0
 11
300.24715908905449
 21
192.6423305563988
 31
0.0
  0
ARC
  5
1F65
  8
0
 10
195.29866446164669
 20
89.038454443461646
 30
0.0
 40
2.9999999999999818
 50
279.41791242009549
 51
320.58208757990582
  0
ARC
  5
1F66
  8
0
 10
195.29866446164661
 20
80.248015431883175
 30
0.0
 40
2.9999999999999818
 50
39.417912420095682
 51
80.582087579904567
  0
CIRCLE
  5
2CEC
  8
0
 10
191.47228459578261
 20
91.007195968351297
 30
0.0
 40
1.6209999999999991
  0
CIRCLE
  5
2CED
  8
3
 10
191.47228459578261
 20
91.007195968351297
 30
0.0
 40
2.0
  0
CIRCLE
  5
2CF0
  8
0
 10
204.2002066571404
 20
91.007195968351297
 30
0.0
 40
1.6209999999999991
  0
CIRCLE
  5
2CF1
  8
3
 10
204.2002066571404
 20
91.007195968351297
 30
0.0
 40
2.0
  0
CIRCLE
  5
2CF3
  8
0
 10
204.2002066571406
 20
78.279273906993552
 30
0.0
 40
1.6209999999999991
  0
CIRCLE
  5
2CF4
  8
3
 10
204.2002066571406
 20
78.279273906993552
 30
0.0
 40
2.0
  0
CIRCLE
  5
2CF6
  8
0
 10
191.4722845957827
 20
78.27927390699341
 30
0.0
 40
1.6209999999999991
  0
CIRCLE
  5
2CF7
  8
3
 10
191.4722845957827
 20
78.27927390699341
 30
0.0
 40
2.0
  0
LINE
  5
2D00
  8
0
 10
304.58591158716217
 20
196.1432354443134
 30
0.0
 11
304.08591150520579
 21
196.64323645759239
 31
0.0
  0
LINE
  5
2D01
  8
0
 10
291.58591131894133
 20
196.64323645759239
 30
0.0
 11
291.08591123698488
 21
196.1432354443134
 31
0.0
  0
LINE
  5
2D02
  8
0
 10
304.58591158716217
 20
194.64233088422429
 30
0.0
 11
304.58591158716217
 21
196.1432354443134
 31
0.0
  0
LINE
  5
2D03
  8
0
 10
291.08591123698488
 20
196.1432354443134
 30
0.0
 11
291.08591123698488
 21
194.64233088422429
 31
0.0
  0
LINE
  5
2D04
  8
0
 10
304.58591158716217
 20
196.1432354443134
 30
0.0
 11
291.08591123698488
 21
196.1432354443134
 31
0.0
  0
LINE
  5
2D05
  8
0
 10
291.58591131894133
 20
196.64323645759239
 30
0.0
 11
304.08591150520579
 21
196.64323645759239
 31
0.0
  0
ENDSEC
  0
EOF
