  0
SECTION
  2
HEADER
  9
$ACADVER
  1
AC1009
  9
$INSBASE
 10
0.0
 20
0.0
 30
0.0
  9
$EXTMIN
 10
0.0
 20
-2.960436562073669
 30
0.0
  9
$EXTMAX
 10
388.20864992781139
 20
301.64323645759242
 30
0.0
  9
$LIMMIN
 10
0.0
 20
0.0
  9
$LIMMAX
 10
0.0
 20
0.0
  9
$ORTHOMODE
 70
     0
  9
$REGENMODE
 70
     1
  9
$FILLMODE
 70
     1
  9
$QTEXTMODE
 70
     0
  9
$MIRRTEXT
 70
     0
  9
$DRAGMODE
 70
     2
  9
$LTSCALE
 40
1.0
  9
$OSMODE
 70
    37
  9
$ATTMODE
 70
     1
  9
$TEXTSIZE
 40
0.0
  9
$TRACEWID
 40
0.05
  9
$TEXTSTYLE
  7
STANDARD
  9
$CLAYER
  8
0
  9
$CELTYPE
  6
BYLAYER
  9
$CECOLOR
 62
   256
  9
$DIMSCALE
 40
1.0
  9
$DIMASZ
 40
6.0
  9
$DIMEXO
 40
1.0
  9
$DIMDLI
 40
0.38
  9
$DIMRND
 40
0.0
  9
$DIMDLE
 40
1.0
  9
$DIMEXE
 40
0.18
  9
$DIMTP
 40
0.0
  9
$DIMTM
 40
0.0
  9
$DIMTXT
 40
3.5
  9
$DIMCEN
 40
0.09
  9
$DIMTSZ
 40
0.0
  9
$DIMTOL
 70
     0
  9
$DIMLIM
 70
     0
  9
$DIMTIH
 70
     1
  9
$DIMTOH
 70
     1
  9
$DIMSE1
 70
     0
  9
$DIMSE2
 70
     0
  9
$DIMTAD
 70
     1
  9
$DIMZIN
 70
     0
  9
$DIMBLK
  1

  9
$DIMASO
 70
     1
  9
$DIMSHO
 70
     1
  9
$DIMPOST
  1

  9
$DIMAPOST
  1

  9
$DIMALT
 70
     0
  9
$DIMALTD
 70
     2
  9
$DIMALTF
 40
0.0394
  9
$DIMLFAC
 40
2.0
  9
$DIMTOFL
 70
     0
  9
$DIMTVP
 40
0.0
  9
$DIMTIX
 70
     0
  9
$DIMSOXD
 70
     0
  9
$DIMSAH
 70
     0
  9
$DIMBLK1
  1

  9
$DIMBLK2
  1

  9
$DIMSTYLE
  2
STANDARD
  9
$DIMCLRD
 70
     0
  9
$DIMCLRE
 70
     0
  9
$DIMCLRT
 70
     0
  9
$DIMTFAC
 40
1.0
  9
$DIMGAP
 40
1.0
  9
$LUNITS
 70
     2
  9
$LUPREC
 70
     2
  9
$SKETCHINC
 40
0.1
  9
$FILLETRAD
 40
0.0
  9
$AUNITS
 70
     0
  9
$AUPREC
 70
     2
  9
$MENU
  1
acad
  9
$ELEVATION
 40
0.0
  9
$PELEVATION
 40
0.0
  9
$THICKNESS
 40
0.0
  9
$LIMCHECK
 70
     0
  9
$BLIPMODE
 70
     0
  9
$CHAMFERA
 40
0.0
  9
$CHAMFERB
 40
0.0
  9
$SKPOLY
 70
     0
  9
$TDCREATE
 40
2444972.375
  9
$TDUPDATE
 40
2456969.4107291088
  9
$TDINDWG
 40
0.1645702778
  9
$TDUSRTIMER
 40
0.1645702778
  9
$USRTIMER
 70
     1
  9
$ANGBASE
 50
0.0
  9
$ANGDIR
 70
     0
  9
$PDMODE
 70
     0
  9
$PDSIZE
 40
-1.0
  9
$PLINEWID
 40
0.0
  9
$COORDS
 70
     1
  9
$SPLFRAME
 70
     0
  9
$SPLINETYPE
 70
     6
  9
$SPLINESEGS
 70
     8
  9
$ATTDIA
 70
     0
  9
$ATTREQ
 70
     1
  9
$HANDLING
 70
     1
  9
$HANDSEED
  5
229A
  9
$SURFTAB1
 70
     6
  9
$SURFTAB2
 70
     6
  9
$SURFTYPE
 70
     6
  9
$SURFU
 70
     6
  9
$SURFV
 70
     6
  9
$UCSNAME
  2

  9
$UCSORG
 10
0.0
 20
0.0
 30
0.0
  9
$UCSXDIR
 10
1.0
 20
0.0
 30
0.0
  9
$UCSYDIR
 10
0.0
 20
1.0
 30
0.0
  9
$PUCSNAME
  2

  9
$PUCSORG
 10
0.0
 20
0.0
 30
0.0
  9
$PUCSXDIR
 10
1.0
 20
0.0
 30
0.0
  9
$PUCSYDIR
 10
0.0
 20
1.0
 30
0.0
  9
$USERI1
 70
     0
  9
$USERI2
 70
     1
  9
$USERI3
 70
     0
  9
$USERI4
 70
     0
  9
$USERI5
 70
     0
  9
$USERR1
 40
0.0
  9
$USERR2
 40
0.0
  9
$USERR3
 40
0.0
  9
$USERR4
 40
0.0
  9
$USERR5
 40
0.0
  9
$WORLDVIEW
 70
     1
  9
$SHADEDGE
 70
     3
  9
$SHADEDIF
 70
    70
  9
$TILEMODE
 70
     1
  9
$MAXACTVP
 70
    16
  9
$PLIMCHECK
 70
     0
  9
$PEXTMIN
 10
1.0000000000000000E+020
 20
1.0000000000000000E+020
 30
1.0000000000000000E+020
  9
$PEXTMAX
 10
-1.0000000000000000E+020
 20
-1.0000000000000000E+020
 30
-1.0000000000000000E+020
  9
$PLIMMIN
 10
0.0
 20
0.0
  9
$PLIMMAX
 10
12.0
 20
9.0
  9
$UNITMODE
 70
     0
  9
$VISRETAIN
 70
     0
  9
$PLINEGEN
 70
     1
  9
$PSLTSCALE
 70
     1
  0
ENDSEC
  0
SECTION
  2
TABLES
  0
TABLE
  2
VPORT
 70
     1
  0
VPORT
  2
*ACTIVE
 70
     0
 10
0.0
 20
0.0
 11
1.0
 21
1.0
 12
314.18636995827541
 22
180.0
 13
0.0
 23
0.0
 14
1.0
 24
1.0
 15
0.0
 25
0.0
 16
0.0
 26
0.0
 36
1.0
 17
0.0
 27
0.0
 37
0.0
 40
360.0
 41
1.7454798331015291
 42
50.0
 43
0.0
 44
0.0
 50
0.0
 51
0.0
 71
     0
 72
  2000
 73
     1
 74
     0
 75
     0
 76
     0
 77
     0
 78
     0
  0
ENDTAB
  0
TABLE
  2
LTYPE
 70
     3
  0
LTYPE
  2
CONTINUOUS
 70
     0
  3
Solid Line
 72
    65
 73
     0
 40
0.0
  0
LTYPE
  2
CENTERX2
 70
     0
  3
Center (2x) ________  __  ________  __  _____
 72
    65
 73
     4
 40
20.32
 49
12.699999999999999
 49
-2.54
 49
2.54
 49
-2.54
  0
LTYPE
  2
PHANTOM2
 70
     0
  3
___ _ _ ___ _ _ ___ _ _ ___ _ _
 72
    65
 73
     6
 40
1.25
 49
0.625
 49
-0.125
 49
0.125
 49
-0.125
 49
0.125
 49
-0.125
  0
ENDTAB
  0
TABLE
  2
LAYER
 70
     4
  0
LAYER
  2
0
 70
     0
 62
     7
  6
CONTINUOUS
  0
LAYER
  2
DEFPOINTS
 70
     0
 62
     7
  6
CONTINUOUS
  0
LAYER
  2
1
 70
     0
 62
     1
  6
CENTERX2
  0
LAYER
  2
3
 70
     0
 62
     3
  6
CONTINUOUS
  0
ENDTAB
  0
TABLE
  2
STYLE
 70
     2
  0
STYLE
  2
STANDARD
 70
     0
 40
0.0
 41
1.0
 50
0.0
 71
     0
 42
0.0
  3
txt
  4
bigfont
  0
STYLE
  2
STANDARD1
 70
     0
 40
0.0
 41
1.0
 50
0.0
 71
     0
 42
3.0
  3
txt
  4

  0
ENDTAB
  0
TABLE
  2
VIEW
 70
     0
  0
ENDTAB
  0
TABLE
  2
UCS
 70
     0
  0
ENDTAB
  0
TABLE
  2
APPID
 70
    30
  0
APPID
  2
ACAD
 70
     0
  0
APPID
  2
DCO15
 70
     0
  0
APPID
  2
GENIUS_GENOREF_13
 70
     0
  0
APPID
  2
GENIUS_GENOENT_13
 70
     0
  0
APPID
  2
GENIUS_GENBH_13
 70
     0
  0
APPID
  2
GENIUS_GENOBJ_13
 70
     0
  0
APPID
  2
GENIUS_GENODEF_13
 70
     0
  0
APPID
  2
GENIUS_GENOLIS_13
 70
     0
  0
APPID
  2
GENIUS_GENOBJ-NBEHI-BHF_13
 70
     0
  0
APPID
  2
GENIUS_GENOBJ-NBEHI-BHB_13
 70
     0
  0
APPID
  2
GENIUS_GENOBJ-F-PART_13
 70
     0
  0
APPID
  2
GENIUS_GEFSTDP_13
 70
     0
  0
APPID
  2
GENIUS_GENOBJ-N-RSSYM_13
 70
     0
  0
APPID
  2
GENIUS_GENSYMENT_13
 70
     0
  0
APPID
  2
GENIUS_GENOBJ-N-TIT_13
 70
     0
  0
APPID
  2
GENIUS_GENTITLE_13
 70
     0
  0
APPID
  2
GENIUS_GENZVEED_13
 70
     0
  0
APPID
  2
GENIUS_GENOBJ-N-LEADER_13
 70
     0
  0
APPID
  2
GENIUS_GENOBJ-N-FIL_13
 70
     0
  0
APPID
  2
GENIUS_GENOBJ-N-SEC_13
 70
     0
  0
APPID
  2
GENIUS_GENOBJ-N-CRS_13
 70
     0
  0
APPID
  2
GENIUS_GENOBJ-N-ZOO_13
 70
     0
  0
APPID
  2
GENIUS_GENZOO_13
 70
     0
  0
APPID
  2
GENIUS_GENOBJ-F-TOL_13
 70
     0
  0
APPID
  2
GENIUS_GENFIL_13
 70
     0
  0
APPID
  2
GENIUS_GENOBJ-N-CHA_13
 70
     0
  0
APPID
  2
_CALL_MAC$
 70
     0
  0
APPID
  2
ACAD_MLEADERVER
 70
     0
  0
APPID
  2
ACAD_NAV_VCDISPLAY
 70
     0
  0
APPID
  2
ACAD_EXEMPT_FROM_CAD_STANDARDS
 70
     0
  0
ENDTAB
  0
TABLE
  2
DIMSTYLE
 70
     1
  0
DIMSTYLE
  2
STANDARD
 70
     0
  3

  4

  5

  6

  7

 40
1.0
 41
0.18
 42
0.0625
 43
0.38
 44
0.18
 45
0.0
 46
0.0
 47
0.0
 48
0.0
140
0.18
141
0.09
142
0.0
143
25.399999999999999
144
1.0
145
0.0
146
1.0
147
0.09
 71
     0
 72
     0
 73
     1
 74
     1
 75
     0
 76
     0
 77
     0
 78
     0
170
     0
171
     2
172
     0
173
     0
174
     0
175
     0
176
     0
177
     0
178
     0
  0
ENDTAB
  0
ENDSEC
  0
SECTION
  2
BLOCKS
  0
BLOCK
  8
0
  2
$MODEL_SPACE
 70
     0
 10
0.0
 20
0.0
 30
0.0
  3
$MODEL_SPACE
  1

  0
ENDBLK
  5
E
  8
0
  0
BLOCK
 67
     1
  8
0
  2
$PAPER_SPACE
 70
     0
 10
0.0
 20
0.0
 30
0.0
  3
$PAPER_SPACE
  1

  0
ENDBLK
  5
10
 67
     1
  8
0
  0
ENDSEC
  0
SECTION
  2
ENTITIES
  0
TEXT
  5
1201
  8
0
 62
     3
 10
0.0
 20
0.0
 30
0.0
 40
10.0
  1
QLPD150R
  7
STANDARD1
  0
ARC
  5
1641
  8
0
 10
264.3362489452611
 20
189.1423320775416
 30
0.0
 40
9.9999994739487015
 50
205.84194102376529
 51
154.15807268706959
  0
LINE
  5
1642
  8
0
 10
255.03624869412459
 20
193.14233156967609
 30
0.0
 11
216.2165258628753
 21
193.14233156967609
 31
0.0
  0
LINE
  5
1643
  8
0
 10
216.28057291633161
 20
185.1423302583739
 30
0.0
 11
255.03624869412459
 21
185.1423302583739
 31
0.0
  0
LINE
  5
1644
  8
0
 10
255.03624869412459
 20
185.1423302583739
 30
0.0
 11
255.33625004715
 21
185.4423316113994
 31
0.0
  0
LINE
  5
1645
  8
0
 10
255.33625004715
 20
192.84233021665071
 30
0.0
 11
255.03624869412459
 21
193.14233156967609
 31
0.0
  0
LINE
  5
1647
  8
0
 10
217.83624855703391
 20
168.84233093935711
 30
0.0
 11
217.83624855703391
 21
183.44233128357379
 31
0.0
  0
LINE
  5
1648
  8
0
 10
177.83624945110361
 20
183.44233128357379
 30
0.0
 11
177.83624945110361
 21
168.842330939357
 31
0.0
  0
LINE
  5
1649
  8
0
 10
177.83624945110361
 20
168.842330939357
 30
0.0
 11
178.03624911135711
 21
168.64233081344219
 31
0.0
  0
LINE
  5
164A
  8
0
 10
217.63624889678039
 20
168.64233081344219
 30
0.0
 11
217.83624855703391
 21
168.842330939357
 31
0.0
  0
LINE
  5
164B
  8
0
 10
217.83624855703391
 20
183.44233128357379
 30
0.0
 11
217.63624889678039
 21
183.64233094382729
 31
0.0
  0
LINE
  5
164C
  8
0
 10
178.03624911135711
 20
183.64233094382729
 30
0.0
 11
177.83624945110361
 21
183.44233128357379
 31
0.0
  0
LINE
  5
164D
  8
0
 10
177.83624945110361
 20
167.64233088236
 30
0.0
 11
178.3362486017374
 21
167.14233103323431
 31
0.0
  0
LINE
  5
164E
  8
0
 10
217.3362494064001
 20
167.14233103323431
 30
0.0
 11
217.83624855703391
 21
167.64233088236
 31
0.0
  0
LINE
  5
164F
  8
0
 10
217.83624855703391
 20
168.44233092035799
 30
0.0
 11
217.63624889678039
 21
168.64233081344219
 31
0.0
  0
LINE
  5
1650
  8
0
 10
178.03624911135711
 20
168.64233081344219
 30
0.0
 11
177.83624945110361
 21
168.44233092035799
 31
0.0
  0
LINE
  5
1651
  8
0
 10
217.83624855703391
 20
167.64233088236
 30
0.0
 11
217.83624855703391
 21
168.44233092035799
 31
0.0
  0
LINE
  5
1652
  8
0
 10
177.83624945110361
 20
168.44233092035799
 30
0.0
 11
177.83624945110361
 21
167.64233088236
 31
0.0
  0
ARC
  5
1653
  8
0
 10
181.33624900406869
 20
192.6423309981609
 30
0.0
 40
2.0
 50
90.0
 51
180.0
  0
ARC
  5
1654
  8
0
 10
214.33624900406869
 20
192.6423309981609
 30
0.0
 40
2.0
 50
22.024281766621979
 51
90.0
  0
LINE
  5
1655
  8
0
 10
216.3362492424873
 20
183.64233094382729
 30
0.0
 11
216.3362492424873
 21
184.90091282058211
 31
0.0
  0
LINE
  5
1656
  8
0
 10
179.33624876565011
 20
192.6423305563971
 30
0.0
 11
179.33624876565011
 21
183.64233094382729
 31
0.0
  0
LINE
  5
1657
  8
0
 10
210.33624919033321
 20
165.143234961421
 30
0.0
 11
210.33624919033321
 21
167.14233103323431
 31
0.0
  0
LINE
  5
1658
  8
0
 10
185.3362488178042
 20
167.14233103323431
 30
0.0
 11
185.3362488178042
 21
165.143234961421
 31
0.0
  0
LINE
  5
1659
  8
0
 10
185.3362488178042
 20
165.143234961421
 30
0.0
 11
185.83624889976059
 21
164.6432349376723
 31
0.0
  0
LINE
  5
165A
  8
0
 10
209.8362491083769
 20
164.6432349376723
 30
0.0
 11
210.33624919033321
 21
165.143234961421
 31
0.0
  0
LINE
  5
165B
  8
0
 10
204.58624917915739
 20
196.14323544431181
 30
0.0
 11
204.08624909720101
 21
196.6432364575908
 31
0.0
  0
LINE
  5
165C
  8
0
 10
191.58624891093649
 20
196.6432364575908
 30
0.0
 11
191.0862488289801
 21
196.14323544431181
 31
0.0
  0
LINE
  5
165D
  8
0
 10
204.58624917915739
 20
194.6423308842227
 30
0.0
 11
204.58624917915739
 21
196.14323544431181
 31
0.0
  0
LINE
  5
165E
  8
0
 10
191.0862488289801
 20
196.14323544431181
 30
0.0
 11
191.0862488289801
 21
194.6423308842227
 31
0.0
  0
LINE
  5
1671
  8
0
 10
255.33625004715
 20
184.78343206572981
 30
0.0
 11
255.33625004715
 21
193.50123208935341
 31
0.0
  0
LINE
  5
1672
  8
0
 10
239.3362474245456
 20
187.2058393352076
 30
0.0
 11
239.3362474245456
 21
191.07882249284239
 31
0.0
  0
LINE
  5
1673
  8
0
 10
239.3362474245456
 20
191.07882249284239
 30
0.0
 11
231.3362498385338
 21
191.07882249284239
 31
0.0
  0
LINE
  5
1674
  8
0
 10
231.3362498385338
 20
191.07882249284239
 30
0.0
 11
231.3362498385338
 21
187.2058393352076
 31
0.0
  0
LINE
  5
1675
  8
0
 10
231.3362498385338
 20
187.2058393352076
 30
0.0
 11
239.3362474245456
 21
187.2058393352076
 31
0.0
  0
LINE
  5
1676
  8
0
 10
255.03624869412459
 20
185.1423302583739
 30
0.0
 11
255.03624869412459
 21
193.14233156967609
 31
0.0
  0
LINE
  5
1678
  8
0
 10
217.83624855703391
 20
183.44233128357379
 30
0.0
 11
177.83624945110361
 21
183.44233128357379
 31
0.0
  0
LINE
  5
167A
  8
0
 10
177.83624945110361
 20
168.842330939357
 30
0.0
 11
217.83624855703391
 21
168.842330939357
 31
0.0
  0
LINE
  5
167D
  8
0
 10
178.03624911135699
 20
183.64233094382729
 30
0.0
 11
217.63624889678039
 21
183.64233094382729
 31
0.0
  0
LINE
  5
167F
  8
0
 10
217.3362494064001
 20
167.14233103323431
 30
0.0
 11
178.3362486017374
 21
167.14233103323431
 31
0.0
  0
LINE
  5
1680
  8
0
 10
177.83624945110361
 20
167.64233088236
 30
0.0
 11
217.83624855703391
 21
167.64233088236
 31
0.0
  0
LINE
  5
1681
  8
0
 10
217.8362485570338
 20
168.44233092035799
 30
0.0
 11
177.83624945110361
 21
168.44233092035799
 31
0.0
  0
LINE
  5
1684
  8
0
 10
178.03624911135711
 20
168.64233081344219
 30
0.0
 11
217.63624889678039
 21
168.64233081344219
 31
0.0
  0
POLYLINE
  5
1685
  8
0
 66
     1
 10
0.0
 20
0.0
 30
0.0
 70
   128
  0
VERTEX
  5
1CDE
  8
0
 10
216.1902990325533
 20
193.39232999274461
 30
0.0
  0
VERTEX
  5
1CDF
  8
0
 10
216.19031844562571
 20
193.3922147296712
 30
0.0
  0
VERTEX
  5
1CE0
  8
0
 10
216.20015693730389
 20
193.3288251899526
 30
0.0
  0
VERTEX
  5
1CE1
  8
0
 10
216.2166506601003
 20
193.14398373592351
 30
0.0
  0
VERTEX
  5
1CE2
  8
0
 10
216.17848133570229
 20
192.6423305563971
 30
0.0
  0
SEQEND
  5
1CE3
  8
0
  0
LINE
  5
1686
  8
0
 10
216.17848133570229
 20
192.6423305563971
 30
0.0
 11
214.82062630515259
 21
192.6423305563971
 31
0.0
  0
LINE
  5
1689
  8
0
 10
181.33624909347569
 20
194.6423308842227
 30
0.0
 11
214.3369240986064
 21
194.6423308842227
 31
0.0
  0
POLYLINE
  5
168A
  8
0
 66
     1
 10
0.0
 20
0.0
 30
0.0
 70
   128
  0
VERTEX
  5
1CE4
  8
0
 10
216.17848133570229
 20
192.6423305563971
 30
0.0
  0
VERTEX
  5
1CE5
  8
0
 10
216.10190985626261
 20
192.21591147709341
 30
0.0
  0
VERTEX
  5
1CE6
  8
0
 10
216.02046383446731
 20
191.68755169141741
 30
0.0
  0
VERTEX
  5
1CE7
  8
0
 10
215.94435801631491
 20
191.07005688477011
 30
0.0
  0
VERTEX
  5
1CE8
  8
0
 10
215.8861913335947
 20
190.4123345308349
 30
0.0
  0
VERTEX
  5
1CE9
  8
0
 10
215.84997406131299
 20
189.69618844914879
 30
0.0
  0
VERTEX
  5
1CEA
  8
0
 10
215.84201684123551
 20
189.00030422139619
 30
0.0
  0
VERTEX
  5
1CEB
  8
0
 10
215.8617124510435
 20
188.2880268536851
 30
0.0
  0
VERTEX
  5
1CEC
  8
0
 10
215.9692336422828
 20
186.99346426058261
 30
0.0
  0
VERTEX
  5
1CED
  8
0
 10
216.1283799064783
 20
185.91516967046709
 30
0.0
  0
VERTEX
  5
1CEE
  8
0
 10
216.20616769320051
 20
185.5000195943162
 30
0.0
  0
VERTEX
  5
1CEF
  8
0
 10
216.27264922386681
 20
185.17832587588279
 30
0.0
  0
VERTEX
  5
1CF0
  8
0
 10
216.3165201050667
 20
184.9790451966569
 30
0.0
  0
VERTEX
  5
1CF1
  8
0
 10
216.33579661971601
 20
184.89429670501201
 30
0.0
  0
VERTEX
  5
1CF2
  8
0
 10
216.33428415185489
 20
184.90091282058211
 30
0.0
  0
SEQEND
  5
1CF3
  8
0
  0
LINE
  5
1691
  8
0
 10
185.3362488178042
 20
165.143234961421
 30
0.0
 11
210.33624919033321
 21
165.143234961421
 31
0.0
  0
LINE
  5
1692
  8
0
 10
209.8362491083769
 20
164.6432349376723
 30
0.0
 11
185.83624889976059
 21
164.6432349376723
 31
0.0
  0
LINE
  5
1694
  8
0
 10
204.58624917915739
 20
196.14323544431181
 30
0.0
 11
191.0862488289801
 21
196.14323544431181
 31
0.0
  0
LINE
  5
1695
  8
0
 10
191.58624891093649
 20
196.6432364575908
 30
0.0
 11
204.08624909720101
 21
196.6432364575908
 31
0.0
  0
LINE
  5
1697
  8
0
 10
212.40962788773911
 20
192.6423305563971
 30
0.0
 11
179.33624876565011
 21
192.6423305563971
 31
0.0
  0
CIRCLE
  5
1698
  8
0
 10
368.20865037484589
 20
189.1423309981607
 30
0.0
 40
9.9999999701238291
  0
LINE
  5
1699
  8
0
 10
388.20864992781139
 20
183.44233128357379
 30
0.0
 11
388.00865026755781
 21
183.64233094382729
 31
0.0
  0
LINE
  5
169A
  8
0
 10
348.40865048213448
 20
183.64233094382729
 30
0.0
 11
348.20865082188101
 21
183.44233128357379
 31
0.0
  0
LINE
  5
169B
  8
0
 10
388.20864992781139
 20
168.842330939357
 30
0.0
 11
388.20864992781139
 21
183.44233128357379
 31
0.0
  0
LINE
  5
169C
  8
0
 10
348.20865082188101
 20
183.44233128357379
 30
0.0
 11
348.20865082188101
 21
168.842330939357
 31
0.0
  0
LINE
  5
169D
  8
0
 10
348.20865082188101
 20
168.842330939357
 30
0.0
 11
348.40865048213448
 21
168.64233081344219
 31
0.0
  0
LINE
  5
169E
  8
0
 10
388.00865026755781
 20
168.64233081344219
 30
0.0
 11
388.20864992781139
 21
168.842330939357
 31
0.0
  0
LINE
  5
169F
  8
0
 10
348.20865082188101
 20
167.64233088236
 30
0.0
 11
348.70864997251482
 21
167.14233103323431
 31
0.0
  0
LINE
  5
16A0
  8
0
 10
387.70865077717752
 20
167.14233103323431
 30
0.0
 11
388.20864992781139
 21
167.64233088236
 31
0.0
  0
LINE
  5
16A1
  8
0
 10
388.20864992781139
 20
167.64233088236
 30
0.0
 11
388.20864992781139
 21
168.44233092035799
 31
0.0
  0
LINE
  5
16A2
  8
0
 10
348.20865082188101
 20
168.44233092035799
 30
0.0
 11
348.20865082188101
 21
167.64233088236
 31
0.0
  0
LINE
  5
16A3
  8
0
 10
388.20864992781139
 20
168.44233092035799
 30
0.0
 11
388.00865026755781
 21
168.64233081344219
 31
0.0
  0
LINE
  5
16A4
  8
0
 10
348.40865048213448
 20
168.64233081344219
 30
0.0
 11
348.20865082188101
 21
168.44233092035799
 31
0.0
  0
ARC
  5
16A5
  8
0
 10
351.70865037484617
 20
192.6423309981609
 30
0.0
 40
2.0
 50
90.0
 51
180.0
  0
ARC
  5
16A6
  8
0
 10
384.70865037484617
 20
192.6423309981609
 30
0.0
 40
2.0
 50
0.0
 51
90.0
  0
LINE
  5
16A7
  8
0
 10
386.70865061326481
 20
183.64233094382729
 30
0.0
 11
386.70865061326481
 21
192.6423305563971
 31
0.0
  0
LINE
  5
16A8
  8
0
 10
349.70865013642759
 20
192.6423305563971
 30
0.0
 11
349.70865013642759
 21
183.64233094382729
 31
0.0
  0
LINE
  5
16A9
  8
0
 10
380.70865056111069
 20
165.143234961421
 30
0.0
 11
380.70865056111069
 21
167.14233103323431
 31
0.0
  0
LINE
  5
16AA
  8
0
 10
355.7086501885816
 20
167.14233103323431
 30
0.0
 11
355.7086501885816
 21
165.143234961421
 31
0.0
  0
LINE
  5
16AB
  8
0
 10
355.7086501885816
 20
165.143234961421
 30
0.0
 11
356.20865027053799
 21
164.6432349376723
 31
0.0
  0
LINE
  5
16AC
  8
0
 10
380.2086504791543
 20
164.6432349376723
 30
0.0
 11
380.70865056111069
 21
165.143234961421
 31
0.0
  0
LINE
  5
16AF
  8
0
 10
366.70929669967433
 20
179.14233113754241
 30
0.0
 11
366.70929669967433
 21
177.64233089167331
 31
0.0
  0
LINE
  5
16B0
  8
0
 10
374.5991279055043
 20
177.64233089167331
 30
0.0
 11
366.70929669967433
 21
177.64233089167331
 31
0.0
  0
LINE
  5
16B1
  8
0
 10
374.5991279055043
 20
177.64233089167331
 30
0.0
 11
374.5991279055043
 21
174.64233133125751
 31
0.0
  0
LINE
  5
16B2
  8
0
 10
374.5991279055043
 20
174.64233133125751
 30
0.0
 11
366.70929669967433
 21
174.64233133125751
 31
0.0
  0
LINE
  5
16B3
  8
0
 10
366.70929669967433
 20
174.64233133125751
 30
0.0
 11
366.70929669967433
 21
173.14233108538841
 31
0.0
  0
LINE
  5
16B4
  8
0
 10
361.0229001995786
 20
179.89233079481571
 30
0.0
 11
361.0229001995786
 21
172.3923309624538
 31
0.0
  0
LINE
  5
16B5
  8
0
 10
375.39440055011352
 20
179.89233079481571
 30
0.0
 11
372.00832144922163
 21
179.89233079481571
 31
0.0
  0
LINE
  5
16B6
  8
0
 10
364.40897930047061
 20
179.89233079481571
 30
0.0
 11
361.0229001995786
 21
179.89233079481571
 31
0.0
  0
LINE
  5
16B7
  8
0
 10
375.39440055011352
 20
179.89233079481571
 30
0.0
 11
375.39440055011352
 21
172.3923309624538
 31
0.0
  0
LINE
  5
16B8
  8
0
 10
375.39440055011352
 20
172.3923309624538
 30
0.0
 11
361.0229001995786
 21
172.3923309624538
 31
0.0
  0
LINE
  5
16BD
  8
0
 10
348.40865048213442
 20
183.64233094382729
 30
0.0
 11
359.85700401111097
 21
183.64233094382729
 31
0.0
  0
LINE
  5
16BE
  8
0
 10
376.56029673858143
 20
183.64233094382729
 30
0.0
 11
388.00865026755781
 21
183.64233094382729
 31
0.0
  0
LINE
  5
16C1
  8
0
 10
388.20864992781139
 20
183.44233128357379
 30
0.0
 11
376.4250975717469
 21
183.44233128357379
 31
0.0
  0
LINE
  5
16C2
  8
0
 10
359.99220317794521
 20
183.44233128357379
 30
0.0
 11
348.20865082188101
 21
183.44233128357379
 31
0.0
  0
LINE
  5
16C3
  8
0
 10
348.20865082188101
 20
168.842330939357
 30
0.0
 11
388.20864992781139
 21
168.842330939357
 31
0.0
  0
LINE
  5
16C7
  8
0
 10
387.70865077717752
 20
167.14233103323431
 30
0.0
 11
348.70864997251482
 21
167.14233103323431
 31
0.0
  0
LINE
  5
16C8
  8
0
 10
348.20865082188101
 20
167.64233088236
 30
0.0
 11
388.20864992781139
 21
167.64233088236
 31
0.0
  0
LINE
  5
16C9
  8
0
 10
388.20864992781139
 20
168.44233092035799
 30
0.0
 11
348.20865082188101
 21
168.44233092035799
 31
0.0
  0
LINE
  5
16CA
  8
0
 10
348.40865048213448
 20
168.64233081344219
 30
0.0
 11
388.00865026755781
 21
168.64233081344219
 31
0.0
  0
LINE
  5
16CD
  8
0
 10
351.70865046425308
 20
194.6423308842227
 30
0.0
 11
359.85700401111097
 21
194.6423308842227
 31
0.0
  0
LINE
  5
16CE
  8
0
 10
376.56029673858143
 20
194.6423308842227
 30
0.0
 11
384.70865028543921
 21
194.6423308842227
 31
0.0
  0
LINE
  5
16DA
  8
0
 10
355.7086501885816
 20
165.143234961421
 30
0.0
 11
380.70865056111069
 21
165.143234961421
 31
0.0
  0
LINE
  5
16DB
  8
0
 10
380.2086504791543
 20
164.6432349376723
 30
0.0
 11
356.20865027053799
 21
164.6432349376723
 31
0.0
  0
LINE
  5
16DC
  8
0
 10
357.01037051496161
 20
192.6423305563971
 30
0.0
 11
349.70865013642759
 21
192.6423305563971
 31
0.0
  0
LINE
  5
16DD
  8
0
 10
386.70865061326481
 20
192.6423305563971
 30
0.0
 11
379.40693023473079
 21
192.6423305563971
 31
0.0
  0
ARC
  5
16DE
  8
0
 10
77.186530818587244
 20
189.1423309981607
 30
0.0
 40
9.9999999701238238
 50
33.367013081963002
 51
146.63298691803701
  0
LINE
  5
16DF
  8
0
 10
97.186530371552635
 20
168.842330939357
 30
0.0
 11
97.186530371552635
 21
183.44233128357379
 31
0.0
  0
LINE
  5
16E0
  8
0
 10
57.186531265622357
 20
183.44233128357379
 30
0.0
 11
57.186531265622357
 21
168.842330939357
 31
0.0
  0
LINE
  5
16E1
  8
0
 10
57.186531265622357
 20
168.842330939357
 30
0.0
 11
57.386530925875888
 21
168.64233081344219
 31
0.0
  0
LINE
  5
16E2
  8
0
 10
96.98653071129911
 20
168.64233081344219
 30
0.0
 11
97.186530371552635
 21
168.842330939357
 31
0.0
  0
LINE
  5
16E3
  8
0
 10
97.186530371552635
 20
183.44233128357379
 30
0.0
 11
96.98653071129911
 21
183.64233094382729
 31
0.0
  0
LINE
  5
16E4
  8
0
 10
57.386530925875888
 20
183.64233094382729
 30
0.0
 11
57.186531265622357
 21
183.44233128357379
 31
0.0
  0
LINE
  5
16E5
  8
0
 10
97.186530371552635
 20
167.64233088236
 30
0.0
 11
97.186530371552635
 21
168.44233092035799
 31
0.0
  0
LINE
  5
16E6
  8
0
 10
57.186531265622357
 20
168.44233092035799
 30
0.0
 11
57.186531265622357
 21
167.64233088236
 31
0.0
  0
LINE
  5
16E7
  8
0
 10
57.186531265622357
 20
167.64233088236
 30
0.0
 11
57.686530416256183
 21
167.14233103323431
 31
0.0
  0
LINE
  5
16E8
  8
0
 10
96.686531220918823
 20
167.14233103323431
 30
0.0
 11
97.186530371552635
 21
167.64233088236
 31
0.0
  0
LINE
  5
16E9
  8
0
 10
97.186530371552635
 20
168.44233092035799
 30
0.0
 11
96.98653071129911
 21
168.64233081344219
 31
0.0
  0
LINE
  5
16EA
  8
0
 10
57.386530925875888
 20
168.64233081344219
 30
0.0
 11
57.186531265622357
 21
168.44233092035799
 31
0.0
  0
ARC
  5
16EB
  8
0
 10
60.686530818587521
 20
192.6423309981609
 30
0.0
 40
2.0000000000000071
 50
90.0
 51
180.0
  0
ARC
  5
16EC
  8
0
 10
93.686530818587471
 20
192.6423309981609
 30
0.0
 40
2.0000000000000142
 50
0.0
 51
90.0
  0
LINE
  5
16ED
  8
0
 10
95.68653105700605
 20
183.64233094382729
 30
0.0
 11
95.68653105700605
 21
192.6423305563971
 31
0.0
  0
LINE
  5
16EE
  8
0
 10
58.686530580168949
 20
192.6423305563971
 30
0.0
 11
58.686530580168949
 21
183.64233094382729
 31
0.0
  0
LINE
  5
16EF
  8
0
 10
89.686531004851986
 20
165.143234961421
 30
0.0
 11
89.686531004851986
 21
167.14233103323431
 31
0.0
  0
LINE
  5
16F0
  8
0
 10
64.686530632323013
 20
167.14233103323431
 30
0.0
 11
64.686530632323013
 21
165.143234961421
 31
0.0
  0
LINE
  5
16F1
  8
0
 10
64.686530632323013
 20
165.143234961421
 30
0.0
 11
65.186530714279399
 21
164.6432349376723
 31
0.0
  0
LINE
  5
16F2
  8
0
 10
89.186530922895585
 20
164.6432349376723
 30
0.0
 11
89.686531004851986
 21
165.143234961421
 31
0.0
  0
LINE
  5
16F3
  8
0
 10
83.936530993676115
 20
196.14323544431181
 30
0.0
 11
83.436530911719714
 21
196.6432364575908
 31
0.0
  0
LINE
  5
16F4
  8
0
 10
70.93653072545527
 20
196.6432364575908
 30
0.0
 11
70.436530643498884
 21
196.14323544431181
 31
0.0
  0
LINE
  5
16F5
  8
0
 10
83.936530993676115
 20
194.6423308842227
 30
0.0
 11
83.936530993676115
 21
196.14323544431181
 31
0.0
  0
LINE
  5
16F6
  8
0
 10
70.436530643498884
 20
196.14323544431181
 30
0.0
 11
70.436530643498884
 21
194.6423308842227
 31
0.0
  0
LINE
  5
16F7
  8
0
 10
97.186530371552635
 20
183.44233128357379
 30
0.0
 11
57.186531265622357
 21
183.44233128357379
 31
0.0
  0
LINE
  5
16F8
  8
0
 10
57.186531265622357
 20
168.842330939357
 30
0.0
 11
97.186530371552635
 21
168.842330939357
 31
0.0
  0
LINE
  5
16FA
  8
0
 10
57.386530925875888
 20
183.64233094382729
 30
0.0
 11
96.98653071129911
 21
183.64233094382729
 31
0.0
  0
LINE
  5
16FB
  8
0
 10
57.186531265622357
 20
167.64233088236
 30
0.0
 11
97.186530371552635
 21
167.64233088236
 31
0.0
  0
LINE
  5
16FC
  8
0
 10
97.186530371552635
 20
168.44233092035799
 30
0.0
 11
57.186531265622357
 21
168.44233092035799
 31
0.0
  0
LINE
  5
16FD
  8
0
 10
96.686531220918823
 20
167.14233103323431
 30
0.0
 11
57.686530416256183
 21
167.14233103323431
 31
0.0
  0
LINE
  5
16FE
  8
0
 10
57.386530925875888
 20
168.64233081344219
 30
0.0
 11
96.98653071129911
 21
168.64233081344219
 31
0.0
  0
LINE
  5
16FF
  8
0
 10
60.686530907994502
 20
194.6423308842227
 30
0.0
 11
93.686530729180504
 21
194.6423308842227
 31
0.0
  0
LINE
  5
1700
  8
0
 10
64.686530632323013
 20
165.143234961421
 30
0.0
 11
89.686531004851986
 21
165.143234961421
 31
0.0
  0
LINE
  5
1701
  8
0
 10
89.186530922895585
 20
164.6432349376723
 30
0.0
 11
65.186530714279399
 21
164.6432349376723
 31
0.0
  0
LINE
  5
1702
  8
0
 10
83.936530993676115
 20
196.14323544431181
 30
0.0
 11
70.436530643498884
 21
196.14323544431181
 31
0.0
  0
LINE
  5
1703
  8
0
 10
70.93653072545527
 20
196.6432364575908
 30
0.0
 11
83.436530911719714
 21
196.6432364575908
 31
0.0
  0
LINE
  5
1704
  8
0
 10
95.68653105700605
 20
192.6423305563971
 30
0.0
 11
58.686530580168949
 21
192.6423305563971
 31
0.0
  0
ARC
  5
1705
  8
0
 10
195.29866446164669
 20
281.03845596338169
 30
0.0
 40
2.9999999999999818
 50
279.41791242009549
 51
320.58208757990542
  0
ARC
  5
1706
  8
0
 10
195.29866446164661
 20
272.24801695180321
 30
0.0
 40
2.9999999999999818
 50
40.142808046651673
 51
80.582087579904439
  0
ARC
  5
1707
  8
0
 10
202.91140795609141
 20
276.64323645759242
 30
0.0
 40
3.0000000000000142
 50
159.41791242009671
 51
200.58208757990479
  0
ARC
  5
1709
  8
0
 10
264.33624562646179
 20
276.64323645759242
 30
0.0
 40
9.9999999973670022
 50
205.84194644284901
 51
154.15806726798129
  0
LINE
  5
170A
  8
0
 10
231.33624646092659
 20
280.64323664758223
 30
0.0
 11
215.89863745257591
 21
280.64323664758223
 31
0.0
  0
LINE
  5
170B
  8
0
 10
255.03624531651741
 20
280.64323664758223
 30
0.0
 11
239.3362440469385
 21
280.64323664758223
 31
0.0
  0
LINE
  5
170C
  8
0
 10
239.3362440469385
 20
272.64323626760262
 30
0.0
 11
255.03624531651741
 21
272.64323626760262
 31
0.0
  0
LINE
  5
170D
  8
0
 10
215.89863745257591
 20
272.64323626760262
 30
0.0
 11
231.33624646092659
 21
272.64323626760262
 31
0.0
  0
LINE
  5
170E
  8
0
 10
255.03624531651741
 20
272.64323626760262
 30
0.0
 11
255.33624666954279
 21
272.94323645647478
 31
0.0
  0
LINE
  5
170F
  8
0
 10
255.33624666954279
 20
280.34323645871001
 30
0.0
 11
255.03624531651741
 21
280.64323664758223
 31
0.0
  0
LINE
  5
1717
  8
0
 10
255.33624666954279
 20
272.28433760929721
 30
0.0
 11
255.33624666954279
 21
281.00213530588758
 31
0.0
  0
LINE
  5
1718
  8
0
 10
239.3362440469385
 20
272.64323626760262
 30
0.0
 11
239.3362440469385
 21
273.143236349559
 31
0.0
  0
LINE
  5
1719
  8
0
 10
239.3362440469385
 20
273.143236349559
 30
0.0
 11
231.33624646092659
 21
273.143236349559
 31
0.0
  0
LINE
  5
171A
  8
0
 10
231.33624646092659
 20
273.143236349559
 30
0.0
 11
231.33624646092659
 21
272.64323626760262
 31
0.0
  0
LINE
  5
171B
  8
0
 10
231.33624646092659
 20
280.14323656562578
 30
0.0
 11
239.3362440469385
 21
280.14323656562578
 31
0.0
  0
LINE
  5
171C
  8
0
 10
239.3362440469385
 20
280.64323664758223
 30
0.0
 11
239.3362440469385
 21
280.14323656562578
 31
0.0
  0
LINE
  5
171D
  8
0
 10
231.33624646092659
 20
280.14323656562578
 30
0.0
 11
231.33624646092659
 21
280.64323664758223
 31
0.0
  0
LINE
  5
171E
  8
0
 10
255.03624531651741
 20
272.64323626760262
 30
0.0
 11
255.03624531651741
 21
280.64323664758223
 31
0.0
  0
ARC
  5
1721
  8
0
 10
197.8362456264615
 20
276.64323645759242
 30
0.0
 40
20.000000000000011
 50
11.536959032815741
 51
348.46304041168071
  0
CIRCLE
  5
1735
  8
0
 10
197.8362456264615
 20
276.64323645759242
 30
0.0
 40
6.7499999999999707
  0
CIRCLE
  5
1737
  8
0
 10
197.8362456264615
 20
276.64323645759242
 30
0.0
 40
4.25
  0
CIRCLE
  5
1739
  8
0
 10
197.8362456264615
 20
276.64323645759242
 30
0.0
 40
2.5
  0
POLYLINE
  5
173A
  8
0
 66
     1
 10
0.0
 20
0.0
 30
0.0
 70
   128
  0
VERTEX
  5
1CF4
  8
0
 10
196.7986645011872
 20
82.846091684174525
 30
0.0
  0
VERTEX
  5
1CF5
  8
0
 10
196.2449705295906
 20
83.094856675003456
 30
0.0
  0
VERTEX
  5
1CF6
  8
0
 10
195.8436248658866
 20
83.198103212040635
 30
0.0
  0
SEQEND
  5
1CF7
  8
0
  0
POLYLINE
  5
173B
  8
0
 66
     1
 10
0.0
 20
0.0
 30
0.0
 70
   128
  0
VERTEX
  5
1CF8
  8
0
 10
197.61626976637061
 20
82.152931691367897
 30
0.0
  0
VERTEX
  5
1CF9
  8
0
 10
197.2909482845746
 20
82.490961040590676
 30
0.0
  0
VERTEX
  5
1CFA
  8
0
 10
196.7986645011872
 20
82.846091684174525
 30
0.0
  0
SEQEND
  5
1CFB
  8
0
  0
POLYLINE
  5
173C
  8
0
 66
     1
 10
0.0
 20
0.0
 30
0.0
 70
   128
  0
VERTEX
  5
1CFC
  8
0
 10
196.7986645011872
 20
86.440378191170069
 30
0.0
  0
VERTEX
  5
1CFD
  8
0
 10
197.2909482845746
 20
86.795508834753903
 30
0.0
  0
VERTEX
  5
1CFE
  8
0
 10
197.61626976637061
 20
87.133538183976697
 30
0.0
  0
SEQEND
  5
1CFF
  8
0
  0
POLYLINE
  5
173D
  8
0
 66
     1
 10
0.0
 20
0.0
 30
0.0
 70
   128
  0
VERTEX
  5
1D00
  8
0
 10
195.7895676440269
 20
86.078891271014484
 30
0.0
  0
VERTEX
  5
1D01
  8
0
 10
196.2449705295906
 20
86.191613200341138
 30
0.0
  0
VERTEX
  5
1D02
  8
0
 10
196.7986645011872
 20
86.440378191170069
 30
0.0
  0
SEQEND
  5
1D03
  8
0
  0
ARC
  5
173E
  8
0
 10
202.91140795609141
 20
84.643234937672304
 30
0.0
 40
2.9999999999999991
 50
159.4179124200956
 51
200.5820875799044
  0
ARC
  5
1740
  8
0
 10
264.33624562646179
 20
84.643234937672275
 30
0.0
 40
9.9999999973670448
 50
205.84194644284929
 51
154.15806726798209
  0
LINE
  5
1741
  8
0
 10
255.03624531651741
 20
80.643234747682484
 30
0.0
 11
255.33624666954279
 21
80.943234936554717
 31
0.0
  0
LINE
  5
1742
  8
0
 10
255.33624666954279
 20
88.343234938789877
 30
0.0
 11
255.03624531651741
 21
88.643235127662095
 31
0.0
  0
LINE
  5
1743
  8
0
 10
231.33624646092659
 20
88.643235127662095
 30
0.0
 11
217.43216352994551
 21
88.643235127662095
 31
0.0
  0
LINE
  5
1744
  8
0
 10
255.03624531651741
 20
88.643235127662095
 30
0.0
 11
239.3362440469385
 21
88.643235127662095
 31
0.0
  0
LINE
  5
1745
  8
0
 10
239.3362440469385
 20
80.643234747682484
 30
0.0
 11
255.03624531651741
 21
80.643234747682484
 31
0.0
  0
LINE
  5
1746
  8
0
 10
217.4321635299454
 20
80.64323474768247
 30
0.0
 11
231.33624646092659
 21
80.643234747682484
 31
0.0
  0
LINE
  5
175C
  8
0
 10
255.33624666954279
 20
80.284336089377078
 30
0.0
 11
255.33624666954279
 21
89.002133785967516
 31
0.0
  0
LINE
  5
175D
  8
0
 10
255.03624531651741
 20
80.643234747682484
 30
0.0
 11
255.03624531651741
 21
88.643235127662095
 31
0.0
  0
LINE
  5
175E
  8
0
 10
239.3362440469385
 20
88.143235045705708
 30
0.0
 11
239.3362440469385
 21
88.643235127662095
 31
0.0
  0
LINE
  5
175F
  8
0
 10
231.33624646092659
 20
88.643235127662095
 30
0.0
 11
231.33624646092659
 21
88.143235045705708
 31
0.0
  0
LINE
  5
1760
  8
0
 10
231.33624646092659
 20
88.143235045705708
 30
0.0
 11
239.3362440469385
 21
88.143235045705708
 31
0.0
  0
LINE
  5
1761
  8
0
 10
239.3362440469385
 20
81.143234829638885
 30
0.0
 11
239.3362440469385
 21
80.643234747682484
 31
0.0
  0
LINE
  5
1762
  8
0
 10
239.3362440469385
 20
81.143234829638885
 30
0.0
 11
231.33624646092659
 21
81.143234829638885
 31
0.0
  0
LINE
  5
1763
  8
0
 10
231.33624646092659
 20
80.643234747682484
 30
0.0
 11
231.33624646092659
 21
81.143234829638885
 31
0.0
  0
CIRCLE
  5
1765
  8
0
 10
197.8362456264615
 20
84.643234937672375
 30
0.0
 40
19.999999999999979
  0
CIRCLE
  5
1767
  8
0
 10
197.8362456264615
 20
84.643234937672375
 30
0.0
 40
12.0
  0
CIRCLE
  5
1768
  8
0
 10
197.8362456264615
 20
84.643234937672375
 30
0.0
 40
12.5
  0
CIRCLE
  5
1772
  8
0
 10
197.8362456264615
 20
84.643234937672375
 30
0.0
 40
4.0
  0
CIRCLE
  5
1777
  8
0
 10
197.8362456264615
 20
84.643234937672332
 30
0.0
 40
2.75
  0
CIRCLE
  5
1778
  8
0
 10
197.8362456264615
 20
84.643234937672304
 30
0.0
 40
2.5
  0
LINE
  5
194D
  8
1
 10
77.186530818587698
 20
204.14233096828511
 30
0.0
 11
77.186530818587698
 21
159.6432349376723
 31
0.0
  0
CIRCLE
  5
1959
  8
0
 10
197.8362456264615
 20
276.64323645759242
 30
0.0
 40
18.5
  0
LINE
  5
196D
  8
1
 10
172.8362456264615
 20
276.64323645759242
 30
0.0
 11
279.3362456238288
 21
276.64323645759248
 31
0.0
  0
LINE
  5
196E
  8
1
 10
197.8362456264615
 20
251.64323645759239
 30
0.0
 11
197.8362456264615
 21
301.64323645759242
 31
0.0
  0
LINE
  5
197D
  8
1
 10
188.29030408044329
 20
75.097293391653793
 30
0.0
 11
194.6542651111221
 21
81.461254422332885
 31
0.0
  0
LINE
  5
197E
  8
1
 10
207.38218717248
 20
75.097293391654034
 30
0.0
 11
201.01822614180119
 21
81.461254422333056
 31
0.0
  0
LINE
  5
197F
  8
1
 10
207.3821871724798
 20
94.189176483690815
 30
0.0
 11
201.01822614180099
 21
87.825215453011765
 31
0.0
  0
LINE
  5
1980
  8
1
 10
188.29030408044329
 20
94.189176483690744
 30
0.0
 11
194.6542651111221
 21
87.825215453011722
 31
0.0
  0
LINE
  5
1981
  8
1
 10
197.8362456264615
 20
59.643234937672382
 30
0.0
 11
197.8362456264615
 21
109.6432349376723
 31
0.0
  0
LINE
  5
1982
  8
1
 10
172.8362456264615
 20
84.643234937672304
 30
0.0
 11
279.3362456238288
 21
84.643234937672304
 31
0.0
  0
CIRCLE
  5
198B
  8
1
 10
197.8362456264615
 20
84.643234937672304
 30
0.0
 40
8.999999999999952
  0
LINE
  5
19C7
  8
1
 10
349.70865013642771
 20
189.1423309981607
 30
0.0
 11
386.70865061326481
 21
189.1423309981607
 31
0.0
  0
LINE
  5
19DA
  8
1
 10
368.20865037484589
 20
204.14233081565831
 30
0.0
 11
368.20865037484577
 21
159.6432349376723
 31
0.0
  0
LINE
  5
1A4E
  8
1
 10
197.8362456264615
 20
201.64323645759239
 30
0.0
 11
197.8362456264615
 21
159.6432349376723
 31
0.0
  0
LINE
  5
1A50
  8
1
 10
175.0510267339163
 20
189.14233289921441
 30
0.0
 11
279.3362605871618
 21
189.14233289921441
 31
0.0
  0
LINE
  5
1A51
  8
0
 10
361.81817284418781
 20
176.14233064580409
 30
0.0
 11
366.70929669967433
 21
173.14233108538841
 31
0.0
  0
LINE
  5
1A52
  8
0
 10
361.81817284418781
 20
176.14233064580409
 30
0.0
 11
366.70929669967433
 21
179.1423302062199
 31
0.0
  0
POLYLINE
  5
1BB0
  8
0
 10
213.8577237238209
 20
193.39323645759069
 30
0.0
 66
     1
 70
     8
  0
VERTEX
  8
0
  5
1D04
 10
213.858
 20
193.393
 30
0.000000
  70
    32
  0
VERTEX
  8
0
  5
1D05
 10
213.795
 20
193.392
 30
0.000000
  70
    32
  0
VERTEX
  8
0
  5
1D06
 10
213.733
 20
193.388
 30
0.000000
  70
    32
  0
VERTEX
  8
0
  5
1D07
 10
213.670
 20
193.382
 30
0.000000
  70
    32
  0
VERTEX
  8
0
  5
1D08
 10
213.608
 20
193.373
 30
0.000000
  70
    32
  0
VERTEX
  8
0
  5
1D09
 10
213.545
 20
193.361
 30
0.000000
  70
    32
  0
VERTEX
  8
0
  5
1D0A
 10
213.483
 20
193.347
 30
0.000000
  70
    32
  0
VERTEX
  8
0
  5
1D0B
 10
213.422
 20
193.331
 30
0.000000
  70
    32
  0
VERTEX
  8
0
  5
1D0C
 10
213.360
 20
193.312
 30
0.000000
  70
    32
  0
VERTEX
  8
0
  5
1D0D
 10
213.299
 20
193.290
 30
0.000000
  70
    32
  0
VERTEX
  8
0
  5
1D0E
 10
213.238
 20
193.266
 30
0.000000
  70
    32
  0
VERTEX
  8
0
  5
1D0F
 10
213.177
 20
193.239
 30
0.000000
  70
    32
  0
VERTEX
  8
0
  5
1D10
 10
213.117
 20
193.210
 30
0.000000
  70
    32
  0
VERTEX
  8
0
  5
1D11
 10
213.057
 20
193.179
 30
0.000000
  70
    32
  0
VERTEX
  8
0
  5
1D12
 10
212.998
 20
193.145
 30
0.000000
  70
    32
  0
VERTEX
  8
0
  5
1D13
 10
212.940
 20
193.108
 30
0.000000
  70
    32
  0
VERTEX
  8
0
  5
1D14
 10
212.881
 20
193.070
 30
0.000000
  70
    32
  0
VERTEX
  8
0
  5
1D15
 10
212.824
 20
193.029
 30
0.000000
  70
    32
  0
VERTEX
  8
0
  5
1D16
 10
212.767
 20
192.985
 30
0.000000
  70
    32
  0
VERTEX
  8
0
  5
1D17
 10
212.711
 20
192.939
 30
0.000000
  70
    32
  0
VERTEX
  8
0
  5
1D18
 10
212.655
 20
192.891
 30
0.000000
  70
    32
  0
VERTEX
  8
0
  5
1D19
 10
212.600
 20
192.841
 30
0.000000
  70
    32
  0
VERTEX
  8
0
  5
1D1A
 10
212.546
 20
192.789
 30
0.000000
  70
    32
  0
VERTEX
  8
0
  5
1D1B
 10
212.493
 20
192.734
 30
0.000000
  70
    32
  0
VERTEX
  8
0
  5
1D1C
 10
212.440
 20
192.677
 30
0.000000
  70
    32
  0
VERTEX
  8
0
  5
1D1D
 10
212.389
 20
192.618
 30
0.000000
  70
    32
  0
VERTEX
  8
0
  5
1D1E
 10
212.338
 20
192.557
 30
0.000000
  70
    32
  0
VERTEX
  8
0
  5
1D1F
 10
212.288
 20
192.494
 30
0.000000
  70
    32
  0
VERTEX
  8
0
  5
1D20
 10
212.239
 20
192.429
 30
0.000000
  70
    32
  0
VERTEX
  8
0
  5
1D21
 10
212.191
 20
192.361
 30
0.000000
  70
    32
  0
VERTEX
  8
0
  5
1D22
 10
212.144
 20
192.292
 30
0.000000
  70
    32
  0
VERTEX
  8
0
  5
1D23
 10
212.098
 20
192.221
 30
0.000000
  70
    32
  0
VERTEX
  8
0
  5
1D24
 10
212.054
 20
192.148
 30
0.000000
  70
    32
  0
VERTEX
  8
0
  5
1D25
 10
212.010
 20
192.074
 30
0.000000
  70
    32
  0
VERTEX
  8
0
  5
1D26
 10
211.967
 20
191.997
 30
0.000000
  70
    32
  0
VERTEX
  8
0
  5
1D27
 10
211.926
 20
191.919
 30
0.000000
  70
    32
  0
VERTEX
  8
0
  5
1D28
 10
211.886
 20
191.839
 30
0.000000
  70
    32
  0
VERTEX
  8
0
  5
1D29
 10
211.846
 20
191.758
 30
0.000000
  70
    32
  0
VERTEX
  8
0
  5
1D2A
 10
211.808
 20
191.675
 30
0.000000
  70
    32
  0
VERTEX
  8
0
  5
1D2B
 10
211.772
 20
191.590
 30
0.000000
  70
    32
  0
VERTEX
  8
0
  5
1D2C
 10
211.736
 20
191.504
 30
0.000000
  70
    32
  0
VERTEX
  8
0
  5
1D2D
 10
211.702
 20
191.417
 30
0.000000
  70
    32
  0
VERTEX
  8
0
  5
1D2E
 10
211.669
 20
191.328
 30
0.000000
  70
    32
  0
VERTEX
  8
0
  5
1D2F
 10
211.638
 20
191.238
 30
0.000000
  70
    32
  0
VERTEX
  8
0
  5
1D30
 10
211.608
 20
191.147
 30
0.000000
  70
    32
  0
VERTEX
  8
0
  5
1D31
 10
211.579
 20
191.054
 30
0.000000
  70
    32
  0
VERTEX
  8
0
  5
1D32
 10
211.551
 20
190.960
 30
0.000000
  70
    32
  0
VERTEX
  8
0
  5
1D33
 10
211.525
 20
190.866
 30
0.000000
  70
    32
  0
VERTEX
  8
0
  5
1D34
 10
211.501
 20
190.770
 30
0.000000
  70
    32
  0
VERTEX
  8
0
  5
1D35
 10
211.477
 20
190.673
 30
0.000000
  70
    32
  0
VERTEX
  8
0
  5
1D36
 10
211.456
 20
190.575
 30
0.000000
  70
    32
  0
VERTEX
  8
0
  5
1D37
 10
211.435
 20
190.476
 30
0.000000
  70
    32
  0
VERTEX
  8
0
  5
1D38
 10
211.416
 20
190.377
 30
0.000000
  70
    32
  0
VERTEX
  8
0
  5
1D39
 10
211.399
 20
190.277
 30
0.000000
  70
    32
  0
VERTEX
  8
0
  5
1D3A
 10
211.383
 20
190.176
 30
0.000000
  70
    32
  0
VERTEX
  8
0
  5
1D3B
 10
211.368
 20
190.074
 30
0.000000
  70
    32
  0
VERTEX
  8
0
  5
1D3C
 10
211.355
 20
189.972
 30
0.000000
  70
    32
  0
VERTEX
  8
0
  5
1D3D
 10
211.344
 20
189.870
 30
0.000000
  70
    32
  0
VERTEX
  8
0
  5
1D3E
 10
211.334
 20
189.767
 30
0.000000
  70
    32
  0
VERTEX
  8
0
  5
1D3F
 10
211.326
 20
189.663
 30
0.000000
  70
    32
  0
VERTEX
  8
0
  5
1D40
 10
211.319
 20
189.560
 30
0.000000
  70
    32
  0
VERTEX
  8
0
  5
1D41
 10
211.313
 20
189.456
 30
0.000000
  70
    32
  0
VERTEX
  8
0
  5
1D42
 10
211.309
 20
189.352
 30
0.000000
  70
    32
  0
VERTEX
  8
0
  5
1D43
 10
211.307
 20
189.248
 30
0.000000
  70
    32
  0
VERTEX
  8
0
  5
1D44
 10
211.306
 20
189.143
 30
0.000000
  70
    32
  0
VERTEX
  8
0
  5
1D45
 10
211.307
 20
189.039
 30
0.000000
  70
    32
  0
VERTEX
  8
0
  5
1D46
 10
211.309
 20
188.935
 30
0.000000
  70
    32
  0
VERTEX
  8
0
  5
1D47
 10
211.313
 20
188.831
 30
0.000000
  70
    32
  0
VERTEX
  8
0
  5
1D48
 10
211.319
 20
188.727
 30
0.000000
  70
    32
  0
VERTEX
  8
0
  5
1D49
 10
211.326
 20
188.623
 30
0.000000
  70
    32
  0
VERTEX
  8
0
  5
1D4A
 10
211.334
 20
188.520
 30
0.000000
  70
    32
  0
VERTEX
  8
0
  5
1D4B
 10
211.344
 20
188.417
 30
0.000000
  70
    32
  0
VERTEX
  8
0
  5
1D4C
 10
211.355
 20
188.314
 30
0.000000
  70
    32
  0
VERTEX
  8
0
  5
1D4D
 10
211.368
 20
188.212
 30
0.000000
  70
    32
  0
VERTEX
  8
0
  5
1D4E
 10
211.383
 20
188.111
 30
0.000000
  70
    32
  0
VERTEX
  8
0
  5
1D4F
 10
211.399
 20
188.010
 30
0.000000
  70
    32
  0
VERTEX
  8
0
  5
1D50
 10
211.416
 20
187.910
 30
0.000000
  70
    32
  0
VERTEX
  8
0
  5
1D51
 10
211.435
 20
187.810
 30
0.000000
  70
    32
  0
VERTEX
  8
0
  5
1D52
 10
211.456
 20
187.711
 30
0.000000
  70
    32
  0
VERTEX
  8
0
  5
1D53
 10
211.477
 20
187.614
 30
0.000000
  70
    32
  0
VERTEX
  8
0
  5
1D54
 10
211.501
 20
187.517
 30
0.000000
  70
    32
  0
VERTEX
  8
0
  5
1D55
 10
211.525
 20
187.421
 30
0.000000
  70
    32
  0
VERTEX
  8
0
  5
1D56
 10
211.551
 20
187.326
 30
0.000000
  70
    32
  0
VERTEX
  8
0
  5
1D57
 10
211.579
 20
187.232
 30
0.000000
  70
    32
  0
VERTEX
  8
0
  5
1D58
 10
211.608
 20
187.140
 30
0.000000
  70
    32
  0
VERTEX
  8
0
  5
1D59
 10
211.638
 20
187.048
 30
0.000000
  70
    32
  0
VERTEX
  8
0
  5
1D5A
 10
211.669
 20
186.958
 30
0.000000
  70
    32
  0
VERTEX
  8
0
  5
1D5B
 10
211.702
 20
186.869
 30
0.000000
  70
    32
  0
VERTEX
  8
0
  5
1D5C
 10
211.736
 20
186.782
 30
0.000000
  70
    32
  0
VERTEX
  8
0
  5
1D5D
 10
211.772
 20
186.696
 30
0.000000
  70
    32
  0
VERTEX
  8
0
  5
1D5E
 10
211.808
 20
186.612
 30
0.000000
  70
    32
  0
VERTEX
  8
0
  5
1D5F
 10
211.846
 20
186.529
 30
0.000000
  70
    32
  0
VERTEX
  8
0
  5
1D60
 10
211.886
 20
186.447
 30
0.000000
  70
    32
  0
VERTEX
  8
0
  5
1D61
 10
211.926
 20
186.367
 30
0.000000
  70
    32
  0
VERTEX
  8
0
  5
1D62
 10
211.967
 20
186.289
 30
0.000000
  70
    32
  0
VERTEX
  8
0
  5
1D63
 10
212.010
 20
186.213
 30
0.000000
  70
    32
  0
VERTEX
  8
0
  5
1D64
 10
212.054
 20
186.138
 30
0.000000
  70
    32
  0
VERTEX
  8
0
  5
1D65
 10
212.098
 20
186.065
 30
0.000000
  70
    32
  0
VERTEX
  8
0
  5
1D66
 10
212.144
 20
185.994
 30
0.000000
  70
    32
  0
VERTEX
  8
0
  5
1D67
 10
212.191
 20
185.925
 30
0.000000
  70
    32
  0
VERTEX
  8
0
  5
1D68
 10
212.239
 20
185.858
 30
0.000000
  70
    32
  0
VERTEX
  8
0
  5
1D69
 10
212.288
 20
185.793
 30
0.000000
  70
    32
  0
VERTEX
  8
0
  5
1D6A
 10
212.338
 20
185.730
 30
0.000000
  70
    32
  0
VERTEX
  8
0
  5
1D6B
 10
212.389
 20
185.669
 30
0.000000
  70
    32
  0
VERTEX
  8
0
  5
1D6C
 10
212.440
 20
185.609
 30
0.000000
  70
    32
  0
VERTEX
  8
0
  5
1D6D
 10
212.493
 20
185.553
 30
0.000000
  70
    32
  0
VERTEX
  8
0
  5
1D6E
 10
212.546
 20
185.498
 30
0.000000
  70
    32
  0
VERTEX
  8
0
  5
1D6F
 10
212.600
 20
185.445
 30
0.000000
  70
    32
  0
VERTEX
  8
0
  5
1D70
 10
212.655
 20
185.395
 30
0.000000
  70
    32
  0
VERTEX
  8
0
  5
1D71
 10
212.711
 20
185.347
 30
0.000000
  70
    32
  0
VERTEX
  8
0
  5
1D72
 10
212.767
 20
185.301
 30
0.000000
  70
    32
  0
VERTEX
  8
0
  5
1D73
 10
212.824
 20
185.258
 30
0.000000
  70
    32
  0
VERTEX
  8
0
  5
1D74
 10
212.881
 20
185.217
 30
0.000000
  70
    32
  0
VERTEX
  8
0
  5
1D75
 10
212.940
 20
185.178
 30
0.000000
  70
    32
  0
VERTEX
  8
0
  5
1D76
 10
212.998
 20
185.142
 30
0.000000
  70
    32
  0
VERTEX
  8
0
  5
1D77
 10
213.057
 20
185.108
 30
0.000000
  70
    32
  0
VERTEX
  8
0
  5
1D78
 10
213.117
 20
185.076
 30
0.000000
  70
    32
  0
VERTEX
  8
0
  5
1D79
 10
213.177
 20
185.047
 30
0.000000
  70
    32
  0
VERTEX
  8
0
  5
1D7A
 10
213.238
 20
185.021
 30
0.000000
  70
    32
  0
VERTEX
  8
0
  5
1D7B
 10
213.299
 20
184.997
 30
0.000000
  70
    32
  0
VERTEX
  8
0
  5
1D7C
 10
213.360
 20
184.975
 30
0.000000
  70
    32
  0
VERTEX
  8
0
  5
1D7D
 10
213.422
 20
184.956
 30
0.000000
  70
    32
  0
VERTEX
  8
0
  5
1D7E
 10
213.483
 20
184.939
 30
0.000000
  70
    32
  0
VERTEX
  8
0
  5
1D7F
 10
213.545
 20
184.925
 30
0.000000
  70
    32
  0
VERTEX
  8
0
  5
1D80
 10
213.608
 20
184.914
 30
0.000000
  70
    32
  0
VERTEX
  8
0
  5
1D81
 10
213.670
 20
184.905
 30
0.000000
  70
    32
  0
VERTEX
  8
0
  5
1D82
 10
213.733
 20
184.898
 30
0.000000
  70
    32
  0
VERTEX
  8
0
  5
1D83
 10
213.795
 20
184.895
 30
0.000000
  70
    32
  0
VERTEX
  8
0
  5
1D84
 10
213.858
 20
184.893
 30
0.000000
  70
    32
  0
SEQEND
  8
0
  5
1D85
  0
POLYLINE
  5
1BB1
  8
0
 10
213.8577237238209
 20
184.89323645759069
 30
0.0
 66
     1
 70
     8
  0
VERTEX
  8
0
  5
1D86
 10
213.858
 20
184.893
 30
0.000000
  70
    32
  0
VERTEX
  8
0
  5
1D87
 10
213.899
 20
184.895
 30
0.000000
  70
    32
  0
VERTEX
  8
0
  5
1D88
 10
213.941
 20
184.898
 30
0.000000
  70
    32
  0
VERTEX
  8
0
  5
1D89
 10
213.983
 20
184.905
 30
0.000000
  70
    32
  0
VERTEX
  8
0
  5
1D8A
 10
214.024
 20
184.914
 30
0.000000
  70
    32
  0
VERTEX
  8
0
  5
1D8B
 10
214.065
 20
184.925
 30
0.000000
  70
    32
  0
VERTEX
  8
0
  5
1D8C
 10
214.107
 20
184.939
 30
0.000000
  70
    32
  0
VERTEX
  8
0
  5
1D8D
 10
214.148
 20
184.956
 30
0.000000
  70
    32
  0
VERTEX
  8
0
  5
1D8E
 10
214.189
 20
184.975
 30
0.000000
  70
    32
  0
VERTEX
  8
0
  5
1D8F
 10
214.229
 20
184.997
 30
0.000000
  70
    32
  0
VERTEX
  8
0
  5
1D90
 10
214.270
 20
185.021
 30
0.000000
  70
    32
  0
VERTEX
  8
0
  5
1D91
 10
214.310
 20
185.047
 30
0.000000
  70
    32
  0
VERTEX
  8
0
  5
1D92
 10
214.350
 20
185.076
 30
0.000000
  70
    32
  0
VERTEX
  8
0
  5
1D93
 10
214.390
 20
185.108
 30
0.000000
  70
    32
  0
VERTEX
  8
0
  5
1D94
 10
214.429
 20
185.142
 30
0.000000
  70
    32
  0
VERTEX
  8
0
  5
1D95
 10
214.468
 20
185.178
 30
0.000000
  70
    32
  0
VERTEX
  8
0
  5
1D96
 10
214.507
 20
185.217
 30
0.000000
  70
    32
  0
VERTEX
  8
0
  5
1D97
 10
214.545
 20
185.258
 30
0.000000
  70
    32
  0
VERTEX
  8
0
  5
1D98
 10
214.583
 20
185.301
 30
0.000000
  70
    32
  0
VERTEX
  8
0
  5
1D99
 10
214.620
 20
185.347
 30
0.000000
  70
    32
  0
VERTEX
  8
0
  5
1D9A
 10
214.657
 20
185.395
 30
0.000000
  70
    32
  0
VERTEX
  8
0
  5
1D9B
 10
214.694
 20
185.445
 30
0.000000
  70
    32
  0
VERTEX
  8
0
  5
1D9C
 10
214.730
 20
185.498
 30
0.000000
  70
    32
  0
VERTEX
  8
0
  5
1D9D
 10
214.765
 20
185.553
 30
0.000000
  70
    32
  0
VERTEX
  8
0
  5
1D9E
 10
214.800
 20
185.609
 30
0.000000
  70
    32
  0
VERTEX
  8
0
  5
1D9F
 10
214.835
 20
185.669
 30
0.000000
  70
    32
  0
VERTEX
  8
0
  5
1DA0
 10
214.868
 20
185.730
 30
0.000000
  70
    32
  0
VERTEX
  8
0
  5
1DA1
 10
214.901
 20
185.793
 30
0.000000
  70
    32
  0
VERTEX
  8
0
  5
1DA2
 10
214.934
 20
185.858
 30
0.000000
  70
    32
  0
VERTEX
  8
0
  5
1DA3
 10
214.966
 20
185.925
 30
0.000000
  70
    32
  0
VERTEX
  8
0
  5
1DA4
 10
214.997
 20
185.994
 30
0.000000
  70
    32
  0
VERTEX
  8
0
  5
1DA5
 10
215.028
 20
186.065
 30
0.000000
  70
    32
  0
VERTEX
  8
0
  5
1DA6
 10
215.057
 20
186.138
 30
0.000000
  70
    32
  0
VERTEX
  8
0
  5
1DA7
 10
215.086
 20
186.213
 30
0.000000
  70
    32
  0
VERTEX
  8
0
  5
1DA8
 10
215.115
 20
186.289
 30
0.000000
  70
    32
  0
VERTEX
  8
0
  5
1DA9
 10
215.142
 20
186.367
 30
0.000000
  70
    32
  0
VERTEX
  8
0
  5
1DAA
 10
215.169
 20
186.447
 30
0.000000
  70
    32
  0
VERTEX
  8
0
  5
1DAB
 10
215.195
 20
186.529
 30
0.000000
  70
    32
  0
VERTEX
  8
0
  5
1DAC
 10
215.220
 20
186.612
 30
0.000000
  70
    32
  0
VERTEX
  8
0
  5
1DAD
 10
215.245
 20
186.696
 30
0.000000
  70
    32
  0
VERTEX
  8
0
  5
1DAE
 10
215.268
 20
186.782
 30
0.000000
  70
    32
  0
VERTEX
  8
0
  5
1DAF
 10
215.291
 20
186.869
 30
0.000000
  70
    32
  0
VERTEX
  8
0
  5
1DB0
 10
215.313
 20
186.958
 30
0.000000
  70
    32
  0
VERTEX
  8
0
  5
1DB1
 10
215.334
 20
187.048
 30
0.000000
  70
    32
  0
VERTEX
  8
0
  5
1DB2
 10
215.354
 20
187.140
 30
0.000000
  70
    32
  0
VERTEX
  8
0
  5
1DB3
 10
215.373
 20
187.232
 30
0.000000
  70
    32
  0
VERTEX
  8
0
  5
1DB4
 10
215.391
 20
187.326
 30
0.000000
  70
    32
  0
VERTEX
  8
0
  5
1DB5
 10
215.409
 20
187.421
 30
0.000000
  70
    32
  0
VERTEX
  8
0
  5
1DB6
 10
215.425
 20
187.517
 30
0.000000
  70
    32
  0
VERTEX
  8
0
  5
1DB7
 10
215.441
 20
187.614
 30
0.000000
  70
    32
  0
VERTEX
  8
0
  5
1DB8
 10
215.455
 20
187.711
 30
0.000000
  70
    32
  0
VERTEX
  8
0
  5
1DB9
 10
215.469
 20
187.810
 30
0.000000
  70
    32
  0
VERTEX
  8
0
  5
1DBA
 10
215.481
 20
187.910
 30
0.000000
  70
    32
  0
VERTEX
  8
0
  5
1DBB
 10
215.493
 20
188.010
 30
0.000000
  70
    32
  0
VERTEX
  8
0
  5
1DBC
 10
215.503
 20
188.111
 30
0.000000
  70
    32
  0
VERTEX
  8
0
  5
1DBD
 10
215.513
 20
188.212
 30
0.000000
  70
    32
  0
VERTEX
  8
0
  5
1DBE
 10
215.522
 20
188.314
 30
0.000000
  70
    32
  0
VERTEX
  8
0
  5
1DBF
 10
215.529
 20
188.417
 30
0.000000
  70
    32
  0
VERTEX
  8
0
  5
1DC0
 10
215.536
 20
188.520
 30
0.000000
  70
    32
  0
VERTEX
  8
0
  5
1DC1
 10
215.541
 20
188.623
 30
0.000000
  70
    32
  0
VERTEX
  8
0
  5
1DC2
 10
215.546
 20
188.727
 30
0.000000
  70
    32
  0
VERTEX
  8
0
  5
1DC3
 10
215.550
 20
188.831
 30
0.000000
  70
    32
  0
VERTEX
  8
0
  5
1DC4
 10
215.552
 20
188.935
 30
0.000000
  70
    32
  0
VERTEX
  8
0
  5
1DC5
 10
215.554
 20
189.039
 30
0.000000
  70
    32
  0
VERTEX
  8
0
  5
1DC6
 10
215.554
 20
189.143
 30
0.000000
  70
    32
  0
VERTEX
  8
0
  5
1DC7
 10
215.554
 20
189.248
 30
0.000000
  70
    32
  0
VERTEX
  8
0
  5
1DC8
 10
215.552
 20
189.352
 30
0.000000
  70
    32
  0
VERTEX
  8
0
  5
1DC9
 10
215.550
 20
189.456
 30
0.000000
  70
    32
  0
VERTEX
  8
0
  5
1DCA
 10
215.546
 20
189.560
 30
0.000000
  70
    32
  0
VERTEX
  8
0
  5
1DCB
 10
215.541
 20
189.663
 30
0.000000
  70
    32
  0
VERTEX
  8
0
  5
1DCC
 10
215.536
 20
189.767
 30
0.000000
  70
    32
  0
VERTEX
  8
0
  5
1DCD
 10
215.529
 20
189.870
 30
0.000000
  70
    32
  0
VERTEX
  8
0
  5
1DCE
 10
215.522
 20
189.972
 30
0.000000
  70
    32
  0
VERTEX
  8
0
  5
1DCF
 10
215.513
 20
190.074
 30
0.000000
  70
    32
  0
VERTEX
  8
0
  5
1DD0
 10
215.503
 20
190.176
 30
0.000000
  70
    32
  0
VERTEX
  8
0
  5
1DD1
 10
215.493
 20
190.277
 30
0.000000
  70
    32
  0
VERTEX
  8
0
  5
1DD2
 10
215.481
 20
190.377
 30
0.000000
  70
    32
  0
VERTEX
  8
0
  5
1DD3
 10
215.469
 20
190.476
 30
0.000000
  70
    32
  0
VERTEX
  8
0
  5
1DD4
 10
215.455
 20
190.575
 30
0.000000
  70
    32
  0
VERTEX
  8
0
  5
1DD5
 10
215.441
 20
190.673
 30
0.000000
  70
    32
  0
VERTEX
  8
0
  5
1DD6
 10
215.425
 20
190.770
 30
0.000000
  70
    32
  0
VERTEX
  8
0
  5
1DD7
 10
215.409
 20
190.866
 30
0.000000
  70
    32
  0
VERTEX
  8
0
  5
1DD8
 10
215.391
 20
190.960
 30
0.000000
  70
    32
  0
VERTEX
  8
0
  5
1DD9
 10
215.373
 20
191.054
 30
0.000000
  70
    32
  0
VERTEX
  8
0
  5
1DDA
 10
215.354
 20
191.147
 30
0.000000
  70
    32
  0
VERTEX
  8
0
  5
1DDB
 10
215.334
 20
191.238
 30
0.000000
  70
    32
  0
VERTEX
  8
0
  5
1DDC
 10
215.313
 20
191.328
 30
0.000000
  70
    32
  0
VERTEX
  8
0
  5
1DDD
 10
215.291
 20
191.417
 30
0.000000
  70
    32
  0
VERTEX
  8
0
  5
1DDE
 10
215.268
 20
191.504
 30
0.000000
  70
    32
  0
VERTEX
  8
0
  5
1DDF
 10
215.245
 20
191.590
 30
0.000000
  70
    32
  0
VERTEX
  8
0
  5
1DE0
 10
215.220
 20
191.675
 30
0.000000
  70
    32
  0
VERTEX
  8
0
  5
1DE1
 10
215.195
 20
191.758
 30
0.000000
  70
    32
  0
VERTEX
  8
0
  5
1DE2
 10
215.169
 20
191.839
 30
0.000000
  70
    32
  0
VERTEX
  8
0
  5
1DE3
 10
215.142
 20
191.919
 30
0.000000
  70
    32
  0
VERTEX
  8
0
  5
1DE4
 10
215.115
 20
191.997
 30
0.000000
  70
    32
  0
VERTEX
  8
0
  5
1DE5
 10
215.086
 20
192.074
 30
0.000000
  70
    32
  0
VERTEX
  8
0
  5
1DE6
 10
215.057
 20
192.148
 30
0.000000
  70
    32
  0
VERTEX
  8
0
  5
1DE7
 10
215.028
 20
192.221
 30
0.000000
  70
    32
  0
VERTEX
  8
0
  5
1DE8
 10
214.997
 20
192.292
 30
0.000000
  70
    32
  0
VERTEX
  8
0
  5
1DE9
 10
214.966
 20
192.361
 30
0.000000
  70
    32
  0
VERTEX
  8
0
  5
1DEA
 10
214.934
 20
192.429
 30
0.000000
  70
    32
  0
VERTEX
  8
0
  5
1DEB
 10
214.901
 20
192.494
 30
0.000000
  70
    32
  0
VERTEX
  8
0
  5
1DEC
 10
214.868
 20
192.557
 30
0.000000
  70
    32
  0
VERTEX
  8
0
  5
1DED
 10
214.835
 20
192.618
 30
0.000000
  70
    32
  0
VERTEX
  8
0
  5
1DEE
 10
214.800
 20
192.677
 30
0.000000
  70
    32
  0
VERTEX
  8
0
  5
1DEF
 10
214.765
 20
192.734
 30
0.000000
  70
    32
  0
VERTEX
  8
0
  5
1DF0
 10
214.730
 20
192.789
 30
0.000000
  70
    32
  0
VERTEX
  8
0
  5
1DF1
 10
214.694
 20
192.841
 30
0.000000
  70
    32
  0
VERTEX
  8
0
  5
1DF2
 10
214.657
 20
192.891
 30
0.000000
  70
    32
  0
VERTEX
  8
0
  5
1DF3
 10
214.620
 20
192.939
 30
0.000000
  70
    32
  0
VERTEX
  8
0
  5
1DF4
 10
214.583
 20
192.985
 30
0.000000
  70
    32
  0
VERTEX
  8
0
  5
1DF5
 10
214.545
 20
193.029
 30
0.000000
  70
    32
  0
VERTEX
  8
0
  5
1DF6
 10
214.507
 20
193.070
 30
0.000000
  70
    32
  0
VERTEX
  8
0
  5
1DF7
 10
214.468
 20
193.108
 30
0.000000
  70
    32
  0
VERTEX
  8
0
  5
1DF8
 10
214.429
 20
193.145
 30
0.000000
  70
    32
  0
VERTEX
  8
0
  5
1DF9
 10
214.390
 20
193.179
 30
0.000000
  70
    32
  0
VERTEX
  8
0
  5
1DFA
 10
214.350
 20
193.210
 30
0.000000
  70
    32
  0
VERTEX
  8
0
  5
1DFB
 10
214.310
 20
193.239
 30
0.000000
  70
    32
  0
VERTEX
  8
0
  5
1DFC
 10
214.270
 20
193.266
 30
0.000000
  70
    32
  0
VERTEX
  8
0
  5
1DFD
 10
214.229
 20
193.290
 30
0.000000
  70
    32
  0
VERTEX
  8
0
  5
1DFE
 10
214.189
 20
193.312
 30
0.000000
  70
    32
  0
VERTEX
  8
0
  5
1DFF
 10
214.148
 20
193.331
 30
0.000000
  70
    32
  0
VERTEX
  8
0
  5
1E00
 10
214.107
 20
193.347
 30
0.000000
  70
    32
  0
VERTEX
  8
0
  5
1E01
 10
214.065
 20
193.361
 30
0.000000
  70
    32
  0
VERTEX
  8
0
  5
1E02
 10
214.024
 20
193.373
 30
0.000000
  70
    32
  0
VERTEX
  8
0
  5
1E03
 10
213.983
 20
193.382
 30
0.000000
  70
    32
  0
VERTEX
  8
0
  5
1E04
 10
213.941
 20
193.388
 30
0.000000
  70
    32
  0
VERTEX
  8
0
  5
1E05
 10
213.899
 20
193.392
 30
0.000000
  70
    32
  0
VERTEX
  8
0
  5
1E06
 10
213.858
 20
193.393
 30
0.000000
  70
    32
  0
SEQEND
  8
0
  5
1E07
  0
POLYLINE
  5
1BB2
  8
3
 10
212.29887840970096
 20
186.64323645759069
 30
0.0
 66
     1
 70
     8
  0
VERTEX
  8
3
  5
1E08
 10
212.299
 20
186.643
 30
0.000000
  70
    32
  0
VERTEX
  8
3
  5
1E09
 10
212.337
 20
186.644
 30
0.000000
  70
    32
  0
VERTEX
  8
3
  5
1E0A
 10
212.375
 20
186.646
 30
0.000000
  70
    32
  0
VERTEX
  8
3
  5
1E0B
 10
212.414
 20
186.650
 30
0.000000
  70
    32
  0
VERTEX
  8
3
  5
1E0C
 10
212.452
 20
186.655
 30
0.000000
  70
    32
  0
VERTEX
  8
3
  5
1E0D
 10
212.490
 20
186.662
 30
0.000000
  70
    32
  0
VERTEX
  8
3
  5
1E0E
 10
212.528
 20
186.670
 30
0.000000
  70
    32
  0
VERTEX
  8
3
  5
1E0F
 10
212.565
 20
186.680
 30
0.000000
  70
    32
  0
VERTEX
  8
3
  5
1E10
 10
212.603
 20
186.691
 30
0.000000
  70
    32
  0
VERTEX
  8
3
  5
1E11
 10
212.640
 20
186.704
 30
0.000000
  70
    32
  0
VERTEX
  8
3
  5
1E12
 10
212.678
 20
186.718
 30
0.000000
  70
    32
  0
VERTEX
  8
3
  5
1E13
 10
212.715
 20
186.734
 30
0.000000
  70
    32
  0
VERTEX
  8
3
  5
1E14
 10
212.751
 20
186.751
 30
0.000000
  70
    32
  0
VERTEX
  8
3
  5
1E15
 10
212.788
 20
186.769
 30
0.000000
  70
    32
  0
VERTEX
  8
3
  5
1E16
 10
212.824
 20
186.789
 30
0.000000
  70
    32
  0
VERTEX
  8
3
  5
1E17
 10
212.860
 20
186.811
 30
0.000000
  70
    32
  0
VERTEX
  8
3
  5
1E18
 10
212.895
 20
186.834
 30
0.000000
  70
    32
  0
VERTEX
  8
3
  5
1E19
 10
212.931
 20
186.858
 30
0.000000
  70
    32
  0
VERTEX
  8
3
  5
1E1A
 10
212.965
 20
186.883
 30
0.000000
  70
    32
  0
VERTEX
  8
3
  5
1E1B
 10
213.000
 20
186.910
 30
0.000000
  70
    32
  0
VERTEX
  8
3
  5
1E1C
 10
213.034
 20
186.938
 30
0.000000
  70
    32
  0
VERTEX
  8
3
  5
1E1D
 10
213.067
 20
186.968
 30
0.000000
  70
    32
  0
VERTEX
  8
3
  5
1E1E
 10
213.100
 20
186.999
 30
0.000000
  70
    32
  0
VERTEX
  8
3
  5
1E1F
 10
213.133
 20
187.031
 30
0.000000
  70
    32
  0
VERTEX
  8
3
  5
1E20
 10
213.165
 20
187.065
 30
0.000000
  70
    32
  0
VERTEX
  8
3
  5
1E21
 10
213.196
 20
187.099
 30
0.000000
  70
    32
  0
VERTEX
  8
3
  5
1E22
 10
213.227
 20
187.135
 30
0.000000
  70
    32
  0
VERTEX
  8
3
  5
1E23
 10
213.258
 20
187.172
 30
0.000000
  70
    32
  0
VERTEX
  8
3
  5
1E24
 10
213.288
 20
187.211
 30
0.000000
  70
    32
  0
VERTEX
  8
3
  5
1E25
 10
213.317
 20
187.250
 30
0.000000
  70
    32
  0
VERTEX
  8
3
  5
1E26
 10
213.346
 20
187.291
 30
0.000000
  70
    32
  0
VERTEX
  8
3
  5
1E27
 10
213.374
 20
187.333
 30
0.000000
  70
    32
  0
VERTEX
  8
3
  5
1E28
 10
213.401
 20
187.375
 30
0.000000
  70
    32
  0
VERTEX
  8
3
  5
1E29
 10
213.428
 20
187.419
 30
0.000000
  70
    32
  0
VERTEX
  8
3
  5
1E2A
 10
213.454
 20
187.464
 30
0.000000
  70
    32
  0
VERTEX
  8
3
  5
1E2B
 10
213.479
 20
187.510
 30
0.000000
  70
    32
  0
VERTEX
  8
3
  5
1E2C
 10
213.504
 20
187.557
 30
0.000000
  70
    32
  0
VERTEX
  8
3
  5
1E2D
 10
213.528
 20
187.605
 30
0.000000
  70
    32
  0
VERTEX
  8
3
  5
1E2E
 10
213.551
 20
187.654
 30
0.000000
  70
    32
  0
VERTEX
  8
3
  5
1E2F
 10
213.573
 20
187.704
 30
0.000000
  70
    32
  0
VERTEX
  8
3
  5
1E30
 10
213.595
 20
187.754
 30
0.000000
  70
    32
  0
VERTEX
  8
3
  5
1E31
 10
213.616
 20
187.806
 30
0.000000
  70
    32
  0
VERTEX
  8
3
  5
1E32
 10
213.636
 20
187.858
 30
0.000000
  70
    32
  0
VERTEX
  8
3
  5
1E33
 10
213.655
 20
187.911
 30
0.000000
  70
    32
  0
VERTEX
  8
3
  5
1E34
 10
213.674
 20
187.965
 30
0.000000
  70
    32
  0
VERTEX
  8
3
  5
1E35
 10
213.691
 20
188.019
 30
0.000000
  70
    32
  0
VERTEX
  8
3
  5
1E36
 10
213.708
 20
188.074
 30
0.000000
  70
    32
  0
VERTEX
  8
3
  5
1E37
 10
213.724
 20
188.130
 30
0.000000
  70
    32
  0
VERTEX
  8
3
  5
1E38
 10
213.739
 20
188.187
 30
0.000000
  70
    32
  0
VERTEX
  8
3
  5
1E39
 10
213.753
 20
188.243
 30
0.000000
  70
    32
  0
VERTEX
  8
3
  5
1E3A
 10
213.767
 20
188.301
 30
0.000000
  70
    32
  0
VERTEX
  8
3
  5
1E3B
 10
213.779
 20
188.359
 30
0.000000
  70
    32
  0
VERTEX
  8
3
  5
1E3C
 10
213.791
 20
188.418
 30
0.000000
  70
    32
  0
VERTEX
  8
3
  5
1E3D
 10
213.801
 20
188.476
 30
0.000000
  70
    32
  0
VERTEX
  8
3
  5
1E3E
 10
213.811
 20
188.536
 30
0.000000
  70
    32
  0
VERTEX
  8
3
  5
1E3F
 10
213.820
 20
188.595
 30
0.000000
  70
    32
  0
VERTEX
  8
3
  5
1E40
 10
213.828
 20
188.656
 30
0.000000
  70
    32
  0
VERTEX
  8
3
  5
1E41
 10
213.835
 20
188.716
 30
0.000000
  70
    32
  0
VERTEX
  8
3
  5
1E42
 10
213.841
 20
188.776
 30
0.000000
  70
    32
  0
VERTEX
  8
3
  5
1E43
 10
213.846
 20
188.837
 30
0.000000
  70
    32
  0
VERTEX
  8
3
  5
1E44
 10
213.850
 20
188.898
 30
0.000000
  70
    32
  0
VERTEX
  8
3
  5
1E45
 10
213.853
 20
188.959
 30
0.000000
  70
    32
  0
VERTEX
  8
3
  5
1E46
 10
213.856
 20
189.021
 30
0.000000
  70
    32
  0
VERTEX
  8
3
  5
1E47
 10
213.857
 20
189.082
 30
0.000000
  70
    32
  0
VERTEX
  8
3
  5
1E48
 10
213.858
 20
189.143
 30
0.000000
  70
    32
  0
VERTEX
  8
3
  5
1E49
 10
213.857
 20
189.205
 30
0.000000
  70
    32
  0
VERTEX
  8
3
  5
1E4A
 10
213.856
 20
189.266
 30
0.000000
  70
    32
  0
VERTEX
  8
3
  5
1E4B
 10
213.853
 20
189.327
 30
0.000000
  70
    32
  0
VERTEX
  8
3
  5
1E4C
 10
213.850
 20
189.388
 30
0.000000
  70
    32
  0
VERTEX
  8
3
  5
1E4D
 10
213.846
 20
189.449
 30
0.000000
  70
    32
  0
VERTEX
  8
3
  5
1E4E
 10
213.841
 20
189.510
 30
0.000000
  70
    32
  0
VERTEX
  8
3
  5
1E4F
 10
213.835
 20
189.571
 30
0.000000
  70
    32
  0
VERTEX
  8
3
  5
1E50
 10
213.828
 20
189.631
 30
0.000000
  70
    32
  0
VERTEX
  8
3
  5
1E51
 10
213.820
 20
189.691
 30
0.000000
  70
    32
  0
VERTEX
  8
3
  5
1E52
 10
213.811
 20
189.751
 30
0.000000
  70
    32
  0
VERTEX
  8
3
  5
1E53
 10
213.801
 20
189.810
 30
0.000000
  70
    32
  0
VERTEX
  8
3
  5
1E54
 10
213.791
 20
189.869
 30
0.000000
  70
    32
  0
VERTEX
  8
3
  5
1E55
 10
213.779
 20
189.927
 30
0.000000
  70
    32
  0
VERTEX
  8
3
  5
1E56
 10
213.767
 20
189.985
 30
0.000000
  70
    32
  0
VERTEX
  8
3
  5
1E57
 10
213.753
 20
190.043
 30
0.000000
  70
    32
  0
VERTEX
  8
3
  5
1E58
 10
213.739
 20
190.100
 30
0.000000
  70
    32
  0
VERTEX
  8
3
  5
1E59
 10
213.724
 20
190.156
 30
0.000000
  70
    32
  0
VERTEX
  8
3
  5
1E5A
 10
213.708
 20
190.212
 30
0.000000
  70
    32
  0
VERTEX
  8
3
  5
1E5B
 10
213.691
 20
190.267
 30
0.000000
  70
    32
  0
VERTEX
  8
3
  5
1E5C
 10
213.674
 20
190.322
 30
0.000000
  70
    32
  0
VERTEX
  8
3
  5
1E5D
 10
213.655
 20
190.375
 30
0.000000
  70
    32
  0
VERTEX
  8
3
  5
1E5E
 10
213.636
 20
190.428
 30
0.000000
  70
    32
  0
VERTEX
  8
3
  5
1E5F
 10
213.616
 20
190.481
 30
0.000000
  70
    32
  0
VERTEX
  8
3
  5
1E60
 10
213.595
 20
190.532
 30
0.000000
  70
    32
  0
VERTEX
  8
3
  5
1E61
 10
213.573
 20
190.583
 30
0.000000
  70
    32
  0
VERTEX
  8
3
  5
1E62
 10
213.551
 20
190.632
 30
0.000000
  70
    32
  0
VERTEX
  8
3
  5
1E63
 10
213.528
 20
190.681
 30
0.000000
  70
    32
  0
VERTEX
  8
3
  5
1E64
 10
213.504
 20
190.729
 30
0.000000
  70
    32
  0
VERTEX
  8
3
  5
1E65
 10
213.479
 20
190.776
 30
0.000000
  70
    32
  0
VERTEX
  8
3
  5
1E66
 10
213.454
 20
190.822
 30
0.000000
  70
    32
  0
VERTEX
  8
3
  5
1E67
 10
213.428
 20
190.867
 30
0.000000
  70
    32
  0
VERTEX
  8
3
  5
1E68
 10
213.401
 20
190.911
 30
0.000000
  70
    32
  0
VERTEX
  8
3
  5
1E69
 10
213.374
 20
190.954
 30
0.000000
  70
    32
  0
VERTEX
  8
3
  5
1E6A
 10
213.346
 20
190.996
 30
0.000000
  70
    32
  0
VERTEX
  8
3
  5
1E6B
 10
213.317
 20
191.036
 30
0.000000
  70
    32
  0
VERTEX
  8
3
  5
1E6C
 10
213.288
 20
191.076
 30
0.000000
  70
    32
  0
VERTEX
  8
3
  5
1E6D
 10
213.258
 20
191.114
 30
0.000000
  70
    32
  0
VERTEX
  8
3
  5
1E6E
 10
213.227
 20
191.151
 30
0.000000
  70
    32
  0
VERTEX
  8
3
  5
1E6F
 10
213.196
 20
191.187
 30
0.000000
  70
    32
  0
VERTEX
  8
3
  5
1E70
 10
213.165
 20
191.222
 30
0.000000
  70
    32
  0
VERTEX
  8
3
  5
1E71
 10
213.133
 20
191.255
 30
0.000000
  70
    32
  0
VERTEX
  8
3
  5
1E72
 10
213.100
 20
191.288
 30
0.000000
  70
    32
  0
VERTEX
  8
3
  5
1E73
 10
213.067
 20
191.318
 30
0.000000
  70
    32
  0
VERTEX
  8
3
  5
1E74
 10
213.034
 20
191.348
 30
0.000000
  70
    32
  0
VERTEX
  8
3
  5
1E75
 10
213.000
 20
191.376
 30
0.000000
  70
    32
  0
VERTEX
  8
3
  5
1E76
 10
212.965
 20
191.403
 30
0.000000
  70
    32
  0
VERTEX
  8
3
  5
1E77
 10
212.931
 20
191.429
 30
0.000000
  70
    32
  0
VERTEX
  8
3
  5
1E78
 10
212.895
 20
191.453
 30
0.000000
  70
    32
  0
VERTEX
  8
3
  5
1E79
 10
212.860
 20
191.476
 30
0.000000
  70
    32
  0
VERTEX
  8
3
  5
1E7A
 10
212.824
 20
191.497
 30
0.000000
  70
    32
  0
VERTEX
  8
3
  5
1E7B
 10
212.788
 20
191.517
 30
0.000000
  70
    32
  0
VERTEX
  8
3
  5
1E7C
 10
212.751
 20
191.536
 30
0.000000
  70
    32
  0
VERTEX
  8
3
  5
1E7D
 10
212.715
 20
191.553
 30
0.000000
  70
    32
  0
VERTEX
  8
3
  5
1E7E
 10
212.678
 20
191.568
 30
0.000000
  70
    32
  0
VERTEX
  8
3
  5
1E7F
 10
212.640
 20
191.582
 30
0.000000
  70
    32
  0
VERTEX
  8
3
  5
1E80
 10
212.603
 20
191.595
 30
0.000000
  70
    32
  0
VERTEX
  8
3
  5
1E81
 10
212.565
 20
191.606
 30
0.000000
  70
    32
  0
VERTEX
  8
3
  5
1E82
 10
212.528
 20
191.616
 30
0.000000
  70
    32
  0
VERTEX
  8
3
  5
1E83
 10
212.490
 20
191.624
 30
0.000000
  70
    32
  0
VERTEX
  8
3
  5
1E84
 10
212.452
 20
191.631
 30
0.000000
  70
    32
  0
VERTEX
  8
3
  5
1E85
 10
212.414
 20
191.636
 30
0.000000
  70
    32
  0
VERTEX
  8
3
  5
1E86
 10
212.375
 20
191.640
 30
0.000000
  70
    32
  0
VERTEX
  8
3
  5
1E87
 10
212.337
 20
191.642
 30
0.000000
  70
    32
  0
VERTEX
  8
3
  5
1E88
 10
212.299
 20
191.643
 30
0.000000
  70
    32
  0
SEQEND
  8
3
  5
1E89
  0
POLYLINE
  5
1BB3
  8
3
 10
212.2988784097009
 20
191.64323645759069
 30
0.0
 66
     1
 70
     8
  0
VERTEX
  8
3
  5
1E8A
 10
212.299
 20
191.643
 30
0.000000
  70
    32
  0
VERTEX
  8
3
  5
1E8B
 10
212.275
 20
191.642
 30
0.000000
  70
    32
  0
VERTEX
  8
3
  5
1E8C
 10
212.250
 20
191.640
 30
0.000000
  70
    32
  0
VERTEX
  8
3
  5
1E8D
 10
212.226
 20
191.636
 30
0.000000
  70
    32
  0
VERTEX
  8
3
  5
1E8E
 10
212.202
 20
191.631
 30
0.000000
  70
    32
  0
VERTEX
  8
3
  5
1E8F
 10
212.177
 20
191.624
 30
0.000000
  70
    32
  0
VERTEX
  8
3
  5
1E90
 10
212.153
 20
191.616
 30
0.000000
  70
    32
  0
VERTEX
  8
3
  5
1E91
 10
212.129
 20
191.606
 30
0.000000
  70
    32
  0
VERTEX
  8
3
  5
1E92
 10
212.105
 20
191.595
 30
0.000000
  70
    32
  0
VERTEX
  8
3
  5
1E93
 10
212.081
 20
191.582
 30
0.000000
  70
    32
  0
VERTEX
  8
3
  5
1E94
 10
212.058
 20
191.568
 30
0.000000
  70
    32
  0
VERTEX
  8
3
  5
1E95
 10
212.034
 20
191.553
 30
0.000000
  70
    32
  0
VERTEX
  8
3
  5
1E96
 10
212.011
 20
191.536
 30
0.000000
  70
    32
  0
VERTEX
  8
3
  5
1E97
 10
211.988
 20
191.517
 30
0.000000
  70
    32
  0
VERTEX
  8
3
  5
1E98
 10
211.965
 20
191.497
 30
0.000000
  70
    32
  0
VERTEX
  8
3
  5
1E99
 10
211.942
 20
191.476
 30
0.000000
  70
    32
  0
VERTEX
  8
3
  5
1E9A
 10
211.919
 20
191.453
 30
0.000000
  70
    32
  0
VERTEX
  8
3
  5
1E9B
 10
211.897
 20
191.429
 30
0.000000
  70
    32
  0
VERTEX
  8
3
  5
1E9C
 10
211.875
 20
191.403
 30
0.000000
  70
    32
  0
VERTEX
  8
3
  5
1E9D
 10
211.853
 20
191.376
 30
0.000000
  70
    32
  0
VERTEX
  8
3
  5
1E9E
 10
211.831
 20
191.348
 30
0.000000
  70
    32
  0
VERTEX
  8
3
  5
1E9F
 10
211.810
 20
191.318
 30
0.000000
  70
    32
  0
VERTEX
  8
3
  5
1EA0
 10
211.789
 20
191.288
 30
0.000000
  70
    32
  0
VERTEX
  8
3
  5
1EA1
 10
211.768
 20
191.255
 30
0.000000
  70
    32
  0
VERTEX
  8
3
  5
1EA2
 10
211.747
 20
191.222
 30
0.000000
  70
    32
  0
VERTEX
  8
3
  5
1EA3
 10
211.727
 20
191.187
 30
0.000000
  70
    32
  0
VERTEX
  8
3
  5
1EA4
 10
211.708
 20
191.151
 30
0.000000
  70
    32
  0
VERTEX
  8
3
  5
1EA5
 10
211.688
 20
191.114
 30
0.000000
  70
    32
  0
VERTEX
  8
3
  5
1EA6
 10
211.669
 20
191.076
 30
0.000000
  70
    32
  0
VERTEX
  8
3
  5
1EA7
 10
211.651
 20
191.036
 30
0.000000
  70
    32
  0
VERTEX
  8
3
  5
1EA8
 10
211.632
 20
190.996
 30
0.000000
  70
    32
  0
VERTEX
  8
3
  5
1EA9
 10
211.615
 20
190.954
 30
0.000000
  70
    32
  0
VERTEX
  8
3
  5
1EAA
 10
211.597
 20
190.911
 30
0.000000
  70
    32
  0
VERTEX
  8
3
  5
1EAB
 10
211.580
 20
190.867
 30
0.000000
  70
    32
  0
VERTEX
  8
3
  5
1EAC
 10
211.563
 20
190.822
 30
0.000000
  70
    32
  0
VERTEX
  8
3
  5
1EAD
 10
211.547
 20
190.776
 30
0.000000
  70
    32
  0
VERTEX
  8
3
  5
1EAE
 10
211.532
 20
190.729
 30
0.000000
  70
    32
  0
VERTEX
  8
3
  5
1EAF
 10
211.516
 20
190.681
 30
0.000000
  70
    32
  0
VERTEX
  8
3
  5
1EB0
 10
211.502
 20
190.632
 30
0.000000
  70
    32
  0
VERTEX
  8
3
  5
1EB1
 10
211.487
 20
190.583
 30
0.000000
  70
    32
  0
VERTEX
  8
3
  5
1EB2
 10
211.474
 20
190.532
 30
0.000000
  70
    32
  0
VERTEX
  8
3
  5
1EB3
 10
211.460
 20
190.481
 30
0.000000
  70
    32
  0
VERTEX
  8
3
  5
1EB4
 10
211.448
 20
190.428
 30
0.000000
  70
    32
  0
VERTEX
  8
3
  5
1EB5
 10
211.435
 20
190.375
 30
0.000000
  70
    32
  0
VERTEX
  8
3
  5
1EB6
 10
211.424
 20
190.322
 30
0.000000
  70
    32
  0
VERTEX
  8
3
  5
1EB7
 10
211.412
 20
190.267
 30
0.000000
  70
    32
  0
VERTEX
  8
3
  5
1EB8
 10
211.402
 20
190.212
 30
0.000000
  70
    32
  0
VERTEX
  8
3
  5
1EB9
 10
211.392
 20
190.156
 30
0.000000
  70
    32
  0
VERTEX
  8
3
  5
1EBA
 10
211.382
 20
190.100
 30
0.000000
  70
    32
  0
VERTEX
  8
3
  5
1EBB
 10
211.373
 20
190.043
 30
0.000000
  70
    32
  0
VERTEX
  8
3
  5
1EBC
 10
211.364
 20
189.985
 30
0.000000
  70
    32
  0
VERTEX
  8
3
  5
1EBD
 10
211.356
 20
189.927
 30
0.000000
  70
    32
  0
VERTEX
  8
3
  5
1EBE
 10
211.349
 20
189.869
 30
0.000000
  70
    32
  0
VERTEX
  8
3
  5
1EBF
 10
211.342
 20
189.810
 30
0.000000
  70
    32
  0
VERTEX
  8
3
  5
1EC0
 10
211.336
 20
189.751
 30
0.000000
  70
    32
  0
VERTEX
  8
3
  5
1EC1
 10
211.331
 20
189.691
 30
0.000000
  70
    32
  0
VERTEX
  8
3
  5
1EC2
 10
211.325
 20
189.631
 30
0.000000
  70
    32
  0
VERTEX
  8
3
  5
1EC3
 10
211.321
 20
189.571
 30
0.000000
  70
    32
  0
VERTEX
  8
3
  5
1EC4
 10
211.317
 20
189.510
 30
0.000000
  70
    32
  0
VERTEX
  8
3
  5
1EC5
 10
211.314
 20
189.449
 30
0.000000
  70
    32
  0
VERTEX
  8
3
  5
1EC6
 10
211.311
 20
189.388
 30
0.000000
  70
    32
  0
VERTEX
  8
3
  5
1EC7
 10
211.309
 20
189.327
 30
0.000000
  70
    32
  0
VERTEX
  8
3
  5
1EC8
 10
211.308
 20
189.266
 30
0.000000
  70
    32
  0
VERTEX
  8
3
  5
1EC9
 10
211.307
 20
189.205
 30
0.000000
  70
    32
  0
VERTEX
  8
3
  5
1ECA
 10
211.306
 20
189.143
 30
0.000000
  70
    32
  0
VERTEX
  8
3
  5
1ECB
 10
211.307
 20
189.082
 30
0.000000
  70
    32
  0
VERTEX
  8
3
  5
1ECC
 10
211.308
 20
189.021
 30
0.000000
  70
    32
  0
VERTEX
  8
3
  5
1ECD
 10
211.309
 20
188.959
 30
0.000000
  70
    32
  0
VERTEX
  8
3
  5
1ECE
 10
211.311
 20
188.898
 30
0.000000
  70
    32
  0
VERTEX
  8
3
  5
1ECF
 10
211.314
 20
188.837
 30
0.000000
  70
    32
  0
VERTEX
  8
3
  5
1ED0
 10
211.317
 20
188.776
 30
0.000000
  70
    32
  0
VERTEX
  8
3
  5
1ED1
 10
211.321
 20
188.716
 30
0.000000
  70
    32
  0
VERTEX
  8
3
  5
1ED2
 10
211.325
 20
188.656
 30
0.000000
  70
    32
  0
VERTEX
  8
3
  5
1ED3
 10
211.331
 20
188.595
 30
0.000000
  70
    32
  0
VERTEX
  8
3
  5
1ED4
 10
211.336
 20
188.536
 30
0.000000
  70
    32
  0
VERTEX
  8
3
  5
1ED5
 10
211.342
 20
188.476
 30
0.000000
  70
    32
  0
VERTEX
  8
3
  5
1ED6
 10
211.349
 20
188.418
 30
0.000000
  70
    32
  0
VERTEX
  8
3
  5
1ED7
 10
211.356
 20
188.359
 30
0.000000
  70
    32
  0
VERTEX
  8
3
  5
1ED8
 10
211.364
 20
188.301
 30
0.000000
  70
    32
  0
VERTEX
  8
3
  5
1ED9
 10
211.373
 20
188.243
 30
0.000000
  70
    32
  0
VERTEX
  8
3
  5
1EDA
 10
211.382
 20
188.187
 30
0.000000
  70
    32
  0
VERTEX
  8
3
  5
1EDB
 10
211.392
 20
188.130
 30
0.000000
  70
    32
  0
VERTEX
  8
3
  5
1EDC
 10
211.402
 20
188.074
 30
0.000000
  70
    32
  0
VERTEX
  8
3
  5
1EDD
 10
211.412
 20
188.019
 30
0.000000
  70
    32
  0
VERTEX
  8
3
  5
1EDE
 10
211.424
 20
187.965
 30
0.000000
  70
    32
  0
VERTEX
  8
3
  5
1EDF
 10
211.435
 20
187.911
 30
0.000000
  70
    32
  0
VERTEX
  8
3
  5
1EE0
 10
211.448
 20
187.858
 30
0.000000
  70
    32
  0
VERTEX
  8
3
  5
1EE1
 10
211.460
 20
187.806
 30
0.000000
  70
    32
  0
VERTEX
  8
3
  5
1EE2
 10
211.474
 20
187.754
 30
0.000000
  70
    32
  0
VERTEX
  8
3
  5
1EE3
 10
211.487
 20
187.704
 30
0.000000
  70
    32
  0
VERTEX
  8
3
  5
1EE4
 10
211.502
 20
187.654
 30
0.000000
  70
    32
  0
VERTEX
  8
3
  5
1EE5
 10
211.516
 20
187.605
 30
0.000000
  70
    32
  0
VERTEX
  8
3
  5
1EE6
 10
211.532
 20
187.557
 30
0.000000
  70
    32
  0
VERTEX
  8
3
  5
1EE7
 10
211.547
 20
187.510
 30
0.000000
  70
    32
  0
VERTEX
  8
3
  5
1EE8
 10
211.563
 20
187.464
 30
0.000000
  70
    32
  0
VERTEX
  8
3
  5
1EE9
 10
211.580
 20
187.419
 30
0.000000
  70
    32
  0
VERTEX
  8
3
  5
1EEA
 10
211.597
 20
187.375
 30
0.000000
  70
    32
  0
VERTEX
  8
3
  5
1EEB
 10
211.615
 20
187.333
 30
0.000000
  70
    32
  0
VERTEX
  8
3
  5
1EEC
 10
211.632
 20
187.291
 30
0.000000
  70
    32
  0
VERTEX
  8
3
  5
1EED
 10
211.651
 20
187.250
 30
0.000000
  70
    32
  0
VERTEX
  8
3
  5
1EEE
 10
211.669
 20
187.211
 30
0.000000
  70
    32
  0
VERTEX
  8
3
  5
1EEF
 10
211.688
 20
187.172
 30
0.000000
  70
    32
  0
VERTEX
  8
3
  5
1EF0
 10
211.708
 20
187.135
 30
0.000000
  70
    32
  0
VERTEX
  8
3
  5
1EF1
 10
211.727
 20
187.099
 30
0.000000
  70
    32
  0
VERTEX
  8
3
  5
1EF2
 10
211.747
 20
187.065
 30
0.000000
  70
    32
  0
VERTEX
  8
3
  5
1EF3
 10
211.768
 20
187.031
 30
0.000000
  70
    32
  0
VERTEX
  8
3
  5
1EF4
 10
211.789
 20
186.999
 30
0.000000
  70
    32
  0
VERTEX
  8
3
  5
1EF5
 10
211.810
 20
186.968
 30
0.000000
  70
    32
  0
VERTEX
  8
3
  5
1EF6
 10
211.831
 20
186.938
 30
0.000000
  70
    32
  0
VERTEX
  8
3
  5
1EF7
 10
211.853
 20
186.910
 30
0.000000
  70
    32
  0
VERTEX
  8
3
  5
1EF8
 10
211.875
 20
186.883
 30
0.000000
  70
    32
  0
VERTEX
  8
3
  5
1EF9
 10
211.897
 20
186.858
 30
0.000000
  70
    32
  0
VERTEX
  8
3
  5
1EFA
 10
211.919
 20
186.834
 30
0.000000
  70
    32
  0
VERTEX
  8
3
  5
1EFB
 10
211.942
 20
186.811
 30
0.000000
  70
    32
  0
VERTEX
  8
3
  5
1EFC
 10
211.965
 20
186.789
 30
0.000000
  70
    32
  0
VERTEX
  8
3
  5
1EFD
 10
211.988
 20
186.769
 30
0.000000
  70
    32
  0
VERTEX
  8
3
  5
1EFE
 10
212.011
 20
186.751
 30
0.000000
  70
    32
  0
VERTEX
  8
3
  5
1EFF
 10
212.034
 20
186.734
 30
0.000000
  70
    32
  0
VERTEX
  8
3
  5
1F00
 10
212.058
 20
186.718
 30
0.000000
  70
    32
  0
VERTEX
  8
3
  5
1F01
 10
212.081
 20
186.704
 30
0.000000
  70
    32
  0
VERTEX
  8
3
  5
1F02
 10
212.105
 20
186.691
 30
0.000000
  70
    32
  0
VERTEX
  8
3
  5
1F03
 10
212.129
 20
186.680
 30
0.000000
  70
    32
  0
VERTEX
  8
3
  5
1F04
 10
212.153
 20
186.670
 30
0.000000
  70
    32
  0
VERTEX
  8
3
  5
1F05
 10
212.177
 20
186.662
 30
0.000000
  70
    32
  0
VERTEX
  8
3
  5
1F06
 10
212.202
 20
186.655
 30
0.000000
  70
    32
  0
VERTEX
  8
3
  5
1F07
 10
212.226
 20
186.650
 30
0.000000
  70
    32
  0
VERTEX
  8
3
  5
1F08
 10
212.250
 20
186.646
 30
0.000000
  70
    32
  0
VERTEX
  8
3
  5
1F09
 10
212.275
 20
186.644
 30
0.000000
  70
    32
  0
VERTEX
  8
3
  5
1F0A
 10
212.299
 20
186.643
 30
0.000000
  70
    32
  0
SEQEND
  8
3
  5
1F0B
  0
POLYLINE
  5
1BB4
  8
0
 10
211.48148185509714
 20
187.7252338511278
 30
0.0
 66
     1
 70
     8
  0
VERTEX
  8
0
  5
1F0C
 10
211.481
 20
187.725
 30
0.000000
  70
    32
  0
VERTEX
  8
0
  5
1F0D
 10
211.508
 20
187.670
 30
0.000000
  70
    32
  0
VERTEX
  8
0
  5
1F0E
 10
211.536
 20
187.617
 30
0.000000
  70
    32
  0
VERTEX
  8
0
  5
1F0F
 10
211.565
 20
187.566
 30
0.000000
  70
    32
  0
VERTEX
  8
0
  5
1F10
 10
211.595
 20
187.518
 30
0.000000
  70
    32
  0
VERTEX
  8
0
  5
1F11
 10
211.626
 20
187.471
 30
0.000000
  70
    32
  0
VERTEX
  8
0
  5
1F12
 10
211.657
 20
187.427
 30
0.000000
  70
    32
  0
VERTEX
  8
0
  5
1F13
 10
211.690
 20
187.385
 30
0.000000
  70
    32
  0
VERTEX
  8
0
  5
1F14
 10
211.723
 20
187.346
 30
0.000000
  70
    32
  0
VERTEX
  8
0
  5
1F15
 10
211.757
 20
187.309
 30
0.000000
  70
    32
  0
VERTEX
  8
0
  5
1F16
 10
211.791
 20
187.275
 30
0.000000
  70
    32
  0
VERTEX
  8
0
  5
1F17
 10
211.826
 20
187.243
 30
0.000000
  70
    32
  0
VERTEX
  8
0
  5
1F18
 10
211.862
 20
187.214
 30
0.000000
  70
    32
  0
VERTEX
  8
0
  5
1F19
 10
211.898
 20
187.188
 30
0.000000
  70
    32
  0
VERTEX
  8
0
  5
1F1A
 10
211.935
 20
187.164
 30
0.000000
  70
    32
  0
VERTEX
  8
0
  5
1F1B
 10
211.972
 20
187.143
 30
0.000000
  70
    32
  0
VERTEX
  8
0
  5
1F1C
 10
212.010
 20
187.125
 30
0.000000
  70
    32
  0
VERTEX
  8
0
  5
1F1D
 10
212.047
 20
187.110
 30
0.000000
  70
    32
  0
VERTEX
  8
0
  5
1F1E
 10
212.085
 20
187.098
 30
0.000000
  70
    32
  0
VERTEX
  8
0
  5
1F1F
 10
212.124
 20
187.088
 30
0.000000
  70
    32
  0
VERTEX
  8
0
  5
1F20
 10
212.162
 20
187.081
 30
0.000000
  70
    32
  0
VERTEX
  8
0
  5
1F21
 10
212.200
 20
187.077
 30
0.000000
  70
    32
  0
VERTEX
  8
0
  5
1F22
 10
212.239
 20
187.076
 30
0.000000
  70
    32
  0
VERTEX
  8
0
  5
1F23
 10
212.277
 20
187.078
 30
0.000000
  70
    32
  0
VERTEX
  8
0
  5
1F24
 10
212.316
 20
187.083
 30
0.000000
  70
    32
  0
VERTEX
  8
0
  5
1F25
 10
212.354
 20
187.090
 30
0.000000
  70
    32
  0
VERTEX
  8
0
  5
1F26
 10
212.392
 20
187.101
 30
0.000000
  70
    32
  0
VERTEX
  8
0
  5
1F27
 10
212.430
 20
187.114
 30
0.000000
  70
    32
  0
VERTEX
  8
0
  5
1F28
 10
212.468
 20
187.130
 30
0.000000
  70
    32
  0
VERTEX
  8
0
  5
1F29
 10
212.505
 20
187.149
 30
0.000000
  70
    32
  0
VERTEX
  8
0
  5
1F2A
 10
212.542
 20
187.171
 30
0.000000
  70
    32
  0
VERTEX
  8
0
  5
1F2B
 10
212.579
 20
187.195
 30
0.000000
  70
    32
  0
VERTEX
  8
0
  5
1F2C
 10
212.615
 20
187.222
 30
0.000000
  70
    32
  0
VERTEX
  8
0
  5
1F2D
 10
212.650
 20
187.252
 30
0.000000
  70
    32
  0
VERTEX
  8
0
  5
1F2E
 10
212.685
 20
187.284
 30
0.000000
  70
    32
  0
VERTEX
  8
0
  5
1F2F
 10
212.720
 20
187.319
 30
0.000000
  70
    32
  0
VERTEX
  8
0
  5
1F30
 10
212.753
 20
187.357
 30
0.000000
  70
    32
  0
VERTEX
  8
0
  5
1F31
 10
212.786
 20
187.397
 30
0.000000
  70
    32
  0
VERTEX
  8
0
  5
1F32
 10
212.818
 20
187.439
 30
0.000000
  70
    32
  0
VERTEX
  8
0
  5
1F33
 10
212.850
 20
187.484
 30
0.000000
  70
    32
  0
VERTEX
  8
0
  5
1F34
 10
212.880
 20
187.531
 30
0.000000
  70
    32
  0
VERTEX
  8
0
  5
1F35
 10
212.910
 20
187.580
 30
0.000000
  70
    32
  0
VERTEX
  8
0
  5
1F36
 10
212.938
 20
187.632
 30
0.000000
  70
    32
  0
VERTEX
  8
0
  5
1F37
 10
212.966
 20
187.685
 30
0.000000
  70
    32
  0
VERTEX
  8
0
  5
1F38
 10
212.993
 20
187.741
 30
0.000000
  70
    32
  0
VERTEX
  8
0
  5
1F39
 10
213.018
 20
187.799
 30
0.000000
  70
    32
  0
VERTEX
  8
0
  5
1F3A
 10
213.043
 20
187.858
 30
0.000000
  70
    32
  0
VERTEX
  8
0
  5
1F3B
 10
213.066
 20
187.919
 30
0.000000
  70
    32
  0
VERTEX
  8
0
  5
1F3C
 10
213.089
 20
187.982
 30
0.000000
  70
    32
  0
VERTEX
  8
0
  5
1F3D
 10
213.110
 20
188.047
 30
0.000000
  70
    32
  0
VERTEX
  8
0
  5
1F3E
 10
213.129
 20
188.113
 30
0.000000
  70
    32
  0
VERTEX
  8
0
  5
1F3F
 10
213.148
 20
188.180
 30
0.000000
  70
    32
  0
VERTEX
  8
0
  5
1F40
 10
213.165
 20
188.249
 30
0.000000
  70
    32
  0
VERTEX
  8
0
  5
1F41
 10
213.181
 20
188.319
 30
0.000000
  70
    32
  0
VERTEX
  8
0
  5
1F42
 10
213.196
 20
188.390
 30
0.000000
  70
    32
  0
VERTEX
  8
0
  5
1F43
 10
213.209
 20
188.463
 30
0.000000
  70
    32
  0
VERTEX
  8
0
  5
1F44
 10
213.221
 20
188.536
 30
0.000000
  70
    32
  0
VERTEX
  8
0
  5
1F45
 10
213.232
 20
188.610
 30
0.000000
  70
    32
  0
VERTEX
  8
0
  5
1F46
 10
213.241
 20
188.685
 30
0.000000
  70
    32
  0
VERTEX
  8
0
  5
1F47
 10
213.249
 20
188.760
 30
0.000000
  70
    32
  0
VERTEX
  8
0
  5
1F48
 10
213.255
 20
188.836
 30
0.000000
  70
    32
  0
VERTEX
  8
0
  5
1F49
 10
213.260
 20
188.913
 30
0.000000
  70
    32
  0
VERTEX
  8
0
  5
1F4A
 10
213.264
 20
188.989
 30
0.000000
  70
    32
  0
VERTEX
  8
0
  5
1F4B
 10
213.266
 20
189.066
 30
0.000000
  70
    32
  0
VERTEX
  8
0
  5
1F4C
 10
213.267
 20
189.143
 30
0.000000
  70
    32
  0
VERTEX
  8
0
  5
1F4D
 10
213.266
 20
189.220
 30
0.000000
  70
    32
  0
VERTEX
  8
0
  5
1F4E
 10
213.264
 20
189.297
 30
0.000000
  70
    32
  0
VERTEX
  8
0
  5
1F4F
 10
213.260
 20
189.374
 30
0.000000
  70
    32
  0
VERTEX
  8
0
  5
1F50
 10
213.255
 20
189.450
 30
0.000000
  70
    32
  0
VERTEX
  8
0
  5
1F51
 10
213.249
 20
189.526
 30
0.000000
  70
    32
  0
VERTEX
  8
0
  5
1F52
 10
213.241
 20
189.602
 30
0.000000
  70
    32
  0
VERTEX
  8
0
  5
1F53
 10
213.232
 20
189.676
 30
0.000000
  70
    32
  0
VERTEX
  8
0
  5
1F54
 10
213.221
 20
189.751
 30
0.000000
  70
    32
  0
VERTEX
  8
0
  5
1F55
 10
213.209
 20
189.824
 30
0.000000
  70
    32
  0
VERTEX
  8
0
  5
1F56
 10
213.196
 20
189.896
 30
0.000000
  70
    32
  0
VERTEX
  8
0
  5
1F57
 10
213.181
 20
189.967
 30
0.000000
  70
    32
  0
VERTEX
  8
0
  5
1F58
 10
213.165
 20
190.037
 30
0.000000
  70
    32
  0
VERTEX
  8
0
  5
1F59
 10
213.148
 20
190.106
 30
0.000000
  70
    32
  0
VERTEX
  8
0
  5
1F5A
 10
213.129
 20
190.174
 30
0.000000
  70
    32
  0
VERTEX
  8
0
  5
1F5B
 10
213.110
 20
190.240
 30
0.000000
  70
    32
  0
VERTEX
  8
0
  5
1F5C
 10
213.089
 20
190.304
 30
0.000000
  70
    32
  0
VERTEX
  8
0
  5
1F5D
 10
213.066
 20
190.367
 30
0.000000
  70
    32
  0
VERTEX
  8
0
  5
1F5E
 10
213.043
 20
190.428
 30
0.000000
  70
    32
  0
VERTEX
  8
0
  5
1F5F
 10
213.018
 20
190.488
 30
0.000000
  70
    32
  0
VERTEX
  8
0
  5
1F60
 10
212.993
 20
190.545
 30
0.000000
  70
    32
  0
VERTEX
  8
0
  5
1F61
 10
212.966
 20
190.601
 30
0.000000
  70
    32
  0
VERTEX
  8
0
  5
1F62
 10
212.938
 20
190.655
 30
0.000000
  70
    32
  0
VERTEX
  8
0
  5
1F63
 10
212.910
 20
190.706
 30
0.000000
  70
    32
  0
VERTEX
  8
0
  5
1F64
 10
212.880
 20
190.755
 30
0.000000
  70
    32
  0
VERTEX
  8
0
  5
1F65
 10
212.850
 20
190.802
 30
0.000000
  70
    32
  0
VERTEX
  8
0
  5
1F66
 10
212.818
 20
190.847
 30
0.000000
  70
    32
  0
VERTEX
  8
0
  5
1F67
 10
212.786
 20
190.890
 30
0.000000
  70
    32
  0
VERTEX
  8
0
  5
1F68
 10
212.753
 20
190.930
 30
0.000000
  70
    32
  0
VERTEX
  8
0
  5
1F69
 10
212.720
 20
190.967
 30
0.000000
  70
    32
  0
VERTEX
  8
0
  5
1F6A
 10
212.685
 20
191.002
 30
0.000000
  70
    32
  0
VERTEX
  8
0
  5
1F6B
 10
212.650
 20
191.035
 30
0.000000
  70
    32
  0
VERTEX
  8
0
  5
1F6C
 10
212.615
 20
191.064
 30
0.000000
  70
    32
  0
VERTEX
  8
0
  5
1F6D
 10
212.579
 20
191.091
 30
0.000000
  70
    32
  0
VERTEX
  8
0
  5
1F6E
 10
212.542
 20
191.116
 30
0.000000
  70
    32
  0
VERTEX
  8
0
  5
1F6F
 10
212.505
 20
191.137
 30
0.000000
  70
    32
  0
VERTEX
  8
0
  5
1F70
 10
212.468
 20
191.156
 30
0.000000
  70
    32
  0
VERTEX
  8
0
  5
1F71
 10
212.430
 20
191.172
 30
0.000000
  70
    32
  0
VERTEX
  8
0
  5
1F72
 10
212.392
 20
191.186
 30
0.000000
  70
    32
  0
VERTEX
  8
0
  5
1F73
 10
212.354
 20
191.196
 30
0.000000
  70
    32
  0
VERTEX
  8
0
  5
1F74
 10
212.316
 20
191.204
 30
0.000000
  70
    32
  0
VERTEX
  8
0
  5
1F75
 10
212.277
 20
191.208
 30
0.000000
  70
    32
  0
VERTEX
  8
0
  5
1F76
 10
212.239
 20
191.210
 30
0.000000
  70
    32
  0
VERTEX
  8
0
  5
1F77
 10
212.200
 20
191.209
 30
0.000000
  70
    32
  0
VERTEX
  8
0
  5
1F78
 10
212.162
 20
191.205
 30
0.000000
  70
    32
  0
VERTEX
  8
0
  5
1F79
 10
212.124
 20
191.199
 30
0.000000
  70
    32
  0
VERTEX
  8
0
  5
1F7A
 10
212.085
 20
191.189
 30
0.000000
  70
    32
  0
VERTEX
  8
0
  5
1F7B
 10
212.047
 20
191.176
 30
0.000000
  70
    32
  0
VERTEX
  8
0
  5
1F7C
 10
212.010
 20
191.161
 30
0.000000
  70
    32
  0
VERTEX
  8
0
  5
1F7D
 10
211.972
 20
191.143
 30
0.000000
  70
    32
  0
VERTEX
  8
0
  5
1F7E
 10
211.935
 20
191.122
 30
0.000000
  70
    32
  0
VERTEX
  8
0
  5
1F7F
 10
211.898
 20
191.099
 30
0.000000
  70
    32
  0
VERTEX
  8
0
  5
1F80
 10
211.862
 20
191.072
 30
0.000000
  70
    32
  0
VERTEX
  8
0
  5
1F81
 10
211.826
 20
191.043
 30
0.000000
  70
    32
  0
VERTEX
  8
0
  5
1F82
 10
211.791
 20
191.012
 30
0.000000
  70
    32
  0
VERTEX
  8
0
  5
1F83
 10
211.757
 20
190.977
 30
0.000000
  70
    32
  0
VERTEX
  8
0
  5
1F84
 10
211.723
 20
190.941
 30
0.000000
  70
    32
  0
VERTEX
  8
0
  5
1F85
 10
211.690
 20
190.901
 30
0.000000
  70
    32
  0
VERTEX
  8
0
  5
1F86
 10
211.657
 20
190.859
 30
0.000000
  70
    32
  0
VERTEX
  8
0
  5
1F87
 10
211.626
 20
190.815
 30
0.000000
  70
    32
  0
VERTEX
  8
0
  5
1F88
 10
211.595
 20
190.769
 30
0.000000
  70
    32
  0
VERTEX
  8
0
  5
1F89
 10
211.565
 20
190.720
 30
0.000000
  70
    32
  0
VERTEX
  8
0
  5
1F8A
 10
211.536
 20
190.669
 30
0.000000
  70
    32
  0
VERTEX
  8
0
  5
1F8B
 10
211.508
 20
190.616
 30
0.000000
  70
    32
  0
VERTEX
  8
0
  5
1F8C
 10
211.481
 20
190.561
 30
0.000000
  70
    32
  0
SEQEND
  8
0
  5
1F8D
  0
POLYLINE
  5
1BB5
  8
0
 10
359.15350593173605
 20
193.38548531033143
 30
0.0
 66
     1
 70
     8
  0
VERTEX
  8
0
  5
1F8E
 10
359.154
 20
193.385
 30
0.000000
  70
    32
  0
VERTEX
  8
0
  5
1F8F
 10
359.068
 20
193.390
 30
0.000000
  70
    32
  0
VERTEX
  8
0
  5
1F90
 10
358.982
 20
193.392
 30
0.000000
  70
    32
  0
VERTEX
  8
0
  5
1F91
 10
358.896
 20
193.392
 30
0.000000
  70
    32
  0
VERTEX
  8
0
  5
1F92
 10
358.810
 20
193.388
 30
0.000000
  70
    32
  0
VERTEX
  8
0
  5
1F93
 10
358.725
 20
193.382
 30
0.000000
  70
    32
  0
VERTEX
  8
0
  5
1F94
 10
358.639
 20
193.374
 30
0.000000
  70
    32
  0
VERTEX
  8
0
  5
1F95
 10
358.554
 20
193.363
 30
0.000000
  70
    32
  0
VERTEX
  8
0
  5
1F96
 10
358.469
 20
193.349
 30
0.000000
  70
    32
  0
VERTEX
  8
0
  5
1F97
 10
358.384
 20
193.332
 30
0.000000
  70
    32
  0
VERTEX
  8
0
  5
1F98
 10
358.300
 20
193.313
 30
0.000000
  70
    32
  0
VERTEX
  8
0
  5
1F99
 10
358.216
 20
193.292
 30
0.000000
  70
    32
  0
VERTEX
  8
0
  5
1F9A
 10
358.132
 20
193.267
 30
0.000000
  70
    32
  0
VERTEX
  8
0
  5
1F9B
 10
358.049
 20
193.241
 30
0.000000
  70
    32
  0
VERTEX
  8
0
  5
1F9C
 10
357.967
 20
193.211
 30
0.000000
  70
    32
  0
VERTEX
  8
0
  5
1F9D
 10
357.885
 20
193.179
 30
0.000000
  70
    32
  0
VERTEX
  8
0
  5
1F9E
 10
357.803
 20
193.145
 30
0.000000
  70
    32
  0
VERTEX
  8
0
  5
1F9F
 10
357.723
 20
193.108
 30
0.000000
  70
    32
  0
VERTEX
  8
0
  5
1FA0
 10
357.643
 20
193.068
 30
0.000000
  70
    32
  0
VERTEX
  8
0
  5
1FA1
 10
357.565
 20
193.026
 30
0.000000
  70
    32
  0
VERTEX
  8
0
  5
1FA2
 10
357.487
 20
192.982
 30
0.000000
  70
    32
  0
VERTEX
  8
0
  5
1FA3
 10
357.409
 20
192.935
 30
0.000000
  70
    32
  0
VERTEX
  8
0
  5
1FA4
 10
357.333
 20
192.886
 30
0.000000
  70
    32
  0
VERTEX
  8
0
  5
1FA5
 10
357.258
 20
192.835
 30
0.000000
  70
    32
  0
VERTEX
  8
0
  5
1FA6
 10
357.184
 20
192.781
 30
0.000000
  70
    32
  0
VERTEX
  8
0
  5
1FA7
 10
357.111
 20
192.725
 30
0.000000
  70
    32
  0
VERTEX
  8
0
  5
1FA8
 10
357.040
 20
192.667
 30
0.000000
  70
    32
  0
VERTEX
  8
0
  5
1FA9
 10
356.969
 20
192.607
 30
0.000000
  70
    32
  0
VERTEX
  8
0
  5
1FAA
 10
356.900
 20
192.544
 30
0.000000
  70
    32
  0
VERTEX
  8
0
  5
1FAB
 10
356.832
 20
192.479
 30
0.000000
  70
    32
  0
VERTEX
  8
0
  5
1FAC
 10
356.765
 20
192.412
 30
0.000000
  70
    32
  0
VERTEX
  8
0
  5
1FAD
 10
356.700
 20
192.344
 30
0.000000
  70
    32
  0
VERTEX
  8
0
  5
1FAE
 10
356.636
 20
192.273
 30
0.000000
  70
    32
  0
VERTEX
  8
0
  5
1FAF
 10
356.573
 20
192.200
 30
0.000000
  70
    32
  0
VERTEX
  8
0
  5
1FB0
 10
356.512
 20
192.125
 30
0.000000
  70
    32
  0
VERTEX
  8
0
  5
1FB1
 10
356.453
 20
192.049
 30
0.000000
  70
    32
  0
VERTEX
  8
0
  5
1FB2
 10
356.395
 20
191.970
 30
0.000000
  70
    32
  0
VERTEX
  8
0
  5
1FB3
 10
356.339
 20
191.890
 30
0.000000
  70
    32
  0
VERTEX
  8
0
  5
1FB4
 10
356.284
 20
191.808
 30
0.000000
  70
    32
  0
VERTEX
  8
0
  5
1FB5
 10
356.231
 20
191.725
 30
0.000000
  70
    32
  0
VERTEX
  8
0
  5
1FB6
 10
356.180
 20
191.640
 30
0.000000
  70
    32
  0
VERTEX
  8
0
  5
1FB7
 10
356.130
 20
191.553
 30
0.000000
  70
    32
  0
VERTEX
  8
0
  5
1FB8
 10
356.082
 20
191.465
 30
0.000000
  70
    32
  0
VERTEX
  8
0
  5
1FB9
 10
356.036
 20
191.375
 30
0.000000
  70
    32
  0
VERTEX
  8
0
  5
1FBA
 10
355.992
 20
191.284
 30
0.000000
  70
    32
  0
VERTEX
  8
0
  5
1FBB
 10
355.950
 20
191.192
 30
0.000000
  70
    32
  0
VERTEX
  8
0
  5
1FBC
 10
355.909
 20
191.098
 30
0.000000
  70
    32
  0
VERTEX
  8
0
  5
1FBD
 10
355.871
 20
191.003
 30
0.000000
  70
    32
  0
VERTEX
  8
0
  5
1FBE
 10
355.834
 20
190.907
 30
0.000000
  70
    32
  0
VERTEX
  8
0
  5
1FBF
 10
355.800
 20
190.810
 30
0.000000
  70
    32
  0
VERTEX
  8
0
  5
1FC0
 10
355.767
 20
190.712
 30
0.000000
  70
    32
  0
VERTEX
  8
0
  5
1FC1
 10
355.736
 20
190.612
 30
0.000000
  70
    32
  0
VERTEX
  8
0
  5
1FC2
 10
355.708
 20
190.512
 30
0.000000
  70
    32
  0
VERTEX
  8
0
  5
1FC3
 10
355.681
 20
190.411
 30
0.000000
  70
    32
  0
VERTEX
  8
0
  5
1FC4
 10
355.656
 20
190.310
 30
0.000000
  70
    32
  0
VERTEX
  8
0
  5
1FC5
 10
355.634
 20
190.207
 30
0.000000
  70
    32
  0
VERTEX
  8
0
  5
1FC6
 10
355.613
 20
190.104
 30
0.000000
  70
    32
  0
VERTEX
  8
0
  5
1FC7
 10
355.595
 20
190.000
 30
0.000000
  70
    32
  0
VERTEX
  8
0
  5
1FC8
 10
355.579
 20
189.896
 30
0.000000
  70
    32
  0
VERTEX
  8
0
  5
1FC9
 10
355.564
 20
189.791
 30
0.000000
  70
    32
  0
VERTEX
  8
0
  5
1FCA
 10
355.552
 20
189.686
 30
0.000000
  70
    32
  0
VERTEX
  8
0
  5
1FCB
 10
355.543
 20
189.581
 30
0.000000
  70
    32
  0
VERTEX
  8
0
  5
1FCC
 10
355.535
 20
189.475
 30
0.000000
  70
    32
  0
VERTEX
  8
0
  5
1FCD
 10
355.529
 20
189.369
 30
0.000000
  70
    32
  0
VERTEX
  8
0
  5
1FCE
 10
355.526
 20
189.263
 30
0.000000
  70
    32
  0
VERTEX
  8
0
  5
1FCF
 10
355.524
 20
189.157
 30
0.000000
  70
    32
  0
VERTEX
  8
0
  5
1FD0
 10
355.525
 20
189.051
 30
0.000000
  70
    32
  0
VERTEX
  8
0
  5
1FD1
 10
355.528
 20
188.944
 30
0.000000
  70
    32
  0
VERTEX
  8
0
  5
1FD2
 10
355.533
 20
188.838
 30
0.000000
  70
    32
  0
VERTEX
  8
0
  5
1FD3
 10
355.540
 20
188.733
 30
0.000000
  70
    32
  0
VERTEX
  8
0
  5
1FD4
 10
355.550
 20
188.627
 30
0.000000
  70
    32
  0
VERTEX
  8
0
  5
1FD5
 10
355.561
 20
188.522
 30
0.000000
  70
    32
  0
VERTEX
  8
0
  5
1FD6
 10
355.575
 20
188.417
 30
0.000000
  70
    32
  0
VERTEX
  8
0
  5
1FD7
 10
355.590
 20
188.313
 30
0.000000
  70
    32
  0
VERTEX
  8
0
  5
1FD8
 10
355.608
 20
188.209
 30
0.000000
  70
    32
  0
VERTEX
  8
0
  5
1FD9
 10
355.628
 20
188.105
 30
0.000000
  70
    32
  0
VERTEX
  8
0
  5
1FDA
 10
355.650
 20
188.003
 30
0.000000
  70
    32
  0
VERTEX
  8
0
  5
1FDB
 10
355.674
 20
187.901
 30
0.000000
  70
    32
  0
VERTEX
  8
0
  5
1FDC
 10
355.700
 20
187.800
 30
0.000000
  70
    32
  0
VERTEX
  8
0
  5
1FDD
 10
355.728
 20
187.699
 30
0.000000
  70
    32
  0
VERTEX
  8
0
  5
1FDE
 10
355.758
 20
187.600
 30
0.000000
  70
    32
  0
VERTEX
  8
0
  5
1FDF
 10
355.791
 20
187.501
 30
0.000000
  70
    32
  0
VERTEX
  8
0
  5
1FE0
 10
355.825
 20
187.404
 30
0.000000
  70
    32
  0
VERTEX
  8
0
  5
1FE1
 10
355.861
 20
187.308
 30
0.000000
  70
    32
  0
VERTEX
  8
0
  5
1FE2
 10
355.899
 20
187.212
 30
0.000000
  70
    32
  0
VERTEX
  8
0
  5
1FE3
 10
355.939
 20
187.118
 30
0.000000
  70
    32
  0
VERTEX
  8
0
  5
1FE4
 10
355.980
 20
187.026
 30
0.000000
  70
    32
  0
VERTEX
  8
0
  5
1FE5
 10
356.024
 20
186.934
 30
0.000000
  70
    32
  0
VERTEX
  8
0
  5
1FE6
 10
356.070
 20
186.844
 30
0.000000
  70
    32
  0
VERTEX
  8
0
  5
1FE7
 10
356.117
 20
186.756
 30
0.000000
  70
    32
  0
VERTEX
  8
0
  5
1FE8
 10
356.166
 20
186.668
 30
0.000000
  70
    32
  0
VERTEX
  8
0
  5
1FE9
 10
356.217
 20
186.583
 30
0.000000
  70
    32
  0
VERTEX
  8
0
  5
1FEA
 10
356.269
 20
186.499
 30
0.000000
  70
    32
  0
VERTEX
  8
0
  5
1FEB
 10
356.324
 20
186.417
 30
0.000000
  70
    32
  0
VERTEX
  8
0
  5
1FEC
 10
356.379
 20
186.336
 30
0.000000
  70
    32
  0
VERTEX
  8
0
  5
1FED
 10
356.437
 20
186.257
 30
0.000000
  70
    32
  0
VERTEX
  8
0
  5
1FEE
 10
356.496
 20
186.180
 30
0.000000
  70
    32
  0
VERTEX
  8
0
  5
1FEF
 10
356.556
 20
186.105
 30
0.000000
  70
    32
  0
VERTEX
  8
0
  5
1FF0
 10
356.619
 20
186.032
 30
0.000000
  70
    32
  0
VERTEX
  8
0
  5
1FF1
 10
356.682
 20
185.960
 30
0.000000
  70
    32
  0
VERTEX
  8
0
  5
1FF2
 10
356.747
 20
185.891
 30
0.000000
  70
    32
  0
VERTEX
  8
0
  5
1FF3
 10
356.813
 20
185.823
 30
0.000000
  70
    32
  0
VERTEX
  8
0
  5
1FF4
 10
356.881
 20
185.758
 30
0.000000
  70
    32
  0
VERTEX
  8
0
  5
1FF5
 10
356.950
 20
185.695
 30
0.000000
  70
    32
  0
VERTEX
  8
0
  5
1FF6
 10
357.020
 20
185.634
 30
0.000000
  70
    32
  0
VERTEX
  8
0
  5
1FF7
 10
357.092
 20
185.575
 30
0.000000
  70
    32
  0
VERTEX
  8
0
  5
1FF8
 10
357.164
 20
185.518
 30
0.000000
  70
    32
  0
VERTEX
  8
0
  5
1FF9
 10
357.238
 20
185.464
 30
0.000000
  70
    32
  0
VERTEX
  8
0
  5
1FFA
 10
357.313
 20
185.412
 30
0.000000
  70
    32
  0
VERTEX
  8
0
  5
1FFB
 10
357.389
 20
185.362
 30
0.000000
  70
    32
  0
VERTEX
  8
0
  5
1FFC
 10
357.465
 20
185.315
 30
0.000000
  70
    32
  0
VERTEX
  8
0
  5
1FFD
 10
357.543
 20
185.270
 30
0.000000
  70
    32
  0
VERTEX
  8
0
  5
1FFE
 10
357.622
 20
185.227
 30
0.000000
  70
    32
  0
VERTEX
  8
0
  5
1FFF
 10
357.701
 20
185.187
 30
0.000000
  70
    32
  0
VERTEX
  8
0
  5
2000
 10
357.782
 20
185.150
 30
0.000000
  70
    32
  0
VERTEX
  8
0
  5
2001
 10
357.863
 20
185.115
 30
0.000000
  70
    32
  0
VERTEX
  8
0
  5
2002
 10
357.944
 20
185.082
 30
0.000000
  70
    32
  0
VERTEX
  8
0
  5
2003
 10
358.026
 20
185.052
 30
0.000000
  70
    32
  0
VERTEX
  8
0
  5
2004
 10
358.109
 20
185.024
 30
0.000000
  70
    32
  0
VERTEX
  8
0
  5
2005
 10
358.193
 20
184.999
 30
0.000000
  70
    32
  0
VERTEX
  8
0
  5
2006
 10
358.277
 20
184.977
 30
0.000000
  70
    32
  0
VERTEX
  8
0
  5
2007
 10
358.361
 20
184.957
 30
0.000000
  70
    32
  0
VERTEX
  8
0
  5
2008
 10
358.446
 20
184.940
 30
0.000000
  70
    32
  0
VERTEX
  8
0
  5
2009
 10
358.531
 20
184.925
 30
0.000000
  70
    32
  0
VERTEX
  8
0
  5
200A
 10
358.616
 20
184.914
 30
0.000000
  70
    32
  0
VERTEX
  8
0
  5
200B
 10
358.701
 20
184.904
 30
0.000000
  70
    32
  0
VERTEX
  8
0
  5
200C
 10
358.787
 20
184.898
 30
0.000000
  70
    32
  0
VERTEX
  8
0
  5
200D
 10
358.873
 20
184.894
 30
0.000000
  70
    32
  0
VERTEX
  8
0
  5
200E
 10
358.959
 20
184.892
 30
0.000000
  70
    32
  0
SEQEND
  8
0
  5
200F
  0
POLYLINE
  5
1BB6
  8
3
 10
358.45194541078746
 20
191.33475149784073
 30
0.0
 66
     1
 70
     8
  0
VERTEX
  8
3
  5
2010
 10
358.452
 20
191.335
 30
0.000000
  70
    32
  0
VERTEX
  8
3
  5
2011
 10
358.421
 20
191.314
 30
0.000000
  70
    32
  0
VERTEX
  8
3
  5
2012
 10
358.391
 20
191.293
 30
0.000000
  70
    32
  0
VERTEX
  8
3
  5
2013
 10
358.361
 20
191.272
 30
0.000000
  70
    32
  0
VERTEX
  8
3
  5
2014
 10
358.331
 20
191.250
 30
0.000000
  70
    32
  0
VERTEX
  8
3
  5
2015
 10
358.302
 20
191.227
 30
0.000000
  70
    32
  0
VERTEX
  8
3
  5
2016
 10
358.273
 20
191.203
 30
0.000000
  70
    32
  0
VERTEX
  8
3
  5
2017
 10
358.244
 20
191.180
 30
0.000000
  70
    32
  0
VERTEX
  8
3
  5
2018
 10
358.216
 20
191.155
 30
0.000000
  70
    32
  0
VERTEX
  8
3
  5
2019
 10
358.188
 20
191.130
 30
0.000000
  70
    32
  0
VERTEX
  8
3
  5
201A
 10
358.160
 20
191.104
 30
0.000000
  70
    32
  0
VERTEX
  8
3
  5
201B
 10
358.133
 20
191.078
 30
0.000000
  70
    32
  0
VERTEX
  8
3
  5
201C
 10
358.106
 20
191.052
 30
0.000000
  70
    32
  0
VERTEX
  8
3
  5
201D
 10
358.080
 20
191.024
 30
0.000000
  70
    32
  0
VERTEX
  8
3
  5
201E
 10
358.053
 20
190.997
 30
0.000000
  70
    32
  0
VERTEX
  8
3
  5
201F
 10
358.028
 20
190.968
 30
0.000000
  70
    32
  0
VERTEX
  8
3
  5
2020
 10
358.002
 20
190.939
 30
0.000000
  70
    32
  0
VERTEX
  8
3
  5
2021
 10
357.977
 20
190.910
 30
0.000000
  70
    32
  0
VERTEX
  8
3
  5
2022
 10
357.953
 20
190.880
 30
0.000000
  70
    32
  0
VERTEX
  8
3
  5
2023
 10
357.929
 20
190.850
 30
0.000000
  70
    32
  0
VERTEX
  8
3
  5
2024
 10
357.905
 20
190.819
 30
0.000000
  70
    32
  0
VERTEX
  8
3
  5
2025
 10
357.882
 20
190.788
 30
0.000000
  70
    32
  0
VERTEX
  8
3
  5
2026
 10
357.859
 20
190.756
 30
0.000000
  70
    32
  0
VERTEX
  8
3
  5
2027
 10
357.837
 20
190.724
 30
0.000000
  70
    32
  0
VERTEX
  8
3
  5
2028
 10
357.815
 20
190.692
 30
0.000000
  70
    32
  0
VERTEX
  8
3
  5
2029
 10
357.793
 20
190.659
 30
0.000000
  70
    32
  0
VERTEX
  8
3
  5
202A
 10
357.772
 20
190.625
 30
0.000000
  70
    32
  0
VERTEX
  8
3
  5
202B
 10
357.752
 20
190.591
 30
0.000000
  70
    32
  0
VERTEX
  8
3
  5
202C
 10
357.732
 20
190.557
 30
0.000000
  70
    32
  0
VERTEX
  8
3
  5
202D
 10
357.712
 20
190.523
 30
0.000000
  70
    32
  0
VERTEX
  8
3
  5
202E
 10
357.693
 20
190.488
 30
0.000000
  70
    32
  0
VERTEX
  8
3
  5
202F
 10
357.674
 20
190.452
 30
0.000000
  70
    32
  0
VERTEX
  8
3
  5
2030
 10
357.656
 20
190.416
 30
0.000000
  70
    32
  0
VERTEX
  8
3
  5
2031
 10
357.639
 20
190.380
 30
0.000000
  70
    32
  0
VERTEX
  8
3
  5
2032
 10
357.622
 20
190.344
 30
0.000000
  70
    32
  0
VERTEX
  8
3
  5
2033
 10
357.605
 20
190.307
 30
0.000000
  70
    32
  0
VERTEX
  8
3
  5
2034
 10
357.589
 20
190.270
 30
0.000000
  70
    32
  0
VERTEX
  8
3
  5
2035
 10
357.573
 20
190.232
 30
0.000000
  70
    32
  0
VERTEX
  8
3
  5
2036
 10
357.558
 20
190.195
 30
0.000000
  70
    32
  0
VERTEX
  8
3
  5
2037
 10
357.544
 20
190.157
 30
0.000000
  70
    32
  0
VERTEX
  8
3
  5
2038
 10
357.530
 20
190.118
 30
0.000000
  70
    32
  0
VERTEX
  8
3
  5
2039
 10
357.517
 20
190.080
 30
0.000000
  70
    32
  0
VERTEX
  8
3
  5
203A
 10
357.504
 20
190.041
 30
0.000000
  70
    32
  0
VERTEX
  8
3
  5
203B
 10
357.491
 20
190.002
 30
0.000000
  70
    32
  0
VERTEX
  8
3
  5
203C
 10
357.480
 20
189.962
 30
0.000000
  70
    32
  0
VERTEX
  8
3
  5
203D
 10
357.468
 20
189.923
 30
0.000000
  70
    32
  0
VERTEX
  8
3
  5
203E
 10
357.458
 20
189.883
 30
0.000000
  70
    32
  0
VERTEX
  8
3
  5
203F
 10
357.448
 20
189.843
 30
0.000000
  70
    32
  0
VERTEX
  8
3
  5
2040
 10
357.438
 20
189.803
 30
0.000000
  70
    32
  0
VERTEX
  8
3
  5
2041
 10
357.429
 20
189.762
 30
0.000000
  70
    32
  0
VERTEX
  8
3
  5
2042
 10
357.421
 20
189.722
 30
0.000000
  70
    32
  0
VERTEX
  8
3
  5
2043
 10
357.413
 20
189.681
 30
0.000000
  70
    32
  0
VERTEX
  8
3
  5
2044
 10
357.406
 20
189.640
 30
0.000000
  70
    32
  0
VERTEX
  8
3
  5
2045
 10
357.399
 20
189.599
 30
0.000000
  70
    32
  0
VERTEX
  8
3
  5
2046
 10
357.393
 20
189.558
 30
0.000000
  70
    32
  0
VERTEX
  8
3
  5
2047
 10
357.387
 20
189.517
 30
0.000000
  70
    32
  0
VERTEX
  8
3
  5
2048
 10
357.382
 20
189.476
 30
0.000000
  70
    32
  0
VERTEX
  8
3
  5
2049
 10
357.378
 20
189.434
 30
0.000000
  70
    32
  0
VERTEX
  8
3
  5
204A
 10
357.374
 20
189.393
 30
0.000000
  70
    32
  0
VERTEX
  8
3
  5
204B
 10
357.371
 20
189.351
 30
0.000000
  70
    32
  0
VERTEX
  8
3
  5
204C
 10
357.368
 20
189.309
 30
0.000000
  70
    32
  0
VERTEX
  8
3
  5
204D
 10
357.366
 20
189.268
 30
0.000000
  70
    32
  0
VERTEX
  8
3
  5
204E
 10
357.365
 20
189.226
 30
0.000000
  70
    32
  0
VERTEX
  8
3
  5
204F
 10
357.364
 20
189.184
 30
0.000000
  70
    32
  0
VERTEX
  8
3
  5
2050
 10
357.364
 20
189.142
 30
0.000000
  70
    32
  0
VERTEX
  8
3
  5
2051
 10
357.364
 20
189.101
 30
0.000000
  70
    32
  0
VERTEX
  8
3
  5
2052
 10
357.365
 20
189.059
 30
0.000000
  70
    32
  0
VERTEX
  8
3
  5
2053
 10
357.366
 20
189.017
 30
0.000000
  70
    32
  0
VERTEX
  8
3
  5
2054
 10
357.368
 20
188.975
 30
0.000000
  70
    32
  0
VERTEX
  8
3
  5
2055
 10
357.371
 20
188.934
 30
0.000000
  70
    32
  0
VERTEX
  8
3
  5
2056
 10
357.374
 20
188.892
 30
0.000000
  70
    32
  0
VERTEX
  8
3
  5
2057
 10
357.378
 20
188.851
 30
0.000000
  70
    32
  0
VERTEX
  8
3
  5
2058
 10
357.382
 20
188.809
 30
0.000000
  70
    32
  0
VERTEX
  8
3
  5
2059
 10
357.387
 20
188.768
 30
0.000000
  70
    32
  0
VERTEX
  8
3
  5
205A
 10
357.393
 20
188.726
 30
0.000000
  70
    32
  0
VERTEX
  8
3
  5
205B
 10
357.399
 20
188.685
 30
0.000000
  70
    32
  0
VERTEX
  8
3
  5
205C
 10
357.406
 20
188.644
 30
0.000000
  70
    32
  0
VERTEX
  8
3
  5
205D
 10
357.413
 20
188.603
 30
0.000000
  70
    32
  0
VERTEX
  8
3
  5
205E
 10
357.421
 20
188.563
 30
0.000000
  70
    32
  0
VERTEX
  8
3
  5
205F
 10
357.429
 20
188.522
 30
0.000000
  70
    32
  0
VERTEX
  8
3
  5
2060
 10
357.438
 20
188.482
 30
0.000000
  70
    32
  0
VERTEX
  8
3
  5
2061
 10
357.448
 20
188.442
 30
0.000000
  70
    32
  0
VERTEX
  8
3
  5
2062
 10
357.458
 20
188.402
 30
0.000000
  70
    32
  0
VERTEX
  8
3
  5
2063
 10
357.468
 20
188.362
 30
0.000000
  70
    32
  0
VERTEX
  8
3
  5
2064
 10
357.480
 20
188.322
 30
0.000000
  70
    32
  0
VERTEX
  8
3
  5
2065
 10
357.491
 20
188.283
 30
0.000000
  70
    32
  0
VERTEX
  8
3
  5
2066
 10
357.504
 20
188.244
 30
0.000000
  70
    32
  0
VERTEX
  8
3
  5
2067
 10
357.517
 20
188.205
 30
0.000000
  70
    32
  0
VERTEX
  8
3
  5
2068
 10
357.530
 20
188.166
 30
0.000000
  70
    32
  0
VERTEX
  8
3
  5
2069
 10
357.544
 20
188.128
 30
0.000000
  70
    32
  0
VERTEX
  8
3
  5
206A
 10
357.558
 20
188.090
 30
0.000000
  70
    32
  0
VERTEX
  8
3
  5
206B
 10
357.573
 20
188.052
 30
0.000000
  70
    32
  0
VERTEX
  8
3
  5
206C
 10
357.589
 20
188.015
 30
0.000000
  70
    32
  0
VERTEX
  8
3
  5
206D
 10
357.605
 20
187.978
 30
0.000000
  70
    32
  0
VERTEX
  8
3
  5
206E
 10
357.622
 20
187.941
 30
0.000000
  70
    32
  0
VERTEX
  8
3
  5
206F
 10
357.639
 20
187.904
 30
0.000000
  70
    32
  0
VERTEX
  8
3
  5
2070
 10
357.656
 20
187.868
 30
0.000000
  70
    32
  0
VERTEX
  8
3
  5
2071
 10
357.674
 20
187.832
 30
0.000000
  70
    32
  0
VERTEX
  8
3
  5
2072
 10
357.693
 20
187.797
 30
0.000000
  70
    32
  0
VERTEX
  8
3
  5
2073
 10
357.712
 20
187.762
 30
0.000000
  70
    32
  0
VERTEX
  8
3
  5
2074
 10
357.732
 20
187.727
 30
0.000000
  70
    32
  0
VERTEX
  8
3
  5
2075
 10
357.752
 20
187.693
 30
0.000000
  70
    32
  0
VERTEX
  8
3
  5
2076
 10
357.772
 20
187.659
 30
0.000000
  70
    32
  0
VERTEX
  8
3
  5
2077
 10
357.793
 20
187.626
 30
0.000000
  70
    32
  0
VERTEX
  8
3
  5
2078
 10
357.815
 20
187.593
 30
0.000000
  70
    32
  0
VERTEX
  8
3
  5
2079
 10
357.837
 20
187.560
 30
0.000000
  70
    32
  0
VERTEX
  8
3
  5
207A
 10
357.859
 20
187.528
 30
0.000000
  70
    32
  0
VERTEX
  8
3
  5
207B
 10
357.882
 20
187.497
 30
0.000000
  70
    32
  0
VERTEX
  8
3
  5
207C
 10
357.905
 20
187.465
 30
0.000000
  70
    32
  0
VERTEX
  8
3
  5
207D
 10
357.929
 20
187.435
 30
0.000000
  70
    32
  0
VERTEX
  8
3
  5
207E
 10
357.953
 20
187.404
 30
0.000000
  70
    32
  0
VERTEX
  8
3
  5
207F
 10
357.977
 20
187.375
 30
0.000000
  70
    32
  0
VERTEX
  8
3
  5
2080
 10
358.002
 20
187.345
 30
0.000000
  70
    32
  0
VERTEX
  8
3
  5
2081
 10
358.028
 20
187.316
 30
0.000000
  70
    32
  0
VERTEX
  8
3
  5
2082
 10
358.053
 20
187.288
 30
0.000000
  70
    32
  0
VERTEX
  8
3
  5
2083
 10
358.080
 20
187.260
 30
0.000000
  70
    32
  0
VERTEX
  8
3
  5
2084
 10
358.106
 20
187.233
 30
0.000000
  70
    32
  0
VERTEX
  8
3
  5
2085
 10
358.133
 20
187.206
 30
0.000000
  70
    32
  0
VERTEX
  8
3
  5
2086
 10
358.160
 20
187.180
 30
0.000000
  70
    32
  0
VERTEX
  8
3
  5
2087
 10
358.188
 20
187.155
 30
0.000000
  70
    32
  0
VERTEX
  8
3
  5
2088
 10
358.216
 20
187.130
 30
0.000000
  70
    32
  0
VERTEX
  8
3
  5
2089
 10
358.244
 20
187.105
 30
0.000000
  70
    32
  0
VERTEX
  8
3
  5
208A
 10
358.273
 20
187.081
 30
0.000000
  70
    32
  0
VERTEX
  8
3
  5
208B
 10
358.302
 20
187.058
 30
0.000000
  70
    32
  0
VERTEX
  8
3
  5
208C
 10
358.331
 20
187.035
 30
0.000000
  70
    32
  0
VERTEX
  8
3
  5
208D
 10
358.361
 20
187.013
 30
0.000000
  70
    32
  0
VERTEX
  8
3
  5
208E
 10
358.391
 20
186.991
 30
0.000000
  70
    32
  0
VERTEX
  8
3
  5
208F
 10
358.421
 20
186.970
 30
0.000000
  70
    32
  0
VERTEX
  8
3
  5
2090
 10
358.452
 20
186.950
 30
0.000000
  70
    32
  0
SEQEND
  8
3
  5
2091
  0
POLYLINE
  5
1BB7
  8
0
 10
358.29457161886523
 20
190.4503989714288
 30
0.0
 66
     1
 70
     8
  0
VERTEX
  8
0
  5
2092
 10
358.295
 20
190.450
 30
0.000000
  70
    32
  0
VERTEX
  8
0
  5
2093
 10
358.284
 20
190.433
 30
0.000000
  70
    32
  0
VERTEX
  8
0
  5
2094
 10
358.274
 20
190.416
 30
0.000000
  70
    32
  0
VERTEX
  8
0
  5
2095
 10
358.265
 20
190.398
 30
0.000000
  70
    32
  0
VERTEX
  8
0
  5
2096
 10
358.255
 20
190.381
 30
0.000000
  70
    32
  0
VERTEX
  8
0
  5
2097
 10
358.245
 20
190.363
 30
0.000000
  70
    32
  0
VERTEX
  8
0
  5
2098
 10
358.236
 20
190.345
 30
0.000000
  70
    32
  0
VERTEX
  8
0
  5
2099
 10
358.227
 20
190.327
 30
0.000000
  70
    32
  0
VERTEX
  8
0
  5
209A
 10
358.217
 20
190.309
 30
0.000000
  70
    32
  0
VERTEX
  8
0
  5
209B
 10
358.208
 20
190.290
 30
0.000000
  70
    32
  0
VERTEX
  8
0
  5
209C
 10
358.200
 20
190.272
 30
0.000000
  70
    32
  0
VERTEX
  8
0
  5
209D
 10
358.191
 20
190.253
 30
0.000000
  70
    32
  0
VERTEX
  8
0
  5
209E
 10
358.182
 20
190.235
 30
0.000000
  70
    32
  0
VERTEX
  8
0
  5
209F
 10
358.174
 20
190.216
 30
0.000000
  70
    32
  0
VERTEX
  8
0
  5
20A0
 10
358.166
 20
190.197
 30
0.000000
  70
    32
  0
VERTEX
  8
0
  5
20A1
 10
358.157
 20
190.178
 30
0.000000
  70
    32
  0
VERTEX
  8
0
  5
20A2
 10
358.149
 20
190.158
 30
0.000000
  70
    32
  0
VERTEX
  8
0
  5
20A3
 10
358.142
 20
190.139
 30
0.000000
  70
    32
  0
VERTEX
  8
0
  5
20A4
 10
358.134
 20
190.120
 30
0.000000
  70
    32
  0
VERTEX
  8
0
  5
20A5
 10
358.126
 20
190.100
 30
0.000000
  70
    32
  0
VERTEX
  8
0
  5
20A6
 10
358.119
 20
190.080
 30
0.000000
  70
    32
  0
VERTEX
  8
0
  5
20A7
 10
358.112
 20
190.061
 30
0.000000
  70
    32
  0
VERTEX
  8
0
  5
20A8
 10
358.105
 20
190.041
 30
0.000000
  70
    32
  0
VERTEX
  8
0
  5
20A9
 10
358.098
 20
190.021
 30
0.000000
  70
    32
  0
VERTEX
  8
0
  5
20AA
 10
358.091
 20
190.001
 30
0.000000
  70
    32
  0
VERTEX
  8
0
  5
20AB
 10
358.084
 20
189.981
 30
0.000000
  70
    32
  0
VERTEX
  8
0
  5
20AC
 10
358.078
 20
189.960
 30
0.000000
  70
    32
  0
VERTEX
  8
0
  5
20AD
 10
358.072
 20
189.940
 30
0.000000
  70
    32
  0
VERTEX
  8
0
  5
20AE
 10
358.066
 20
189.919
 30
0.000000
  70
    32
  0
VERTEX
  8
0
  5
20AF
 10
358.060
 20
189.899
 30
0.000000
  70
    32
  0
VERTEX
  8
0
  5
20B0
 10
358.054
 20
189.878
 30
0.000000
  70
    32
  0
VERTEX
  8
0
  5
20B1
 10
358.048
 20
189.858
 30
0.000000
  70
    32
  0
VERTEX
  8
0
  5
20B2
 10
358.043
 20
189.837
 30
0.000000
  70
    32
  0
VERTEX
  8
0
  5
20B3
 10
358.037
 20
189.816
 30
0.000000
  70
    32
  0
VERTEX
  8
0
  5
20B4
 10
358.032
 20
189.795
 30
0.000000
  70
    32
  0
VERTEX
  8
0
  5
20B5
 10
358.027
 20
189.774
 30
0.000000
  70
    32
  0
VERTEX
  8
0
  5
20B6
 10
358.022
 20
189.753
 30
0.000000
  70
    32
  0
VERTEX
  8
0
  5
20B7
 10
358.018
 20
189.732
 30
0.000000
  70
    32
  0
VERTEX
  8
0
  5
20B8
 10
358.013
 20
189.710
 30
0.000000
  70
    32
  0
VERTEX
  8
0
  5
20B9
 10
358.009
 20
189.689
 30
0.000000
  70
    32
  0
VERTEX
  8
0
  5
20BA
 10
358.005
 20
189.668
 30
0.000000
  70
    32
  0
VERTEX
  8
0
  5
20BB
 10
358.001
 20
189.646
 30
0.000000
  70
    32
  0
VERTEX
  8
0
  5
20BC
 10
357.997
 20
189.625
 30
0.000000
  70
    32
  0
VERTEX
  8
0
  5
20BD
 10
357.993
 20
189.603
 30
0.000000
  70
    32
  0
VERTEX
  8
0
  5
20BE
 10
357.990
 20
189.582
 30
0.000000
  70
    32
  0
VERTEX
  8
0
  5
20BF
 10
357.986
 20
189.560
 30
0.000000
  70
    32
  0
VERTEX
  8
0
  5
20C0
 10
357.983
 20
189.538
 30
0.000000
  70
    32
  0
VERTEX
  8
0
  5
20C1
 10
357.980
 20
189.516
 30
0.000000
  70
    32
  0
VERTEX
  8
0
  5
20C2
 10
357.977
 20
189.495
 30
0.000000
  70
    32
  0
VERTEX
  8
0
  5
20C3
 10
357.975
 20
189.473
 30
0.000000
  70
    32
  0
VERTEX
  8
0
  5
20C4
 10
357.972
 20
189.451
 30
0.000000
  70
    32
  0
VERTEX
  8
0
  5
20C5
 10
357.970
 20
189.429
 30
0.000000
  70
    32
  0
VERTEX
  8
0
  5
20C6
 10
357.968
 20
189.407
 30
0.000000
  70
    32
  0
VERTEX
  8
0
  5
20C7
 10
357.966
 20
189.385
 30
0.000000
  70
    32
  0
VERTEX
  8
0
  5
20C8
 10
357.964
 20
189.363
 30
0.000000
  70
    32
  0
VERTEX
  8
0
  5
20C9
 10
357.962
 20
189.341
 30
0.000000
  70
    32
  0
VERTEX
  8
0
  5
20CA
 10
357.961
 20
189.319
 30
0.000000
  70
    32
  0
VERTEX
  8
0
  5
20CB
 10
357.959
 20
189.297
 30
0.000000
  70
    32
  0
VERTEX
  8
0
  5
20CC
 10
357.958
 20
189.275
 30
0.000000
  70
    32
  0
VERTEX
  8
0
  5
20CD
 10
357.957
 20
189.253
 30
0.000000
  70
    32
  0
VERTEX
  8
0
  5
20CE
 10
357.957
 20
189.231
 30
0.000000
  70
    32
  0
VERTEX
  8
0
  5
20CF
 10
357.956
 20
189.209
 30
0.000000
  70
    32
  0
VERTEX
  8
0
  5
20D0
 10
357.956
 20
189.187
 30
0.000000
  70
    32
  0
VERTEX
  8
0
  5
20D1
 10
357.955
 20
189.164
 30
0.000000
  70
    32
  0
VERTEX
  8
0
  5
20D2
 10
357.955
 20
189.142
 30
0.000000
  70
    32
  0
VERTEX
  8
0
  5
20D3
 10
357.955
 20
189.120
 30
0.000000
  70
    32
  0
VERTEX
  8
0
  5
20D4
 10
357.956
 20
189.098
 30
0.000000
  70
    32
  0
VERTEX
  8
0
  5
20D5
 10
357.956
 20
189.076
 30
0.000000
  70
    32
  0
VERTEX
  8
0
  5
20D6
 10
357.957
 20
189.054
 30
0.000000
  70
    32
  0
VERTEX
  8
0
  5
20D7
 10
357.957
 20
189.032
 30
0.000000
  70
    32
  0
VERTEX
  8
0
  5
20D8
 10
357.958
 20
189.010
 30
0.000000
  70
    32
  0
VERTEX
  8
0
  5
20D9
 10
357.959
 20
188.988
 30
0.000000
  70
    32
  0
VERTEX
  8
0
  5
20DA
 10
357.961
 20
188.966
 30
0.000000
  70
    32
  0
VERTEX
  8
0
  5
20DB
 10
357.962
 20
188.943
 30
0.000000
  70
    32
  0
VERTEX
  8
0
  5
20DC
 10
357.964
 20
188.921
 30
0.000000
  70
    32
  0
VERTEX
  8
0
  5
20DD
 10
357.966
 20
188.899
 30
0.000000
  70
    32
  0
VERTEX
  8
0
  5
20DE
 10
357.968
 20
188.878
 30
0.000000
  70
    32
  0
VERTEX
  8
0
  5
20DF
 10
357.970
 20
188.856
 30
0.000000
  70
    32
  0
VERTEX
  8
0
  5
20E0
 10
357.972
 20
188.834
 30
0.000000
  70
    32
  0
VERTEX
  8
0
  5
20E1
 10
357.975
 20
188.812
 30
0.000000
  70
    32
  0
VERTEX
  8
0
  5
20E2
 10
357.977
 20
188.790
 30
0.000000
  70
    32
  0
VERTEX
  8
0
  5
20E3
 10
357.980
 20
188.768
 30
0.000000
  70
    32
  0
VERTEX
  8
0
  5
20E4
 10
357.983
 20
188.746
 30
0.000000
  70
    32
  0
VERTEX
  8
0
  5
20E5
 10
357.986
 20
188.725
 30
0.000000
  70
    32
  0
VERTEX
  8
0
  5
20E6
 10
357.990
 20
188.703
 30
0.000000
  70
    32
  0
VERTEX
  8
0
  5
20E7
 10
357.993
 20
188.682
 30
0.000000
  70
    32
  0
VERTEX
  8
0
  5
20E8
 10
357.997
 20
188.660
 30
0.000000
  70
    32
  0
VERTEX
  8
0
  5
20E9
 10
358.001
 20
188.638
 30
0.000000
  70
    32
  0
VERTEX
  8
0
  5
20EA
 10
358.005
 20
188.617
 30
0.000000
  70
    32
  0
VERTEX
  8
0
  5
20EB
 10
358.009
 20
188.596
 30
0.000000
  70
    32
  0
VERTEX
  8
0
  5
20EC
 10
358.013
 20
188.574
 30
0.000000
  70
    32
  0
VERTEX
  8
0
  5
20ED
 10
358.018
 20
188.553
 30
0.000000
  70
    32
  0
VERTEX
  8
0
  5
20EE
 10
358.022
 20
188.532
 30
0.000000
  70
    32
  0
VERTEX
  8
0
  5
20EF
 10
358.027
 20
188.511
 30
0.000000
  70
    32
  0
VERTEX
  8
0
  5
20F0
 10
358.032
 20
188.490
 30
0.000000
  70
    32
  0
VERTEX
  8
0
  5
20F1
 10
358.037
 20
188.469
 30
0.000000
  70
    32
  0
VERTEX
  8
0
  5
20F2
 10
358.043
 20
188.448
 30
0.000000
  70
    32
  0
VERTEX
  8
0
  5
20F3
 10
358.048
 20
188.427
 30
0.000000
  70
    32
  0
VERTEX
  8
0
  5
20F4
 10
358.054
 20
188.406
 30
0.000000
  70
    32
  0
VERTEX
  8
0
  5
20F5
 10
358.060
 20
188.386
 30
0.000000
  70
    32
  0
VERTEX
  8
0
  5
20F6
 10
358.066
 20
188.365
 30
0.000000
  70
    32
  0
VERTEX
  8
0
  5
20F7
 10
358.072
 20
188.345
 30
0.000000
  70
    32
  0
VERTEX
  8
0
  5
20F8
 10
358.078
 20
188.324
 30
0.000000
  70
    32
  0
VERTEX
  8
0
  5
20F9
 10
358.084
 20
188.304
 30
0.000000
  70
    32
  0
VERTEX
  8
0
  5
20FA
 10
358.091
 20
188.284
 30
0.000000
  70
    32
  0
VERTEX
  8
0
  5
20FB
 10
358.098
 20
188.264
 30
0.000000
  70
    32
  0
VERTEX
  8
0
  5
20FC
 10
358.105
 20
188.244
 30
0.000000
  70
    32
  0
VERTEX
  8
0
  5
20FD
 10
358.112
 20
188.224
 30
0.000000
  70
    32
  0
VERTEX
  8
0
  5
20FE
 10
358.119
 20
188.204
 30
0.000000
  70
    32
  0
VERTEX
  8
0
  5
20FF
 10
358.126
 20
188.185
 30
0.000000
  70
    32
  0
VERTEX
  8
0
  5
2100
 10
358.134
 20
188.165
 30
0.000000
  70
    32
  0
VERTEX
  8
0
  5
2101
 10
358.142
 20
188.146
 30
0.000000
  70
    32
  0
VERTEX
  8
0
  5
2102
 10
358.149
 20
188.126
 30
0.000000
  70
    32
  0
VERTEX
  8
0
  5
2103
 10
358.157
 20
188.107
 30
0.000000
  70
    32
  0
VERTEX
  8
0
  5
2104
 10
358.166
 20
188.088
 30
0.000000
  70
    32
  0
VERTEX
  8
0
  5
2105
 10
358.174
 20
188.069
 30
0.000000
  70
    32
  0
VERTEX
  8
0
  5
2106
 10
358.182
 20
188.050
 30
0.000000
  70
    32
  0
VERTEX
  8
0
  5
2107
 10
358.191
 20
188.031
 30
0.000000
  70
    32
  0
VERTEX
  8
0
  5
2108
 10
358.200
 20
188.013
 30
0.000000
  70
    32
  0
VERTEX
  8
0
  5
2109
 10
358.208
 20
187.994
 30
0.000000
  70
    32
  0
VERTEX
  8
0
  5
210A
 10
358.217
 20
187.976
 30
0.000000
  70
    32
  0
VERTEX
  8
0
  5
210B
 10
358.227
 20
187.958
 30
0.000000
  70
    32
  0
VERTEX
  8
0
  5
210C
 10
358.236
 20
187.940
 30
0.000000
  70
    32
  0
VERTEX
  8
0
  5
210D
 10
358.245
 20
187.922
 30
0.000000
  70
    32
  0
VERTEX
  8
0
  5
210E
 10
358.255
 20
187.904
 30
0.000000
  70
    32
  0
VERTEX
  8
0
  5
210F
 10
358.265
 20
187.886
 30
0.000000
  70
    32
  0
VERTEX
  8
0
  5
2110
 10
358.274
 20
187.869
 30
0.000000
  70
    32
  0
VERTEX
  8
0
  5
2111
 10
358.284
 20
187.851
 30
0.000000
  70
    32
  0
VERTEX
  8
0
  5
2112
 10
358.295
 20
187.834
 30
0.000000
  70
    32
  0
SEQEND
  8
0
  5
2113
  0
POLYLINE
  5
1BB8
  8
0
 10
378.12272913082643
 20
190.45039897143005
 30
0.0
 66
     1
 70
     8
  0
VERTEX
  8
0
  5
2114
 10
378.123
 20
190.450
 30
0.000000
  70
    32
  0
VERTEX
  8
0
  5
2115
 10
378.133
 20
190.433
 30
0.000000
  70
    32
  0
VERTEX
  8
0
  5
2116
 10
378.143
 20
190.416
 30
0.000000
  70
    32
  0
VERTEX
  8
0
  5
2117
 10
378.153
 20
190.398
 30
0.000000
  70
    32
  0
VERTEX
  8
0
  5
2118
 10
378.162
 20
190.381
 30
0.000000
  70
    32
  0
VERTEX
  8
0
  5
2119
 10
378.172
 20
190.363
 30
0.000000
  70
    32
  0
VERTEX
  8
0
  5
211A
 10
378.181
 20
190.345
 30
0.000000
  70
    32
  0
VERTEX
  8
0
  5
211B
 10
378.191
 20
190.327
 30
0.000000
  70
    32
  0
VERTEX
  8
0
  5
211C
 10
378.200
 20
190.309
 30
0.000000
  70
    32
  0
VERTEX
  8
0
  5
211D
 10
378.209
 20
190.290
 30
0.000000
  70
    32
  0
VERTEX
  8
0
  5
211E
 10
378.218
 20
190.272
 30
0.000000
  70
    32
  0
VERTEX
  8
0
  5
211F
 10
378.226
 20
190.253
 30
0.000000
  70
    32
  0
VERTEX
  8
0
  5
2120
 10
378.235
 20
190.235
 30
0.000000
  70
    32
  0
VERTEX
  8
0
  5
2121
 10
378.243
 20
190.216
 30
0.000000
  70
    32
  0
VERTEX
  8
0
  5
2122
 10
378.252
 20
190.197
 30
0.000000
  70
    32
  0
VERTEX
  8
0
  5
2123
 10
378.260
 20
190.178
 30
0.000000
  70
    32
  0
VERTEX
  8
0
  5
2124
 10
378.268
 20
190.158
 30
0.000000
  70
    32
  0
VERTEX
  8
0
  5
2125
 10
378.276
 20
190.139
 30
0.000000
  70
    32
  0
VERTEX
  8
0
  5
2126
 10
378.283
 20
190.120
 30
0.000000
  70
    32
  0
VERTEX
  8
0
  5
2127
 10
378.291
 20
190.100
 30
0.000000
  70
    32
  0
VERTEX
  8
0
  5
2128
 10
378.298
 20
190.080
 30
0.000000
  70
    32
  0
VERTEX
  8
0
  5
2129
 10
378.306
 20
190.061
 30
0.000000
  70
    32
  0
VERTEX
  8
0
  5
212A
 10
378.313
 20
190.041
 30
0.000000
  70
    32
  0
VERTEX
  8
0
  5
212B
 10
378.320
 20
190.021
 30
0.000000
  70
    32
  0
VERTEX
  8
0
  5
212C
 10
378.326
 20
190.001
 30
0.000000
  70
    32
  0
VERTEX
  8
0
  5
212D
 10
378.333
 20
189.981
 30
0.000000
  70
    32
  0
VERTEX
  8
0
  5
212E
 10
378.339
 20
189.960
 30
0.000000
  70
    32
  0
VERTEX
  8
0
  5
212F
 10
378.346
 20
189.940
 30
0.000000
  70
    32
  0
VERTEX
  8
0
  5
2130
 10
378.352
 20
189.919
 30
0.000000
  70
    32
  0
VERTEX
  8
0
  5
2131
 10
378.358
 20
189.899
 30
0.000000
  70
    32
  0
VERTEX
  8
0
  5
2132
 10
378.364
 20
189.878
 30
0.000000
  70
    32
  0
VERTEX
  8
0
  5
2133
 10
378.369
 20
189.858
 30
0.000000
  70
    32
  0
VERTEX
  8
0
  5
2134
 10
378.375
 20
189.837
 30
0.000000
  70
    32
  0
VERTEX
  8
0
  5
2135
 10
378.380
 20
189.816
 30
0.000000
  70
    32
  0
VERTEX
  8
0
  5
2136
 10
378.385
 20
189.795
 30
0.000000
  70
    32
  0
VERTEX
  8
0
  5
2137
 10
378.390
 20
189.774
 30
0.000000
  70
    32
  0
VERTEX
  8
0
  5
2138
 10
378.395
 20
189.753
 30
0.000000
  70
    32
  0
VERTEX
  8
0
  5
2139
 10
378.400
 20
189.732
 30
0.000000
  70
    32
  0
VERTEX
  8
0
  5
213A
 10
378.404
 20
189.710
 30
0.000000
  70
    32
  0
VERTEX
  8
0
  5
213B
 10
378.409
 20
189.689
 30
0.000000
  70
    32
  0
VERTEX
  8
0
  5
213C
 10
378.413
 20
189.668
 30
0.000000
  70
    32
  0
VERTEX
  8
0
  5
213D
 10
378.417
 20
189.646
 30
0.000000
  70
    32
  0
VERTEX
  8
0
  5
213E
 10
378.421
 20
189.625
 30
0.000000
  70
    32
  0
VERTEX
  8
0
  5
213F
 10
378.424
 20
189.603
 30
0.000000
  70
    32
  0
VERTEX
  8
0
  5
2140
 10
378.428
 20
189.582
 30
0.000000
  70
    32
  0
VERTEX
  8
0
  5
2141
 10
378.431
 20
189.560
 30
0.000000
  70
    32
  0
VERTEX
  8
0
  5
2142
 10
378.434
 20
189.538
 30
0.000000
  70
    32
  0
VERTEX
  8
0
  5
2143
 10
378.437
 20
189.516
 30
0.000000
  70
    32
  0
VERTEX
  8
0
  5
2144
 10
378.440
 20
189.495
 30
0.000000
  70
    32
  0
VERTEX
  8
0
  5
2145
 10
378.443
 20
189.473
 30
0.000000
  70
    32
  0
VERTEX
  8
0
  5
2146
 10
378.445
 20
189.451
 30
0.000000
  70
    32
  0
VERTEX
  8
0
  5
2147
 10
378.448
 20
189.429
 30
0.000000
  70
    32
  0
VERTEX
  8
0
  5
2148
 10
378.450
 20
189.407
 30
0.000000
  70
    32
  0
VERTEX
  8
0
  5
2149
 10
378.452
 20
189.385
 30
0.000000
  70
    32
  0
VERTEX
  8
0
  5
214A
 10
378.453
 20
189.363
 30
0.000000
  70
    32
  0
VERTEX
  8
0
  5
214B
 10
378.455
 20
189.341
 30
0.000000
  70
    32
  0
VERTEX
  8
0
  5
214C
 10
378.457
 20
189.319
 30
0.000000
  70
    32
  0
VERTEX
  8
0
  5
214D
 10
378.458
 20
189.297
 30
0.000000
  70
    32
  0
VERTEX
  8
0
  5
214E
 10
378.459
 20
189.275
 30
0.000000
  70
    32
  0
VERTEX
  8
0
  5
214F
 10
378.460
 20
189.253
 30
0.000000
  70
    32
  0
VERTEX
  8
0
  5
2150
 10
378.461
 20
189.231
 30
0.000000
  70
    32
  0
VERTEX
  8
0
  5
2151
 10
378.461
 20
189.209
 30
0.000000
  70
    32
  0
VERTEX
  8
0
  5
2152
 10
378.462
 20
189.187
 30
0.000000
  70
    32
  0
VERTEX
  8
0
  5
2153
 10
378.462
 20
189.164
 30
0.000000
  70
    32
  0
VERTEX
  8
0
  5
2154
 10
378.462
 20
189.142
 30
0.000000
  70
    32
  0
VERTEX
  8
0
  5
2155
 10
378.462
 20
189.120
 30
0.000000
  70
    32
  0
VERTEX
  8
0
  5
2156
 10
378.462
 20
189.098
 30
0.000000
  70
    32
  0
VERTEX
  8
0
  5
2157
 10
378.461
 20
189.076
 30
0.000000
  70
    32
  0
VERTEX
  8
0
  5
2158
 10
378.461
 20
189.054
 30
0.000000
  70
    32
  0
VERTEX
  8
0
  5
2159
 10
378.460
 20
189.032
 30
0.000000
  70
    32
  0
VERTEX
  8
0
  5
215A
 10
378.459
 20
189.010
 30
0.000000
  70
    32
  0
VERTEX
  8
0
  5
215B
 10
378.458
 20
188.988
 30
0.000000
  70
    32
  0
VERTEX
  8
0
  5
215C
 10
378.457
 20
188.966
 30
0.000000
  70
    32
  0
VERTEX
  8
0
  5
215D
 10
378.455
 20
188.943
 30
0.000000
  70
    32
  0
VERTEX
  8
0
  5
215E
 10
378.453
 20
188.921
 30
0.000000
  70
    32
  0
VERTEX
  8
0
  5
215F
 10
378.452
 20
188.899
 30
0.000000
  70
    32
  0
VERTEX
  8
0
  5
2160
 10
378.450
 20
188.878
 30
0.000000
  70
    32
  0
VERTEX
  8
0
  5
2161
 10
378.448
 20
188.856
 30
0.000000
  70
    32
  0
VERTEX
  8
0
  5
2162
 10
378.445
 20
188.834
 30
0.000000
  70
    32
  0
VERTEX
  8
0
  5
2163
 10
378.443
 20
188.812
 30
0.000000
  70
    32
  0
VERTEX
  8
0
  5
2164
 10
378.440
 20
188.790
 30
0.000000
  70
    32
  0
VERTEX
  8
0
  5
2165
 10
378.437
 20
188.768
 30
0.000000
  70
    32
  0
VERTEX
  8
0
  5
2166
 10
378.434
 20
188.746
 30
0.000000
  70
    32
  0
VERTEX
  8
0
  5
2167
 10
378.431
 20
188.725
 30
0.000000
  70
    32
  0
VERTEX
  8
0
  5
2168
 10
378.428
 20
188.703
 30
0.000000
  70
    32
  0
VERTEX
  8
0
  5
2169
 10
378.424
 20
188.682
 30
0.000000
  70
    32
  0
VERTEX
  8
0
  5
216A
 10
378.421
 20
188.660
 30
0.000000
  70
    32
  0
VERTEX
  8
0
  5
216B
 10
378.417
 20
188.638
 30
0.000000
  70
    32
  0
VERTEX
  8
0
  5
216C
 10
378.413
 20
188.617
 30
0.000000
  70
    32
  0
VERTEX
  8
0
  5
216D
 10
378.409
 20
188.596
 30
0.000000
  70
    32
  0
VERTEX
  8
0
  5
216E
 10
378.404
 20
188.574
 30
0.000000
  70
    32
  0
VERTEX
  8
0
  5
216F
 10
378.400
 20
188.553
 30
0.000000
  70
    32
  0
VERTEX
  8
0
  5
2170
 10
378.395
 20
188.532
 30
0.000000
  70
    32
  0
VERTEX
  8
0
  5
2171
 10
378.390
 20
188.511
 30
0.000000
  70
    32
  0
VERTEX
  8
0
  5
2172
 10
378.385
 20
188.490
 30
0.000000
  70
    32
  0
VERTEX
  8
0
  5
2173
 10
378.380
 20
188.469
 30
0.000000
  70
    32
  0
VERTEX
  8
0
  5
2174
 10
378.375
 20
188.448
 30
0.000000
  70
    32
  0
VERTEX
  8
0
  5
2175
 10
378.369
 20
188.427
 30
0.000000
  70
    32
  0
VERTEX
  8
0
  5
2176
 10
378.364
 20
188.406
 30
0.000000
  70
    32
  0
VERTEX
  8
0
  5
2177
 10
378.358
 20
188.386
 30
0.000000
  70
    32
  0
VERTEX
  8
0
  5
2178
 10
378.352
 20
188.365
 30
0.000000
  70
    32
  0
VERTEX
  8
0
  5
2179
 10
378.346
 20
188.345
 30
0.000000
  70
    32
  0
VERTEX
  8
0
  5
217A
 10
378.339
 20
188.324
 30
0.000000
  70
    32
  0
VERTEX
  8
0
  5
217B
 10
378.333
 20
188.304
 30
0.000000
  70
    32
  0
VERTEX
  8
0
  5
217C
 10
378.326
 20
188.284
 30
0.000000
  70
    32
  0
VERTEX
  8
0
  5
217D
 10
378.320
 20
188.264
 30
0.000000
  70
    32
  0
VERTEX
  8
0
  5
217E
 10
378.313
 20
188.244
 30
0.000000
  70
    32
  0
VERTEX
  8
0
  5
217F
 10
378.306
 20
188.224
 30
0.000000
  70
    32
  0
VERTEX
  8
0
  5
2180
 10
378.298
 20
188.204
 30
0.000000
  70
    32
  0
VERTEX
  8
0
  5
2181
 10
378.291
 20
188.185
 30
0.000000
  70
    32
  0
VERTEX
  8
0
  5
2182
 10
378.283
 20
188.165
 30
0.000000
  70
    32
  0
VERTEX
  8
0
  5
2183
 10
378.276
 20
188.146
 30
0.000000
  70
    32
  0
VERTEX
  8
0
  5
2184
 10
378.268
 20
188.126
 30
0.000000
  70
    32
  0
VERTEX
  8
0
  5
2185
 10
378.260
 20
188.107
 30
0.000000
  70
    32
  0
VERTEX
  8
0
  5
2186
 10
378.252
 20
188.088
 30
0.000000
  70
    32
  0
VERTEX
  8
0
  5
2187
 10
378.243
 20
188.069
 30
0.000000
  70
    32
  0
VERTEX
  8
0
  5
2188
 10
378.235
 20
188.050
 30
0.000000
  70
    32
  0
VERTEX
  8
0
  5
2189
 10
378.226
 20
188.031
 30
0.000000
  70
    32
  0
VERTEX
  8
0
  5
218A
 10
378.218
 20
188.013
 30
0.000000
  70
    32
  0
VERTEX
  8
0
  5
218B
 10
378.209
 20
187.994
 30
0.000000
  70
    32
  0
VERTEX
  8
0
  5
218C
 10
378.200
 20
187.976
 30
0.000000
  70
    32
  0
VERTEX
  8
0
  5
218D
 10
378.191
 20
187.958
 30
0.000000
  70
    32
  0
VERTEX
  8
0
  5
218E
 10
378.181
 20
187.940
 30
0.000000
  70
    32
  0
VERTEX
  8
0
  5
218F
 10
378.172
 20
187.922
 30
0.000000
  70
    32
  0
VERTEX
  8
0
  5
2190
 10
378.162
 20
187.904
 30
0.000000
  70
    32
  0
VERTEX
  8
0
  5
2191
 10
378.153
 20
187.886
 30
0.000000
  70
    32
  0
VERTEX
  8
0
  5
2192
 10
378.143
 20
187.869
 30
0.000000
  70
    32
  0
VERTEX
  8
0
  5
2193
 10
378.133
 20
187.851
 30
0.000000
  70
    32
  0
VERTEX
  8
0
  5
2194
 10
378.123
 20
187.834
 30
0.000000
  70
    32
  0
SEQEND
  8
0
  5
2195
  0
POLYLINE
  5
1BB9
  8
3
 10
377.96535533886686
 20
191.33475149786568
 30
0.0
 66
     1
 70
     8
  0
VERTEX
  8
3
  5
2196
 10
377.965
 20
191.335
 30
0.000000
  70
    32
  0
VERTEX
  8
3
  5
2197
 10
377.996
 20
191.314
 30
0.000000
  70
    32
  0
VERTEX
  8
3
  5
2198
 10
378.026
 20
191.293
 30
0.000000
  70
    32
  0
VERTEX
  8
3
  5
2199
 10
378.056
 20
191.272
 30
0.000000
  70
    32
  0
VERTEX
  8
3
  5
219A
 10
378.086
 20
191.250
 30
0.000000
  70
    32
  0
VERTEX
  8
3
  5
219B
 10
378.115
 20
191.227
 30
0.000000
  70
    32
  0
VERTEX
  8
3
  5
219C
 10
378.144
 20
191.203
 30
0.000000
  70
    32
  0
VERTEX
  8
3
  5
219D
 10
378.173
 20
191.180
 30
0.000000
  70
    32
  0
VERTEX
  8
3
  5
219E
 10
378.201
 20
191.155
 30
0.000000
  70
    32
  0
VERTEX
  8
3
  5
219F
 10
378.229
 20
191.130
 30
0.000000
  70
    32
  0
VERTEX
  8
3
  5
21A0
 10
378.257
 20
191.104
 30
0.000000
  70
    32
  0
VERTEX
  8
3
  5
21A1
 10
378.284
 20
191.078
 30
0.000000
  70
    32
  0
VERTEX
  8
3
  5
21A2
 10
378.311
 20
191.052
 30
0.000000
  70
    32
  0
VERTEX
  8
3
  5
21A3
 10
378.338
 20
191.024
 30
0.000000
  70
    32
  0
VERTEX
  8
3
  5
21A4
 10
378.364
 20
190.997
 30
0.000000
  70
    32
  0
VERTEX
  8
3
  5
21A5
 10
378.390
 20
190.968
 30
0.000000
  70
    32
  0
VERTEX
  8
3
  5
21A6
 10
378.415
 20
190.939
 30
0.000000
  70
    32
  0
VERTEX
  8
3
  5
21A7
 10
378.440
 20
190.910
 30
0.000000
  70
    32
  0
VERTEX
  8
3
  5
21A8
 10
378.464
 20
190.880
 30
0.000000
  70
    32
  0
VERTEX
  8
3
  5
21A9
 10
378.489
 20
190.850
 30
0.000000
  70
    32
  0
VERTEX
  8
3
  5
21AA
 10
378.512
 20
190.819
 30
0.000000
  70
    32
  0
VERTEX
  8
3
  5
21AB
 10
378.536
 20
190.788
 30
0.000000
  70
    32
  0
VERTEX
  8
3
  5
21AC
 10
378.558
 20
190.756
 30
0.000000
  70
    32
  0
VERTEX
  8
3
  5
21AD
 10
378.581
 20
190.724
 30
0.000000
  70
    32
  0
VERTEX
  8
3
  5
21AE
 10
378.603
 20
190.692
 30
0.000000
  70
    32
  0
VERTEX
  8
3
  5
21AF
 10
378.624
 20
190.659
 30
0.000000
  70
    32
  0
VERTEX
  8
3
  5
21B0
 10
378.645
 20
190.625
 30
0.000000
  70
    32
  0
VERTEX
  8
3
  5
21B1
 10
378.666
 20
190.591
 30
0.000000
  70
    32
  0
VERTEX
  8
3
  5
21B2
 10
378.686
 20
190.557
 30
0.000000
  70
    32
  0
VERTEX
  8
3
  5
21B3
 10
378.705
 20
190.523
 30
0.000000
  70
    32
  0
VERTEX
  8
3
  5
21B4
 10
378.724
 20
190.488
 30
0.000000
  70
    32
  0
VERTEX
  8
3
  5
21B5
 10
378.743
 20
190.452
 30
0.000000
  70
    32
  0
VERTEX
  8
3
  5
21B6
 10
378.761
 20
190.416
 30
0.000000
  70
    32
  0
VERTEX
  8
3
  5
21B7
 10
378.779
 20
190.380
 30
0.000000
  70
    32
  0
VERTEX
  8
3
  5
21B8
 10
378.796
 20
190.344
 30
0.000000
  70
    32
  0
VERTEX
  8
3
  5
21B9
 10
378.812
 20
190.307
 30
0.000000
  70
    32
  0
VERTEX
  8
3
  5
21BA
 10
378.828
 20
190.270
 30
0.000000
  70
    32
  0
VERTEX
  8
3
  5
21BB
 10
378.844
 20
190.232
 30
0.000000
  70
    32
  0
VERTEX
  8
3
  5
21BC
 10
378.859
 20
190.195
 30
0.000000
  70
    32
  0
VERTEX
  8
3
  5
21BD
 10
378.873
 20
190.157
 30
0.000000
  70
    32
  0
VERTEX
  8
3
  5
21BE
 10
378.887
 20
190.118
 30
0.000000
  70
    32
  0
VERTEX
  8
3
  5
21BF
 10
378.901
 20
190.080
 30
0.000000
  70
    32
  0
VERTEX
  8
3
  5
21C0
 10
378.914
 20
190.041
 30
0.000000
  70
    32
  0
VERTEX
  8
3
  5
21C1
 10
378.926
 20
190.002
 30
0.000000
  70
    32
  0
VERTEX
  8
3
  5
21C2
 10
378.938
 20
189.962
 30
0.000000
  70
    32
  0
VERTEX
  8
3
  5
21C3
 10
378.949
 20
189.923
 30
0.000000
  70
    32
  0
VERTEX
  8
3
  5
21C4
 10
378.959
 20
189.883
 30
0.000000
  70
    32
  0
VERTEX
  8
3
  5
21C5
 10
378.970
 20
189.843
 30
0.000000
  70
    32
  0
VERTEX
  8
3
  5
21C6
 10
378.979
 20
189.803
 30
0.000000
  70
    32
  0
VERTEX
  8
3
  5
21C7
 10
378.988
 20
189.762
 30
0.000000
  70
    32
  0
VERTEX
  8
3
  5
21C8
 10
378.996
 20
189.722
 30
0.000000
  70
    32
  0
VERTEX
  8
3
  5
21C9
 10
379.004
 20
189.681
 30
0.000000
  70
    32
  0
VERTEX
  8
3
  5
21CA
 10
379.012
 20
189.640
 30
0.000000
  70
    32
  0
VERTEX
  8
3
  5
21CB
 10
379.018
 20
189.599
 30
0.000000
  70
    32
  0
VERTEX
  8
3
  5
21CC
 10
379.024
 20
189.558
 30
0.000000
  70
    32
  0
VERTEX
  8
3
  5
21CD
 10
379.030
 20
189.517
 30
0.000000
  70
    32
  0
VERTEX
  8
3
  5
21CE
 10
379.035
 20
189.476
 30
0.000000
  70
    32
  0
VERTEX
  8
3
  5
21CF
 10
379.039
 20
189.434
 30
0.000000
  70
    32
  0
VERTEX
  8
3
  5
21D0
 10
379.043
 20
189.393
 30
0.000000
  70
    32
  0
VERTEX
  8
3
  5
21D1
 10
379.046
 20
189.351
 30
0.000000
  70
    32
  0
VERTEX
  8
3
  5
21D2
 10
379.049
 20
189.309
 30
0.000000
  70
    32
  0
VERTEX
  8
3
  5
21D3
 10
379.051
 20
189.268
 30
0.000000
  70
    32
  0
VERTEX
  8
3
  5
21D4
 10
379.052
 20
189.226
 30
0.000000
  70
    32
  0
VERTEX
  8
3
  5
21D5
 10
379.053
 20
189.184
 30
0.000000
  70
    32
  0
VERTEX
  8
3
  5
21D6
 10
379.054
 20
189.142
 30
0.000000
  70
    32
  0
VERTEX
  8
3
  5
21D7
 10
379.053
 20
189.101
 30
0.000000
  70
    32
  0
VERTEX
  8
3
  5
21D8
 10
379.052
 20
189.059
 30
0.000000
  70
    32
  0
VERTEX
  8
3
  5
21D9
 10
379.051
 20
189.017
 30
0.000000
  70
    32
  0
VERTEX
  8
3
  5
21DA
 10
379.049
 20
188.975
 30
0.000000
  70
    32
  0
VERTEX
  8
3
  5
21DB
 10
379.046
 20
188.934
 30
0.000000
  70
    32
  0
VERTEX
  8
3
  5
21DC
 10
379.043
 20
188.892
 30
0.000000
  70
    32
  0
VERTEX
  8
3
  5
21DD
 10
379.039
 20
188.851
 30
0.000000
  70
    32
  0
VERTEX
  8
3
  5
21DE
 10
379.035
 20
188.809
 30
0.000000
  70
    32
  0
VERTEX
  8
3
  5
21DF
 10
379.030
 20
188.768
 30
0.000000
  70
    32
  0
VERTEX
  8
3
  5
21E0
 10
379.024
 20
188.726
 30
0.000000
  70
    32
  0
VERTEX
  8
3
  5
21E1
 10
379.018
 20
188.685
 30
0.000000
  70
    32
  0
VERTEX
  8
3
  5
21E2
 10
379.012
 20
188.644
 30
0.000000
  70
    32
  0
VERTEX
  8
3
  5
21E3
 10
379.004
 20
188.603
 30
0.000000
  70
    32
  0
VERTEX
  8
3
  5
21E4
 10
378.996
 20
188.563
 30
0.000000
  70
    32
  0
VERTEX
  8
3
  5
21E5
 10
378.988
 20
188.522
 30
0.000000
  70
    32
  0
VERTEX
  8
3
  5
21E6
 10
378.979
 20
188.482
 30
0.000000
  70
    32
  0
VERTEX
  8
3
  5
21E7
 10
378.970
 20
188.442
 30
0.000000
  70
    32
  0
VERTEX
  8
3
  5
21E8
 10
378.959
 20
188.402
 30
0.000000
  70
    32
  0
VERTEX
  8
3
  5
21E9
 10
378.949
 20
188.362
 30
0.000000
  70
    32
  0
VERTEX
  8
3
  5
21EA
 10
378.938
 20
188.322
 30
0.000000
  70
    32
  0
VERTEX
  8
3
  5
21EB
 10
378.926
 20
188.283
 30
0.000000
  70
    32
  0
VERTEX
  8
3
  5
21EC
 10
378.914
 20
188.244
 30
0.000000
  70
    32
  0
VERTEX
  8
3
  5
21ED
 10
378.901
 20
188.205
 30
0.000000
  70
    32
  0
VERTEX
  8
3
  5
21EE
 10
378.887
 20
188.166
 30
0.000000
  70
    32
  0
VERTEX
  8
3
  5
21EF
 10
378.873
 20
188.128
 30
0.000000
  70
    32
  0
VERTEX
  8
3
  5
21F0
 10
378.859
 20
188.090
 30
0.000000
  70
    32
  0
VERTEX
  8
3
  5
21F1
 10
378.844
 20
188.052
 30
0.000000
  70
    32
  0
VERTEX
  8
3
  5
21F2
 10
378.828
 20
188.015
 30
0.000000
  70
    32
  0
VERTEX
  8
3
  5
21F3
 10
378.812
 20
187.978
 30
0.000000
  70
    32
  0
VERTEX
  8
3
  5
21F4
 10
378.796
 20
187.941
 30
0.000000
  70
    32
  0
VERTEX
  8
3
  5
21F5
 10
378.779
 20
187.904
 30
0.000000
  70
    32
  0
VERTEX
  8
3
  5
21F6
 10
378.761
 20
187.868
 30
0.000000
  70
    32
  0
VERTEX
  8
3
  5
21F7
 10
378.743
 20
187.832
 30
0.000000
  70
    32
  0
VERTEX
  8
3
  5
21F8
 10
378.724
 20
187.797
 30
0.000000
  70
    32
  0
VERTEX
  8
3
  5
21F9
 10
378.705
 20
187.762
 30
0.000000
  70
    32
  0
VERTEX
  8
3
  5
21FA
 10
378.686
 20
187.727
 30
0.000000
  70
    32
  0
VERTEX
  8
3
  5
21FB
 10
378.666
 20
187.693
 30
0.000000
  70
    32
  0
VERTEX
  8
3
  5
21FC
 10
378.645
 20
187.659
 30
0.000000
  70
    32
  0
VERTEX
  8
3
  5
21FD
 10
378.624
 20
187.626
 30
0.000000
  70
    32
  0
VERTEX
  8
3
  5
21FE
 10
378.603
 20
187.593
 30
0.000000
  70
    32
  0
VERTEX
  8
3
  5
21FF
 10
378.581
 20
187.560
 30
0.000000
  70
    32
  0
VERTEX
  8
3
  5
2200
 10
378.558
 20
187.528
 30
0.000000
  70
    32
  0
VERTEX
  8
3
  5
2201
 10
378.536
 20
187.497
 30
0.000000
  70
    32
  0
VERTEX
  8
3
  5
2202
 10
378.512
 20
187.465
 30
0.000000
  70
    32
  0
VERTEX
  8
3
  5
2203
 10
378.489
 20
187.435
 30
0.000000
  70
    32
  0
VERTEX
  8
3
  5
2204
 10
378.464
 20
187.404
 30
0.000000
  70
    32
  0
VERTEX
  8
3
  5
2205
 10
378.440
 20
187.375
 30
0.000000
  70
    32
  0
VERTEX
  8
3
  5
2206
 10
378.415
 20
187.345
 30
0.000000
  70
    32
  0
VERTEX
  8
3
  5
2207
 10
378.390
 20
187.316
 30
0.000000
  70
    32
  0
VERTEX
  8
3
  5
2208
 10
378.364
 20
187.288
 30
0.000000
  70
    32
  0
VERTEX
  8
3
  5
2209
 10
378.338
 20
187.260
 30
0.000000
  70
    32
  0
VERTEX
  8
3
  5
220A
 10
378.311
 20
187.233
 30
0.000000
  70
    32
  0
VERTEX
  8
3
  5
220B
 10
378.284
 20
187.206
 30
0.000000
  70
    32
  0
VERTEX
  8
3
  5
220C
 10
378.257
 20
187.180
 30
0.000000
  70
    32
  0
VERTEX
  8
3
  5
220D
 10
378.229
 20
187.155
 30
0.000000
  70
    32
  0
VERTEX
  8
3
  5
220E
 10
378.201
 20
187.130
 30
0.000000
  70
    32
  0
VERTEX
  8
3
  5
220F
 10
378.173
 20
187.105
 30
0.000000
  70
    32
  0
VERTEX
  8
3
  5
2210
 10
378.144
 20
187.081
 30
0.000000
  70
    32
  0
VERTEX
  8
3
  5
2211
 10
378.115
 20
187.058
 30
0.000000
  70
    32
  0
VERTEX
  8
3
  5
2212
 10
378.086
 20
187.035
 30
0.000000
  70
    32
  0
VERTEX
  8
3
  5
2213
 10
378.056
 20
187.013
 30
0.000000
  70
    32
  0
VERTEX
  8
3
  5
2214
 10
378.026
 20
186.991
 30
0.000000
  70
    32
  0
VERTEX
  8
3
  5
2215
 10
377.996
 20
186.970
 30
0.000000
  70
    32
  0
VERTEX
  8
3
  5
2216
 10
377.965
 20
186.950
 30
0.000000
  70
    32
  0
SEQEND
  8
3
  5
2217
  0
POLYLINE
  5
1BBA
  8
0
 10
377.26379481795578
 20
193.3854853103314
 30
0.0
 66
     1
 70
     8
  0
VERTEX
  8
0
  5
2218
 10
377.264
 20
193.385
 30
0.000000
  70
    32
  0
VERTEX
  8
0
  5
2219
 10
377.351
 20
193.390
 30
0.000000
  70
    32
  0
VERTEX
  8
0
  5
221A
 10
377.438
 20
193.392
 30
0.000000
  70
    32
  0
VERTEX
  8
0
  5
221B
 10
377.526
 20
193.392
 30
0.000000
  70
    32
  0
VERTEX
  8
0
  5
221C
 10
377.613
 20
193.388
 30
0.000000
  70
    32
  0
VERTEX
  8
0
  5
221D
 10
377.700
 20
193.382
 30
0.000000
  70
    32
  0
VERTEX
  8
0
  5
221E
 10
377.787
 20
193.373
 30
0.000000
  70
    32
  0
VERTEX
  8
0
  5
221F
 10
377.874
 20
193.361
 30
0.000000
  70
    32
  0
VERTEX
  8
0
  5
2220
 10
377.961
 20
193.347
 30
0.000000
  70
    32
  0
VERTEX
  8
0
  5
2221
 10
378.047
 20
193.330
 30
0.000000
  70
    32
  0
VERTEX
  8
0
  5
2222
 10
378.133
 20
193.310
 30
0.000000
  70
    32
  0
VERTEX
  8
0
  5
2223
 10
378.218
 20
193.287
 30
0.000000
  70
    32
  0
VERTEX
  8
0
  5
2224
 10
378.303
 20
193.262
 30
0.000000
  70
    32
  0
VERTEX
  8
0
  5
2225
 10
378.387
 20
193.234
 30
0.000000
  70
    32
  0
VERTEX
  8
0
  5
2226
 10
378.471
 20
193.203
 30
0.000000
  70
    32
  0
VERTEX
  8
0
  5
2227
 10
378.554
 20
193.170
 30
0.000000
  70
    32
  0
VERTEX
  8
0
  5
2228
 10
378.637
 20
193.134
 30
0.000000
  70
    32
  0
VERTEX
  8
0
  5
2229
 10
378.718
 20
193.096
 30
0.000000
  70
    32
  0
VERTEX
  8
0
  5
222A
 10
378.799
 20
193.055
 30
0.000000
  70
    32
  0
VERTEX
  8
0
  5
222B
 10
378.879
 20
193.012
 30
0.000000
  70
    32
  0
VERTEX
  8
0
  5
222C
 10
378.958
 20
192.966
 30
0.000000
  70
    32
  0
VERTEX
  8
0
  5
222D
 10
379.036
 20
192.917
 30
0.000000
  70
    32
  0
VERTEX
  8
0
  5
222E
 10
379.113
 20
192.867
 30
0.000000
  70
    32
  0
VERTEX
  8
0
  5
222F
 10
379.189
 20
192.813
 30
0.000000
  70
    32
  0
VERTEX
  8
0
  5
2230
 10
379.264
 20
192.758
 30
0.000000
  70
    32
  0
VERTEX
  8
0
  5
2231
 10
379.338
 20
192.700
 30
0.000000
  70
    32
  0
VERTEX
  8
0
  5
2232
 10
379.410
 20
192.639
 30
0.000000
  70
    32
  0
VERTEX
  8
0
  5
2233
 10
379.482
 20
192.577
 30
0.000000
  70
    32
  0
VERTEX
  8
0
  5
2234
 10
379.552
 20
192.512
 30
0.000000
  70
    32
  0
VERTEX
  8
0
  5
2235
 10
379.620
 20
192.445
 30
0.000000
  70
    32
  0
VERTEX
  8
0
  5
2236
 10
379.687
 20
192.376
 30
0.000000
  70
    32
  0
VERTEX
  8
0
  5
2237
 10
379.753
 20
192.305
 30
0.000000
  70
    32
  0
VERTEX
  8
0
  5
2238
 10
379.817
 20
192.232
 30
0.000000
  70
    32
  0
VERTEX
  8
0
  5
2239
 10
379.880
 20
192.156
 30
0.000000
  70
    32
  0
VERTEX
  8
0
  5
223A
 10
379.941
 20
192.079
 30
0.000000
  70
    32
  0
VERTEX
  8
0
  5
223B
 10
380.001
 20
192.000
 30
0.000000
  70
    32
  0
VERTEX
  8
0
  5
223C
 10
380.059
 20
191.919
 30
0.000000
  70
    32
  0
VERTEX
  8
0
  5
223D
 10
380.115
 20
191.837
 30
0.000000
  70
    32
  0
VERTEX
  8
0
  5
223E
 10
380.169
 20
191.752
 30
0.000000
  70
    32
  0
VERTEX
  8
0
  5
223F
 10
380.222
 20
191.666
 30
0.000000
  70
    32
  0
VERTEX
  8
0
  5
2240
 10
380.273
 20
191.578
 30
0.000000
  70
    32
  0
VERTEX
  8
0
  5
2241
 10
380.322
 20
191.489
 30
0.000000
  70
    32
  0
VERTEX
  8
0
  5
2242
 10
380.369
 20
191.398
 30
0.000000
  70
    32
  0
VERTEX
  8
0
  5
2243
 10
380.415
 20
191.306
 30
0.000000
  70
    32
  0
VERTEX
  8
0
  5
2244
 10
380.458
 20
191.212
 30
0.000000
  70
    32
  0
VERTEX
  8
0
  5
2245
 10
380.500
 20
191.117
 30
0.000000
  70
    32
  0
VERTEX
  8
0
  5
2246
 10
380.540
 20
191.021
 30
0.000000
  70
    32
  0
VERTEX
  8
0
  5
2247
 10
380.577
 20
190.923
 30
0.000000
  70
    32
  0
VERTEX
  8
0
  5
2248
 10
380.613
 20
190.824
 30
0.000000
  70
    32
  0
VERTEX
  8
0
  5
2249
 10
380.646
 20
190.725
 30
0.000000
  70
    32
  0
VERTEX
  8
0
  5
224A
 10
380.678
 20
190.624
 30
0.000000
  70
    32
  0
VERTEX
  8
0
  5
224B
 10
380.707
 20
190.522
 30
0.000000
  70
    32
  0
VERTEX
  8
0
  5
224C
 10
380.734
 20
190.419
 30
0.000000
  70
    32
  0
VERTEX
  8
0
  5
224D
 10
380.760
 20
190.316
 30
0.000000
  70
    32
  0
VERTEX
  8
0
  5
224E
 10
380.783
 20
190.212
 30
0.000000
  70
    32
  0
VERTEX
  8
0
  5
224F
 10
380.804
 20
190.107
 30
0.000000
  70
    32
  0
VERTEX
  8
0
  5
2250
 10
380.822
 20
190.001
 30
0.000000
  70
    32
  0
VERTEX
  8
0
  5
2251
 10
380.839
 20
189.895
 30
0.000000
  70
    32
  0
VERTEX
  8
0
  5
2252
 10
380.853
 20
189.788
 30
0.000000
  70
    32
  0
VERTEX
  8
0
  5
2253
 10
380.865
 20
189.681
 30
0.000000
  70
    32
  0
VERTEX
  8
0
  5
2254
 10
380.875
 20
189.574
 30
0.000000
  70
    32
  0
VERTEX
  8
0
  5
2255
 10
380.883
 20
189.466
 30
0.000000
  70
    32
  0
VERTEX
  8
0
  5
2256
 10
380.889
 20
189.358
 30
0.000000
  70
    32
  0
VERTEX
  8
0
  5
2257
 10
380.892
 20
189.250
 30
0.000000
  70
    32
  0
VERTEX
  8
0
  5
2258
 10
380.893
 20
189.142
 30
0.000000
  70
    32
  0
VERTEX
  8
0
  5
2259
 10
380.892
 20
189.034
 30
0.000000
  70
    32
  0
VERTEX
  8
0
  5
225A
 10
380.889
 20
188.926
 30
0.000000
  70
    32
  0
VERTEX
  8
0
  5
225B
 10
380.883
 20
188.818
 30
0.000000
  70
    32
  0
VERTEX
  8
0
  5
225C
 10
380.875
 20
188.711
 30
0.000000
  70
    32
  0
VERTEX
  8
0
  5
225D
 10
380.865
 20
188.603
 30
0.000000
  70
    32
  0
VERTEX
  8
0
  5
225E
 10
380.853
 20
188.496
 30
0.000000
  70
    32
  0
VERTEX
  8
0
  5
225F
 10
380.839
 20
188.390
 30
0.000000
  70
    32
  0
VERTEX
  8
0
  5
2260
 10
380.822
 20
188.284
 30
0.000000
  70
    32
  0
VERTEX
  8
0
  5
2261
 10
380.804
 20
188.178
 30
0.000000
  70
    32
  0
VERTEX
  8
0
  5
2262
 10
380.783
 20
188.073
 30
0.000000
  70
    32
  0
VERTEX
  8
0
  5
2263
 10
380.760
 20
187.969
 30
0.000000
  70
    32
  0
VERTEX
  8
0
  5
2264
 10
380.734
 20
187.865
 30
0.000000
  70
    32
  0
VERTEX
  8
0
  5
2265
 10
380.707
 20
187.763
 30
0.000000
  70
    32
  0
VERTEX
  8
0
  5
2266
 10
380.678
 20
187.661
 30
0.000000
  70
    32
  0
VERTEX
  8
0
  5
2267
 10
380.646
 20
187.560
 30
0.000000
  70
    32
  0
VERTEX
  8
0
  5
2268
 10
380.613
 20
187.460
 30
0.000000
  70
    32
  0
VERTEX
  8
0
  5
2269
 10
380.577
 20
187.362
 30
0.000000
  70
    32
  0
VERTEX
  8
0
  5
226A
 10
380.540
 20
187.264
 30
0.000000
  70
    32
  0
VERTEX
  8
0
  5
226B
 10
380.500
 20
187.168
 30
0.000000
  70
    32
  0
VERTEX
  8
0
  5
226C
 10
380.458
 20
187.073
 30
0.000000
  70
    32
  0
VERTEX
  8
0
  5
226D
 10
380.415
 20
186.979
 30
0.000000
  70
    32
  0
VERTEX
  8
0
  5
226E
 10
380.369
 20
186.887
 30
0.000000
  70
    32
  0
VERTEX
  8
0
  5
226F
 10
380.322
 20
186.796
 30
0.000000
  70
    32
  0
VERTEX
  8
0
  5
2270
 10
380.273
 20
186.706
 30
0.000000
  70
    32
  0
VERTEX
  8
0
  5
2271
 10
380.222
 20
186.619
 30
0.000000
  70
    32
  0
VERTEX
  8
0
  5
2272
 10
380.169
 20
186.533
 30
0.000000
  70
    32
  0
VERTEX
  8
0
  5
2273
 10
380.115
 20
186.448
 30
0.000000
  70
    32
  0
VERTEX
  8
0
  5
2274
 10
380.059
 20
186.365
 30
0.000000
  70
    32
  0
VERTEX
  8
0
  5
2275
 10
380.001
 20
186.284
 30
0.000000
  70
    32
  0
VERTEX
  8
0
  5
2276
 10
379.941
 20
186.205
 30
0.000000
  70
    32
  0
VERTEX
  8
0
  5
2277
 10
379.880
 20
186.128
 30
0.000000
  70
    32
  0
VERTEX
  8
0
  5
2278
 10
379.817
 20
186.053
 30
0.000000
  70
    32
  0
VERTEX
  8
0
  5
2279
 10
379.753
 20
185.980
 30
0.000000
  70
    32
  0
VERTEX
  8
0
  5
227A
 10
379.687
 20
185.909
 30
0.000000
  70
    32
  0
VERTEX
  8
0
  5
227B
 10
379.620
 20
185.840
 30
0.000000
  70
    32
  0
VERTEX
  8
0
  5
227C
 10
379.552
 20
185.773
 30
0.000000
  70
    32
  0
VERTEX
  8
0
  5
227D
 10
379.482
 20
185.708
 30
0.000000
  70
    32
  0
VERTEX
  8
0
  5
227E
 10
379.410
 20
185.645
 30
0.000000
  70
    32
  0
VERTEX
  8
0
  5
227F
 10
379.338
 20
185.585
 30
0.000000
  70
    32
  0
VERTEX
  8
0
  5
2280
 10
379.264
 20
185.527
 30
0.000000
  70
    32
  0
VERTEX
  8
0
  5
2281
 10
379.189
 20
185.471
 30
0.000000
  70
    32
  0
VERTEX
  8
0
  5
2282
 10
379.113
 20
185.418
 30
0.000000
  70
    32
  0
VERTEX
  8
0
  5
2283
 10
379.036
 20
185.367
 30
0.000000
  70
    32
  0
VERTEX
  8
0
  5
2284
 10
378.958
 20
185.319
 30
0.000000
  70
    32
  0
VERTEX
  8
0
  5
2285
 10
378.879
 20
185.273
 30
0.000000
  70
    32
  0
VERTEX
  8
0
  5
2286
 10
378.799
 20
185.229
 30
0.000000
  70
    32
  0
VERTEX
  8
0
  5
2287
 10
378.718
 20
185.189
 30
0.000000
  70
    32
  0
VERTEX
  8
0
  5
2288
 10
378.637
 20
185.150
 30
0.000000
  70
    32
  0
VERTEX
  8
0
  5
2289
 10
378.554
 20
185.114
 30
0.000000
  70
    32
  0
VERTEX
  8
0
  5
228A
 10
378.471
 20
185.081
 30
0.000000
  70
    32
  0
VERTEX
  8
0
  5
228B
 10
378.387
 20
185.051
 30
0.000000
  70
    32
  0
VERTEX
  8
0
  5
228C
 10
378.303
 20
185.023
 30
0.000000
  70
    32
  0
VERTEX
  8
0
  5
228D
 10
378.218
 20
184.998
 30
0.000000
  70
    32
  0
VERTEX
  8
0
  5
228E
 10
378.133
 20
184.975
 30
0.000000
  70
    32
  0
VERTEX
  8
0
  5
228F
 10
378.047
 20
184.955
 30
0.000000
  70
    32
  0
VERTEX
  8
0
  5
2290
 10
377.961
 20
184.938
 30
0.000000
  70
    32
  0
VERTEX
  8
0
  5
2291
 10
377.874
 20
184.924
 30
0.000000
  70
    32
  0
VERTEX
  8
0
  5
2292
 10
377.787
 20
184.912
 30
0.000000
  70
    32
  0
VERTEX
  8
0
  5
2293
 10
377.700
 20
184.903
 30
0.000000
  70
    32
  0
VERTEX
  8
0
  5
2294
 10
377.613
 20
184.897
 30
0.000000
  70
    32
  0
VERTEX
  8
0
  5
2295
 10
377.526
 20
184.893
 30
0.000000
  70
    32
  0
VERTEX
  8
0
  5
2296
 10
377.438
 20
184.892
 30
0.000000
  70
    32
  0
VERTEX
  8
0
  5
2297
 10
377.351
 20
184.894
 30
0.000000
  70
    32
  0
VERTEX
  8
0
  5
2298
 10
377.264
 20
184.899
 30
0.000000
  70
    32
  0
SEQEND
  8
0
  5
2299
  0
CIRCLE
  5
1C2C
  8
0
 10
191.4722845957827
 20
91.007195968351255
 30
0.0
 40
1.6209999999999991
  0
CIRCLE
  5
1C2D
  8
3
 10
191.4722845957827
 20
91.007195968351255
 30
0.0
 40
2.0
  0
CIRCLE
  5
1C36
  8
0
 10
204.2002066571404
 20
91.007195968351283
 30
0.0
 40
1.6209999999999991
  0
CIRCLE
  5
1C37
  8
3
 10
204.2002066571404
 20
91.007195968351283
 30
0.0
 40
2.0
  0
CIRCLE
  5
1C39
  8
0
 10
204.2002066571406
 20
78.279273906993538
 30
0.0
 40
1.6209999999999991
  0
CIRCLE
  5
1C3A
  8
3
 10
204.2002066571406
 20
78.279273906993538
 30
0.0
 40
2.0
  0
CIRCLE
  5
1C3C
  8
0
 10
191.4722845957827
 20
78.279273906993353
 30
0.0
 40
1.6209999999999991
  0
CIRCLE
  5
1C3D
  8
3
 10
191.4722845957827
 20
78.279273906993353
 30
0.0
 40
2.0
  0
ENDSEC
  0
EOF
