  0
SECTION
  2
HEADER
  9
$ACADVER
  1
AC1009
  9
$INSBASE
 10
0.0
 20
0.0
 30
0.0
  9
$EXTMIN
 10
0.0
 20
-2.960436562073669
 30
0.0
  9
$EXTMAX
 10
222.78633663044269
 20
135.403013037357
 30
0.0
  9
$LIMMIN
 10
0.0
 20
0.0
  9
$LIMMAX
 10
385.0
 20
270.0
  9
$ORTHOMODE
 70
     1
  9
$REGENMODE
 70
     1
  9
$FILLMODE
 70
     1
  9
$QTEXTMODE
 70
     0
  9
$MIRRTEXT
 70
     0
  9
$DRAGMODE
 70
     2
  9
$LTSCALE
 40
5.0
  9
$OSMODE
 70
  3071
  9
$ATTMODE
 70
     1
  9
$TEXTSIZE
 40
4.000000000000048
  9
$TRACEWID
 40
0.05
  9
$TEXTSTYLE
  7
STANDARD
  9
$CLAYER
  8
0
  9
$CELTYPE
  6
BYLAYER
  9
$CECOLOR
 62
   256
  9
$DIMSCALE
 40
1.0
  9
$DIMASZ
 40
3.0
  9
$DIMEXO
 40
2.0
  9
$DIMDLI
 40
0.38
  9
$DIMRND
 40
0.0
  9
$DIMDLE
 40
0.0
  9
$DIMEXE
 40
2.0
  9
$DIMTP
 40
0.0
  9
$DIMTM
 40
0.0
  9
$DIMTXT
 40
3.0
  9
$DIMCEN
 40
0.0
  9
$DIMTSZ
 40
0.0
  9
$DIMTOL
 70
     0
  9
$DIMLIM
 70
     0
  9
$DIMTIH
 70
     0
  9
$DIMTOH
 70
     0
  9
$DIMSE1
 70
     0
  9
$DIMSE2
 70
     0
  9
$DIMTAD
 70
     1
  9
$DIMZIN
 70
     0
  9
$DIMBLK
  1

  9
$DIMASO
 70
     0
  9
$DIMSHO
 70
     0
  9
$DIMPOST
  1

  9
$DIMAPOST
  1

  9
$DIMALT
 70
     0
  9
$DIMALTD
 70
     2
  9
$DIMALTF
 40
25.399999999999999
  9
$DIMLFAC
 40
1.0
  9
$DIMTOFL
 70
     1
  9
$DIMTVP
 40
1.6000000000000001
  9
$DIMTIX
 70
     1
  9
$DIMSOXD
 70
     0
  9
$DIMSAH
 70
     0
  9
$DIMBLK1
  1

  9
$DIMBLK2
  1

  9
$DIMSTYLE
  2
STANDARD
  9
$DIMCLRD
 70
     0
  9
$DIMCLRE
 70
     0
  9
$DIMCLRT
 70
     0
  9
$DIMTFAC
 40
1.0
  9
$DIMGAP
 40
1.0
  9
$LUNITS
 70
     2
  9
$LUPREC
 70
     4
  9
$SKETCHINC
 40
0.1
  9
$FILLETRAD
 40
0.0
  9
$AUNITS
 70
     0
  9
$AUPREC
 70
     4
  9
$MENU
  1
E:\r13\win\SUPPORT\ACAD
  9
$ELEVATION
 40
0.0
  9
$PELEVATION
 40
0.0
  9
$THICKNESS
 40
0.0
  9
$LIMCHECK
 70
     0
  9
$BLIPMODE
 70
     0
  9
$CHAMFERA
 40
0.0
  9
$CHAMFERB
 40
0.0
  9
$SKPOLY
 70
     0
  9
$TDCREATE
 40
2450280.598206134
  9
$TDUPDATE
 40
2456598.4239952308
  9
$TDINDWG
 40
0.113923287
  9
$TDUSRTIMER
 40
0.113923287
  9
$USRTIMER
 70
     1
  9
$ANGBASE
 50
0.0
  9
$ANGDIR
 70
     0
  9
$PDMODE
 70
     0
  9
$PDSIZE
 40
0.0
  9
$PLINEWID
 40
0.0
  9
$COORDS
 70
     1
  9
$SPLFRAME
 70
     0
  9
$SPLINETYPE
 70
     6
  9
$SPLINESEGS
 70
     8
  9
$ATTDIA
 70
     0
  9
$ATTREQ
 70
     1
  9
$HANDLING
 70
     1
  9
$HANDSEED
  5
C2F
  9
$SURFTAB1
 70
     6
  9
$SURFTAB2
 70
     6
  9
$SURFTYPE
 70
     6
  9
$SURFU
 70
     6
  9
$SURFV
 70
     6
  9
$UCSNAME
  2

  9
$UCSORG
 10
0.0
 20
0.0
 30
0.0
  9
$UCSXDIR
 10
1.0
 20
0.0
 30
0.0
  9
$UCSYDIR
 10
0.0
 20
1.0
 30
0.0
  9
$PUCSNAME
  2

  9
$PUCSORG
 10
0.0
 20
0.0
 30
0.0
  9
$PUCSXDIR
 10
1.0
 20
0.0
 30
0.0
  9
$PUCSYDIR
 10
0.0
 20
1.0
 30
0.0
  9
$USERI1
 70
     3
  9
$USERI2
 70
     1
  9
$USERI3
 70
     1
  9
$USERI4
 70
     0
  9
$USERI5
 70
     0
  9
$USERR1
 40
1.0
  9
$USERR2
 40
3.0
  9
$USERR3
 40
3.0
  9
$USERR4
 40
3.0
  9
$USERR5
 40
10.0
  9
$WORLDVIEW
 70
     1
  9
$SHADEDGE
 70
     3
  9
$SHADEDIF
 70
    70
  9
$TILEMODE
 70
     1
  9
$MAXACTVP
 70
    16
  9
$PLIMCHECK
 70
     0
  9
$PEXTMIN
 10
1.0000000000000000E+020
 20
1.0000000000000000E+020
 30
1.0000000000000000E+020
  9
$PEXTMAX
 10
-1.0000000000000000E+020
 20
-1.0000000000000000E+020
 30
-1.0000000000000000E+020
  9
$PLIMMIN
 10
0.0
 20
0.0
  9
$PLIMMAX
 10
12.0
 20
9.0
  9
$UNITMODE
 70
     0
  9
$VISRETAIN
 70
     0
  9
$PLINEGEN
 70
     0
  9
$PSLTSCALE
 70
     0
  0
ENDSEC
  0
SECTION
  2
TABLES
  0
TABLE
  2
VPORT
 70
     1
  0
VPORT
  2
*ACTIVE
 70
     0
 10
0.0
 20
0.0
 11
1.0
 21
1.0
 12
192.49412581440311
 22
149.37525922376949
 13
0.0
 23
0.0
 14
5.0
 24
5.0
 15
10.0
 25
10.0
 16
0.0
 26
0.0
 36
1.0
 17
0.0
 27
0.0
 37
0.0
 40
308.52635987286669
 41
2.304913294797688
 42
50.0
 43
0.0
 44
0.0
 50
0.0
 51
0.0
 71
     0
 72
   500
 73
     1
 74
     0
 75
     0
 76
     0
 77
     0
 78
     2
  0
ENDTAB
  0
TABLE
  2
LTYPE
 70
     3
  0
LTYPE
  2
CONTINUOUS
 70
     0
  3
Solid Line
 72
    65
 73
     0
 40
0.0
  0
LTYPE
  2
CENTER
 70
     0
  3
____ _ ____ _ ____ _ ____ _ ____ _ ____ _ ____
 72
    65
 73
     4
 40
2.0
 49
1.25
 49
-0.25
 49
0.25
 49
-0.25
  0
LTYPE
  2
PHANTOM2
 70
     0
  3
___ _ _ ___ _ _ ___ _ _ ___ _ _
 72
    65
 73
     6
 40
1.25
 49
0.625
 49
-0.125
 49
0.125
 49
-0.125
 49
0.125
 49
-0.125
  0
ENDTAB
  0
TABLE
  2
LAYER
 70
     3
  0
LAYER
  2
0
 70
     0
 62
     7
  6
CONTINUOUS
  0
LAYER
  2
1
 70
     0
 62
     1
  6
CENTER
  0
LAYER
  2
3
 70
     0
 62
     3
  6
CONTINUOUS
  0
ENDTAB
  0
TABLE
  2
STYLE
 70
     2
  0
STYLE
  2
STANDARD
 70
     0
 40
0.0
 41
1.0
 50
0.0
 71
     0
 42
4.000000000000048
  3
SIMPLEX
  4
BIGFONT
  0
STYLE
  2
STANDARD1
 70
     0
 40
0.0
 41
1.0
 50
0.0
 71
     0
 42
3.0
  3
txt
  4

  0
ENDTAB
  0
TABLE
  2
VIEW
 70
     0
  0
ENDTAB
  0
TABLE
  2
UCS
 70
     0
  0
ENDTAB
  0
TABLE
  2
APPID
 70
     3
  0
APPID
  2
ACAD
 70
     0
  0
APPID
  2
ACAD_MLEADERVER
 70
     0
  0
APPID
  2
ACAD_NAV_VCDISPLAY
 70
     0
  0
ENDTAB
  0
TABLE
  2
DIMSTYLE
 70
     1
  0
DIMSTYLE
  2
STANDARD
 70
     0
  3

  4

  5

  6

  7

 40
1.0
 41
0.18
 42
0.0625
 43
0.38
 44
0.18
 45
0.0
 46
0.0
 47
0.0
 48
0.0
140
0.18
141
0.09
142
0.0
143
25.399999999999999
144
1.0
145
0.0
146
1.0
147
0.09
 71
     0
 72
     0
 73
     1
 74
     1
 75
     0
 76
     0
 77
     0
 78
     0
170
     0
171
     2
172
     0
173
     0
174
     0
175
     0
176
     0
177
     0
178
     0
  0
ENDTAB
  0
ENDSEC
  0
SECTION
  2
BLOCKS
  0
BLOCK
  8
0
  2
$MODEL_SPACE
 70
     0
 10
0.0
 20
0.0
 30
0.0
  3
$MODEL_SPACE
  1

  0
ENDBLK
  5
175
  8
0
  0
BLOCK
 67
     1
  8
0
  2
$PAPER_SPACE
 70
     0
 10
0.0
 20
0.0
 30
0.0
  3
$PAPER_SPACE
  1

  0
ENDBLK
  5
173
 67
     1
  8
0
  0
ENDSEC
  0
SECTION
  2
ENTITIES
  0
LINE
  5
A3F
  8
0
  6
CONTINUOUS
 62
     7
 10
157.78633663044221
 20
74.403013037356857
 30
0.0
 11
161.90883562964149
 21
74.403013037356885
 31
0.0
  0
LINE
  5
A40
  8
0
  6
CONTINUOUS
 62
     7
 10
157.78633663044221
 20
61.403013037356892
 30
0.0
 11
161.90883562964149
 21
61.403013037356857
 31
0.0
  0
LINE
  5
A41
  8
0
 10
114.9863366304423
 20
80.403013037356743
 30
0.0
 11
114.78633663044231
 21
80.203013037356754
 31
0.0
  0
LINE
  5
A42
  8
0
 10
114.78633663044251
 20
55.603013037356789
 30
0.0
 11
114.9863366304423
 21
55.403013037356743
 31
0.0
  0
LINE
  5
A43
  8
0
 10
117.0863366304423
 20
80.403013037356743
 30
0.0
 11
114.9863366304423
 21
80.403013037356743
 31
0.0
  0
LINE
  5
A44
  8
0
 10
114.9863366304423
 20
55.403013037356743
 30
0.0
 11
117.0863366304425
 21
55.403013037356743
 31
0.0
  0
LINE
  5
A45
  8
0
 10
117.0863366304425
 20
55.403013037356743
 30
0.0
 11
117.28633663044251
 21
55.603013037356789
 31
0.0
  0
LINE
  5
A46
  8
0
 10
117.28633663044231
 20
80.203013037356811
 30
0.0
 11
117.0863366304423
 21
80.403013037356743
 31
0.0
  0
ARC
  5
A47
  8
0
 10
117.6863366304424
 20
76.303013037356763
 30
0.0
 40
0.4000000000000057
 50
180.0
 51
270.0
  0
ARC
  5
A48
  8
0
 10
117.6863366304424
 20
59.503013037356773
 30
0.0
 40
0.4000000000000057
 50
90.0
 51
180.0
  0
LINE
  5
A49
  8
0
 10
156.65550175504109
 20
75.903013037356914
 30
0.0
 11
151.0263366304423
 21
72.653013037356914
 31
0.0
  0
LINE
  5
A4A
  8
0
 10
151.0263366304423
 20
63.153013037356857
 30
0.0
 11
156.65550175504131
 21
59.903013037356907
 31
0.0
  0
LINE
  5
A4B
  8
0
 10
142.5863366304425
 20
59.903013037356857
 30
0.0
 11
142.78633663044261
 21
60.103013037356838
 31
0.0
  0
LINE
  5
A4C
  8
0
 10
142.78633663044229
 20
75.703013037356854
 30
0.0
 11
142.5863366304423
 21
75.903013037356857
 31
0.0
  0
LINE
  5
A4D
  8
0
 10
142.5863366304423
 20
75.903013037356857
 30
0.0
 11
117.6863366304424
 21
75.9030130373568
 31
0.0
  0
LINE
  5
A4E
  8
0
 10
117.6863366304424
 20
59.903013037356743
 30
0.0
 11
142.5863366304425
 21
59.903013037356857
 31
0.0
  0
ARC
  5
A4F
  8
0
 10
113.78633663044251
 20
60.403013037356743
 30
0.0
 40
1.0
 50
0.0
 51
90.0
  0
ARC
  5
A50
  8
0
 10
113.78633663044231
 20
75.403013037356743
 30
0.0
 40
1.0
 50
270.0
 51
0.0
  0
ARC
  5
A51
  8
0
 10
111.78633663044231
 20
75.403013037356743
 30
0.0
 40
1.0
 50
180.0
 51
270.0
  0
ARC
  5
A52
  8
0
 10
111.78633663044251
 20
60.403013037356743
 30
0.0
 40
1.0
 50
90.0
 51
180.0
  0
LINE
  5
A53
  8
0
 10
111.78633663044251
 20
61.403013037356743
 30
0.0
 11
113.78633663044251
 21
61.403013037356743
 31
0.0
  0
LINE
  5
A54
  8
0
 10
113.78633663044231
 20
74.403013037356743
 30
0.0
 11
111.78633663044231
 21
74.403013037356743
 31
0.0
  0
ARC
  5
A55
  8
0
 10
143.78633663044229
 20
73.653013037356857
 30
0.0
 40
1.0
 50
180.0
 51
270.0
  0
ARC
  5
A56
  8
0
 10
143.78633663044261
 20
62.15301303735685
 30
0.0
 40
1.0
 50
90.0
 51
180.0
  0
LINE
  5
A57
  8
0
 10
151.0263366304423
 20
72.653013037356914
 30
0.0
 11
143.78633663044229
 21
72.653013037356857
 31
0.0
  0
LINE
  5
A58
  8
0
 10
143.78633663044261
 20
63.153013037356857
 30
0.0
 11
151.0263366304423
 21
63.153013037356857
 31
0.0
  0
LINE
  5
A59
  8
0
 10
114.9863366304423
 20
80.403013037356743
 30
0.0
 11
114.9863366304423
 21
55.403013037356743
 31
0.0
  0
LINE
  5
A5A
  8
0
 10
114.78633663044251
 20
55.603013037356789
 30
0.0
 11
114.78633663044231
 21
80.203013037356754
 31
0.0
  0
LINE
  5
A5B
  8
0
 10
117.0863366304425
 20
55.403013037356743
 30
0.0
 11
117.0863366304423
 21
80.403013037356743
 31
0.0
  0
LINE
  5
A5C
  8
0
 10
117.28633663044231
 20
80.203013037356811
 30
0.0
 11
117.28633663044251
 21
55.603013037356789
 31
0.0
  0
LINE
  5
A5D
  8
0
 10
117.6863366304424
 20
75.9030130373568
 30
0.0
 11
117.6863366304424
 21
59.903013037356743
 31
0.0
  0
LINE
  5
A5E
  8
0
 10
151.0263366304423
 20
72.653013037356914
 30
0.0
 11
151.0263366304423
 21
63.153013037356857
 31
0.0
  0
LINE
  5
A5F
  8
0
 10
142.78633663044229
 20
75.703013037356854
 30
0.0
 11
142.78633663044261
 21
60.103013037356838
 31
0.0
  0
LINE
  5
A60
  8
0
 10
142.5863366304425
 20
59.903013037356857
 30
0.0
 11
142.5863366304423
 21
75.903013037356857
 31
0.0
  0
LINE
  5
A61
  8
0
 10
113.78633663044251
 20
61.403013037356743
 30
0.0
 11
113.78633663044231
 21
74.403013037356743
 31
0.0
  0
LINE
  5
A62
  8
0
 10
111.78633663044231
 20
74.403013037356786
 30
0.0
 11
111.78633663044251
 21
61.403013037356743
 31
0.0
  0
LINE
  5
A63
  8
0
 10
143.78633663044229
 20
72.653013037356857
 30
0.0
 11
143.78633663044261
 21
63.153013037356857
 31
0.0
  0
LINE
  5
A64
  8
1
 10
92.786336630442037
 20
67.9030130373567
 30
0.0
 11
167.78633663044269
 21
67.903013037356914
 31
0.0
  0
LINE
  5
A65
  8
0
 10
97.786336630442321
 20
61.903013037356693
 30
0.0
 11
97.786336630442435
 21
73.903013037356686
 31
0.0
  0
LINE
  5
A66
  8
0
 10
110.78633663044241
 20
75.903013037356686
 30
0.0
 11
99.786336630442563
 21
75.903013037356686
 31
0.0
  0
LINE
  5
A67
  8
3
 10
110.78633663044241
 20
74.820513037356761
 30
0.0
 11
98.703836630442581
 21
74.820513037356761
 31
0.0
  0
LINE
  5
A68
  8
3
 10
110.78633663044231
 20
60.985513037356668
 30
0.0
 11
98.703836630442453
 21
60.985513037356668
 31
0.0
  0
LINE
  5
A69
  8
0
 10
110.78633663044231
 20
59.903013037356693
 30
0.0
 11
99.786336630442335
 21
59.903013037356693
 31
0.0
  0
LINE
  5
A6A
  8
0
 10
99.786336630442335
 20
59.903013037356693
 30
0.0
 11
97.786336630442321
 21
61.903013037356693
 31
0.0
  0
LINE
  5
A6B
  8
0
 10
97.786336630442435
 20
73.903013037356686
 30
0.0
 11
99.786336630442563
 21
75.903013037356686
 31
0.0
  0
LINE
  5
A6C
  8
0
 10
99.786336630442563
 20
75.903013037356686
 30
0.0
 11
99.786336630442335
 21
59.903013037356693
 31
0.0
  0
LINE
  5
A6D
  8
0
 10
110.78633663044241
 20
75.903013037356686
 30
0.0
 11
110.78633663044241
 21
59.903013037356693
 31
0.0
  0
LINE
  5
A6E
  8
0
  6
CONTINUOUS
 62
     7
 10
162.78633663044221
 20
71.90301303735697
 30
0.0
 11
162.78633663044221
 21
63.9030130373568
 31
0.0
  0
LINE
  5
A6F
  8
0
  6
CONTINUOUS
 62
     7
 10
158.78633663044221
 20
61.4030130373568
 30
0.0
 11
158.78633663044221
 21
74.403013037356686
 31
0.0
  0
LINE
  5
A70
  8
0
  6
CONTINUOUS
 62
     7
 10
157.78633663044221
 20
75.903013037356914
 30
0.0
 11
157.78633663044221
 21
74.403013037356686
 31
0.0
  0
LINE
  5
A71
  8
0
  6
CONTINUOUS
 62
     7
 10
157.78633663044221
 20
61.4030130373568
 30
0.0
 11
157.78633663044221
 21
59.9030130373568
 31
0.0
  0
LINE
  5
A72
  8
0
  6
CONTINUOUS
 62
     7
 10
156.65550175504109
 20
75.903013037357056
 30
0.0
 11
156.6555017550412
 21
59.9030130373568
 31
0.0
  0
ARC
  5
A73
  8
0
  6
CONTINUOUS
 62
     7
 10
158.78633663044221
 20
63.903013037356857
 30
0.0
 40
4.0000000000000142
 50
321.31268291377518
 51
0.0
  0
ARC
  5
A74
  8
0
  6
CONTINUOUS
 62
     7
 10
158.78633663044221
 20
71.90301303735697
 30
0.0
 40
4.0000000000000231
 50
0.0
 51
38.682777807418397
  0
LINE
  5
A75
  8
0
  6
CONTINUOUS
 62
     7
 10
156.6555017550412
 20
59.9030130373568
 30
0.0
 11
157.78633663044221
 21
59.9030130373568
 31
0.0
  0
LINE
  5
A76
  8
0
  6
CONTINUOUS
 62
     7
 10
157.78633663044221
 20
75.903013037356914
 30
0.0
 11
156.6555017550412
 21
75.903013037356914
 31
0.0
  0
CIRCLE
  5
A77
  8
0
 10
55.286336630442293
 20
117.9030130373567
 30
0.0
 40
12.50000000000008
  0
CIRCLE
  5
A78
  8
0
 10
55.286336630442293
 20
117.9030130373567
 30
0.0
 40
12.30000000000007
  0
LINE
  5
A79
  8
1
 10
55.286336630441951
 20
100.4030130373565
 30
0.0
 11
55.286336630442172
 21
135.4030130373568
 31
0.0
  0
LINE
  5
A7A
  8
1
 10
72.786336630442406
 20
117.9030130373567
 30
0.0
 11
37.786336630442179
 21
117.9030130373567
 31
0.0
  0
CIRCLE
  5
A7B
  8
0
 10
55.286336630442293
 20
117.9030130373567
 30
0.0
 40
6.0000000000000284
  0
CIRCLE
  5
A7C
  8
3
 10
55.286336630442293
 20
117.9030130373567
 30
0.0
 40
6.9175000000001026
  0
CIRCLE
  5
A7D
  8
0
 10
55.286336630442072
 20
117.9030130373565
 30
0.0
 40
8.0000000000001705
  0
CIRCLE
  5
A7E
  8
0
 10
205.28633663044269
 20
117.9030130373569
 30
0.0
 40
8.0000000000001421
  0
LINE
  5
A7F
  8
0
 10
110.78633663044241
 20
125.9030130373567
 30
0.0
 11
110.78633663044241
 21
109.9030130373567
 31
0.0
  0
LINE
  5
A80
  8
0
 10
99.786336630442577
 20
125.9030130373567
 30
0.0
 11
99.786336630442335
 21
109.9030130373567
 31
0.0
  0
LINE
  5
A81
  8
0
 10
97.786336630442463
 20
123.9030130373567
 30
0.0
 11
99.786336630442577
 21
125.9030130373567
 31
0.0
  0
LINE
  5
A82
  8
0
 10
99.786336630442335
 20
109.9030130373567
 30
0.0
 11
97.786336630442349
 21
111.9030130373567
 31
0.0
  0
LINE
  5
A83
  8
0
 10
110.78633663044231
 20
109.9030130373567
 30
0.0
 11
99.786336630442335
 21
109.9030130373567
 31
0.0
  0
LINE
  5
A84
  8
3
 10
110.78633663044231
 20
110.9855130373566
 30
0.0
 11
98.703836630442495
 21
110.9855130373566
 31
0.0
  0
LINE
  5
A85
  8
3
 10
110.78633663044241
 20
124.8205130373567
 30
0.0
 11
98.703836630442595
 21
124.8205130373567
 31
0.0
  0
LINE
  5
A86
  8
0
 10
110.78633663044241
 20
125.9030130373567
 30
0.0
 11
99.786336630442577
 21
125.9030130373567
 31
0.0
  0
LINE
  5
A87
  8
0
 10
97.786336630442349
 20
111.9030130373567
 30
0.0
 11
97.786336630442463
 21
123.9030130373567
 31
0.0
  0
LINE
  5
A88
  8
1
 10
187.78633663044269
 20
117.9030130373569
 30
0.0
 11
222.78633663044269
 21
117.9030130373569
 31
0.0
  0
LINE
  5
A89
  8
1
 10
205.28633663044269
 20
100.4030130373569
 30
0.0
 11
205.28633663044269
 21
135.403013037357
 31
0.0
  0
CIRCLE
  5
A8A
  8
0
 10
205.28633663044269
 20
117.9030130373569
 30
0.0
 40
12.500000000000011
  0
CIRCLE
  5
A8B
  8
0
 10
205.28633663044269
 20
117.9030130373569
 30
0.0
 40
12.30000000000001
  0
CIRCLE
  5
A8C
  8
0
 10
205.28633663044269
 20
117.9030130373569
 30
0.0
 40
8.4000000000000057
  0
LINE
  5
A8D
  8
0
 10
211.78633663044269
 20
122.5667025639015
 30
0.0
 11
211.78633663044269
 21
113.2393235108126
 31
0.0
  0
LINE
  5
A8E
  8
0
 10
198.78633663044269
 20
113.2393235108126
 30
0.0
 11
198.78633663044269
 21
122.5667025639015
 31
0.0
  0
CIRCLE
  5
A8F
  8
0
 10
205.28633663044269
 20
117.9030130373571
 30
0.0
 40
4.0
  0
LINE
  5
A90
  8
1
 10
92.786336630442406
 20
117.9030130373567
 30
0.0
 11
167.78633663044269
 21
117.9030130373569
 31
0.0
  0
LINE
  5
A91
  8
0
 10
143.78633663044229
 20
122.6530130373568
 30
0.0
 11
143.78633663044261
 21
113.1530130373568
 31
0.0
  0
LINE
  5
A92
  8
0
 10
162.78633663044249
 20
121.9030130373569
 30
0.0
 11
162.78633663044249
 21
113.9030130373569
 31
0.0
  0
POLYLINE
  5
A93
  8
0
 66
     1
 10
0.0
 20
0.0
 30
0.0
 70
   128
  0
VERTEX
  5
BD7
  8
0
 10
158.786336392024
 20
113.23932350969631
 30
0.0
  0
VERTEX
  5
BD8
  8
0
 10
159.07013645754139
 20
113.25663633069711
 30
0.0
  0
VERTEX
  5
BD9
  8
0
 10
159.35393279776849
 20
113.30910099095421
 30
0.0
  0
VERTEX
  5
BDA
  8
0
 10
159.72369021163269
 20
113.4330763237806
 30
0.0
  0
VERTEX
  5
BDB
  8
0
 10
160.0784160791425
 20
113.61756247824739
 30
0.0
  0
VERTEX
  5
BDC
  8
0
 10
160.4184680281667
 20
113.8655508624645
 30
0.0
  0
VERTEX
  5
BDD
  8
0
 10
160.72640424952789
 20
114.16532986222521
 30
0.0
  0
VERTEX
  5
BDE
  8
0
 10
160.92825537905969
 20
114.4119221939029
 30
0.0
  0
VERTEX
  5
BDF
  8
0
 10
161.1092337070493
 20
114.6772762516768
 30
0.0
  0
VERTEX
  5
BE0
  8
0
 10
161.27154833064361
 20
114.9622719025494
 30
0.0
  0
VERTEX
  5
BE1
  8
0
 10
161.4130236803083
 20
115.2602574078621
 30
0.0
  0
VERTEX
  5
BE2
  8
0
 10
161.58319121585171
 20
115.7110298740001
 30
0.0
  0
VERTEX
  5
BE3
  8
0
 10
161.714664161065
 20
116.178540767941
 30
0.0
  0
VERTEX
  5
BE4
  8
0
 10
161.81147328005119
 20
116.6643409746022
 30
0.0
  0
VERTEX
  5
BE5
  8
0
 10
161.87430402622499
 20
117.1582488681444
 30
0.0
  0
VERTEX
  5
BE6
  8
0
 10
161.90883746729179
 20
117.9030130373569
 30
0.0
  0
VERTEX
  5
BE7
  8
0
 10
161.88585987673079
 20
118.5116083001041
 30
0.0
  0
VERTEX
  5
BE8
  8
0
 10
161.81491917357701
 20
119.1202035628514
 30
0.0
  0
VERTEX
  5
BE9
  8
0
 10
161.68829655633229
 20
119.73388460355559
 30
0.0
  0
VERTEX
  5
BEA
  8
0
 10
161.49762129769579
 20
120.3373940883459
 30
0.0
  0
VERTEX
  5
BEB
  8
0
 10
161.38129538283599
 20
120.6175158953549
 30
0.0
  0
VERTEX
  5
BEC
  8
0
 10
161.24677515015861
 20
120.89071588015869
 30
0.0
  0
VERTEX
  5
BED
  8
0
 10
161.0911250709083
 20
121.1575309502216
 30
0.0
  0
VERTEX
  5
BEE
  8
0
 10
160.9141216276671
 20
121.4129154326649
 30
0.0
  0
VERTEX
  5
BEF
  8
0
 10
160.57618936882281
 20
121.7971230147661
 30
0.0
  0
VERTEX
  5
BF0
  8
0
 10
160.38105493769899
 20
121.9716447161765
 30
0.0
  0
VERTEX
  5
BF1
  8
0
 10
160.1695925591971
 20
122.12939539349389
 30
0.0
  0
VERTEX
  5
BF2
  8
0
 10
159.80329966531059
 20
122.33745704761461
 30
0.0
  0
VERTEX
  5
BF3
  8
0
 10
159.39669167981401
 20
122.48588751426649
 30
0.0
  0
VERTEX
  5
BF4
  8
0
 10
159.09678718433639
 20
122.54597504979679
 30
0.0
  0
VERTEX
  5
BF5
  8
0
 10
158.78633639202371
 20
122.56670256501749
 30
0.0
  0
SEQEND
  5
BF6
  8
0
  0
LINE
  5
A94
  8
0
 10
111.78633663044231
 20
124.4030130373568
 30
0.0
 11
111.78633663044251
 21
111.4030130373567
 31
0.0
  0
LINE
  5
A95
  8
0
 10
113.78633663044251
 20
111.4030130373567
 30
0.0
 11
113.78633663044231
 21
124.4030130373567
 31
0.0
  0
LINE
  5
A96
  8
0
 10
142.5863366304425
 20
109.9030130373568
 30
0.0
 11
142.5863366304423
 21
125.9030130373568
 31
0.0
  0
LINE
  5
A97
  8
0
 10
142.78633663044229
 20
125.7030130373568
 30
0.0
 11
142.78633663044261
 21
110.1030130373568
 31
0.0
  0
LINE
  5
A98
  8
0
 10
151.0263366304423
 20
122.6530130373569
 30
0.0
 11
151.0263366304423
 21
113.1530130373568
 31
0.0
  0
LINE
  5
A99
  8
0
 10
158.78633663044249
 20
109.9030130373569
 30
0.0
 11
158.78633663044229
 21
113.2393235108125
 31
0.0
  0
LINE
  5
A9A
  8
0
 10
157.78633663044249
 20
113.2393235108125
 30
0.0
 11
158.78633663044229
 21
113.2393235108125
 31
0.0
  0
LINE
  5
A9B
  8
0
 10
157.78633663044229
 20
122.5667025639013
 30
0.0
 11
157.78633663044249
 21
113.2393235108125
 31
0.0
  0
LINE
  5
A9C
  8
0
 10
158.78633663044229
 20
122.5667025639013
 30
0.0
 11
157.78633663044229
 21
122.5667025639013
 31
0.0
  0
LINE
  5
A9D
  8
0
 10
158.78633663044229
 20
122.5667025639013
 30
0.0
 11
158.78633663044229
 21
125.9030130373569
 31
0.0
  0
LINE
  5
A9E
  8
0
 10
156.65550175504109
 20
125.9030130373569
 30
0.0
 11
156.65550175504131
 21
109.9030130373569
 31
0.0
  0
LINE
  5
A9F
  8
0
 10
117.6863366304424
 20
125.9030130373568
 30
0.0
 11
117.6863366304424
 21
109.9030130373567
 31
0.0
  0
LINE
  5
AA0
  8
0
 10
117.28633663044231
 20
130.20301303735681
 30
0.0
 11
117.28633663044251
 21
105.6030130373568
 31
0.0
  0
LINE
  5
AA1
  8
0
 10
117.0863366304425
 20
105.4030130373567
 30
0.0
 11
117.0863366304423
 21
130.40301303735669
 31
0.0
  0
LINE
  5
AA2
  8
0
 10
114.78633663044251
 20
105.6030130373568
 30
0.0
 11
114.78633663044231
 21
130.2030130373567
 31
0.0
  0
LINE
  5
AA3
  8
0
 10
114.9863366304423
 20
130.40301303735669
 30
0.0
 11
114.9863366304423
 21
105.4030130373567
 31
0.0
  0
LINE
  5
AA4
  8
0
 10
143.78633663044261
 20
113.1530130373568
 30
0.0
 11
151.0263366304423
 21
113.1530130373568
 31
0.0
  0
LINE
  5
AA5
  8
0
 10
151.0263366304423
 20
122.6530130373569
 30
0.0
 11
143.78633663044229
 21
122.6530130373568
 31
0.0
  0
ARC
  5
AA6
  8
0
 10
143.78633663044261
 20
112.1530130373568
 30
0.0
 40
1.0
 50
90.0
 51
180.0
  0
ARC
  5
AA7
  8
0
 10
143.78633663044229
 20
123.6530130373568
 30
0.0
 40
1.0
 50
180.0
 51
270.0
  0
LINE
  5
AA8
  8
0
 10
113.78633663044231
 20
124.4030130373567
 30
0.0
 11
111.78633663044231
 21
124.4030130373567
 31
0.0
  0
LINE
  5
AA9
  8
0
 10
111.78633663044251
 20
111.4030130373567
 30
0.0
 11
113.78633663044251
 21
111.4030130373567
 31
0.0
  0
ARC
  5
AAA
  8
0
 10
158.78633663044229
 20
113.9030130373569
 30
0.0
 40
4.0000000000000284
 50
270.0
 51
0.0
  0
ARC
  5
AAB
  8
0
 10
158.78633663044229
 20
121.9030130373569
 30
0.0
 40
4.0000000000000284
 50
0.0
 51
90.0
  0
ARC
  5
AAC
  8
0
 10
111.78633663044251
 20
110.4030130373567
 30
0.0
 40
1.0
 50
90.0
 51
180.0
  0
ARC
  5
AAD
  8
0
 10
111.78633663044231
 20
125.4030130373567
 30
0.0
 40
1.0
 50
180.0
 51
270.0
  0
ARC
  5
AAE
  8
0
 10
113.78633663044231
 20
125.4030130373567
 30
0.0
 40
1.0
 50
270.0
 51
0.0
  0
ARC
  5
AAF
  8
0
 10
113.78633663044251
 20
110.4030130373567
 30
0.0
 40
1.0
 50
0.0
 51
90.0
  0
LINE
  5
AB0
  8
0
 10
117.6863366304424
 20
109.9030130373567
 30
0.0
 11
142.5863366304425
 21
109.9030130373568
 31
0.0
  0
LINE
  5
AB1
  8
0
 10
142.5863366304423
 20
125.9030130373568
 30
0.0
 11
117.6863366304424
 21
125.9030130373568
 31
0.0
  0
LINE
  5
AB2
  8
0
 10
142.78633663044229
 20
125.7030130373568
 30
0.0
 11
142.5863366304423
 21
125.9030130373568
 31
0.0
  0
LINE
  5
AB3
  8
0
 10
142.5863366304425
 20
109.9030130373568
 30
0.0
 11
142.78633663044261
 21
110.1030130373568
 31
0.0
  0
LINE
  5
AB4
  8
0
 10
151.0263366304423
 20
113.1530130373568
 30
0.0
 11
156.65550175504131
 21
109.9030130373569
 31
0.0
  0
LINE
  5
AB5
  8
0
 10
156.65550175504109
 20
125.9030130373569
 30
0.0
 11
151.0263366304423
 21
122.6530130373569
 31
0.0
  0
LINE
  5
AB6
  8
0
 10
156.65550175504131
 20
109.9030130373569
 30
0.0
 11
158.78633663044249
 21
109.9030130373569
 31
0.0
  0
LINE
  5
AB7
  8
0
 10
158.78633663044229
 20
125.9030130373569
 30
0.0
 11
156.65550175504109
 21
125.9030130373569
 31
0.0
  0
ARC
  5
AB8
  8
0
 10
117.6863366304424
 20
109.50301303735669
 30
0.0
 40
0.4000000000000057
 50
90.0
 51
180.0
  0
ARC
  5
AB9
  8
0
 10
117.6863366304424
 20
126.30301303735681
 30
0.0
 40
0.4000000000000057
 50
180.0
 51
270.0
  0
LINE
  5
ABA
  8
0
 10
117.28633663044231
 20
130.20301303735681
 30
0.0
 11
117.0863366304423
 21
130.40301303735669
 31
0.0
  0
LINE
  5
ABB
  8
0
 10
117.0863366304425
 20
105.4030130373567
 30
0.0
 11
117.28633663044251
 21
105.6030130373568
 31
0.0
  0
LINE
  5
ABC
  8
0
 10
114.9863366304423
 20
105.4030130373567
 30
0.0
 11
117.0863366304425
 21
105.4030130373567
 31
0.0
  0
LINE
  5
ABD
  8
0
 10
117.0863366304423
 20
130.40301303735669
 30
0.0
 11
114.9863366304423
 21
130.40301303735669
 31
0.0
  0
LINE
  5
ABE
  8
0
 10
114.78633663044251
 20
105.6030130373568
 30
0.0
 11
114.9863366304423
 21
105.4030130373567
 31
0.0
  0
LINE
  5
ABF
  8
0
 10
114.9863366304423
 20
130.40301303735669
 30
0.0
 11
114.78633663044231
 21
130.2030130373567
 31
0.0
  0
TEXT
  5
B7B
  8
0
 62
     3
 10
0.0
 20
0.0
 30
0.0
 40
10.0
  1
QLPDH500-M16
  7
STANDARD1
  0
ENDSEC
  0
EOF
