  0
SECTION
  2
HEADER
  9
$ACADVER
  1
AC1009
  9
$INSBASE
 10
0.0
 20
0.0
 30
0.0
  9
$EXTMIN
 10
0.0
 20
-2.960436562073669
 30
0.0
  9
$EXTMAX
 10
107.5
 20
162.5
 30
0.0
  9
$LIMMIN
 10
0.0
 20
0.0
  9
$LIMMAX
 10
187.5
 20
135.0
  9
$ORTHOMODE
 70
     1
  9
$REGENMODE
 70
     1
  9
$FILLMODE
 70
     1
  9
$QTEXTMODE
 70
     0
  9
$MIRRTEXT
 70
     0
  9
$DRAGMODE
 70
     2
  9
$LTSCALE
 40
10.0
  9
$OSMODE
 70
    37
  9
$ATTMODE
 70
     1
  9
$TEXTSIZE
 40
0.2
  9
$TRACEWID
 40
0.05
  9
$TEXTSTYLE
  7
STANDARD
  9
$CLAYER
  8
0
  9
$CELTYPE
  6
BYLAYER
  9
$CECOLOR
 62
   256
  9
$DIMSCALE
 40
1.0
  9
$DIMASZ
 40
3.0
  9
$DIMEXO
 40
2.0
  9
$DIMDLI
 40
0.38
  9
$DIMRND
 40
0.0
  9
$DIMDLE
 40
0.0
  9
$DIMEXE
 40
2.0
  9
$DIMTP
 40
0.0
  9
$DIMTM
 40
0.0
  9
$DIMTXT
 40
3.2000000000000002
  9
$DIMCEN
 40
0.0
  9
$DIMTSZ
 40
0.0
  9
$DIMTOL
 70
     0
  9
$DIMLIM
 70
     0
  9
$DIMTIH
 70
     0
  9
$DIMTOH
 70
     0
  9
$DIMSE1
 70
     0
  9
$DIMSE2
 70
     0
  9
$DIMTAD
 70
     1
  9
$DIMZIN
 70
     8
  9
$DIMBLK
  1

  9
$DIMASO
 70
     0
  9
$DIMSHO
 70
     0
  9
$DIMPOST
  1

  9
$DIMAPOST
  1

  9
$DIMALT
 70
     0
  9
$DIMALTD
 70
     2
  9
$DIMALTF
 40
25.3999999999999986
  9
$DIMLFAC
 40
1.0
  9
$DIMTOFL
 70
     1
  9
$DIMTVP
 40
1.6000000000000001
  9
$DIMTIX
 70
     1
  9
$DIMSOXD
 70
     0
  9
$DIMSAH
 70
     0
  9
$DIMBLK1
  1

  9
$DIMBLK2
  1

  9
$DIMSTYLE
  2
STANDARD
  9
$DIMCLRD
 70
     0
  9
$DIMCLRE
 70
     0
  9
$DIMCLRT
 70
     0
  9
$DIMTFAC
 40
1.0
  9
$DIMGAP
 40
0.09
  9
$LUNITS
 70
     2
  9
$LUPREC
 70
     1
  9
$SKETCHINC
 40
0.1
  9
$FILLETRAD
 40
0.0
  9
$AUNITS
 70
     0
  9
$AUPREC
 70
     1
  9
$MENU
  1
E:\r13\win\SUPPORT\ACAD
  9
$ELEVATION
 40
0.0
  9
$PELEVATION
 40
0.0
  9
$THICKNESS
 40
0.0
  9
$LIMCHECK
 70
     0
  9
$BLIPMODE
 70
     0
  9
$CHAMFERA
 40
0.0
  9
$CHAMFERB
 40
0.0
  9
$SKPOLY
 70
     0
  9
$TDCREATE
 40
2449839.773298610933125
  9
$TDUPDATE
 40
2460671.6140740741975605
  9
$TDINDWG
 40
0.1708696875
  9
$TDUSRTIMER
 40
0.1708696875
  9
$USRTIMER
 70
     1
  9
$ANGBASE
 50
0.0
  9
$ANGDIR
 70
     0
  9
$PDMODE
 70
     0
  9
$PDSIZE
 40
0.0
  9
$PLINEWID
 40
0.0
  9
$COORDS
 70
     1
  9
$SPLFRAME
 70
     0
  9
$SPLINETYPE
 70
     6
  9
$SPLINESEGS
 70
     8
  9
$ATTDIA
 70
     1
  9
$ATTREQ
 70
     1
  9
$HANDLING
 70
     1
  9
$HANDSEED
  5
BF5
  9
$SURFTAB1
 70
     6
  9
$SURFTAB2
 70
     6
  9
$SURFTYPE
 70
     6
  9
$SURFU
 70
     6
  9
$SURFV
 70
     6
  9
$UCSNAME
  2

  9
$UCSORG
 10
0.0
 20
0.0
 30
0.0
  9
$UCSXDIR
 10
1.0
 20
0.0
 30
0.0
  9
$UCSYDIR
 10
0.0
 20
1.0
 30
0.0
  9
$PUCSNAME
  2

  9
$PUCSORG
 10
0.0
 20
0.0
 30
0.0
  9
$PUCSXDIR
 10
1.0
 20
0.0
 30
0.0
  9
$PUCSYDIR
 10
0.0
 20
1.0
 30
0.0
  9
$USERI1
 70
     0
  9
$USERI2
 70
     1
  9
$USERI3
 70
     0
  9
$USERI4
 70
     0
  9
$USERI5
 70
     0
  9
$USERR1
 40
0.0
  9
$USERR2
 40
0.0
  9
$USERR3
 40
0.0
  9
$USERR4
 40
0.0
  9
$USERR5
 40
0.0
  9
$WORLDVIEW
 70
     1
  9
$SHADEDGE
 70
     3
  9
$SHADEDIF
 70
    70
  9
$TILEMODE
 70
     1
  9
$MAXACTVP
 70
    16
  9
$PLIMCHECK
 70
     0
  9
$PEXTMIN
 10
1.0000000000000000E+20
 20
1.0000000000000000E+20
 30
1.0000000000000000E+20
  9
$PEXTMAX
 10
-1.0000000000000000E+20
 20
-1.0000000000000000E+20
 30
-1.0000000000000000E+20
  9
$PLIMMIN
 10
0.0
 20
0.0
  9
$PLIMMAX
 10
12.0
 20
9.0
  9
$UNITMODE
 70
     0
  9
$VISRETAIN
 70
     0
  9
$PLINEGEN
 70
     0
  9
$PSLTSCALE
 70
     0
  0
ENDSEC
  0
SECTION
  2
TABLES
  0
TABLE
  2
VPORT
 70
     1
  0
VPORT
  2
*ACTIVE
 70
     0
 10
0.0
 20
0.0
 11
1.0
 21
1.0
 12
76.4441755865994708
 22
79.7661942918894056
 13
0.0
 23
0.0
 14
5.0
 24
5.0
 15
5.0
 25
5.0
 16
0.0
 26
0.0
 36
1.0
 17
0.0
 27
0.0
 37
0.0
 40
166.8006245012363991
 41
2.3485221674876842
 42
50.0
 43
0.0
 44
0.0
 50
0.0
 51
0.0
 71
     0
 72
   500
 73
     1
 74
     0
 75
     0
 76
     0
 77
     0
 78
     2
  0
ENDTAB
  0
TABLE
  2
LTYPE
 70
     3
  0
LTYPE
  2
CONTINUOUS
 70
     0
  3
Solid Line
 72
    65
 73
     0
 40
0.0
  0
LTYPE
  2
CENTER
 70
     0
  3
____ _ ____ _ ____ _ ____ _ ____ _ ____ _ ____
 72
    65
 73
     4
 40
2.0
 49
1.25
 49
-0.25
 49
0.25
 49
-0.25
  0
LTYPE
  2
HIDDEN
 70
     0
  3
_ _ _ _ _ _ _ _ _ _ _ _ _ _ _ _ _ _ _ _ _ _ _
 72
    65
 73
     2
 40
0.375
 49
0.25
 49
-0.125
  0
ENDTAB
  0
TABLE
  2
LAYER
 70
     4
  0
LAYER
  2
0
 70
     0
 62
     7
  6
CONTINUOUS
  0
LAYER
  2
1
 70
     0
 62
     1
  6
CENTER
  0
LAYER
  2
3
 70
     0
 62
     3
  6
CONTINUOUS
  0
LAYER
  2
2
 70
     0
 62
     2
  6
HIDDEN
  0
ENDTAB
  0
TABLE
  2
STYLE
 70
     2
  0
STYLE
  2
STANDARD
 70
     0
 40
0.0
 41
1.0
 50
0.0
 71
     0
 42
0.2
  3
TXT
  4
BIGFONT
  0
STYLE
  2
STANDARD1
 70
     0
 40
0.0
 41
1.0
 50
0.0
 71
     0
 42
3.0
  3
txt
  4

  0
ENDTAB
  0
TABLE
  2
VIEW
 70
     1
  0
VIEW
  2
ALL
 70
     0
 40
270.0
 10
220.9915966386554942
 20
135.0
 41
0.0
 11
0.0
 21
0.0
 31
1.0
 12
0.0
 22
0.0
 32
0.0
 42
0.0
 43
0.0
 44
0.0
 50
0.0
 71
     0
  0
ENDTAB
  0
TABLE
  2
UCS
 70
     0
  0
ENDTAB
  0
TABLE
  2
APPID
 70
     6
  0
APPID
  2
ACAD
 70
     0
  0
APPID
  2
ACAD_DSTYLE_DIMJAG
 70
     0
  0
APPID
  2
ACAD_DSTYLE_DIMTALN
 70
     0
  0
APPID
  2
ACAD_EXEMPT_FROM_CAD_STANDARDS
 70
     0
  0
APPID
  2
ACAD_MLEADERVER
 70
     0
  0
APPID
  2
ACAD_NAV_VCDISPLAY
 70
     0
  0
ENDTAB
  0
TABLE
  2
DIMSTYLE
 70
     2
  0
DIMSTYLE
  2
STANDARD
 70
     0
  3

  4

  5

  6

  7

 40
1.0
 41
0.18
 42
0.0625
 43
0.38
 44
0.18
 45
0.0
 46
0.0
 47
0.0
 48
0.0
140
0.18
141
0.09
142
0.0
143
25.3999999999999986
144
1.0
145
0.0
146
1.0
147
0.09
 71
     0
 72
     0
 73
     1
 74
     1
 75
     0
 76
     0
 77
     0
 78
     0
170
     0
171
     2
172
     0
173
     0
174
     0
175
     0
176
     0
177
     0
178
     0
  0
DIMSTYLE
  2
ISO-25
 70
     0
  3

  4

  5

  6

  7

 40
1.0
 41
2.5
 42
0.625
 43
3.75
 44
1.25
 45
0.0
 46
0.0
 47
0.0
 48
0.0
140
2.5
141
2.5
142
0.0
143
0.03937007874016
144
1.0
145
0.0
146
1.0
147
0.625
 71
     0
 72
     0
 73
     0
 74
     0
 75
     0
 76
     0
 77
     1
 78
     8
170
     0
171
     3
172
     1
173
     0
174
     0
175
     0
176
     0
177
     0
178
     0
  0
ENDTAB
  0
ENDSEC
  0
SECTION
  2
BLOCKS
  0
BLOCK
  8
0
  2
$MODEL_SPACE
 70
     0
 10
0.0
 20
0.0
 30
0.0
  3
$MODEL_SPACE
  1

  0
ENDBLK
  5
1D4
  8
0
  0
BLOCK
 67
     1
  8
0
  2
$PAPER_SPACE
 70
     0
 10
0.0
 20
0.0
 30
0.0
  3
$PAPER_SPACE
  1

  0
ENDBLK
  5
1D2
 67
     1
  8
0
  0
ENDSEC
  0
SECTION
  2
ENTITIES
  0
TEXT
  5
678
  8
0
 62
     3
 10
0.0
 20
0.0
 30
0.0
 40
10.0
  1
QLPDW85-M8L
  7
STANDARD1
  0
CIRCLE
  5
ADC
  8
0
 10
50.0
 20
149.9999999999998863
 30
0.0
 40
4.0
  0
CIRCLE
  5
ADD
  8
3
 10
50.0
 20
149.9999999999998863
 30
0.0
 40
3.3235000000000952
  0
CIRCLE
  5
ADE
  8
0
 10
50.0
 20
150.0
 30
0.0
 40
5.0
  0
CIRCLE
  5
ADF
  8
0
 10
50.0
 20
150.0
 30
0.0
 40
7.5
  0
LINE
  5
AE0
  8
0
 10
42.4999999999999929
 20
100.0
 30
0.0
 11
42.4999999999999929
 21
95.1999999999999886
 31
0.0
  0
LINE
  5
AE1
  8
0
 10
57.5
 20
95.1999999999999886
 30
0.0
 11
57.5
 21
100.0
 31
0.0
  0
LINE
  5
AE2
  8
0
 10
42.4999999999999929
 20
95.1999999999999886
 30
0.0
 11
43.0358983848622429
 21
93.1999999999999744
 31
0.0
  0
LINE
  5
AE3
  8
0
 10
56.9641016151377428
 20
93.1999999999999744
 30
0.0
 11
57.5
 21
95.1999999999999886
 31
0.0
  0
LINE
  5
AE4
  8
0
 10
55.75
 20
85.9999999999999432
 30
0.0
 11
55.75
 21
93.1999999999999744
 31
0.0
  0
LINE
  5
AE5
  8
0
 10
44.2499999999999787
 20
93.1999999999999744
 30
0.0
 11
44.2499999999999787
 21
85.9999999999999432
 31
0.0
  0
LINE
  5
AE6
  8
0
 10
55.75
 20
77.4896206638808849
 30
0.0
 11
55.75
 21
79.4896206638808849
 31
0.0
  0
LINE
  5
AE7
  8
0
 10
44.2499999999999787
 20
79.4896206638808849
 30
0.0
 11
44.2499999999999787
 21
77.4896206638808849
 31
0.0
  0
LINE
  5
AE8
  8
0
 10
44.2499999999999787
 20
85.9999999999999432
 30
0.0
 11
46.0499999999999901
 21
84.1999999999999886
 31
0.0
  0
LINE
  5
AE9
  8
0
 10
53.9499999999999886
 20
84.1999999999999886
 30
0.0
 11
55.75
 21
85.9999999999999432
 31
0.0
  0
LINE
  5
AEA
  8
0
 10
44.2499999999999787
 20
77.4896206638808849
 30
0.0
 11
44.5299833509295198
 21
76.4447085729385094
 31
0.0
  0
LINE
  5
AEB
  8
0
 10
55.4700166490704589
 20
76.4447085729385094
 30
0.0
 11
55.75
 21
77.4896206638808849
 31
0.0
  0
LINE
  5
AEC
  8
0
 10
55.75
 20
79.4896206638808849
 30
0.0
 11
53.9499999999999886
 21
81.0
 31
0.0
  0
LINE
  5
AED
  8
0
 10
46.0499999999999901
 20
81.0
 30
0.0
 11
44.2499999999999787
 21
79.4896206638808849
 31
0.0
  0
ARC
  5
AEE
  8
0
 10
54.8904611532970321
 20
76.6000000000000227
 30
0.0
 40
0.6000000000000796
 50
269.9999999999992042
 51
344.9999999999988063
  0
ARC
  5
AEF
  8
0
 10
45.1095388467029466
 20
76.6000000000000227
 30
0.0
 40
0.6000000000000796
 50
195.0000000000009948
 51
270.0000000000025011
  0
LINE
  5
AF0
  8
0
 10
55.0
 20
100.0
 30
0.0
 11
55.0
 21
104.5
 31
0.0
  0
LINE
  5
AF1
  8
0
 10
44.9999999999999929
 20
104.5
 30
0.0
 11
44.9999999999999929
 21
100.0
 31
0.0
  0
LINE
  5
AF2
  8
0
 10
54.0
 20
108.4719578791287944
 30
0.0
 11
54.0
 21
115.7999999999998977
 31
0.0
  0
LINE
  5
AF3
  8
0
 10
45.9999999999999787
 20
115.7999999999998977
 30
0.0
 11
45.9999999999999787
 21
108.4719578791287944
 31
0.0
  0
LINE
  5
AF4
  8
0
 10
45.9999999999999787
 20
108.4719578791287944
 30
0.0
 11
46.7499999999999787
 21
107.0
 31
0.0
  0
LINE
  5
AF5
  8
0
 10
53.25
 20
107.0
 30
0.0
 11
54.0
 21
108.4719578791287944
 31
0.0
  0
LINE
  5
AF6
  8
0
 10
54.0
 20
115.7999999999998977
 30
0.0
 11
52.7999999999999972
 21
117.0
 31
0.0
  0
LINE
  5
AF7
  8
0
 10
47.2000000000000028
 20
117.0
 30
0.0
 11
45.9999999999999787
 21
115.7999999999998977
 31
0.0
  0
LINE
  5
AF8
  8
0
 10
53.9499999999999886
 20
80.9999999999999432
 30
0.0
 11
53.9499999999999886
 21
84.1999999999999886
 31
0.0
  0
LINE
  5
AF9
  8
0
 10
46.0499999999999901
 20
84.1999999999999886
 30
0.0
 11
46.0499999999999901
 21
80.9999999999999432
 31
0.0
  0
LINE
  5
AFA
  8
0
 10
53.25
 20
104.5
 30
0.0
 11
53.25
 21
107.0
 31
0.0
  0
LINE
  5
AFB
  8
0
 10
46.7499999999999787
 20
107.0
 30
0.0
 11
46.7499999999999787
 21
104.5
 31
0.0
  0
LINE
  5
AFC
  8
0
 10
42.4999999999999929
 20
100.0
 30
0.0
 11
57.5
 21
100.0
 31
0.0
  0
LINE
  5
AFD
  8
0
 10
42.4999999999999929
 20
95.1999999999998749
 30
0.0
 11
57.5
 21
95.1999999999999886
 31
0.0
  0
LINE
  5
AFE
  8
0
 10
56.9641016151377428
 20
93.1999999999999744
 30
0.0
 11
43.0358983848622429
 21
93.1999999999999744
 31
0.0
  0
LINE
  5
AFF
  8
0
 10
55.75
 20
85.9999999999999432
 30
0.0
 11
44.2499999999999929
 21
85.9999999999999432
 31
0.0
  0
LINE
  5
B00
  8
0
 10
55.75
 20
77.4896206638808849
 30
0.0
 11
44.2499999999999929
 21
77.4896206638808849
 31
0.0
  0
LINE
  5
B01
  8
0
 10
55.75
 20
79.4896206638808849
 30
0.0
 11
44.2499999999999929
 21
79.4896206638808849
 31
0.0
  0
LINE
  5
B02
  8
0
 10
53.9499999999999886
 20
84.1999999999999886
 30
0.0
 11
46.0499999999999901
 21
84.1999999999999886
 31
0.0
  0
LINE
  5
B03
  8
0
 10
53.9499999999999886
 20
80.9999999999999432
 30
0.0
 11
46.0499999999999901
 21
80.9999999999999432
 31
0.0
  0
LINE
  5
B04
  8
0
 10
54.8904611532970321
 20
75.9999999999999432
 30
0.0
 11
45.1095388467029466
 21
75.9999999999999432
 31
0.0
  0
LINE
  5
B05
  8
0
 10
55.0
 20
104.5
 30
0.0
 11
44.9999999999999929
 21
104.5
 31
0.0
  0
LINE
  5
B06
  8
0
 10
54.0
 20
108.4719578791287944
 30
0.0
 11
45.9999999999999787
 21
108.4719578791287944
 31
0.0
  0
LINE
  5
B07
  8
0
 10
54.0
 20
115.7999999999998977
 30
0.0
 11
45.9999999999999787
 21
115.7999999999998977
 31
0.0
  0
LINE
  5
B08
  8
0
 10
53.25
 20
107.0
 30
0.0
 11
46.7499999999999787
 21
107.0
 31
0.0
  0
LINE
  5
B09
  8
0
 10
47.2000000000000028
 20
117.0
 30
0.0
 11
52.7999999999999972
 21
117.0
 31
0.0
  0
LINE
  5
B0A
  8
0
 10
92.5000000000000853
 20
95.199999999999946
 30
0.0
 11
93.0358983848623211
 21
93.1999999999999318
 31
0.0
  0
LINE
  5
B0B
  8
0
 10
106.9641016151378068
 20
93.1999999999999744
 30
0.0
 11
107.5
 21
95.1999999999999886
 31
0.0
  0
LINE
  5
B0C
  8
0
 10
92.5000000000000568
 20
100.0
 30
0.0
 11
92.5000000000000853
 21
95.199999999999946
 31
0.0
  0
LINE
  5
B0D
  8
0
 10
107.5
 20
95.1999999999999886
 30
0.0
 11
107.5
 21
100.0
 31
0.0
  0
LINE
  5
B0E
  8
0
 10
105.7500000000000995
 20
77.4896206638808849
 30
0.0
 11
105.7500000000000995
 21
79.4896206638809417
 31
0.0
  0
LINE
  5
B0F
  8
0
 10
94.2500000000001421
 20
79.4896206638808849
 30
0.0
 11
94.2500000000001421
 21
77.4896206638808849
 31
0.0
  0
LINE
  5
B10
  8
0
 10
94.2500000000001421
 20
77.4896206638808849
 30
0.0
 11
94.5299833509296832
 21
76.4447085729384526
 31
0.0
  0
LINE
  5
B11
  8
0
 10
105.470016649070601
 20
76.4447085729385094
 30
0.0
 11
105.7500000000000995
 21
77.4896206638808849
 31
0.0
  0
LINE
  5
B12
  8
0
 10
105.7500000000000995
 20
86.0
 30
0.0
 11
105.75
 21
93.1999999999999744
 31
0.0
  0
LINE
  5
B13
  8
0
 10
94.2500000000000853
 20
93.1999999999999318
 30
0.0
 11
94.2500000000001137
 21
85.9999999999999432
 31
0.0
  0
LINE
  5
B14
  8
0
 10
94.2500000000001137
 20
85.9999999999998863
 30
0.0
 11
96.0500000000001108
 21
84.1999999999999176
 31
0.0
  0
LINE
  5
B15
  8
0
 10
103.9500000000001023
 20
84.1999999999999886
 30
0.0
 11
105.7500000000000995
 21
85.9999999999999432
 31
0.0
  0
LINE
  5
B16
  8
0
 10
105.7500000000000995
 20
79.4896206638809417
 30
0.0
 11
103.9500000000001023
 21
81.0
 31
0.0
  0
LINE
  5
B17
  8
0
 10
96.0500000000001251
 20
80.9999999999999432
 30
0.0
 11
94.2500000000001421
 21
79.4896206638808849
 31
0.0
  0
ARC
  5
B18
  8
0
 10
104.8904611532970961
 20
76.6000000000000227
 30
0.0
 40
0.6000000000000228
 50
270.0000000000007958
 51
345.0000000000018758
  0
ARC
  5
B19
  8
0
 10
95.1095388467031171
 20
76.5999999999999659
 30
0.0
 40
0.6000000000000228
 50
195.0000000000009948
 51
270.0000000000007958
  0
LINE
  5
B1A
  8
0
 10
105.0
 20
100.0
 30
0.0
 11
105.0
 21
104.5
 31
0.0
  0
LINE
  5
B1B
  8
0
 10
95.0000000000000568
 20
104.5
 30
0.0
 11
95.0000000000000568
 21
100.0
 31
0.0
  0
LINE
  5
B1C
  8
0
 10
96.0000000000000284
 20
108.4719578791287944
 30
0.0
 11
96.7500000000000426
 21
107.0
 31
0.0
  0
LINE
  5
B1D
  8
0
 10
103.25
 20
107.0
 30
0.0
 11
104.0
 21
108.4719578791287944
 31
0.0
  0
LINE
  5
B1E
  8
0
 10
104.0
 20
108.4719578791287944
 30
0.0
 11
104.0
 21
115.7999999999999972
 31
0.0
  0
LINE
  5
B1F
  8
0
 10
96.0
 20
115.7999999999998977
 30
0.0
 11
96.0000000000000284
 21
108.4719578791287944
 31
0.0
  0
LINE
  5
B20
  8
0
 10
104.0
 20
115.7999999999999972
 30
0.0
 11
102.7999999999999972
 21
117.0
 31
0.0
  0
LINE
  5
B21
  8
0
 10
97.2000000000000171
 20
117.0
 30
0.0
 11
96.0
 21
115.7999999999998977
 31
0.0
  0
LINE
  5
B22
  8
0
 10
103.9500000000001023
 20
81.0
 30
0.0
 11
103.9500000000001023
 21
84.1999999999999886
 31
0.0
  0
LINE
  5
B23
  8
0
 10
96.0500000000001108
 20
84.1999999999999176
 30
0.0
 11
96.0500000000001251
 21
80.9999999999999432
 31
0.0
  0
LINE
  5
B24
  8
0
 10
103.25
 20
104.5
 30
0.0
 11
103.25
 21
107.0
 31
0.0
  0
LINE
  5
B25
  8
0
 10
96.7500000000000426
 20
107.0
 30
0.0
 11
96.7500000000000568
 21
104.5
 31
0.0
  0
LINE
  5
B26
  8
0
 10
92.5000000000000853
 20
95.199999999999946
 30
0.0
 11
107.5
 21
95.1999999999999886
 31
0.0
  0
LINE
  5
B27
  8
0
 10
106.9641016151378068
 20
93.1999999999999744
 30
0.0
 11
93.0358983848623495
 21
93.1999999999999318
 31
0.0
  0
LINE
  5
B28
  8
0
 10
92.5000000000000568
 20
100.0
 30
0.0
 11
107.5
 21
100.0
 31
0.0
  0
LINE
  5
B29
  8
0
 10
105.7500000000000995
 20
77.4896206638808849
 30
0.0
 11
94.2500000000001421
 21
77.4896206638808849
 31
0.0
  0
LINE
  5
B2A
  8
0
 10
105.7500000000000995
 20
79.4896206638809417
 30
0.0
 11
94.2500000000001421
 21
79.4896206638808849
 31
0.0
  0
LINE
  5
B2B
  8
0
 10
105.7500000000000995
 20
86.0
 30
0.0
 11
94.2500000000001137
 21
85.9999999999999432
 31
0.0
  0
LINE
  5
B2C
  8
0
 10
103.9500000000001023
 20
84.1999999999999886
 30
0.0
 11
96.0500000000001251
 21
84.1999999999999176
 31
0.0
  0
LINE
  5
B2D
  8
0
 10
103.9500000000001023
 20
81.0
 30
0.0
 11
96.0500000000001251
 21
80.9999999999999432
 31
0.0
  0
LINE
  5
B2E
  8
0
 10
104.8904611532970961
 20
76.0
 30
0.0
 11
95.1095388467031455
 21
75.9999999999999432
 31
0.0
  0
LINE
  5
B2F
  8
0
 10
105.0
 20
104.5
 30
0.0
 11
95.0000000000000568
 21
104.5
 31
0.0
  0
LINE
  5
B30
  8
0
 10
104.0
 20
108.4719578791287944
 30
0.0
 11
96.0000000000000284
 21
108.4719578791287944
 31
0.0
  0
LINE
  5
B31
  8
0
 10
103.25
 20
107.0
 30
0.0
 11
96.7500000000000426
 21
107.0
 31
0.0
  0
LINE
  5
B32
  8
0
 10
104.0
 20
115.7999999999999972
 30
0.0
 11
96.0
 21
115.7999999999998977
 31
0.0
  0
LINE
  5
B33
  8
0
 10
97.2000000000000171
 20
117.0
 30
0.0
 11
102.7999999999999972
 21
117.0
 31
0.0
  0
LINE
  5
B34
  8
1
 10
62.5
 20
150.0
 30
0.0
 11
37.5
 21
150.0
 31
0.0
  0
LINE
  5
B35
  8
1
 10
50.0
 20
162.5
 30
0.0
 11
50.0
 21
137.5
 31
0.0
  0
LINE
  5
B36
  8
1
 10
50.0
 20
70.9999999999999432
 30
0.0
 11
50.0
 21
122.0
 31
0.0
  0
LINE
  5
B37
  8
1
 10
100.0
 20
70.9999999999999432
 30
0.0
 11
100.0
 21
122.0
 31
0.0
  0
CIRCLE
  5
B55
  8
0
 10
50.0
 20
43.0000000000000568
 30
0.0
 40
5.7500000000000142
  0
CIRCLE
  5
B57
  8
0
 10
50.0
 20
42.9999999999999432
 30
0.0
 40
6.9641016151377642
  0
CIRCLE
  5
B58
  8
0
 10
50.0
 20
42.9999999999999432
 30
0.0
 40
7.5
  0
LINE
  5
B59
  8
1
 10
62.5
 20
42.9999999999999432
 30
0.0
 11
37.5
 21
42.9999999999999432
 31
0.0
  0
LINE
  5
B5A
  8
1
 10
50.0
 20
30.4999999999999396
 30
0.0
 11
50.0
 21
55.4999999999999432
 31
0.0
  0
LINE
  5
B63
  8
0
 10
47.9999999999999929
 20
44.154700538379231
 30
0.0
 11
49.9999999999999574
 21
45.3094010767584692
 31
0.0
  0
LINE
  5
B66
  8
0
 10
48.0
 20
41.8452994616206482
 30
0.0
 11
48.0
 21
44.154700538379231
 31
0.0
  0
LINE
  5
B67
  8
0
 10
49.9999999999999574
 20
40.6905989232414385
 30
0.0
 11
52.0
 21
41.8452994616207121
 31
0.0
  0
LINE
  5
B68
  8
0
 10
49.9999999999999574
 20
40.6905989232414385
 30
0.0
 11
48.0
 21
41.8452994616206624
 31
0.0
  0
LINE
  5
B69
  8
0
 10
52.0000000000000071
 20
41.8452994616207192
 30
0.0
 11
52.0000000000000071
 21
44.1547005383791813
 31
0.0
  0
LINE
  5
B6B
  8
0
 10
52.0
 20
44.1547005383791884
 30
0.0
 11
49.9999999999999574
 21
45.3094010767584621
 31
0.0
  0
LINE
  5
B86
  8
3
 10
46.6764999999998409
 20
107.1442518721548964
 30
0.0
 11
46.6764999999998622
 21
116.4764999999998025
 31
0.0
  0
LINE
  5
B87
  8
3
 10
53.3235000000000881
 20
107.144251872154797
 30
0.0
 11
53.3235000000000881
 21
116.476499999999902
 31
0.0
  0
LINE
  5
B93
  8
3
 10
96.6764999999998764
 20
107.1442518721548964
 30
0.0
 11
96.6764999999998906
 21
116.4764999999998025
 31
0.0
  0
LINE
  5
B94
  8
3
 10
103.3235000000000952
 20
107.144251872154797
 30
0.0
 11
103.3235000000000952
 21
116.476499999999902
 31
0.0
  0
ENDSEC
  0
EOF
