  0
SECTION
  2
HEADER
  9
$ACADVER
  1
AC1009
  9
$INSBASE
 10
0.0
 20
0.0
 30
0.0
  9
$EXTMIN
 10
0.0
 20
-2.960436562073669
 30
0.0
  9
$EXTMAX
 10
107.5
 20
162.5702451888176086
 30
0.0
  9
$LIMMIN
 10
0.0
 20
0.0
  9
$LIMMAX
 10
187.5
 20
135.0
  9
$ORTHOMODE
 70
     0
  9
$REGENMODE
 70
     1
  9
$FILLMODE
 70
     1
  9
$QTEXTMODE
 70
     0
  9
$MIRRTEXT
 70
     0
  9
$DRAGMODE
 70
     2
  9
$LTSCALE
 40
10.0
  9
$OSMODE
 70
    37
  9
$ATTMODE
 70
     1
  9
$TEXTSIZE
 40
0.2
  9
$TRACEWID
 40
0.05
  9
$TEXTSTYLE
  7
STANDARD
  9
$CLAYER
  8
0
  9
$CELTYPE
  6
BYLAYER
  9
$CECOLOR
 62
   256
  9
$DIMSCALE
 40
1.0
  9
$DIMASZ
 40
3.0
  9
$DIMEXO
 40
2.0
  9
$DIMDLI
 40
0.38
  9
$DIMRND
 40
0.0
  9
$DIMDLE
 40
0.0
  9
$DIMEXE
 40
2.0
  9
$DIMTP
 40
0.0
  9
$DIMTM
 40
0.0
  9
$DIMTXT
 40
3.2000000000000002
  9
$DIMCEN
 40
0.0
  9
$DIMTSZ
 40
0.0
  9
$DIMTOL
 70
     0
  9
$DIMLIM
 70
     0
  9
$DIMTIH
 70
     0
  9
$DIMTOH
 70
     0
  9
$DIMSE1
 70
     0
  9
$DIMSE2
 70
     0
  9
$DIMTAD
 70
     1
  9
$DIMZIN
 70
     8
  9
$DIMBLK
  1

  9
$DIMASO
 70
     0
  9
$DIMSHO
 70
     0
  9
$DIMPOST
  1

  9
$DIMAPOST
  1

  9
$DIMALT
 70
     0
  9
$DIMALTD
 70
     2
  9
$DIMALTF
 40
25.3999999999999986
  9
$DIMLFAC
 40
1.0
  9
$DIMTOFL
 70
     1
  9
$DIMTVP
 40
1.6000000000000001
  9
$DIMTIX
 70
     1
  9
$DIMSOXD
 70
     0
  9
$DIMSAH
 70
     0
  9
$DIMBLK1
  1

  9
$DIMBLK2
  1

  9
$DIMSTYLE
  2
STANDARD
  9
$DIMCLRD
 70
     0
  9
$DIMCLRE
 70
     0
  9
$DIMCLRT
 70
     0
  9
$DIMTFAC
 40
1.0
  9
$DIMGAP
 40
0.09
  9
$LUNITS
 70
     2
  9
$LUPREC
 70
     1
  9
$SKETCHINC
 40
0.1
  9
$FILLETRAD
 40
0.0
  9
$AUNITS
 70
     0
  9
$AUPREC
 70
     1
  9
$MENU
  1
E:\r13\win\SUPPORT\ACAD
  9
$ELEVATION
 40
0.0
  9
$PELEVATION
 40
0.0
  9
$THICKNESS
 40
0.0
  9
$LIMCHECK
 70
     0
  9
$BLIPMODE
 70
     0
  9
$CHAMFERA
 40
0.0
  9
$CHAMFERB
 40
0.0
  9
$SKPOLY
 70
     0
  9
$TDCREATE
 40
2449839.773298610933125
  9
$TDUPDATE
 40
2460671.6140856482088566
  9
$TDINDWG
 40
0.1745618171
  9
$TDUSRTIMER
 40
0.1745618171
  9
$USRTIMER
 70
     1
  9
$ANGBASE
 50
0.0
  9
$ANGDIR
 70
     0
  9
$PDMODE
 70
     0
  9
$PDSIZE
 40
0.0
  9
$PLINEWID
 40
0.0
  9
$COORDS
 70
     1
  9
$SPLFRAME
 70
     0
  9
$SPLINETYPE
 70
     6
  9
$SPLINESEGS
 70
     8
  9
$ATTDIA
 70
     1
  9
$ATTREQ
 70
     1
  9
$HANDLING
 70
     1
  9
$HANDSEED
  5
D5E
  9
$SURFTAB1
 70
     6
  9
$SURFTAB2
 70
     6
  9
$SURFTYPE
 70
     6
  9
$SURFU
 70
     6
  9
$SURFV
 70
     6
  9
$UCSNAME
  2

  9
$UCSORG
 10
0.0
 20
0.0
 30
0.0
  9
$UCSXDIR
 10
1.0
 20
0.0
 30
0.0
  9
$UCSYDIR
 10
0.0
 20
1.0
 30
0.0
  9
$PUCSNAME
  2

  9
$PUCSORG
 10
0.0
 20
0.0
 30
0.0
  9
$PUCSXDIR
 10
1.0
 20
0.0
 30
0.0
  9
$PUCSYDIR
 10
0.0
 20
1.0
 30
0.0
  9
$USERI1
 70
     0
  9
$USERI2
 70
     1
  9
$USERI3
 70
     0
  9
$USERI4
 70
     0
  9
$USERI5
 70
     0
  9
$USERR1
 40
0.0
  9
$USERR2
 40
0.0
  9
$USERR3
 40
0.0
  9
$USERR4
 40
0.0
  9
$USERR5
 40
0.0
  9
$WORLDVIEW
 70
     1
  9
$SHADEDGE
 70
     3
  9
$SHADEDIF
 70
    70
  9
$TILEMODE
 70
     1
  9
$MAXACTVP
 70
    16
  9
$PLIMCHECK
 70
     0
  9
$PEXTMIN
 10
1.0000000000000000E+20
 20
1.0000000000000000E+20
 30
1.0000000000000000E+20
  9
$PEXTMAX
 10
-1.0000000000000000E+20
 20
-1.0000000000000000E+20
 30
-1.0000000000000000E+20
  9
$PLIMMIN
 10
0.0
 20
0.0
  9
$PLIMMAX
 10
12.0
 20
9.0
  9
$UNITMODE
 70
     0
  9
$VISRETAIN
 70
     0
  9
$PLINEGEN
 70
     0
  9
$PSLTSCALE
 70
     0
  0
ENDSEC
  0
SECTION
  2
TABLES
  0
TABLE
  2
VPORT
 70
     1
  0
VPORT
  2
*ACTIVE
 70
     0
 10
0.0
 20
0.0
 11
1.0
 21
1.0
 12
76.4524421380011034
 22
79.8040852603609068
 13
0.0
 23
0.0
 14
5.0
 24
5.0
 15
5.0
 25
5.0
 16
0.0
 26
0.0
 36
1.0
 17
0.0
 27
0.0
 37
0.0
 40
166.8668350476353908
 41
2.3485221674876842
 42
50.0
 43
0.0
 44
0.0
 50
0.0
 51
0.0
 71
     0
 72
   500
 73
     1
 74
     0
 75
     0
 76
     0
 77
     0
 78
     2
  0
ENDTAB
  0
TABLE
  2
LTYPE
 70
     3
  0
LTYPE
  2
CONTINUOUS
 70
     0
  3
Solid Line
 72
    65
 73
     0
 40
0.0
  0
LTYPE
  2
CENTER
 70
     0
  3
____ _ ____ _ ____ _ ____ _ ____ _ ____ _ ____
 72
    65
 73
     4
 40
2.0
 49
1.25
 49
-0.25
 49
0.25
 49
-0.25
  0
LTYPE
  2
HIDDEN
 70
     0
  3
_ _ _ _ _ _ _ _ _ _ _ _ _ _ _ _ _ _ _ _ _ _ _
 72
    65
 73
     2
 40
0.375
 49
0.25
 49
-0.125
  0
ENDTAB
  0
TABLE
  2
LAYER
 70
     4
  0
LAYER
  2
0
 70
     0
 62
     7
  6
CONTINUOUS
  0
LAYER
  2
1
 70
     0
 62
     1
  6
CENTER
  0
LAYER
  2
3
 70
     0
 62
     3
  6
CONTINUOUS
  0
LAYER
  2
2
 70
     0
 62
     2
  6
HIDDEN
  0
ENDTAB
  0
TABLE
  2
STYLE
 70
     2
  0
STYLE
  2
STANDARD
 70
     0
 40
0.0
 41
1.0
 50
0.0
 71
     0
 42
0.2
  3
TXT
  4
BIGFONT
  0
STYLE
  2
STANDARD1
 70
     0
 40
0.0
 41
1.0
 50
0.0
 71
     0
 42
3.0
  3
txt
  4

  0
ENDTAB
  0
TABLE
  2
VIEW
 70
     1
  0
VIEW
  2
ALL
 70
     0
 40
270.0
 10
220.9915966386554942
 20
135.0
 41
0.0
 11
0.0
 21
0.0
 31
1.0
 12
0.0
 22
0.0
 32
0.0
 42
0.0
 43
0.0
 44
0.0
 50
0.0
 71
     0
  0
ENDTAB
  0
TABLE
  2
UCS
 70
     0
  0
ENDTAB
  0
TABLE
  2
APPID
 70
     6
  0
APPID
  2
ACAD
 70
     0
  0
APPID
  2
ACAD_DSTYLE_DIMJAG
 70
     0
  0
APPID
  2
ACAD_DSTYLE_DIMTALN
 70
     0
  0
APPID
  2
ACAD_EXEMPT_FROM_CAD_STANDARDS
 70
     0
  0
APPID
  2
ACAD_MLEADERVER
 70
     0
  0
APPID
  2
ACAD_NAV_VCDISPLAY
 70
     0
  0
ENDTAB
  0
TABLE
  2
DIMSTYLE
 70
     2
  0
DIMSTYLE
  2
STANDARD
 70
     0
  3

  4

  5

  6

  7

 40
1.0
 41
0.18
 42
0.0625
 43
0.38
 44
0.18
 45
0.0
 46
0.0
 47
0.0
 48
0.0
140
0.18
141
0.09
142
0.0
143
25.3999999999999986
144
1.0
145
0.0
146
1.0
147
0.09
 71
     0
 72
     0
 73
     1
 74
     1
 75
     0
 76
     0
 77
     0
 78
     0
170
     0
171
     2
172
     0
173
     0
174
     0
175
     0
176
     0
177
     0
178
     0
  0
DIMSTYLE
  2
ISO-25
 70
     0
  3

  4

  5

  6

  7

 40
1.0
 41
2.5
 42
0.625
 43
3.75
 44
1.25
 45
0.0
 46
0.0
 47
0.0
 48
0.0
140
2.5
141
2.5
142
0.0
143
0.03937007874016
144
1.0
145
0.0
146
1.0
147
0.625
 71
     0
 72
     0
 73
     0
 74
     0
 75
     0
 76
     0
 77
     1
 78
     8
170
     0
171
     3
172
     1
173
     0
174
     0
175
     0
176
     0
177
     0
178
     0
  0
ENDTAB
  0
ENDSEC
  0
SECTION
  2
BLOCKS
  0
BLOCK
  8
0
  2
$MODEL_SPACE
 70
     0
 10
0.0
 20
0.0
 30
0.0
  3
$MODEL_SPACE
  1

  0
ENDBLK
  5
1D4
  8
0
  0
BLOCK
 67
     1
  8
0
  2
$PAPER_SPACE
 70
     0
 10
0.0
 20
0.0
 30
0.0
  3
$PAPER_SPACE
  1

  0
ENDBLK
  5
1D2
 67
     1
  8
0
  0
BLOCK
  8
0
  2
A$C4909E85C
 70
     0
 10
0.0
 20
0.0
 30
0.0
  3
A$C4909E85C
  1

  0
CIRCLE
  5
C06
  8
0
 10
50.0
 20
149.9999999999998863
 30
0.0
 40
4.0
  0
CIRCLE
  5
C07
  8
0
 10
50.0
 20
149.9999999999998863
 30
0.0
 40
2.79999999999984
  0
CIRCLE
  5
C08
  8
0
 10
50.0
 20
150.0
 30
0.0
 40
5.0
  0
CIRCLE
  5
C09
  8
0
 10
50.0
 20
150.0
 30
0.0
 40
7.5
  0
LINE
  5
C0A
  8
0
 10
42.4999999999999929
 20
100.0
 30
0.0
 11
42.4999999999999929
 21
95.1999999999999886
 31
0.0
  0
LINE
  5
C0B
  8
0
 10
57.5
 20
95.1999999999999886
 30
0.0
 11
57.5
 21
100.0
 31
0.0
  0
LINE
  5
C0C
  8
0
 10
42.4999999999999929
 20
95.1999999999999886
 30
0.0
 11
43.0358983848622429
 21
93.1999999999999744
 31
0.0
  0
LINE
  5
C0D
  8
0
 10
56.9641016151377428
 20
93.1999999999999744
 30
0.0
 11
57.5
 21
95.1999999999999886
 31
0.0
  0
LINE
  5
C0E
  8
0
 10
55.75
 20
85.9999999999999432
 30
0.0
 11
55.75
 21
93.1999999999999744
 31
0.0
  0
LINE
  5
C0F
  8
0
 10
44.2499999999999787
 20
93.1999999999999744
 30
0.0
 11
44.2499999999999787
 21
85.9999999999999432
 31
0.0
  0
LINE
  5
C10
  8
0
 10
55.75
 20
77.4896206638808849
 30
0.0
 11
55.75
 21
79.4896206638808849
 31
0.0
  0
LINE
  5
C11
  8
0
 10
44.2499999999999787
 20
79.4896206638808849
 30
0.0
 11
44.2499999999999787
 21
77.4896206638808849
 31
0.0
  0
LINE
  5
C12
  8
0
 10
44.2499999999999787
 20
85.9999999999999432
 30
0.0
 11
46.0499999999999901
 21
84.1999999999999886
 31
0.0
  0
LINE
  5
C13
  8
0
 10
53.9499999999999886
 20
84.1999999999999886
 30
0.0
 11
55.75
 21
85.9999999999999432
 31
0.0
  0
LINE
  5
C14
  8
0
 10
44.2499999999999787
 20
77.4896206638808849
 30
0.0
 11
44.5299833509295198
 21
76.4447085729385094
 31
0.0
  0
LINE
  5
C15
  8
0
 10
55.4700166490704589
 20
76.4447085729385094
 30
0.0
 11
55.75
 21
77.4896206638808849
 31
0.0
  0
LINE
  5
C16
  8
0
 10
55.75
 20
79.4896206638808849
 30
0.0
 11
53.9499999999999886
 21
81.0
 31
0.0
  0
LINE
  5
C17
  8
0
 10
46.0499999999999901
 20
81.0
 30
0.0
 11
44.2499999999999787
 21
79.4896206638808849
 31
0.0
  0
ARC
  5
C18
  8
0
 10
54.8904611532970321
 20
76.6000000000000227
 30
0.0
 40
0.6000000000000796
 50
269.9999999999992042
 51
344.9999999999988063
  0
ARC
  5
C19
  8
0
 10
45.1095388467029466
 20
76.6000000000000227
 30
0.0
 40
0.6000000000000796
 50
195.0000000000009948
 51
270.0000000000025011
  0
LINE
  5
C1A
  8
0
 10
55.0
 20
100.0
 30
0.0
 11
55.0
 21
104.5
 31
0.0
  0
LINE
  5
C1B
  8
0
 10
44.9999999999999929
 20
104.5
 30
0.0
 11
44.9999999999999929
 21
100.0
 31
0.0
  0
LINE
  5
C1C
  8
0
 10
54.0
 20
108.4719578791287944
 30
0.0
 11
54.0
 21
115.7999999999998977
 31
0.0
  0
LINE
  5
C1D
  8
0
 10
45.9999999999999787
 20
115.7999999999998977
 30
0.0
 11
45.9999999999999787
 21
108.4719578791287944
 31
0.0
  0
LINE
  5
C1E
  8
0
 10
45.9999999999999787
 20
108.4719578791287944
 30
0.0
 11
46.7499999999999787
 21
107.0
 31
0.0
  0
LINE
  5
C1F
  8
0
 10
53.25
 20
107.0
 30
0.0
 11
54.0
 21
108.4719578791287944
 31
0.0
  0
LINE
  5
C20
  8
0
 10
54.0
 20
115.7999999999998977
 30
0.0
 11
52.7999999999999972
 21
117.0
 31
0.0
  0
LINE
  5
C21
  8
0
 10
47.2000000000000028
 20
117.0
 30
0.0
 11
45.9999999999999787
 21
115.7999999999998977
 31
0.0
  0
LINE
  5
C22
  8
0
 10
53.9499999999999886
 20
80.9999999999999432
 30
0.0
 11
53.9499999999999886
 21
84.1999999999999886
 31
0.0
  0
LINE
  5
C23
  8
0
 10
46.0499999999999901
 20
84.1999999999999886
 30
0.0
 11
46.0499999999999901
 21
80.9999999999999432
 31
0.0
  0
LINE
  5
C24
  8
0
 10
53.25
 20
104.5
 30
0.0
 11
53.25
 21
107.0
 31
0.0
  0
LINE
  5
C25
  8
0
 10
46.7499999999999787
 20
107.0
 30
0.0
 11
46.7499999999999787
 21
104.5
 31
0.0
  0
LINE
  5
C26
  8
0
 10
42.4999999999999929
 20
100.0
 30
0.0
 11
57.5
 21
100.0
 31
0.0
  0
LINE
  5
C27
  8
0
 10
42.4999999999999929
 20
95.1999999999998749
 30
0.0
 11
57.5
 21
95.1999999999999886
 31
0.0
  0
LINE
  5
C28
  8
0
 10
56.9641016151377428
 20
93.1999999999999744
 30
0.0
 11
43.0358983848622429
 21
93.1999999999999744
 31
0.0
  0
LINE
  5
C29
  8
0
 10
55.75
 20
85.9999999999999432
 30
0.0
 11
44.2499999999999929
 21
85.9999999999999432
 31
0.0
  0
LINE
  5
C2A
  8
0
 10
55.75
 20
77.4896206638808849
 30
0.0
 11
44.2499999999999929
 21
77.4896206638808849
 31
0.0
  0
LINE
  5
C2B
  8
0
 10
55.75
 20
79.4896206638808849
 30
0.0
 11
44.2499999999999929
 21
79.4896206638808849
 31
0.0
  0
LINE
  5
C2C
  8
0
 10
53.9499999999999886
 20
84.1999999999999886
 30
0.0
 11
46.0499999999999901
 21
84.1999999999999886
 31
0.0
  0
LINE
  5
C2D
  8
0
 10
53.9499999999999886
 20
80.9999999999999432
 30
0.0
 11
46.0499999999999901
 21
80.9999999999999432
 31
0.0
  0
LINE
  5
C2E
  8
0
 10
54.8904611532970321
 20
75.9999999999999432
 30
0.0
 11
45.1095388467029466
 21
75.9999999999999432
 31
0.0
  0
LINE
  5
C2F
  8
0
 10
55.0
 20
104.5
 30
0.0
 11
44.9999999999999929
 21
104.5
 31
0.0
  0
LINE
  5
C30
  8
0
 10
54.0
 20
108.4719578791287944
 30
0.0
 11
45.9999999999999787
 21
108.4719578791287944
 31
0.0
  0
LINE
  5
C31
  8
0
 10
54.0
 20
115.7999999999998977
 30
0.0
 11
45.9999999999999787
 21
115.7999999999998977
 31
0.0
  0
LINE
  5
C32
  8
0
 10
53.25
 20
107.0
 30
0.0
 11
46.7499999999999787
 21
107.0
 31
0.0
  0
LINE
  5
C33
  8
0
 10
47.2000000000000028
 20
117.0
 30
0.0
 11
52.7999999999999972
 21
117.0
 31
0.0
  0
LINE
  5
C34
  8
0
 10
92.5000000000000853
 20
95.199999999999946
 30
0.0
 11
93.0358983848623211
 21
93.1999999999999318
 31
0.0
  0
LINE
  5
C35
  8
0
 10
106.9641016151378068
 20
93.1999999999999744
 30
0.0
 11
107.5
 21
95.1999999999999886
 31
0.0
  0
LINE
  5
C36
  8
0
 10
92.5000000000000568
 20
100.0
 30
0.0
 11
92.5000000000000853
 21
95.199999999999946
 31
0.0
  0
LINE
  5
C37
  8
0
 10
107.5
 20
95.1999999999999886
 30
0.0
 11
107.5
 21
100.0
 31
0.0
  0
LINE
  5
C38
  8
0
 10
105.7500000000000995
 20
77.4896206638808849
 30
0.0
 11
105.7500000000000995
 21
79.4896206638809417
 31
0.0
  0
LINE
  5
C39
  8
0
 10
94.2500000000001421
 20
79.4896206638808849
 30
0.0
 11
94.2500000000001421
 21
77.4896206638808849
 31
0.0
  0
LINE
  5
C3A
  8
0
 10
94.2500000000001421
 20
77.4896206638808849
 30
0.0
 11
94.5299833509296832
 21
76.4447085729384526
 31
0.0
  0
LINE
  5
C3B
  8
0
 10
105.470016649070601
 20
76.4447085729385094
 30
0.0
 11
105.7500000000000995
 21
77.4896206638808849
 31
0.0
  0
LINE
  5
C3C
  8
0
 10
105.7500000000000995
 20
86.0
 30
0.0
 11
105.75
 21
93.1999999999999744
 31
0.0
  0
LINE
  5
C3D
  8
0
 10
94.2500000000000853
 20
93.1999999999999318
 30
0.0
 11
94.2500000000001137
 21
85.9999999999999432
 31
0.0
  0
LINE
  5
C3E
  8
0
 10
94.2500000000001137
 20
85.9999999999998863
 30
0.0
 11
96.0500000000001108
 21
84.1999999999999176
 31
0.0
  0
LINE
  5
C3F
  8
0
 10
103.9500000000001023
 20
84.1999999999999886
 30
0.0
 11
105.7500000000000995
 21
85.9999999999999432
 31
0.0
  0
LINE
  5
C40
  8
0
 10
105.7500000000000995
 20
79.4896206638809417
 30
0.0
 11
103.9500000000001023
 21
81.0
 31
0.0
  0
LINE
  5
C41
  8
0
 10
96.0500000000001251
 20
80.9999999999999432
 30
0.0
 11
94.2500000000001421
 21
79.4896206638808849
 31
0.0
  0
ARC
  5
C42
  8
0
 10
104.8904611532970961
 20
76.6000000000000227
 30
0.0
 40
0.6000000000000228
 50
270.0000000000007958
 51
345.0000000000018758
  0
ARC
  5
C43
  8
0
 10
95.1095388467031171
 20
76.5999999999999659
 30
0.0
 40
0.6000000000000228
 50
195.0000000000009948
 51
270.0000000000007958
  0
LINE
  5
C44
  8
0
 10
105.0
 20
100.0
 30
0.0
 11
105.0
 21
104.5
 31
0.0
  0
LINE
  5
C45
  8
0
 10
95.0000000000000568
 20
104.5
 30
0.0
 11
95.0000000000000568
 21
100.0
 31
0.0
  0
LINE
  5
C46
  8
0
 10
96.0000000000000284
 20
108.4719578791287944
 30
0.0
 11
96.7500000000000426
 21
107.0
 31
0.0
  0
LINE
  5
C47
  8
0
 10
103.25
 20
107.0
 30
0.0
 11
104.0
 21
108.4719578791287944
 31
0.0
  0
LINE
  5
C48
  8
0
 10
104.0
 20
108.4719578791287944
 30
0.0
 11
104.0
 21
115.7999999999999972
 31
0.0
  0
LINE
  5
C49
  8
0
 10
96.0
 20
115.7999999999998977
 30
0.0
 11
96.0000000000000284
 21
108.4719578791287944
 31
0.0
  0
LINE
  5
C4A
  8
0
 10
104.0
 20
115.7999999999999972
 30
0.0
 11
102.7999999999999972
 21
117.0
 31
0.0
  0
LINE
  5
C4B
  8
0
 10
97.2000000000000171
 20
117.0
 30
0.0
 11
96.0
 21
115.7999999999998977
 31
0.0
  0
LINE
  5
C4C
  8
0
 10
103.9500000000001023
 20
81.0
 30
0.0
 11
103.9500000000001023
 21
84.1999999999999886
 31
0.0
  0
LINE
  5
C4D
  8
0
 10
96.0500000000001108
 20
84.1999999999999176
 30
0.0
 11
96.0500000000001251
 21
80.9999999999999432
 31
0.0
  0
LINE
  5
C4E
  8
0
 10
103.25
 20
104.5
 30
0.0
 11
103.25
 21
107.0
 31
0.0
  0
LINE
  5
C4F
  8
0
 10
96.7500000000000426
 20
107.0
 30
0.0
 11
96.7500000000000568
 21
104.5
 31
0.0
  0
LINE
  5
C50
  8
0
 10
92.5000000000000853
 20
95.199999999999946
 30
0.0
 11
107.5
 21
95.1999999999999886
 31
0.0
  0
LINE
  5
C51
  8
0
 10
106.9641016151378068
 20
93.1999999999999744
 30
0.0
 11
93.0358983848623495
 21
93.1999999999999318
 31
0.0
  0
LINE
  5
C52
  8
0
 10
92.5000000000000568
 20
100.0
 30
0.0
 11
107.5
 21
100.0
 31
0.0
  0
LINE
  5
C53
  8
0
 10
105.7500000000000995
 20
77.4896206638808849
 30
0.0
 11
94.2500000000001421
 21
77.4896206638808849
 31
0.0
  0
LINE
  5
C54
  8
0
 10
105.7500000000000995
 20
79.4896206638809417
 30
0.0
 11
94.2500000000001421
 21
79.4896206638808849
 31
0.0
  0
LINE
  5
C55
  8
0
 10
105.7500000000000995
 20
86.0
 30
0.0
 11
94.2500000000001137
 21
85.9999999999999432
 31
0.0
  0
LINE
  5
C56
  8
0
 10
103.9500000000001023
 20
84.1999999999999886
 30
0.0
 11
96.0500000000001251
 21
84.1999999999999176
 31
0.0
  0
LINE
  5
C57
  8
0
 10
103.9500000000001023
 20
81.0
 30
0.0
 11
96.0500000000001251
 21
80.9999999999999432
 31
0.0
  0
LINE
  5
C58
  8
0
 10
104.8904611532970961
 20
76.0
 30
0.0
 11
95.1095388467031455
 21
75.9999999999999432
 31
0.0
  0
LINE
  5
C59
  8
0
 10
105.0
 20
104.5
 30
0.0
 11
95.0000000000000568
 21
104.5
 31
0.0
  0
LINE
  5
C5A
  8
0
 10
104.0
 20
108.4719578791287944
 30
0.0
 11
96.0000000000000284
 21
108.4719578791287944
 31
0.0
  0
LINE
  5
C5B
  8
0
 10
103.25
 20
107.0
 30
0.0
 11
96.7500000000000426
 21
107.0
 31
0.0
  0
LINE
  5
C5C
  8
0
 10
104.0
 20
115.7999999999999972
 30
0.0
 11
96.0
 21
115.7999999999998977
 31
0.0
  0
LINE
  5
C5D
  8
0
 10
97.2000000000000171
 20
117.0
 30
0.0
 11
102.7999999999999972
 21
117.0
 31
0.0
  0
LINE
  5
C5E
  8
1
 10
62.5
 20
150.0
 30
0.0
 11
37.5
 21
150.0
 31
0.0
  0
LINE
  5
C5F
  8
1
 10
50.0
 20
162.5
 30
0.0
 11
50.0
 21
137.5
 31
0.0
  0
LINE
  5
C60
  8
1
 10
50.0
 20
70.9999999999999432
 30
0.0
 11
50.0
 21
122.0
 31
0.0
  0
LINE
  5
C61
  8
1
 10
100.0
 20
70.9999999999999432
 30
0.0
 11
100.0
 21
122.0
 31
0.0
  0
CIRCLE
  5
C62
  8
0
 10
50.0
 20
43.0000000000000568
 30
0.0
 40
5.7500000000000142
  0
CIRCLE
  5
C63
  8
0
 10
50.0
 20
42.9999999999999432
 30
0.0
 40
6.9641016151377642
  0
CIRCLE
  5
C64
  8
0
 10
50.0
 20
42.9999999999999432
 30
0.0
 40
7.5
  0
LINE
  5
C65
  8
1
 10
62.5
 20
42.9999999999999432
 30
0.0
 11
37.5
 21
42.9999999999999432
 31
0.0
  0
LINE
  5
C66
  8
1
 10
50.0
 20
30.4999999999999396
 30
0.0
 11
50.0
 21
55.4999999999999432
 31
0.0
  0
LINE
  5
C67
  8
0
 10
48.0
 20
41.8452994616206482
 30
0.0
 11
48.0
 21
44.154700538379231
 31
0.0
  0
LINE
  5
C68
  8
0
 10
52.0000000000000071
 20
41.8452994616207192
 30
0.0
 11
52.0000000000000071
 21
44.1547005383791813
 31
0.0
  0
LINE
  5
C69
  8
0
 10
49.9999999999999574
 20
40.6905989232414385
 30
0.0
 11
48.0
 21
41.8452994616206624
 31
0.0
  0
LINE
  5
C6A
  8
0
 10
52.0
 20
44.1547005383791884
 30
0.0
 11
49.9999999999999574
 21
45.3094010767584621
 31
0.0
  0
LINE
  5
C6B
  8
0
 10
49.9999999999999574
 20
40.6905989232414385
 30
0.0
 11
52.0
 21
41.8452994616207121
 31
0.0
  0
LINE
  5
C6C
  8
0
 10
47.9999999999999929
 20
44.154700538379231
 30
0.0
 11
49.9999999999999574
 21
45.3094010767584692
 31
0.0
  0
ENDBLK
  5
C70
  8
0
  0
ENDSEC
  0
SECTION
  2
ENTITIES
  0
TEXT
  5
678
  8
0
 62
     3
 10
0.0
 20
0.0
 30
0.0
 40
10.0
  1
QLPDW85-M8S
  7
STANDARD1
  0
CIRCLE
  5
B95
  8
0
 10
50.0
 20
150.0702451888176086
 30
0.0
 40
4.0
  0
CIRCLE
  5
B96
  8
0
 10
50.0
 20
150.0702451888176086
 30
0.0
 40
7.5
  0
LINE
  5
B97
  8
0
 10
42.5
 20
100.0702451888176938
 30
0.0
 11
42.5
 21
95.2702451888176824
 31
0.0
  0
LINE
  5
B98
  8
0
 10
57.5
 20
95.2702451888176824
 30
0.0
 11
57.5
 21
100.0702451888176938
 31
0.0
  0
LINE
  5
B99
  8
0
 10
42.5
 20
95.2702451888176824
 30
0.0
 11
43.0358983848622003
 21
93.2702451888176967
 31
0.0
  0
LINE
  5
B9A
  8
0
 10
56.9641016151377428
 20
93.2702451888176967
 30
0.0
 11
57.5
 21
95.2702451888176824
 31
0.0
  0
LINE
  5
B9B
  8
0
 10
55.7499999999999432
 20
86.0702451888176938
 30
0.0
 11
55.7499999999999432
 21
93.2702451888176967
 31
0.0
  0
LINE
  5
B9C
  8
0
 10
44.2499999999999929
 20
93.2702451888176967
 30
0.0
 11
44.2499999999999929
 21
86.0702451888176938
 31
0.0
  0
LINE
  5
B9D
  8
0
 10
44.2499999999999929
 20
86.070245188817637
 30
0.0
 11
46.0499999999999474
 21
84.2702451888176824
 31
0.0
  0
LINE
  5
B9E
  8
0
 10
53.9499999999999886
 20
84.2702451888176824
 30
0.0
 11
55.7499999999999432
 21
86.070245188817637
 31
0.0
  0
LINE
  5
B9F
  8
0
 10
55.7499999999999432
 20
77.5598658526985787
 30
0.0
 11
55.7499999999999432
 21
79.5598658526986355
 31
0.0
  0
LINE
  5
BA0
  8
0
 10
44.2499999999999929
 20
79.5598658526986355
 30
0.0
 11
44.2499999999999929
 21
77.5598658526985787
 31
0.0
  0
LINE
  5
BA1
  8
0
 10
44.2499999999999929
 20
77.5598658526985787
 30
0.0
 11
44.5299833509295127
 21
76.5149537617562032
 31
0.0
  0
LINE
  5
BA2
  8
0
 10
55.4700166490704873
 20
76.5149537617562032
 30
0.0
 11
55.7499999999999432
 21
77.5598658526985787
 31
0.0
  0
LINE
  5
BA3
  8
0
 10
55.7499999999999432
 20
79.5598658526986355
 30
0.0
 11
53.9499999999999886
 21
81.0702451888176938
 31
0.0
  0
LINE
  5
BA4
  8
0
 10
46.0499999999999474
 20
81.0702451888176938
 30
0.0
 11
44.2499999999999929
 21
79.5598658526986355
 31
0.0
  0
ARC
  5
BA5
  8
0
 10
54.8904611532969895
 20
76.6702451888176597
 30
0.0
 40
0.6000000000000336
 50
270.0
 51
345.0000000000055138
  0
ARC
  5
BA6
  8
0
 10
45.1095388467030034
 20
76.6702451888176597
 30
0.0
 40
0.6000000000000336
 50
194.9999999999944009
 51
270.0
  0
LINE
  5
BA7
  8
0
 10
54.0
 20
104.0422030679465024
 30
0.0
 11
54.0
 21
110.8702451888177052
 31
0.0
  0
LINE
  5
BA8
  8
0
 10
46.0
 20
110.8702451888177052
 30
0.0
 11
46.0
 21
104.0422030679465024
 31
0.0
  0
LINE
  5
BA9
  8
0
 10
46.0
 20
104.0422030679465024
 30
0.0
 11
46.7499999999999929
 21
102.5702451888176938
 31
0.0
  0
LINE
  5
BAA
  8
0
 10
53.2499999999999432
 20
102.5702451888176938
 30
0.0
 11
54.0
 21
104.0422030679465024
 31
0.0
  0
LINE
  5
BAB
  8
0
 10
54.0
 20
110.8702451888177052
 30
0.0
 11
52.8000000000000114
 21
112.0702451888175943
 31
0.0
  0
LINE
  5
BAC
  8
0
 10
47.1999999999999815
 20
112.0702451888175943
 30
0.0
 11
46.0
 21
110.8702451888177052
 31
0.0
  0
LINE
  5
BAD
  8
0
 10
53.9499999999999886
 20
81.0702451888176938
 30
0.0
 11
53.9499999999999886
 21
84.2702451888176824
 31
0.0
  0
LINE
  5
BAE
  8
0
 10
46.0499999999999474
 20
84.2702451888176824
 30
0.0
 11
46.0499999999999474
 21
81.0702451888176938
 31
0.0
  0
LINE
  5
BAF
  8
0
 10
53.2499999999999432
 20
100.0702451888176938
 30
0.0
 11
53.2499999999999432
 21
102.5702451888176938
 31
0.0
  0
LINE
  5
BB0
  8
0
 10
46.7499999999999929
 20
102.5702451888176938
 30
0.0
 11
46.7499999999999929
 21
100.0702451888176938
 31
0.0
  0
LINE
  5
BB1
  8
0
 10
50.0
 20
100.0702451888175943
 30
0.0
 11
57.5
 21
100.0702451888176938
 31
0.0
  0
LINE
  5
BB2
  8
0
 10
42.5
 20
100.0702451888176938
 30
0.0
 11
50.0
 21
100.0702451888175943
 31
0.0
  0
LINE
  5
BB3
  8
0
 10
42.5
 20
95.2702451888176824
 30
0.0
 11
57.5
 21
95.2702451888176824
 31
0.0
  0
LINE
  5
BB4
  8
0
 10
56.9641016151377428
 20
93.2702451888176967
 30
0.0
 11
43.0358983848622003
 21
93.2702451888176967
 31
0.0
  0
LINE
  5
BB5
  8
0
 10
55.7499999999999432
 20
86.0702451888176938
 30
0.0
 11
44.2499999999999929
 21
86.0702451888176938
 31
0.0
  0
LINE
  5
BB6
  8
0
 10
53.9499999999999886
 20
84.2702451888176824
 30
0.0
 11
46.0499999999999474
 21
84.2702451888176824
 31
0.0
  0
LINE
  5
BB7
  8
0
 10
55.7499999999999432
 20
77.5598658526985787
 30
0.0
 11
44.2499999999999929
 21
77.5598658526985787
 31
0.0
  0
LINE
  5
BB8
  8
0
 10
55.7499999999999432
 20
79.5598658526986355
 30
0.0
 11
44.2499999999999929
 21
79.5598658526986355
 31
0.0
  0
LINE
  5
BB9
  8
0
 10
53.9499999999999886
 20
81.0702451888176938
 30
0.0
 11
46.0499999999999474
 21
81.0702451888176938
 31
0.0
  0
LINE
  5
BBA
  8
0
 10
54.8904611532969895
 20
76.0702451888176938
 30
0.0
 11
45.1095388467030034
 21
76.0702451888176938
 31
0.0
  0
LINE
  5
BBB
  8
0
 10
54.0
 20
104.0422030679465024
 30
0.0
 11
46.0
 21
104.0422030679465024
 31
0.0
  0
LINE
  5
BBC
  8
0
 10
54.0
 20
110.8702451888177052
 30
0.0
 11
46.0
 21
110.8702451888177052
 31
0.0
  0
LINE
  5
BBD
  8
0
 10
53.2499999999999432
 20
102.5702451888176938
 30
0.0
 11
46.7499999999999929
 21
102.5702451888176938
 31
0.0
  0
LINE
  5
BBE
  8
0
 10
47.1999999999999815
 20
112.0702451888175943
 30
0.0
 11
52.8000000000000114
 21
112.0702451888175943
 31
0.0
  0
LINE
  5
BBF
  8
0
 10
92.5000000000000568
 20
100.0702451888175943
 30
0.0
 11
92.5000000000000568
 21
95.2702451888176824
 31
0.0
  0
LINE
  5
BC0
  8
0
 10
107.5
 20
95.2702451888177251
 30
0.0
 11
107.5
 21
100.0702451888176938
 31
0.0
  0
LINE
  5
BC1
  8
0
 10
92.5000000000000568
 20
95.2702451888176824
 30
0.0
 11
93.0358983848623211
 21
93.2702451888176967
 31
0.0
  0
LINE
  5
BC2
  8
0
 10
106.9641016151378068
 20
93.2702451888177393
 30
0.0
 11
107.5
 21
95.2702451888177251
 31
0.0
  0
LINE
  5
BC3
  8
0
 10
105.7500000000000995
 20
86.0702451888176938
 30
0.0
 11
105.7500000000000995
 21
93.2702451888177393
 31
0.0
  0
LINE
  5
BC4
  8
0
 10
94.2500000000000568
 20
93.2702451888176967
 30
0.0
 11
94.2500000000000568
 21
86.070245188817637
 31
0.0
  0
LINE
  5
BC5
  8
0
 10
105.7500000000000995
 20
77.5598658526985787
 30
0.0
 11
105.7500000000000995
 21
79.5598658526986355
 31
0.0
  0
LINE
  5
BC6
  8
0
 10
94.2500000000001137
 20
79.5598658526985787
 30
0.0
 11
94.2500000000001137
 21
77.5598658526985787
 31
0.0
  0
LINE
  5
BC7
  8
0
 10
105.7500000000000995
 20
79.5598658526986355
 30
0.0
 11
103.9500000000001023
 21
81.0702451888176938
 31
0.0
  0
LINE
  5
BC8
  8
0
 10
96.0500000000001251
 20
81.0702451888176938
 30
0.0
 11
94.2500000000001137
 21
79.5598658526985787
 31
0.0
  0
LINE
  5
BC9
  8
0
 10
94.2500000000000568
 20
86.070245188817637
 30
0.0
 11
96.0500000000001251
 21
84.2702451888176824
 31
0.0
  0
LINE
  5
BCA
  8
0
 10
103.9500000000001023
 20
84.2702451888177393
 30
0.0
 11
105.7500000000000995
 21
86.0702451888176938
 31
0.0
  0
LINE
  5
BCB
  8
0
 10
94.2500000000001137
 20
77.5598658526985787
 30
0.0
 11
94.5299833509296832
 21
76.5149537617562032
 31
0.0
  0
LINE
  5
BCC
  8
0
 10
105.470016649070601
 20
76.5149537617562601
 30
0.0
 11
105.7500000000000995
 21
77.5598658526985787
 31
0.0
  0
ARC
  5
BCD
  8
0
 10
104.8904611532970961
 20
76.6702451888177166
 30
0.0
 40
0.6000000000000228
 50
270.0
 51
345.0000000000055138
  0
ARC
  5
BCE
  8
0
 10
95.1095388467031171
 20
76.6702451888176597
 30
0.0
 40
0.5999999999999787
 50
194.9999999999944009
 51
270.0
  0
LINE
  5
BCF
  8
0
 10
96.0000000000000568
 20
104.0422030679465024
 30
0.0
 11
96.7500000000000568
 21
102.5702451888175943
 31
0.0
  0
LINE
  5
BD0
  8
0
 10
103.25
 20
102.5702451888176938
 30
0.0
 11
104.0
 21
104.0422030679466019
 31
0.0
  0
LINE
  5
BD1
  8
0
 10
104.0
 20
110.8702451888177052
 30
0.0
 11
102.7999999999999972
 21
112.0702451888176938
 31
0.0
  0
LINE
  5
BD2
  8
0
 10
97.2000000000000455
 20
112.0702451888175943
 30
0.0
 11
96.0
 21
110.8702451888177052
 31
0.0
  0
LINE
  5
BD3
  8
0
 10
104.0
 20
104.0422030679466019
 30
0.0
 11
104.0
 21
110.8702451888177052
 31
0.0
  0
LINE
  5
BD4
  8
0
 10
96.0
 20
110.8702451888177052
 30
0.0
 11
96.0000000000000568
 21
104.0422030679465024
 31
0.0
  0
LINE
  5
BD5
  8
0
 10
103.9500000000001023
 20
81.0702451888176938
 30
0.0
 11
103.9500000000001023
 21
84.2702451888177393
 31
0.0
  0
LINE
  5
BD6
  8
0
 10
96.0500000000001251
 20
84.2702451888176824
 30
0.0
 11
96.0500000000001251
 21
81.0702451888176938
 31
0.0
  0
LINE
  5
BD7
  8
0
 10
103.25
 20
100.0702451888176938
 30
0.0
 11
103.25
 21
102.5702451888176938
 31
0.0
  0
LINE
  5
BD8
  8
0
 10
96.7500000000000568
 20
102.5702451888175943
 30
0.0
 11
96.7500000000000568
 21
100.0702451888175943
 31
0.0
  0
LINE
  5
BD9
  8
0
 10
92.5000000000000568
 20
95.2702451888176824
 30
0.0
 11
107.5
 21
95.2702451888177251
 31
0.0
  0
LINE
  5
BDA
  8
0
 10
92.5000000000000568
 20
100.0702451888175943
 30
0.0
 11
107.5
 21
100.0702451888176938
 31
0.0
  0
LINE
  5
BDB
  8
0
 10
106.9641016151378068
 20
93.2702451888177393
 30
0.0
 11
93.0358983848623211
 21
93.2702451888176967
 31
0.0
  0
LINE
  5
BDC
  8
0
 10
105.7500000000000995
 20
86.0702451888176938
 30
0.0
 11
94.2500000000000568
 21
86.070245188817637
 31
0.0
  0
LINE
  5
BDD
  8
0
 10
105.7500000000000995
 20
77.5598658526985787
 30
0.0
 11
94.2500000000001137
 21
77.5598658526985787
 31
0.0
  0
LINE
  5
BDE
  8
0
 10
105.7500000000000995
 20
79.5598658526986355
 30
0.0
 11
94.2500000000001137
 21
79.5598658526985787
 31
0.0
  0
LINE
  5
BDF
  8
0
 10
103.9500000000001023
 20
81.0702451888176938
 30
0.0
 11
96.0500000000001251
 21
81.0702451888176938
 31
0.0
  0
LINE
  5
BE0
  8
0
 10
103.9500000000001023
 20
84.2702451888177393
 30
0.0
 11
96.0500000000001251
 21
84.2702451888176824
 31
0.0
  0
LINE
  5
BE1
  8
0
 10
104.8904611532970961
 20
76.0702451888176938
 30
0.0
 11
95.1095388467031171
 21
76.0702451888176938
 31
0.0
  0
LINE
  5
BE2
  8
0
 10
104.0
 20
104.0422030679466019
 30
0.0
 11
96.0000000000000568
 21
104.0422030679465024
 31
0.0
  0
LINE
  5
BE3
  8
0
 10
103.25
 20
102.5702451888176938
 30
0.0
 11
96.7500000000000568
 21
102.5702451888175943
 31
0.0
  0
LINE
  5
BE4
  8
0
 10
104.0
 20
110.8702451888177052
 30
0.0
 11
96.0
 21
110.8702451888177052
 31
0.0
  0
LINE
  5
BE5
  8
0
 10
97.2000000000000455
 20
112.0702451888175943
 30
0.0
 11
102.7999999999999972
 21
112.0702451888176938
 31
0.0
  0
LINE
  5
BE6
  8
1
 10
50.0
 20
162.5702451888176086
 30
0.0
 11
50.0
 21
137.5702451888176086
 31
0.0
  0
LINE
  5
BE7
  8
1
 10
62.5
 20
150.0702451888176086
 30
0.0
 11
37.5
 21
150.0702451888176086
 31
0.0
  0
LINE
  5
BE8
  8
1
 10
50.0
 20
117.0702451888175943
 30
0.0
 11
50.0
 21
71.0702451888176938
 31
0.0
  0
LINE
  5
BE9
  8
1
 10
100.0
 20
117.0702451888175943
 30
0.0
 11
100.0
 21
71.0702451888176938
 31
0.0
  0
CIRCLE
  5
CCF
  8
0
 10
50.0
 20
43.0702451888178075
 30
0.0
 40
5.7500000000000142
  0
CIRCLE
  5
CD0
  8
0
 10
50.0
 20
43.0702451888176867
 30
0.0
 40
6.9641016151377642
  0
CIRCLE
  5
CD1
  8
0
 10
50.0
 20
43.0702451888176867
 30
0.0
 40
7.5
  0
LINE
  5
CD2
  8
1
 10
62.5
 20
43.0702451888176867
 30
0.0
 11
37.5
 21
43.0702451888176867
 31
0.0
  0
LINE
  5
CD3
  8
1
 10
50.0
 20
30.5702451888177009
 30
0.0
 11
50.0
 21
55.5702451888176867
 31
0.0
  0
LINE
  5
CD4
  8
0
 10
48.0
 20
41.9155446504383988
 30
0.0
 11
48.0
 21
44.2249457271969817
 31
0.0
  0
LINE
  5
CD5
  8
0
 10
52.0
 20
41.9155446504384699
 30
0.0
 11
52.0
 21
44.224945727196932
 31
0.0
  0
LINE
  5
CD6
  8
0
 10
49.9999999999999432
 20
40.7608441120591891
 30
0.0
 11
48.0
 21
41.915544650438413
 31
0.0
  0
LINE
  5
CD7
  8
0
 10
52.0
 20
44.2249457271969533
 30
0.0
 11
49.9999999999999432
 21
45.3796462655762127
 31
0.0
  0
LINE
  5
CD8
  8
0
 10
49.9999999999999432
 20
40.7608441120591891
 30
0.0
 11
52.0
 21
41.9155446504384628
 31
0.0
  0
LINE
  5
CD9
  8
0
 10
48.0
 20
44.2249457271969817
 30
0.0
 11
49.9999999999999716
 21
45.3796462655762198
 31
0.0
  0
LINE
  5
CE8
  8
3
 10
46.6764999999998622
 20
102.714497060972505
 30
0.0
 11
46.6764999999998906
 21
111.5467451888175958
 31
0.0
  0
LINE
  5
CE9
  8
3
 10
53.3235000000001023
 20
102.7144970609726045
 30
0.0
 11
53.3235000000000881
 21
111.5467451888174963
 31
0.0
  0
CIRCLE
  5
CF3
  8
3
 10
50.0
 20
150.0702451888176086
 30
0.0
 40
3.3235000000000952
  0
LINE
  5
CF5
  8
3
 10
96.6764999999998906
 20
102.7144970609726045
 30
0.0
 11
96.6764999999999191
 21
111.5467451888175958
 31
0.0
  0
LINE
  5
CF6
  8
3
 10
103.3235000000000952
 20
102.7144970609726045
 30
0.0
 11
103.3235000000000952
 21
111.5467451888175958
 31
0.0
  0
ENDSEC
  0
EOF
