  0
SECTION
  2
HEADER
  9
$ACADVER
  1
AC1009
  9
$INSBASE
 10
0.0
 20
0.0
 30
0.0
  9
$EXTMIN
 10
0.0
 20
-2.960436562073669
 30
0.0
  9
$EXTMAX
 10
314.5699999999998795
 20
258.0
 30
0.0
  9
$LIMMIN
 10
0.0
 20
0.0
  9
$LIMMAX
 10
187.5
 20
135.0
  9
$ORTHOMODE
 70
     1
  9
$REGENMODE
 70
     1
  9
$FILLMODE
 70
     1
  9
$QTEXTMODE
 70
     0
  9
$MIRRTEXT
 70
     0
  9
$DRAGMODE
 70
     2
  9
$LTSCALE
 40
10.0
  9
$OSMODE
 70
    37
  9
$ATTMODE
 70
     1
  9
$TEXTSIZE
 40
0.2
  9
$TRACEWID
 40
0.05
  9
$TEXTSTYLE
  7
STANDARD
  9
$CLAYER
  8
0
  9
$CELTYPE
  6
BYLAYER
  9
$CECOLOR
 62
   256
  9
$DIMSCALE
 40
1.0
  9
$DIMASZ
 40
3.0
  9
$DIMEXO
 40
2.0
  9
$DIMDLI
 40
0.38
  9
$DIMRND
 40
0.0
  9
$DIMDLE
 40
0.0
  9
$DIMEXE
 40
2.0
  9
$DIMTP
 40
0.0
  9
$DIMTM
 40
0.0
  9
$DIMTXT
 40
3.2000000000000002
  9
$DIMCEN
 40
0.0
  9
$DIMTSZ
 40
0.0
  9
$DIMTOL
 70
     0
  9
$DIMLIM
 70
     0
  9
$DIMTIH
 70
     0
  9
$DIMTOH
 70
     0
  9
$DIMSE1
 70
     0
  9
$DIMSE2
 70
     0
  9
$DIMTAD
 70
     1
  9
$DIMZIN
 70
     8
  9
$DIMBLK
  1

  9
$DIMASO
 70
     0
  9
$DIMSHO
 70
     0
  9
$DIMPOST
  1

  9
$DIMAPOST
  1

  9
$DIMALT
 70
     0
  9
$DIMALTD
 70
     2
  9
$DIMALTF
 40
25.3999999999999986
  9
$DIMLFAC
 40
1.0
  9
$DIMTOFL
 70
     1
  9
$DIMTVP
 40
1.6000000000000001
  9
$DIMTIX
 70
     1
  9
$DIMSOXD
 70
     0
  9
$DIMSAH
 70
     0
  9
$DIMBLK1
  1

  9
$DIMBLK2
  1

  9
$DIMSTYLE
  2
STANDARD
  9
$DIMCLRD
 70
     0
  9
$DIMCLRE
 70
     0
  9
$DIMCLRT
 70
     0
  9
$DIMTFAC
 40
1.0
  9
$DIMGAP
 40
0.09
  9
$LUNITS
 70
     2
  9
$LUPREC
 70
     1
  9
$SKETCHINC
 40
0.1
  9
$FILLETRAD
 40
0.0
  9
$AUNITS
 70
     0
  9
$AUPREC
 70
     1
  9
$MENU
  1
E:\r13\win\SUPPORT\ACAD
  9
$ELEVATION
 40
0.0
  9
$PELEVATION
 40
0.0
  9
$THICKNESS
 40
0.0
  9
$LIMCHECK
 70
     0
  9
$BLIPMODE
 70
     0
  9
$CHAMFERA
 40
0.0
  9
$CHAMFERB
 40
0.0
  9
$SKPOLY
 70
     0
  9
$TDCREATE
 40
2449839.773298610933125
  9
$TDUPDATE
 40
2460671.6140856482088566
  9
$TDINDWG
 40
0.2044460764
  9
$TDUSRTIMER
 40
0.2044460764
  9
$USRTIMER
 70
     1
  9
$ANGBASE
 50
0.0
  9
$ANGDIR
 70
     0
  9
$PDMODE
 70
     0
  9
$PDSIZE
 40
0.0
  9
$PLINEWID
 40
0.0
  9
$COORDS
 70
     1
  9
$SPLFRAME
 70
     0
  9
$SPLINETYPE
 70
     6
  9
$SPLINESEGS
 70
     8
  9
$ATTDIA
 70
     1
  9
$ATTREQ
 70
     1
  9
$HANDLING
 70
     1
  9
$HANDSEED
  5
119A
  9
$SURFTAB1
 70
     6
  9
$SURFTAB2
 70
     6
  9
$SURFTYPE
 70
     6
  9
$SURFU
 70
     6
  9
$SURFV
 70
     6
  9
$UCSNAME
  2

  9
$UCSORG
 10
0.0
 20
0.0
 30
0.0
  9
$UCSXDIR
 10
1.0
 20
0.0
 30
0.0
  9
$UCSYDIR
 10
0.0
 20
1.0
 30
0.0
  9
$PUCSNAME
  2

  9
$PUCSORG
 10
0.0
 20
0.0
 30
0.0
  9
$PUCSXDIR
 10
1.0
 20
0.0
 30
0.0
  9
$PUCSYDIR
 10
0.0
 20
1.0
 30
0.0
  9
$USERI1
 70
     0
  9
$USERI2
 70
     1
  9
$USERI3
 70
     0
  9
$USERI4
 70
     0
  9
$USERI5
 70
     0
  9
$USERR1
 40
0.0
  9
$USERR2
 40
0.0
  9
$USERR3
 40
0.0
  9
$USERR4
 40
0.0
  9
$USERR5
 40
0.0
  9
$WORLDVIEW
 70
     1
  9
$SHADEDGE
 70
     3
  9
$SHADEDIF
 70
    70
  9
$TILEMODE
 70
     1
  9
$MAXACTVP
 70
    16
  9
$PLIMCHECK
 70
     0
  9
$PEXTMIN
 10
1.0000000000000000E+20
 20
1.0000000000000000E+20
 30
1.0000000000000000E+20
  9
$PEXTMAX
 10
-1.0000000000000000E+20
 20
-1.0000000000000000E+20
 30
-1.0000000000000000E+20
  9
$PLIMMIN
 10
0.0
 20
0.0
  9
$PLIMMAX
 10
12.0
 20
9.0
  9
$UNITMODE
 70
     0
  9
$VISRETAIN
 70
     0
  9
$PLINEGEN
 70
     0
  9
$PSLTSCALE
 70
     0
  0
ENDSEC
  0
SECTION
  2
TABLES
  0
TABLE
  2
VPORT
 70
     1
  0
VPORT
  2
*ACTIVE
 70
     0
 10
0.0
 20
0.0
 11
1.0
 21
1.0
 12
193.0838119951220051
 22
127.5259614509057968
 13
0.0
 23
0.0
 14
5.0
 24
5.0
 15
5.0
 25
5.0
 16
0.0
 26
0.0
 36
1.0
 17
0.0
 27
0.0
 37
0.0
 40
263.0816595258846178
 41
2.3485221674876842
 42
50.0
 43
0.0
 44
0.0
 50
0.0
 51
0.0
 71
     0
 72
   500
 73
     1
 74
     0
 75
     0
 76
     0
 77
     0
 78
     2
  0
ENDTAB
  0
TABLE
  2
LTYPE
 70
     3
  0
LTYPE
  2
CONTINUOUS
 70
     0
  3
Solid Line
 72
    65
 73
     0
 40
0.0
  0
LTYPE
  2
CENTER
 70
     0
  3
____ _ ____ _ ____ _ ____ _ ____ _ ____ _ ____
 72
    65
 73
     4
 40
2.0
 49
1.25
 49
-0.25
 49
0.25
 49
-0.25
  0
LTYPE
  2
HIDDEN
 70
     0
  3
_ _ _ _ _ _ _ _ _ _ _ _ _ _ _ _ _ _ _ _ _ _ _
 72
    65
 73
     2
 40
0.375
 49
0.25
 49
-0.125
  0
ENDTAB
  0
TABLE
  2
LAYER
 70
     6
  0
LAYER
  2
0
 70
     0
 62
     7
  6
CONTINUOUS
  0
LAYER
  2
1
 70
     0
 62
     1
  6
CENTER
  0
LAYER
  2
3
 70
     0
 62
     3
  6
CONTINUOUS
  0
LAYER
  2
2
 70
     0
 62
     2
  6
HIDDEN
  0
LAYER
  2
重量欄
 70
     0
 62
     7
  6
CONTINUOUS
  0
LAYER
  2
長さ許容差
 70
     0
 62
     7
  6
CONTINUOUS
  0
ENDTAB
  0
TABLE
  2
STYLE
 70
     6
  0
STYLE
  2
STANDARD
 70
     0
 40
0.0
 41
1.0
 50
0.0
 71
     0
 42
0.2
  3
TXT
  4
BIGFONT
  0
STYLE
  2
STANDARD1
 70
     0
 40
0.0
 41
1.0
 50
0.0
 71
     0
 42
3.0
  3
txt
  4

  0
STYLE
  2
SLDTEXTSTYLE0
 70
     0
 40
0.0
 41
0.7
 50
0.0
 71
     0
 42
4.2333333333333316
  3
TXT
  4
bigfont
  0
STYLE
  2
SLDTEXTSTYLE1
 70
     0
 40
0.0
 41
0.6454545454545455
 50
0.0
 71
     0
 42
4.2333333333333316
  3
TXT
  4
bigfont
  0
STYLE
  2
SLDTEXTSTYLE2
 70
     0
 40
0.0
 41
0.6333333333333334
 50
0.0
 71
     0
 42
4.2333333333333316
  3
TXT
  4
bigfont
  0
STYLE
  2
SLDTEXTSTYLE3
 70
     0
 40
0.0
 41
0.6272727272727272
 50
0.0
 71
     0
 42
4.2333333333333316
  3
TXT
  4
bigfont
  0
ENDTAB
  0
TABLE
  2
VIEW
 70
     1
  0
VIEW
  2
ALL
 70
     0
 40
270.0
 10
220.9915966386554942
 20
135.0
 41
0.0
 11
0.0
 21
0.0
 31
1.0
 12
0.0
 22
0.0
 32
0.0
 42
0.0
 43
0.0
 44
0.0
 50
0.0
 71
     0
  0
ENDTAB
  0
TABLE
  2
UCS
 70
     0
  0
ENDTAB
  0
TABLE
  2
APPID
 70
     6
  0
APPID
  2
ACAD
 70
     0
  0
APPID
  2
ACAD_DSTYLE_DIMJAG
 70
     0
  0
APPID
  2
ACAD_DSTYLE_DIMTALN
 70
     0
  0
APPID
  2
ACAD_EXEMPT_FROM_CAD_STANDARDS
 70
     0
  0
APPID
  2
ACAD_MLEADERVER
 70
     0
  0
APPID
  2
ACAD_NAV_VCDISPLAY
 70
     0
  0
ENDTAB
  0
TABLE
  2
DIMSTYLE
 70
     2
  0
DIMSTYLE
  2
STANDARD
 70
     0
  3

  4

  5

  6

  7

 40
1.0
 41
0.18
 42
0.0625
 43
0.38
 44
0.18
 45
0.0
 46
0.0
 47
0.0
 48
0.0
140
0.18
141
0.09
142
0.0
143
25.3999999999999986
144
1.0
145
0.0
146
1.0
147
0.09
 71
     0
 72
     0
 73
     1
 74
     1
 75
     0
 76
     0
 77
     0
 78
     0
170
     0
171
     2
172
     0
173
     0
174
     0
175
     0
176
     0
177
     0
178
     0
  0
DIMSTYLE
  2
ISO-25
 70
     0
  3

  4

  5

  6

  7

 40
1.0
 41
2.5
 42
0.625
 43
3.75
 44
1.25
 45
0.0
 46
0.0
 47
0.0
 48
0.0
140
2.5
141
2.5
142
0.0
143
0.03937007874016
144
1.0
145
0.0
146
1.0
147
0.625
 71
     0
 72
     0
 73
     0
 74
     0
 75
     0
 76
     0
 77
     1
 78
     8
170
     0
171
     3
172
     1
173
     0
174
     0
175
     0
176
     0
177
     0
178
     0
  0
ENDTAB
  0
ENDSEC
  0
SECTION
  2
BLOCKS
  0
BLOCK
  8
0
  2
$MODEL_SPACE
 70
     0
 10
0.0
 20
0.0
 30
0.0
  3
$MODEL_SPACE
  1

  0
ENDBLK
  5
1D4
  8
0
  0
BLOCK
 67
     1
  8
0
  2
$PAPER_SPACE
 70
     0
 10
0.0
 20
0.0
 30
0.0
  3
$PAPER_SPACE
  1

  0
ENDBLK
  5
1D2
 67
     1
  8
0
  0
BLOCK
  8
0
  2
追加用_品番欄
 70
     2
 10
0.0
 20
0.0
 30
0.0
  3
追加用_品番欄
  1

  0
LINE
  5
D39
  8
重量欄
 10
265.1238553830772844
 20
86.5202042298755032
 30
0.0
 11
265.1238553830772844
 21
94.520204229875489
 31
0.0
  0
LINE
  5
D3A
  8
重量欄
 10
265.1238553830772844
 20
94.520204229875489
 30
0.0
 11
355.1238553830772844
 21
94.520204229875489
 31
0.0
  0
LINE
  5
D3B
  8
重量欄
 10
287.1238553830772275
 20
86.5202042298755032
 30
0.0
 11
286.9754632920544282
 21
86.577828602262386
 31
0.0
  0
LINE
  5
D3C
  8
重量欄
 10
287.1238553830772275
 20
86.5202042298755032
 30
0.0
 11
287.1238553830772275
 21
94.520204229875489
 31
0.0
  0
INSERT
  5
D3D
  8
重量欄
 62
     7
  2
SW_NOTE_0
 10
271.9732044534175088
 20
88.6894698414925955
 30
0.0
  0
ATTDEF
  5
D3E
  8
重量欄
 62
     7
 10
306.4623862702438828
 20
88.5900507745154755
 30
0.0
 40
3.7041666666666662
  1
QLPDW85-RC
 41
0.7
  7
SLDTEXTSTYLE0
 72
     1
 11
319.4269696035772199
 21
92.2942174411821412
 31
0.0
  3

  2
AUTOATTR0
 70
     0
 74
     3
  0
ENDBLK
  5
D3F
  8
0
  0
BLOCK
  8
0
  2
SW_NOTE_0
 70
     0
 10
0.0
 20
0.0
 30
0.0
  3
SW_NOTE_0
  1

  0
INSERT
  5
D42
  8
0
  2
*U4
 10
0.0
 20
0.0
 30
0.0
  0
ENDBLK
  5
D43
  8
0
  0
BLOCK
  8
0
  2
MN-M6-C
 70
     0
 10
0.0
 20
0.0
 30
0.0
  3
MN-M6-C
  1

  0
CIRCLE
  5
1014
  8
3
 10
0.0
 20
0.0
 30
0.0
 40
3.0
  0
CIRCLE
  5
1015
  8
0
 10
0.0
 20
0.0
 30
0.0
 40
2.458499999999999
  0
ENDBLK
  5
1017
  8
0
  0
BLOCK
  8
0
  2
MN-M6-D
 70
     0
 10
0.0
 20
0.0
 30
0.0
  3
MN-M6-D
  1

  0
LINE
  5
1041
  8
3
 10
-3.0
 20
0.4585000000001003
 30
0.0
 11
-3.0
 21
15.0
 31
0.0
  0
LINE
  5
1042
  8
0
 10
-2.458500000000071
 20
1.0
 30
0.0
 11
-2.458500000000071
 21
20.0
 31
0.0
  0
LINE
  5
1043
  8
0
 10
2.4585000000000998
 20
1.0
 30
0.0
 11
2.4585000000000998
 21
20.0
 31
0.0
  0
LINE
  5
1044
  8
3
 10
3.0
 20
0.4585000000001003
 30
0.0
 11
3.0
 21
15.0
 31
0.0
  0
LINE
  5
1045
  8
0
 10
-3.0
 20
15.0
 30
0.0
 11
3.0
 21
15.0
 31
0.0
  0
LINE
  5
1046
  8
0
 10
-2.458500000000071
 20
20.0
 30
0.0
 11
2.4585000000000998
 21
20.0
 31
0.0
  0
LINE
  5
1047
  8
0
 10
-2.458500000000043
 20
19.9999999999999716
 30
0.0
 11
0.0000000000000284
 21
21.4772158318793096
 31
0.0
  0
LINE
  5
1048
  8
0
 10
2.4585000000000998
 20
20.0000000000000284
 30
0.0
 11
0.0000000000000284
 21
21.4772158318793096
 31
0.0
  0
LINE
  5
1049
  8
3
 10
3.0
 20
15.0
 30
0.0
 11
2.458500000000071
 21
15.9379055122983804
 31
0.0
  0
LINE
  5
104A
  8
3
 10
-2.9999999999998859
 20
15.0
 30
0.0
 11
-2.4584999999999582
 21
15.9379055122983804
 31
0.0
  0
LINE
  5
104B
  8
0
 10
-3.4585000000000998
 20
0.0
 30
0.0
 11
-2.458500000000043
 21
1.000000000000028
 31
0.0
  0
LINE
  5
104C
  8
0
 10
2.4585000000000998
 20
1.0
 30
0.0
 11
3.4585000000001278
 21
0.0
 31
0.0
  0
LINE
  5
104D
  8
0
 10
-2.458500000000071
 20
1.0
 30
0.0
 11
2.458500000000071
 21
1.0
 31
0.0
  0
ENDBLK
  5
104F
  8
0
  0
BLOCK
  8
0
  2
*U4
 70
     1
 10
0.0
 20
0.0
 30
0.0
  3
*U4
  1

  0
TEXT
  5
10E1
  8
重量欄
 62
     0
 10
1.2012083333333361
 20
0.9177900737759845
 30
0.0
 40
3.1749999999999989
  1
品番
 41
0.7
  7
SLDTEXTSTYLE0
  0
ENDBLK
  5
10E3
  8
0
  0
ENDSEC
  0
SECTION
  2
ENTITIES
  0
TEXT
  5
678
  8
0
 62
     3
 10
0.0
 20
0.0
 30
0.0
 40
10.0
  1
QLPDW85-RC
  7
STANDARD1
  0
LINE
  5
CF3
  8
2
 10
168.0
 20
161.0
 30
0.0
 11
179.0
 21
161.0
 31
0.0
  0
LINE
  5
CF5
  8
2
 10
168.0000000000001137
 20
168.0
 30
0.0
 11
168.0
 21
161.0
 31
0.0
  0
LINE
  5
CF6
  8
2
 10
179.0
 20
161.0
 30
0.0
 11
179.0000000000001137
 21
168.0
 31
0.0
  0
LINE
  5
CF7
  8
2
 10
176.8000000000000114
 20
135.0
 30
0.0
 11
176.8000000000000966
 21
161.0
 31
0.0
  0
LINE
  5
CF8
  8
2
 10
170.2000000000001023
 20
161.0
 30
0.0
 11
170.1999999999999886
 21
135.0
 31
0.0
  0
LINE
  5
D20
  8
1
 10
173.4999999999998863
 20
130.0
 30
0.0
 11
173.4999999999998863
 21
173.0
 31
0.0
  0
LINE
  5
D22
  8
1
 10
130.0
 20
151.000000000000199
 30
0.0
 11
229.5000000000001137
 21
151.000000000000199
 31
0.0
  0
LINE
  5
EE1
  8
0
 10
210.0
 20
140.0
 30
0.0
 11
210.4999999999998863
 21
140.5
 31
0.0
  0
LINE
  5
EE2
  8
0
 10
210.4999999999998863
 20
161.5
 30
0.0
 11
210.0
 21
162.0
 31
0.0
  0
LINE
  5
EE3
  8
0
 10
184.5
 20
140.0
 30
0.0
 11
210.0
 21
140.0
 31
0.0
  0
LINE
  5
EE4
  8
0
 10
210.0
 20
162.0
 30
0.0
 11
184.5
 21
162.0
 31
0.0
  0
LINE
  5
EE5
  8
0
 10
162.5
 20
160.0
 30
0.0
 11
155.5
 21
160.0
 31
0.0
  0
LINE
  5
EE6
  8
0
 10
155.5
 20
142.0
 30
0.0
 11
162.5
 21
142.0
 31
0.0
  0
LINE
  5
EE7
  8
0
 10
155.5
 20
160.0
 30
0.0
 11
155.0
 21
159.5
 31
0.0
  0
LINE
  5
EE8
  8
0
 10
155.0
 20
142.5
 30
0.0
 11
155.5
 21
142.0
 31
0.0
  0
LINE
  5
EE9
  8
0
 10
223.7751058491018057
 20
143.4944465005349059
 30
0.0
 11
224.5
 21
144.75
 31
0.0
  0
LINE
  5
EEA
  8
0
 10
224.5
 20
157.25
 30
0.0
 11
223.7751058491018057
 21
158.5055534994650941
 31
0.0
  0
LINE
  5
EEB
  8
0
 10
210.4999999999998863
 20
161.5
 30
0.0
 11
210.4999999999998863
 21
140.5
 31
0.0
  0
LINE
  5
EEC
  8
0
 10
210.0
 20
140.0
 30
0.0
 11
210.0
 21
162.0
 31
0.0
  0
LINE
  5
EEE
  8
0
 10
155.5
 20
160.0
 30
0.0
 11
155.5
 21
142.0000000000001137
 31
0.0
  0
LINE
  5
EEF
  8
0
 10
155.0
 20
142.5
 30
0.0
 11
155.0
 21
159.5
 31
0.0
  0
LINE
  5
EF1
  8
0
 10
210.4999999999998863
 20
154.7527767497325897
 30
0.0
 11
223.7751058491018057
 21
154.7527767497325897
 31
0.0
  0
ARC
  5
EF2
  8
0
 10
211.7241049364048138
 20
151.0000000000001137
 30
0.0
 40
12.6218047969043496
 50
342.7029994227705174
 51
17.2970005772302891
  0
LINE
  5
EF3
  8
0
 10
210.4999999999998863
 20
147.2472232502674956
 30
0.0
 11
223.7751058491018057
 21
147.2472232502674956
 31
0.0
  0
ARC
  5
EF4
  8
0
 10
220.9402929497964863
 20
145.3708348754011865
 30
0.0
 40
3.399558428296424
 50
326.4990633126681132
 51
33.5009366873355034
  0
ARC
  5
EF5
  8
0
 10
220.854076624602186
 20
156.6291651245988987
 30
0.0
 40
3.4717783719174982
 50
327.2844327032639171
 51
32.7155672967367011
  0
LINE
  5
EF6
  8
0
 10
224.5
 20
144.7500000000001137
 30
0.0
 11
224.5
 21
157.25
 31
0.0
  0
LINE
  5
EF8
  8
0
 10
210.4999999999998863
 20
143.4944465005349059
 30
0.0
 11
223.7751058491018057
 21
143.4944465005349059
 31
0.0
  0
POLYLINE
  5
EF9
  8
0
 66
     1
 10
0.0
 20
0.0
 30
0.0
 70
   128
  0
VERTEX
  5
10E4
  8
0
 10
215.0000000000001137
 20
144.0434846062115071
 30
0.0
  0
VERTEX
  5
10E5
  8
0
 10
214.4480567224507013
 20
144.0724903942600008
 30
0.0
  0
VERTEX
  5
10E6
  8
0
 10
213.9202360146481112
 20
144.1582400662823034
 30
0.0
  0
VERTEX
  5
10E7
  8
0
 10
213.4396061742878032
 20
144.2969859501386054
 30
0.0
  0
VERTEX
  5
10E8
  8
0
 10
213.0271730317114987
 20
144.4826641849276996
 30
0.0
  0
VERTEX
  5
10E9
  8
0
 10
212.7009618943233988
 20
144.7071597408063894
 30
0.0
  0
VERTEX
  5
10EA
  8
0
 10
212.4752297541620862
 20
144.9606610847334025
 30
0.0
  0
VERTEX
  5
10EB
  8
0
 10
212.359842188935886
 20
145.2320889915449129
 30
0.0
  0
VERTEX
  5
10EC
  8
0
 10
212.359842188935886
 20
145.5095807592574886
 30
0.0
  0
VERTEX
  5
10ED
  8
0
 10
212.4752297541620862
 20
145.781008666068999
 30
0.0
  0
VERTEX
  5
10EE
  8
0
 10
212.7009618943233988
 20
146.0345100099960121
 30
0.0
  0
VERTEX
  5
10EF
  8
0
 10
213.0271730317114987
 20
146.2590055658747019
 30
0.0
  0
VERTEX
  5
10F0
  8
0
 10
213.4396061742878032
 20
146.4446838006637961
 30
0.0
  0
VERTEX
  5
10F1
  8
0
 10
213.9202360146481112
 20
146.5834296845200981
 30
0.0
  0
VERTEX
  5
10F2
  8
0
 10
214.4480567224507013
 20
146.6691793565424007
 30
0.0
  0
VERTEX
  5
10F3
  8
0
 10
215.0000000000001137
 20
146.6981851445908092
 30
0.0
  0
VERTEX
  5
10F4
  8
0
 10
215.5519432775492135
 20
146.6691793565424007
 30
0.0
  0
VERTEX
  5
10F5
  8
0
 10
216.0797639853518888
 20
146.5834296845200981
 30
0.0
  0
VERTEX
  5
10F6
  8
0
 10
216.5603938257121968
 20
146.4446838006637961
 30
0.0
  0
VERTEX
  5
10F7
  8
0
 10
216.9728269682885866
 20
146.2590055658747019
 30
0.0
  0
VERTEX
  5
10F8
  8
0
 10
217.2990381056766864
 20
146.0345100099960121
 30
0.0
  0
VERTEX
  5
10F9
  8
0
 10
217.524770245837999
 20
145.781008666068999
 30
0.0
  0
VERTEX
  5
10FA
  8
0
 10
217.6401578110641992
 20
145.5095807592574886
 30
0.0
  0
VERTEX
  5
10FB
  8
0
 10
217.6401578110641992
 20
145.2320889915449129
 30
0.0
  0
VERTEX
  5
10FC
  8
0
 10
217.524770245837999
 20
144.9606610847334025
 30
0.0
  0
VERTEX
  5
10FD
  8
0
 10
217.2990381056766864
 20
144.7071597408063042
 30
0.0
  0
VERTEX
  5
10FE
  8
0
 10
216.9728269682885866
 20
144.4826641849276996
 30
0.0
  0
VERTEX
  5
10FF
  8
0
 10
216.5603938257121968
 20
144.2969859501386054
 30
0.0
  0
VERTEX
  5
1100
  8
0
 10
216.0797639853518888
 20
144.1582400662823034
 30
0.0
  0
VERTEX
  5
1101
  8
0
 10
215.5519432775492135
 20
144.0724903942598871
 30
0.0
  0
VERTEX
  5
1102
  8
0
 10
215.0000000000001137
 20
144.0434846062115071
 30
0.0
  0
SEQEND
  5
1103
  8
0
  0
LINE
  5
EFA
  8
0
 10
210.4999999999998863
 20
158.5055534994650941
 30
0.0
 11
223.7751058491018057
 21
158.5055534994650941
 31
0.0
  0
ARC
  5
EFB
  8
0
 10
215.0525886778681013
 20
148.7605630746411123
 30
0.0
 40
2.4082516461955512
 50
268.7487400602558978
 51
295.287779568465794
  0
ARC
  5
EFC
  8
0
 10
214.9474113221320124
 20
148.7605630746413965
 30
0.0
 40
2.408251646195835
 50
244.7122204315269869
 51
271.2512599397475128
  0
LINE
  5
EFD
  8
0
 10
155.0
 20
152.5690758412571029
 30
0.0
 11
135.0
 21
152.5690758412571029
 31
0.0
  0
LINE
  5
EFE
  8
0
 10
135.0
 20
152.8422809220139982
 30
0.0
 11
155.0
 21
152.8422809220139982
 31
0.0
  0
LINE
  5
F00
  8
0
 10
135.0
 20
144.6709241587429915
 30
0.0
 11
155.0
 21
144.6709241587429915
 31
0.0
  0
LINE
  5
F02
  8
0
 10
155.0
 20
157.4022809220138868
 30
0.0
 11
135.0
 21
157.4022809220138868
 31
0.0
  0
LINE
  5
F03
  8
0
 10
135.0
 20
144.5977190779861132
 30
0.0
 11
135.0
 21
157.4022809220138868
 31
0.0
  0
LINE
  5
F04
  8
0
 10
155.0
 20
144.5977190779861132
 30
0.0
 11
135.0
 21
144.5977190779861132
 31
0.0
  0
LINE
  5
F07
  8
0
 10
164.5
 20
167.5
 30
0.0
 11
164.5
 21
135.5
 31
0.0
  0
LINE
  5
F09
  8
0
 10
162.5
 20
135.5
 30
0.0
 11
162.5
 21
167.5
 31
0.0
  0
LINE
  5
F0B
  8
0
 10
182.5
 20
167.5
 30
0.0
 11
182.2928932188135036
 21
168.0
 31
0.0
  0
LINE
  5
F0D
  8
0
 10
184.5
 20
167.5
 30
0.0
 11
184.0
 21
168.0
 31
0.0
  0
LINE
  5
F0E
  8
0
 10
184.5
 20
167.5
 30
0.0
 11
184.5
 21
135.5
 31
0.0
  0
LINE
  5
F10
  8
0
 10
182.5
 20
135.5
 30
0.0
 11
182.5
 21
167.5
 31
0.0
  0
LINE
  5
F12
  8
0
 10
164.5
 20
167.5
 30
0.0
 11
164.7071067811864964
 21
168.0
 31
0.0
  0
LINE
  5
F14
  8
0
 10
163.0
 20
168.0
 30
0.0
 11
184.0
 21
168.0
 31
0.0
  0
LINE
  5
F15
  8
0
 10
163.0
 20
168.0
 30
0.0
 11
162.5
 21
167.5
 31
0.0
  0
LINE
  5
F17
  8
0
 10
182.5
 20
135.5
 30
0.0
 11
182.2928932188135036
 21
135.0
 31
0.0
  0
LINE
  5
F19
  8
0
 10
164.5
 20
135.5
 30
0.0
 11
164.7071067811864964
 21
135.0
 31
0.0
  0
LINE
  5
F1A
  8
0
 10
184.0
 20
135.0
 30
0.0
 11
163.0
 21
135.0
 31
0.0
  0
LINE
  5
F1B
  8
0
 10
163.0
 20
135.0
 30
0.0
 11
162.5
 21
135.5
 31
0.0
  0
LINE
  5
F1C
  8
0
 10
184.5
 20
135.5
 30
0.0
 11
184.0
 21
135.0
 31
0.0
  0
LINE
  5
F1E
  8
0
 10
184.4999999999998863
 20
214.5
 30
0.0
 11
209.999999999999801
 21
214.5
 31
0.0
  0
LINE
  5
F1F
  8
0
 10
209.999999999999801
 20
236.5
 30
0.0
 11
184.4999999999998863
 21
236.5
 31
0.0
  0
LINE
  5
F20
  8
0
 10
209.999999999999801
 20
214.5
 30
0.0
 11
210.499999999999801
 21
215.0
 31
0.0
  0
LINE
  5
F21
  8
0
 10
210.499999999999801
 20
236.0
 30
0.0
 11
209.999999999999801
 21
236.5
 31
0.0
  0
LINE
  5
F22
  8
0
 10
162.4999999999998863
 20
234.5
 30
0.0
 11
155.4999999999998863
 21
234.5
 31
0.0
  0
LINE
  5
F23
  8
0
 10
155.4999999999998863
 20
216.5
 30
0.0
 11
162.4999999999998863
 21
216.5
 31
0.0
  0
LINE
  5
F24
  8
0
 10
155.4999999999998863
 20
234.5
 30
0.0
 11
154.9999999999998863
 21
234.0
 31
0.0
  0
LINE
  5
F25
  8
0
 10
154.9999999999998863
 20
217.0
 30
0.0
 11
155.4999999999998863
 21
216.5
 31
0.0
  0
LINE
  5
F26
  8
0
 10
224.355662432702502
 20
219.0000000000001137
 30
0.0
 11
224.5
 21
219.25
 31
0.0
  0
LINE
  5
F27
  8
0
 10
224.5
 20
231.75
 30
0.0
 11
224.355662432702502
 21
232.0000000000001137
 31
0.0
  0
LINE
  5
F28
  8
0
 10
167.4999999999998863
 20
226.9433756729740992
 30
0.0
 11
166.2499999999998863
 21
226.2216878364870922
 31
0.0
  0
LINE
  5
F29
  8
0
 10
166.2499999999998863
 20
226.2216878364870922
 30
0.0
 11
166.2499999999998863
 21
224.778312163512993
 31
0.0
  0
LINE
  5
F2A
  8
0
 10
166.2499999999998863
 20
224.778312163512993
 30
0.0
 11
167.4999999999998863
 21
224.0566243270259008
 31
0.0
  0
LINE
  5
F2B
  8
0
 10
167.4999999999998863
 20
224.0566243270259008
 30
0.0
 11
168.7499999999998863
 21
224.778312163512993
 31
0.0
  0
LINE
  5
F2C
  8
0
 10
168.7499999999998863
 20
224.778312163512993
 30
0.0
 11
168.7499999999998863
 21
226.2216878364870922
 31
0.0
  0
LINE
  5
F2D
  8
0
 10
168.7499999999998863
 20
226.2216878364870922
 30
0.0
 11
167.4999999999998863
 21
226.9433756729740992
 31
0.0
  0
CIRCLE
  5
F2E
  8
0
 10
167.4999999999998863
 20
225.5
 30
0.0
 40
3.4999999999999711
  0
LINE
  5
F36
  8
0
 10
209.999999999999801
 20
214.5
 30
0.0
 11
209.999999999999801
 21
236.4999999999998863
 31
0.0
  0
LINE
  5
F37
  8
0
 10
210.499999999999801
 20
236.0
 30
0.0
 11
210.499999999999801
 21
215.0
 31
0.0
  0
LINE
  5
F39
  8
0
 10
155.4999999999998863
 20
234.5
 30
0.0
 11
155.4999999999998863
 21
216.5
 31
0.0
  0
LINE
  5
F3A
  8
0
 10
154.9999999999998863
 20
217.0
 30
0.0
 11
154.9999999999998863
 21
234.0
 31
0.0
  0
LINE
  5
F3B
  8
0
 10
210.499999999999801
 20
232.0
 30
0.0
 11
224.355662432702502
 21
232.0000000000001137
 31
0.0
  0
ARC
  5
F3C
  8
0
 10
214.7961676075354092
 20
228.7500000000001137
 30
0.0
 40
9.5490225649467089
 50
340.1018633370978819
 51
19.8981366629025693
  0
LINE
  5
F3D
  8
0
 10
210.499999999999801
 20
225.5000000000001137
 30
0.0
 11
223.7751058491018057
 21
225.5000000000001137
 31
0.0
  0
POLYLINE
  5
F3E
  8
0
 66
     1
 10
0.0
 20
0.0
 30
0.0
 70
   128
  0
VERTEX
  5
1104
  8
0
 10
214.9999999999998863
 20
226.4509618943233988
 30
0.0
  0
VERTEX
  5
1105
  8
0
 10
214.4480567224507013
 20
226.5012013929367924
 30
0.0
  0
VERTEX
  5
1106
  8
0
 10
213.9202360146479975
 20
226.6497241816119015
 30
0.0
  0
VERTEX
  5
1107
  8
0
 10
213.4396061742876896
 20
226.8900391017920981
 30
0.0
  0
VERTEX
  5
1108
  8
0
 10
213.0271730317112997
 20
227.2116432383064932
 30
0.0
  0
VERTEX
  5
1109
  8
0
 10
212.7009618943230862
 20
227.6004809471617989
 30
0.0
  0
VERTEX
  5
110A
  8
0
 10
212.4752297541620862
 20
228.0395581546304129
 30
0.0
  0
VERTEX
  5
110B
  8
0
 10
212.3598421889356871
 20
228.5096850798200023
 30
0.0
  0
VERTEX
  5
110C
  8
0
 10
212.3598421889356871
 20
228.9903149201803103
 30
0.0
  0
VERTEX
  5
110D
  8
0
 10
212.4752297541620862
 20
229.4604418453697861
 30
0.0
  0
VERTEX
  5
110E
  8
0
 10
212.7009618943233136
 20
229.8995190528385137
 30
0.0
  0
VERTEX
  5
110F
  8
0
 10
213.0271730317112997
 20
230.2883567616937057
 30
0.0
  0
VERTEX
  5
1110
  8
0
 10
213.4396061742876896
 20
230.6099608982081008
 30
0.0
  0
VERTEX
  5
1111
  8
0
 10
213.9202360146479975
 20
230.8502758183882975
 30
0.0
  0
VERTEX
  5
1112
  8
0
 10
214.4480567224507013
 20
230.9987986070634065
 30
0.0
  0
VERTEX
  5
1113
  8
0
 10
214.9999999999998863
 20
231.0490381056768001
 30
0.0
  0
VERTEX
  5
1114
  8
0
 10
215.5519432775490998
 20
230.9987986070634065
 30
0.0
  0
VERTEX
  5
1115
  8
0
 10
216.0797639853518035
 20
230.8502758183882975
 30
0.0
  0
VERTEX
  5
1116
  8
0
 10
216.5603938257121968
 20
230.6099608982081008
 30
0.0
  0
VERTEX
  5
1117
  8
0
 10
216.9728269682885013
 20
230.2883567616937057
 30
0.0
  0
VERTEX
  5
1118
  8
0
 10
217.2990381056766864
 20
229.8995190528384001
 30
0.0
  0
VERTEX
  5
1119
  8
0
 10
217.5247702458378001
 20
229.4604418453697861
 30
0.0
  0
VERTEX
  5
111A
  8
0
 10
217.6401578110640003
 20
228.9903149201801966
 30
0.0
  0
VERTEX
  5
111B
  8
0
 10
217.6401578110640003
 20
228.5096850798198886
 30
0.0
  0
VERTEX
  5
111C
  8
0
 10
217.5247702458378001
 20
228.0395581546304129
 30
0.0
  0
VERTEX
  5
111D
  8
0
 10
217.2990381056766864
 20
227.6004809471617136
 30
0.0
  0
VERTEX
  5
111E
  8
0
 10
216.9728269682885013
 20
227.2116432383064932
 30
0.0
  0
VERTEX
  5
111F
  8
0
 10
216.5603938257121115
 20
226.8900391017920981
 30
0.0
  0
VERTEX
  5
1120
  8
0
 10
216.0797639853518035
 20
226.6497241816119015
 30
0.0
  0
VERTEX
  5
1121
  8
0
 10
215.5519432775490998
 20
226.5012013929367924
 30
0.0
  0
VERTEX
  5
1122
  8
0
 10
214.9999999999998863
 20
226.4509618943233988
 30
0.0
  0
SEQEND
  5
1123
  8
0
  0
ARC
  5
F41
  8
0
 10
214.6360515750307911
 20
222.2500000000001137
 30
0.0
 40
9.6997326264394932
 50
340.4237658860944862
 51
19.5762341139062883
  0
LINE
  5
F42
  8
0
 10
224.5
 20
219.25
 30
0.0
 11
224.5
 21
231.75
 31
0.0
  0
POLYLINE
  5
F43
  8
0
 66
     1
 10
0.0
 20
0.0
 30
0.0
 70
   128
  0
VERTEX
  5
1124
  8
0
 10
214.9999999999998863
 20
226.4509618943233136
 30
0.0
  0
VERTEX
  5
1125
  8
0
 10
215.4046951567353858
 20
226.4991337511204108
 30
0.0
  0
VERTEX
  5
1126
  8
0
 10
215.7793759250531025
 20
226.6400766352645917
 30
0.0
  0
VERTEX
  5
1127
  8
0
 10
216.0962539464171073
 20
226.8633374578095925
 30
0.0
  0
VERTEX
  5
1128
  8
0
 10
216.3318278276034903
 20
227.1523579848976908
 30
0.0
  0
VERTEX
  5
1129
  8
0
 10
216.4686261315233935
 20
227.4857028862155914
 30
0.0
  0
VERTEX
  5
112A
  8
0
 10
216.4965031537857101
 20
227.8386494953840042
 30
0.0
  0
VERTEX
  5
112B
  8
0
 10
216.4133913831782081
 20
228.1850213770242988
 30
0.0
  0
VERTEX
  5
112C
  8
0
 10
216.2254548395156064
 20
228.4991297132210946
 30
0.0
  0
VERTEX
  5
112D
  8
0
 10
215.9466319164889967
 20
228.7576785256287053
 30
0.0
  0
VERTEX
  5
112E
  8
0
 10
215.5976016347692905
 20
228.9414924316128008
 30
0.0
  0
VERTEX
  5
112F
  8
0
 10
215.2042499736442949
 20
229.0369387946595054
 30
0.0
  0
VERTEX
  5
1130
  8
0
 10
214.7957500263555062
 20
229.0369387946595054
 30
0.0
  0
VERTEX
  5
1131
  8
0
 10
214.4023983652305958
 20
228.9414924316128008
 30
0.0
  0
VERTEX
  5
1132
  8
0
 10
214.0533680835108896
 20
228.7576785256287053
 30
0.0
  0
VERTEX
  5
1133
  8
0
 10
213.7745451604843083
 20
228.4991297132210946
 30
0.0
  0
VERTEX
  5
1134
  8
0
 10
213.5866086168217066
 20
228.1850213770242988
 30
0.0
  0
VERTEX
  5
1135
  8
0
 10
213.503496846214091
 20
227.8386494953840042
 30
0.0
  0
VERTEX
  5
1136
  8
0
 10
213.5313738684764076
 20
227.4857028862155914
 30
0.0
  0
VERTEX
  5
1137
  8
0
 10
213.668172172396396
 20
227.1523579848976908
 30
0.0
  0
VERTEX
  5
1138
  8
0
 10
213.9037460535828075
 20
226.8633374578095072
 30
0.0
  0
VERTEX
  5
1139
  8
0
 10
214.2206240749468122
 20
226.6400766352645064
 30
0.0
  0
VERTEX
  5
113A
  8
0
 10
214.5953048432643868
 20
226.4991337511204108
 30
0.0
  0
VERTEX
  5
113B
  8
0
 10
214.9999999999998863
 20
226.4509618943233136
 30
0.0
  0
SEQEND
  5
113C
  8
0
  0
LINE
  5
F44
  8
0
 10
210.499999999999801
 20
219.0000000000001137
 30
0.0
 11
224.355662432702502
 21
219.0000000000001137
 31
0.0
  0
POLYLINE
  5
F45
  8
0
 66
     1
 10
0.0
 20
0.0
 30
0.0
 70
   128
  0
VERTEX
  5
113D
  8
0
 10
214.1708438024110137
 20
227.6650635094611914
 30
0.0
  0
VERTEX
  5
113E
  8
0
 10
213.794913699846802
 20
227.4410157273422044
 30
0.0
  0
VERTEX
  5
113F
  8
0
 10
213.648120799291803
 20
227.2247491346971913
 30
0.0
  0
SEQEND
  5
1140
  8
0
  0
ARC
  5
F46
  8
0
 10
214.9485698929464093
 20
225.8610378762965922
 30
0.0
 40
1.9645270059265409
 50
44.0940571666462802
 51
113.3211589818290008
  0
LINE
  5
F47
  8
0
 10
154.9999999999998863
 20
227.0690758412571029
 30
0.0
 11
134.9999999999998863
 21
227.0690758412571029
 31
0.0
  0
LINE
  5
F49
  8
0
 10
134.9999999999998863
 20
227.3422809220139982
 30
0.0
 11
154.9999999999998863
 21
227.3422809220139982
 31
0.0
  0
LINE
  5
F4A
  8
0
 10
134.9999999999998863
 20
219.1709241587429062
 30
0.0
 11
154.9999999999998863
 21
219.1709241587429062
 31
0.0
  0
LINE
  5
F4C
  8
0
 10
154.9999999999998863
 20
231.9022809220138868
 30
0.0
 11
134.9999999999998863
 21
231.9022809220138868
 31
0.0
  0
LINE
  5
F4D
  8
0
 10
134.9999999999998863
 20
219.0977190779861132
 30
0.0
 11
134.9999999999998863
 21
231.9022809220138868
 31
0.0
  0
LINE
  5
F4E
  8
0
 10
154.9999999999998863
 20
219.0977190779861132
 30
0.0
 11
134.9999999999998863
 21
219.0977190779861132
 31
0.0
  0
LINE
  5
F52
  8
0
 10
162.4999999999998863
 20
251.0
 30
0.0
 11
164.4999999999998863
 21
253.0
 31
0.0
  0
LINE
  5
F55
  8
0
 10
164.4999999999998863
 20
253.0
 30
0.0
 11
182.4999999999998863
 21
253.0
 31
0.0
  0
ARC
  5
F5F
  8
0
 10
181.9999999999998863
 20
225.5
 30
0.0
 40
1.0
 50
270.0
 51
90.0
  0
LINE
  5
F60
  8
0
 10
181.9999999999998863
 20
226.5
 30
0.0
 11
173.9999999999998863
 21
226.5
 31
0.0
  0
ARC
  5
F61
  8
0
 10
173.9999999999998863
 20
225.5
 30
0.0
 40
1.0
 50
90.0
 51
270.0
  0
LINE
  5
F62
  8
0
 10
173.9999999999998863
 20
224.5
 30
0.0
 11
181.9999999999998863
 21
224.5
 31
0.0
  0
LINE
  5
F64
  8
0
 10
182.4999999999998863
 20
253.0
 30
0.0
 11
184.4999999999998863
 21
251.0
 31
0.0
  0
LINE
  5
F67
  8
0
 10
162.4999999999998863
 20
200.0
 30
0.0
 11
162.4999999999998863
 21
251.0
 31
0.0
  0
LINE
  5
F68
  8
0
 10
184.4999999999998863
 20
251.0
 30
0.0
 11
184.4999999999998863
 21
200.0
 31
0.0
  0
CIRCLE
  5
F6A
  8
0
 10
173.4999999999998863
 20
243.5
 30
0.0
 40
5.5
  0
CIRCLE
  5
F6B
  8
0
 10
167.4999999999998863
 20
225.5
 30
0.0
 40
3.9999999999999711
  0
CIRCLE
  5
F6C
  8
0
 10
173.4999999999998863
 20
207.5
 30
0.0
 40
5.5
  0
LINE
  5
F6D
  8
0
 10
184.4999999999998863
 20
200.0
 30
0.0
 11
182.4999999999998863
 21
198.0
 31
0.0
  0
LINE
  5
F70
  8
0
 10
164.4999999999998863
 20
198.0
 30
0.0
 11
162.4999999999998863
 21
200.0
 31
0.0
  0
LINE
  5
F71
  8
0
 10
182.4999999999998863
 20
198.0
 30
0.0
 11
164.4999999999998863
 21
198.0
 31
0.0
  0
CIRCLE
  5
F72
  8
0
 10
173.4999999999998863
 20
243.5
 30
0.0
 40
3.2999999999999821
  0
CIRCLE
  5
F73
  8
0
 10
173.4999999999998863
 20
207.5
 30
0.0
 40
3.2999999999999821
  0
LINE
  5
F74
  8
0
 10
210.0
 20
66.5
 30
0.0
 11
210.4999999999998863
 21
67.0000000000000142
 31
0.0
  0
LINE
  5
F75
  8
0
 10
210.4999999999998863
 20
88.0
 30
0.0
 11
210.0
 21
88.4999999999999858
 31
0.0
  0
LINE
  5
F76
  8
0
 10
184.5
 20
66.5
 30
0.0
 11
210.0
 21
66.5
 31
0.0
  0
LINE
  5
F77
  8
0
 10
210.0
 20
88.5000000000000142
 30
0.0
 11
184.5
 21
88.5000000000000142
 31
0.0
  0
LINE
  5
F78
  8
0
 10
162.5
 20
86.5
 30
0.0
 11
155.5
 21
86.5
 31
0.0
  0
LINE
  5
F79
  8
0
 10
155.5
 20
68.5
 30
0.0
 11
162.5
 21
68.5
 31
0.0
  0
LINE
  5
F7A
  8
0
 10
155.5
 20
86.5
 30
0.0
 11
155.0
 21
85.9999999999999858
 31
0.0
  0
LINE
  5
F7B
  8
0
 10
155.0
 20
69.0000000000000284
 30
0.0
 11
155.5
 21
68.5
 31
0.0
  0
LINE
  5
F7C
  8
0
 10
224.3556624327027009
 20
71.0000000000000711
 30
0.0
 11
224.5
 21
71.25
 31
0.0
  0
LINE
  5
F7D
  8
0
 10
224.5
 20
83.75
 30
0.0
 11
224.355662432702502
 21
84.0
 31
0.0
  0
LINE
  5
F7E
  8
0
 10
210.4999999999998863
 20
88.0
 30
0.0
 11
210.4999999999998863
 21
67.0000000000000142
 31
0.0
  0
LINE
  5
F7F
  8
0
 10
210.0
 20
66.5
 30
0.0
 11
210.0
 21
88.4999999999999858
 31
0.0
  0
LINE
  5
F80
  8
0
 10
155.5
 20
86.4999999999999574
 30
0.0
 11
155.5
 21
68.5
 31
0.0
  0
LINE
  5
F83
  8
0
 10
155.0
 20
69.0000000000000284
 30
0.0
 11
155.0
 21
85.9999999999999858
 31
0.0
  0
ARC
  5
F85
  8
0
 10
214.6296815630037997
 20
74.2500000000000853
 30
0.0
 40
9.7057346642462772
 50
340.4363655242145228
 51
19.5636344757860314
  0
ARC
  5
F86
  8
0
 10
214.7961676075352955
 20
80.7500000000000853
 30
0.0
 40
9.5490225649468883
 50
340.1018633370982229
 51
19.898136662902111
  0
LINE
  5
F89
  8
0
 10
224.5
 20
71.25
 30
0.0
 11
224.5
 21
83.7499999999998437
 31
0.0
  0
LINE
  5
F8A
  8
0
 10
210.4999999999998863
 20
84.0000000000000284
 30
0.0
 11
224.355662432702502
 21
84.0000000000000284
 31
0.0
  0
LINE
  5
F8B
  8
0
 10
210.4999999999998863
 20
77.5000000000001137
 30
0.0
 11
223.7751058491018057
 21
77.5000000000000853
 31
0.0
  0
POLYLINE
  5
F8C
  8
0
 66
     1
 10
0.0
 20
0.0
 30
0.0
 70
   128
  0
VERTEX
  5
1141
  8
0
 10
215.0000000000001137
 20
78.4509618943234273
 30
0.0
  0
VERTEX
  5
1142
  8
0
 10
214.4480567224507013
 20
78.5012013929368635
 30
0.0
  0
VERTEX
  5
1143
  8
0
 10
213.9202360146481112
 20
78.6497241816119299
 30
0.0
  0
VERTEX
  5
1144
  8
0
 10
213.4396061742878032
 20
78.8900391017920839
 30
0.0
  0
VERTEX
  5
1145
  8
0
 10
213.0271730317114987
 20
79.2116432383065501
 30
0.0
  0
VERTEX
  5
1146
  8
0
 10
212.7009618943233988
 20
79.6004809471617705
 30
0.0
  0
VERTEX
  5
1147
  8
0
 10
212.4752297541620862
 20
80.0395581546304129
 30
0.0
  0
VERTEX
  5
1148
  8
0
 10
212.359842188935886
 20
80.5096850798199455
 30
0.0
  0
VERTEX
  5
1149
  8
0
 10
212.359842188935886
 20
80.9903149201802535
 30
0.0
  0
VERTEX
  5
114A
  8
0
 10
212.4752297541620862
 20
81.4604418453697861
 30
0.0
  0
VERTEX
  5
114B
  8
0
 10
212.7009618943233988
 20
81.8995190528384285
 30
0.0
  0
VERTEX
  5
114C
  8
0
 10
213.0271730317114987
 20
82.2883567616936489
 30
0.0
  0
VERTEX
  5
114D
  8
0
 10
213.4396061742878032
 20
82.6099608982081008
 30
0.0
  0
VERTEX
  5
114E
  8
0
 10
213.9202360146481112
 20
82.8502758183882548
 30
0.0
  0
VERTEX
  5
114F
  8
0
 10
214.4480567224507013
 20
82.998798607063307
 30
0.0
  0
VERTEX
  5
1150
  8
0
 10
215.0000000000001137
 20
83.0490381056767433
 30
0.0
  0
VERTEX
  5
1151
  8
0
 10
215.5519432775492135
 20
82.998798607063307
 30
0.0
  0
VERTEX
  5
1152
  8
0
 10
216.0797639853518888
 20
82.8502758183882264
 30
0.0
  0
VERTEX
  5
1153
  8
0
 10
216.5603938257121968
 20
82.6099608982080866
 30
0.0
  0
VERTEX
  5
1154
  8
0
 10
216.9728269682885866
 20
82.2883567616936205
 30
0.0
  0
VERTEX
  5
1155
  8
0
 10
217.2990381056766864
 20
81.8995190528383858
 30
0.0
  0
VERTEX
  5
1156
  8
0
 10
217.524770245837999
 20
81.4604418453697434
 30
0.0
  0
VERTEX
  5
1157
  8
0
 10
217.6401578110641992
 20
80.990314920180225
 30
0.0
  0
VERTEX
  5
1158
  8
0
 10
217.6401578110641992
 20
80.5096850798199171
 30
0.0
  0
VERTEX
  5
1159
  8
0
 10
217.524770245837999
 20
80.0395581546303987
 30
0.0
  0
VERTEX
  5
115A
  8
0
 10
217.2990381056766864
 20
79.6004809471617421
 30
0.0
  0
VERTEX
  5
115B
  8
0
 10
216.9728269682885866
 20
79.2116432383065217
 30
0.0
  0
VERTEX
  5
115C
  8
0
 10
216.5603938257121968
 20
78.8900391017920697
 30
0.0
  0
VERTEX
  5
115D
  8
0
 10
216.0797639853518888
 20
78.6497241816119299
 30
0.0
  0
VERTEX
  5
115E
  8
0
 10
215.5519432775492135
 20
78.5012013929368635
 30
0.0
  0
VERTEX
  5
115F
  8
0
 10
215.0000000000001137
 20
78.4509618943234273
 30
0.0
  0
SEQEND
  5
1160
  8
0
  0
POLYLINE
  5
F8D
  8
0
 66
     1
 10
0.0
 20
0.0
 30
0.0
 70
   128
  0
VERTEX
  5
1161
  8
0
 10
215.0000000000001137
 20
78.4509618943233846
 30
0.0
  0
VERTEX
  5
1162
  8
0
 10
215.4046951567354995
 20
78.4991337511204534
 30
0.0
  0
VERTEX
  5
1163
  8
0
 10
215.7793759250531878
 20
78.6400766352646059
 30
0.0
  0
VERTEX
  5
1164
  8
0
 10
216.0962539464171925
 20
78.8633374578096351
 30
0.0
  0
VERTEX
  5
1165
  8
0
 10
216.331827827603604
 20
79.152357984897705
 30
0.0
  0
VERTEX
  5
1166
  8
0
 10
216.4686261315235072
 20
79.4857028862156199
 30
0.0
  0
VERTEX
  5
1167
  8
0
 10
216.4965031537857953
 20
79.8386494953840895
 30
0.0
  0
VERTEX
  5
1168
  8
0
 10
216.4133913831782934
 20
80.1850213770243698
 30
0.0
  0
VERTEX
  5
1169
  8
0
 10
216.2254548395158054
 20
80.499129713221123
 30
0.0
  0
VERTEX
  5
116A
  8
0
 10
215.9466319164891104
 20
80.7576785256286911
 30
0.0
  0
VERTEX
  5
116B
  8
0
 10
215.5976016347694042
 20
80.9414924316128861
 30
0.0
  0
VERTEX
  5
116C
  8
0
 10
215.2042499736444086
 20
81.0369387946595481
 30
0.0
  0
VERTEX
  5
116D
  8
0
 10
214.7957500263555914
 20
81.0369387946595481
 30
0.0
  0
VERTEX
  5
116E
  8
0
 10
214.4023983652307095
 20
80.9414924316128861
 30
0.0
  0
VERTEX
  5
116F
  8
0
 10
214.0533680835110033
 20
80.7576785256286769
 30
0.0
  0
VERTEX
  5
1170
  8
0
 10
213.7745451604843083
 20
80.499129713221123
 30
0.0
  0
VERTEX
  5
1171
  8
0
 10
213.5866086168217919
 20
80.1850213770243556
 30
0.0
  0
VERTEX
  5
1172
  8
0
 10
213.5034968462142047
 20
79.8386494953840611
 30
0.0
  0
VERTEX
  5
1173
  8
0
 10
213.5313738684764076
 20
79.4857028862156056
 30
0.0
  0
VERTEX
  5
1174
  8
0
 10
213.6681721723965097
 20
79.1523579848976908
 30
0.0
  0
VERTEX
  5
1175
  8
0
 10
213.9037460535828927
 20
78.8633374578096351
 30
0.0
  0
VERTEX
  5
1176
  8
0
 10
214.2206240749468975
 20
78.6400766352645917
 30
0.0
  0
VERTEX
  5
1177
  8
0
 10
214.5953048432645005
 20
78.4991337511204534
 30
0.0
  0
VERTEX
  5
1178
  8
0
 10
215.0000000000001137
 20
78.4509618943233846
 30
0.0
  0
SEQEND
  5
1179
  8
0
  0
LINE
  5
F8E
  8
0
 10
210.4999999999998863
 20
71.0000000000000568
 30
0.0
 11
224.3556624327027009
 21
71.0000000000000568
 31
0.0
  0
ARC
  5
F8F
  8
0
 10
215.000458294846311
 20
78.0413307054960796
 30
0.0
 40
1.8060654174871369
 50
41.1401724617428002
 51
138.6495436028822894
  0
LINE
  5
F90
  8
0
 10
155.0
 20
79.0690758412571313
 30
0.0
 11
135.0
 21
79.0690758412571313
 31
0.0
  0
LINE
  5
F91
  8
0
 10
135.0
 20
79.3422809220140266
 30
0.0
 11
155.0
 21
79.3422809220140266
 31
0.0
  0
LINE
  5
F93
  8
0
 10
135.0
 20
71.1709241587429915
 30
0.0
 11
155.0
 21
71.1709241587429915
 31
0.0
  0
LINE
  5
F95
  8
0
 10
155.0
 20
83.9022809220139152
 30
0.0
 11
135.0
 21
83.9022809220139152
 31
0.0
  0
LINE
  5
F96
  8
0
 10
135.0
 20
71.0977190779860848
 30
0.0
 11
135.0
 21
83.9022809220139152
 31
0.0
  0
LINE
  5
F97
  8
0
 10
155.0
 20
71.0977190779860848
 30
0.0
 11
135.0
 21
71.0977190779860848
 31
0.0
  0
LINE
  5
F9B
  8
0
 10
182.5
 20
50.0
 30
0.0
 11
164.5
 21
50.0
 31
0.0
  0
LINE
  5
F9F
  8
0
 10
184.5
 20
52.0000000000000071
 30
0.0
 11
182.5
 21
50.0
 31
0.0
  0
LINE
  5
FA1
  8
0
 10
164.5
 20
50.0
 30
0.0
 11
162.5
 21
52.0
 31
0.0
  0
LINE
  5
FAA
  8
0
 10
162.5
 20
52.0
 30
0.0
 11
162.5
 21
103.0
 31
0.0
  0
LINE
  5
FAC
  8
0
 10
184.5
 20
103.0
 30
0.0
 11
184.5
 21
52.0000000000000071
 31
0.0
  0
CIRCLE
  5
FAE
  8
0
 10
173.5
 20
59.5000000000000071
 30
0.0
 40
3.3000000000000109
  0
CIRCLE
  5
FAF
  8
0
 10
173.5
 20
95.5
 30
0.0
 40
3.3000000000000389
  0
LINE
  5
FB0
  8
0
 10
182.5
 20
105.0
 30
0.0
 11
184.5
 21
103.0
 31
0.0
  0
LINE
  5
FB2
  8
0
 10
162.5
 20
103.0
 30
0.0
 11
164.5
 21
105.0
 31
0.0
  0
LINE
  5
FB4
  8
0
 10
164.5
 20
105.0
 30
0.0
 11
182.5
 21
105.0
 31
0.0
  0
POLYLINE
  5
FB5
  8
0
 66
     1
 10
0.0
 20
0.0
 30
0.0
 70
   128
  0
VERTEX
  5
117A
  8
0
 10
71.7460695579176218
 20
148.8256587269493139
 30
0.0
  0
VERTEX
  5
117B
  8
0
 10
71.6335573652823996
 20
148.8662634077035989
 30
0.0
  0
VERTEX
  5
117C
  8
0
 10
71.4578927945269697
 20
148.864946663860195
 30
0.0
  0
SEQEND
  5
117D
  8
0
  0
POLYLINE
  5
FB6
  8
0
 66
     1
 10
0.0
 20
0.0
 30
0.0
 70
   128
  0
VERTEX
  5
117E
  8
0
 10
78.6720431752052036
 20
144.6998549996015129
 30
0.0
  0
VERTEX
  5
117F
  8
0
 10
78.5792539057233057
 20
144.859851129734011
 30
0.0
  0
VERTEX
  5
1180
  8
0
 10
78.4967065388174774
 20
144.928176648825513
 30
0.0
  0
SEQEND
  5
1181
  8
0
  0
ARC
  5
FB7
  8
0
 10
79.1435009364000734
 20
144.866371003066007
 30
0.0
 40
0.5000000000006822
 50
199.4529096558430865
 51
10.5470903441491792
  0
POLYLINE
  5
FB8
  8
0
 66
     1
 10
0.0
 20
0.0
 30
0.0
 70
   128
  0
VERTEX
  5
1182
  8
0
 10
79.6743412730506293
 20
145.2460695579175933
 30
0.0
  0
VERTEX
  5
1183
  8
0
 10
79.6337365922963727
 20
145.1335573652823996
 30
0.0
  0
VERTEX
  5
1184
  8
0
 10
79.6350533361384691
 20
144.9578927945264866
 30
0.0
  0
SEQEND
  5
1185
  8
0
  0
POLYLINE
  5
FB9
  8
0
 66
     1
 10
0.0
 20
0.0
 30
0.0
 70
   128
  0
VERTEX
  5
1186
  8
0
 10
83.8001450003982313
 20
152.1720431752061984
 30
0.0
  0
VERTEX
  5
1187
  8
0
 10
83.6401488702659748
 20
152.079253905723192
 30
0.0
  0
VERTEX
  5
1188
  8
0
 10
83.571823351174487
 20
151.9967065388173921
 30
0.0
  0
SEQEND
  5
1189
  8
0
  0
ARC
  5
FBA
  8
0
 10
83.6336289969354425
 20
152.6435009364010966
 30
0.0
 40
0.5000000000001258
 50
289.4529096556663035
 51
100.5470903443309965
  0
POLYLINE
  5
FBB
  8
0
 66
     1
 10
0.0
 20
0.0
 30
0.0
 70
   128
  0
VERTEX
  5
118A
  8
0
 10
83.2539304420828756
 20
153.1743412730504019
 30
0.0
  0
VERTEX
  5
118B
  8
0
 10
83.3664426347169183
 20
153.1337365922964864
 30
0.0
  0
VERTEX
  5
118C
  8
0
 10
83.542107205473414
 20
153.1350533361386113
 30
0.0
  0
SEQEND
  5
118D
  8
0
  0
POLYLINE
  5
FBC
  8
0
 66
     1
 10
0.0
 20
0.0
 30
0.0
 70
   128
  0
VERTEX
  5
118E
  8
0
 10
76.3279568247943843
 20
157.3001450003984871
 30
0.0
  0
VERTEX
  5
118F
  8
0
 10
76.4207460942767511
 20
157.140148870265989
 30
0.0
  0
VERTEX
  5
1190
  8
0
 10
76.5032934611828068
 20
157.0718233511742881
 30
0.0
  0
SEQEND
  5
1191
  8
0
  0
ARC
  5
FBD
  8
0
 10
75.856499063599415
 20
157.1336289969351014
 30
0.0
 40
0.5000000000004043
 50
19.4529096557284689
 51
190.5470903442792974
  0
POLYLINE
  5
FBE
  8
0
 66
     1
 10
0.0
 20
0.0
 30
0.0
 70
   128
  0
VERTEX
  5
1192
  8
0
 10
75.3256587269496549
 20
156.7539304420828898
 30
0.0
  0
VERTEX
  5
1193
  8
0
 10
75.3662634077035136
 20
156.8664426347168899
 30
0.0
  0
VERTEX
  5
1194
  8
0
 10
75.3649466638615735
 20
157.0421072054735134
 30
0.0
  0
SEQEND
  5
1195
  8
0
  0
POLYLINE
  5
FBF
  8
0
 66
     1
 10
0.0
 20
0.0
 30
0.0
 70
   128
  0
VERTEX
  5
1196
  8
0
 10
71.199854999601655
 20
149.8279568247940858
 30
0.0
  0
VERTEX
  5
1197
  8
0
 10
71.359851129734011
 20
149.9207460942766943
 30
0.0
  0
VERTEX
  5
1198
  8
0
 10
71.4281766488256835
 20
150.0032934611828068
 30
0.0
  0
SEQEND
  5
1199
  8
0
  0
ARC
  5
FC0
  8
0
 10
71.366370988931692
 20
149.3564990598115116
 30
0.0
 40
0.4999999988648732
 50
109.4529079840733061
 51
280.5470920159369257
  0
CIRCLE
  5
FC1
  8
0
 10
77.5
 20
151.0
 30
0.0
 40
7.0000000000000027
  0
CIRCLE
  5
FC2
  8
0
 10
77.5
 20
151.0
 30
0.0
 40
8.9999999999999911
  0
LINE
  5
FC5
  8
0
 10
83.9022809220139152
 20
152.5690758412571029
 30
0.0
 11
83.8290758412570085
 21
152.8422809220139982
 31
0.0
  0
LINE
  5
FC6
  8
0
 10
79.0690758412571313
 20
144.5977190779861132
 30
0.0
 11
79.3422809220140266
 21
144.6709241587429915
 31
0.0
  0
LINE
  5
FC7
  8
0
 10
71.1709241587429915
 20
149.1577190779860018
 30
0.0
 11
79.0690758412571313
 21
144.5977190779861132
 31
0.0
  0
LINE
  5
FC8
  8
0
 10
75.9309241587428687
 20
157.4022809220138868
 30
0.0
 11
75.6577190779859734
 21
157.3290758412570085
 31
0.0
  0
LINE
  5
FC9
  8
0
 10
83.8290758412570085
 20
152.8422809220139982
 30
0.0
 11
75.9309241587428687
 21
157.4022809220138868
 31
0.0
  0
LINE
  5
FCA
  8
0
 10
79.3422809220140266
 20
144.6709241587429915
 30
0.0
 11
83.9022809220139152
 21
152.5690758412571029
 31
0.0
  0
LINE
  5
FCB
  8
0
 10
75.6577190779859734
 20
157.3290758412570085
 30
0.0
 11
71.0977190779860848
 21
149.4309241587428119
 31
0.0
  0
LINE
  5
FCC
  8
0
 10
71.0977190779860848
 20
149.4309241587428119
 30
0.0
 11
71.1709241587429915
 21
149.1577190779860018
 31
0.0
  0
LINE
  5
FCE
  8
0
 10
105.0
 20
167.5
 30
0.0
 11
105.0
 21
135.5
 31
0.0
  0
LINE
  5
FD0
  8
0
 10
103.0
 20
135.5
 30
0.0
 11
103.0
 21
167.5
 31
0.0
  0
LINE
  5
FD1
  8
0
 10
50.5
 20
168.0
 30
0.0
 11
104.5
 21
168.0
 31
0.0
  0
LINE
  5
FD2
  8
0
 10
52.2071067811865532
 20
168.0
 30
0.0
 11
52.0
 21
167.5
 31
0.0
  0
LINE
  5
FD4
  8
0
 10
50.5
 20
168.0
 30
0.0
 11
50.0
 21
167.5
 31
0.0
  0
LINE
  5
FD7
  8
0
 10
52.0
 20
167.5
 30
0.0
 11
52.0
 21
135.5
 31
0.0
  0
LINE
  5
FDA
  8
0
 10
50.0
 20
135.5
 30
0.0
 11
50.0
 21
167.5
 31
0.0
  0
CIRCLE
  5
FDB
  8
0
 10
77.5
 20
151.0
 30
0.0
 40
11.0
  0
LINE
  5
FDD
  8
0
 10
105.0
 20
167.5
 30
0.0
 11
104.5
 21
168.0
 31
0.0
  0
LINE
  5
FDE
  8
0
 10
102.7928932188134041
 20
168.0
 30
0.0
 11
103.0
 21
167.5
 31
0.0
  0
LINE
  5
FE1
  8
0
 10
52.2071067811865532
 20
135.0
 30
0.0
 11
52.0
 21
135.5
 31
0.0
  0
LINE
  5
FE2
  8
0
 10
102.7928932188134041
 20
135.0
 30
0.0
 11
103.0
 21
135.5
 31
0.0
  0
LINE
  5
FE4
  8
0
 10
105.0
 20
135.5
 30
0.0
 11
104.5
 21
135.0
 31
0.0
  0
LINE
  5
FE5
  8
0
 10
104.4999999999999005
 20
135.0
 30
0.0
 11
50.5
 21
135.0
 31
0.0
  0
LINE
  5
FE6
  8
0
 10
50.5
 20
135.0
 30
0.0
 11
50.0
 21
135.5
 31
0.0
  0
LINE
  5
FE7
  8
0
 10
288.5000000000001137
 20
154.7527767497325044
 30
0.0
 11
288.4999999999998863
 21
147.2472232502672966
 31
0.0
  0
LINE
  5
FE8
  8
0
 10
288.4999999999998863
 20
147.2472232502672966
 30
0.0
 11
281.9999999999998863
 21
143.4944465005349059
 31
0.0
  0
LINE
  5
FE9
  8
0
 10
281.9999999999998863
 20
143.4944465005349059
 30
0.0
 11
275.4999999999998863
 21
147.2472232502674956
 31
0.0
  0
LINE
  5
FEA
  8
0
 10
275.4999999999998863
 20
147.2472232502674956
 30
0.0
 11
275.5000000000001137
 21
154.7527767497325897
 31
0.0
  0
LINE
  5
FEB
  8
0
 10
275.5000000000001137
 20
154.7527767497325897
 30
0.0
 11
282.0000000000002274
 21
158.5055534994650941
 31
0.0
  0
LINE
  5
FEC
  8
0
 10
282.0000000000002274
 20
158.5055534994650941
 30
0.0
 11
288.5000000000001137
 21
154.7527767497325044
 31
0.0
  0
CIRCLE
  5
FF2
  8
0
 10
282.0000000000001137
 20
151.0
 30
0.0
 40
11.0
  0
LINE
  5
FF4
  8
0
 10
307.5000000000001137
 20
135.5
 30
0.0
 11
307.2928932188135036
 21
135.0
 31
0.0
  0
LINE
  5
FF6
  8
0
 10
309.0000000000001137
 20
135.0
 30
0.0
 11
309.5000000000001137
 21
135.5
 31
0.0
  0
LINE
  5
FF8
  8
0
 10
309.0000000000001137
 20
168.0
 30
0.0
 11
309.5000000000001137
 21
167.5
 31
0.0
  0
LINE
  5
FFA
  8
0
 10
307.5000000000001137
 20
167.5
 30
0.0
 11
307.2928932188135036
 21
168.0
 31
0.0
  0
LINE
  5
FFB
  8
0
 10
309.5000000000001137
 20
167.5
 30
0.0
 11
309.5000000000001137
 21
135.5
 31
0.0
  0
LINE
  5
FFC
  8
0
 10
307.5000000000001137
 20
135.5
 30
0.0
 11
307.5000000000001137
 21
167.5
 31
0.0
  0
LINE
  5
FFE
  8
0
 10
256.5000000000001137
 20
167.5
 30
0.0
 11
256.7071067811866101
 21
168.0
 31
0.0
  0
LINE
  5
1001
  8
0
 10
256.5000000000001137
 20
167.5
 30
0.0
 11
256.5000000000001137
 21
135.5
 31
0.0
  0
LINE
  5
1004
  8
0
 10
256.5000000000001137
 20
135.5
 30
0.0
 11
256.7071067811866101
 21
135.0
 31
0.0
  0
LINE
  5
1007
  8
0
 10
254.5000000000001137
 20
135.5
 30
0.0
 11
254.5000000000001137
 21
167.5
 31
0.0
  0
LINE
  5
1008
  8
0
 10
254.5000000000001137
 20
167.5
 30
0.0
 11
254.9999999999998863
 21
168.0
 31
0.0
  0
LINE
  5
1009
  8
0
 10
254.9999999999998863
 20
168.0
 30
0.0
 11
309.0000000000002274
 21
168.0
 31
0.0
  0
LINE
  5
100A
  8
0
 10
309.0000000000001137
 20
135.0
 30
0.0
 11
254.9999999999998863
 21
135.0
 31
0.0
  0
LINE
  5
100B
  8
0
 10
254.5000000000001137
 20
135.5
 30
0.0
 11
254.9999999999998863
 21
135.0
 31
0.0
  0
CIRCLE
  5
1019
  8
3
 10
282.0000000000001137
 20
151.0
 30
0.0
 40
3.0
  0
CIRCLE
  5
101A
  8
0
 10
282.0000000000001137
 20
151.0
 30
0.0
 40
2.458499999999999
  0
LINE
  5
102A
  8
1
 10
77.5
 20
129.999999999999801
 30
0.0
 11
77.5
 21
172.999999999999801
 31
0.0
  0
LINE
  5
102B
  8
1
 10
282.0000000000001137
 20
129.999999999999801
 30
0.0
 11
282.0000000000001137
 21
172.999999999999801
 31
0.0
  0
LINE
  5
102C
  8
1
 10
129.9999999999998863
 20
225.500000000000199
 30
0.0
 11
229.5000000000001137
 21
225.500000000000199
 31
0.0
  0
LINE
  5
102D
  8
1
 10
130.0
 20
77.5000000000001705
 30
0.0
 11
229.5000000000001137
 21
77.5000000000001705
 31
0.0
  0
LINE
  5
1030
  8
1
 10
249.5
 20
151.000000000000199
 30
0.0
 11
314.5699999999998795
 21
151.000000000000199
 31
0.0
  0
LINE
  5
1031
  8
1
 10
45.0
 20
151.000000000000199
 30
0.0
 11
110.0699999999997942
 21
151.000000000000199
 31
0.0
  0
LINE
  5
1036
  8
1
 10
173.4999999999998863
 20
258.0
 30
0.0
 11
173.4999999999998863
 21
193.0
 31
0.0
  0
LINE
  5
103C
  8
1
 10
173.4999999999998863
 20
110.0
 30
0.0
 11
173.4999999999998863
 21
45.0
 31
0.0
  0
LINE
  5
103D
  8
1
 10
181.999999999999801
 20
243.5
 30
0.0
 11
165.0
 21
243.5
 31
0.0
  0
LINE
  5
103E
  8
1
 10
181.999999999999801
 20
207.5
 30
0.0
 11
165.0
 21
207.5
 31
0.0
  0
LINE
  5
1051
  8
2
 10
224.0415000000000134
 20
148.0
 30
0.0
 11
217.5000000000001137
 21
148.0
 31
0.0
  0
LINE
  5
1052
  8
2
 10
223.5000000000001137
 20
148.5415000000000134
 30
0.0
 11
212.5
 21
148.5415000000000134
 31
0.0
  0
LINE
  5
1053
  8
2
 10
223.5000000000001137
 20
153.4585000000001003
 30
0.0
 11
212.5
 21
153.4585000000001003
 31
0.0
  0
LINE
  5
1054
  8
2
 10
224.0415000000000134
 20
154.0
 30
0.0
 11
217.5000000000001137
 21
154.0
 31
0.0
  0
LINE
  5
1055
  8
2
 10
217.5000000000001137
 20
148.0
 30
0.0
 11
217.5000000000001137
 21
154.0
 31
0.0
  0
LINE
  5
1056
  8
2
 10
212.5
 20
148.5415000000000134
 30
0.0
 11
212.5
 21
153.4585000000001003
 31
0.0
  0
LINE
  5
1057
  8
2
 10
212.5
 20
148.5415000000000134
 30
0.0
 11
211.0227841681206939
 21
151.0000000000001137
 31
0.0
  0
LINE
  5
1058
  8
2
 10
212.5
 20
153.4585000000001003
 30
0.0
 11
211.0227841681206939
 21
151.0000000000001137
 31
0.0
  0
LINE
  5
1059
  8
2
 10
217.5000000000001137
 20
154.0
 30
0.0
 11
216.5620944877016996
 21
153.4585000000001003
 31
0.0
  0
LINE
  5
105A
  8
2
 10
217.5000000000001137
 20
148.000000000000199
 30
0.0
 11
216.5620944877016996
 21
148.5415000000000987
 31
0.0
  0
LINE
  5
105B
  8
2
 10
224.5
 20
147.5414999999998997
 30
0.0
 11
223.5000000000001137
 21
148.5415000000000134
 31
0.0
  0
LINE
  5
105C
  8
2
 10
223.5000000000001137
 20
153.4585000000001003
 30
0.0
 11
224.5
 21
154.458500000000214
 31
0.0
  0
LINE
  5
105D
  8
2
 10
223.5000000000001137
 20
148.5415000000000134
 30
0.0
 11
223.5000000000001137
 21
153.4585000000001003
 31
0.0
  0
LINE
  5
1079
  8
1
 10
179.8000000000000114
 20
95.5000000000001563
 30
0.0
 11
167.1999999999999034
 21
95.5000000000001563
 31
0.0
  0
LINE
  5
107A
  8
1
 10
179.8000000000000114
 20
59.5000000000001705
 30
0.0
 11
167.1999999999999886
 21
59.5000000000001705
 31
0.0
  0
ENDSEC
  0
EOF
