  0
SECTION
  2
HEADER
  9
$ACADVER
  1
AC1009
  9
$INSBASE
 10
0.0
 20
0.0
 30
0.0
  9
$EXTMIN
 10
0.0
 20
-2.960436562073669
 30
0.0
  9
$EXTMAX
 10
654.86937631245837
 20
586.71514368232999
 30
0.0
  9
$LIMMIN
 10
0.0
 20
0.0
  9
$LIMMAX
 10
375.0
 20
270.0
  9
$ORTHOMODE
 70
     1
  9
$REGENMODE
 70
     1
  9
$FILLMODE
 70
     1
  9
$QTEXTMODE
 70
     0
  9
$MIRRTEXT
 70
     0
  9
$DRAGMODE
 70
     2
  9
$LTSCALE
 40
10.0
  9
$OSMODE
 70
  3071
  9
$ATTMODE
 70
     1
  9
$TEXTSIZE
 40
6.0
  9
$TRACEWID
 40
0.05
  9
$TEXTSTYLE
  7
STANDARD
  9
$CLAYER
  8
0
  9
$CELTYPE
  6
BYLAYER
  9
$CECOLOR
 62
   256
  9
$DIMSCALE
 40
1.0
  9
$DIMASZ
 40
3.0
  9
$DIMEXO
 40
2.0
  9
$DIMDLI
 40
0.3799999999999999
  9
$DIMRND
 40
0.0
  9
$DIMDLE
 40
0.0
  9
$DIMEXE
 40
2.0
  9
$DIMTP
 40
0.0
  9
$DIMTM
 40
0.0
  9
$DIMTXT
 40
3.2000000000000002
  9
$DIMCEN
 40
0.09
  9
$DIMTSZ
 40
0.0
  9
$DIMTOL
 70
     0
  9
$DIMLIM
 70
     0
  9
$DIMTIH
 70
     0
  9
$DIMTOH
 70
     0
  9
$DIMSE1
 70
     0
  9
$DIMSE2
 70
     0
  9
$DIMTAD
 70
     1
  9
$DIMZIN
 70
     9
  9
$DIMBLK
  1

  9
$DIMASO
 70
     0
  9
$DIMSHO
 70
     0
  9
$DIMPOST
  1

  9
$DIMAPOST
  1

  9
$DIMALT
 70
     0
  9
$DIMALTD
 70
     2
  9
$DIMALTF
 40
25.399999999999999
  9
$DIMLFAC
 40
1.0
  9
$DIMTOFL
 70
     0
  9
$DIMTVP
 40
0.0
  9
$DIMTIX
 70
     0
  9
$DIMSOXD
 70
     0
  9
$DIMSAH
 70
     0
  9
$DIMBLK1
  1

  9
$DIMBLK2
  1

  9
$DIMSTYLE
  2
STANDARD
  9
$DIMCLRD
 70
     0
  9
$DIMCLRE
 70
     0
  9
$DIMCLRT
 70
     0
  9
$DIMTFAC
 40
1.0
  9
$DIMGAP
 40
0.09
  9
$LUNITS
 70
     2
  9
$LUPREC
 70
     4
  9
$SKETCHINC
 40
0.1
  9
$FILLETRAD
 40
20.0
  9
$AUNITS
 70
     0
  9
$AUPREC
 70
     0
  9
$MENU
  1
E:\r13\win\SUPPORT\ACAD
  9
$ELEVATION
 40
0.0
  9
$PELEVATION
 40
0.0
  9
$THICKNESS
 40
0.0
  9
$LIMCHECK
 70
     0
  9
$BLIPMODE
 70
     0
  9
$CHAMFERA
 40
0.0
  9
$CHAMFERB
 40
0.0
  9
$SKPOLY
 70
     0
  9
$TDCREATE
 40
2449840.6320370371
  9
$TDUPDATE
 40
2456598.4294221289
  9
$TDINDWG
 40
0.4459381829
  9
$TDUSRTIMER
 40
0.4459381829
  9
$USRTIMER
 70
     1
  9
$ANGBASE
 50
0.0
  9
$ANGDIR
 70
     0
  9
$PDMODE
 70
     0
  9
$PDSIZE
 40
0.0
  9
$PLINEWID
 40
0.0
  9
$COORDS
 70
     1
  9
$SPLFRAME
 70
     0
  9
$SPLINETYPE
 70
     6
  9
$SPLINESEGS
 70
     8
  9
$ATTDIA
 70
     0
  9
$ATTREQ
 70
     1
  9
$HANDLING
 70
     1
  9
$HANDSEED
  5
BD7C
  9
$SURFTAB1
 70
     6
  9
$SURFTAB2
 70
     6
  9
$SURFTYPE
 70
     6
  9
$SURFU
 70
     6
  9
$SURFV
 70
     6
  9
$UCSNAME
  2

  9
$UCSORG
 10
0.0
 20
0.0
 30
0.0
  9
$UCSXDIR
 10
1.0
 20
0.0
 30
0.0
  9
$UCSYDIR
 10
0.0
 20
1.0
 30
0.0
  9
$PUCSNAME
  2

  9
$PUCSORG
 10
0.0
 20
0.0
 30
0.0
  9
$PUCSXDIR
 10
1.0
 20
0.0
 30
0.0
  9
$PUCSYDIR
 10
0.0
 20
1.0
 30
0.0
  9
$USERI1
 70
     0
  9
$USERI2
 70
     1
  9
$USERI3
 70
     0
  9
$USERI4
 70
     0
  9
$USERI5
 70
     0
  9
$USERR1
 40
0.0
  9
$USERR2
 40
0.0
  9
$USERR3
 40
0.0
  9
$USERR4
 40
0.0
  9
$USERR5
 40
0.0
  9
$WORLDVIEW
 70
     1
  9
$SHADEDGE
 70
     3
  9
$SHADEDIF
 70
    70
  9
$TILEMODE
 70
     1
  9
$MAXACTVP
 70
    16
  9
$PLIMCHECK
 70
     0
  9
$PEXTMIN
 10
1.0000000000000000E+020
 20
1.0000000000000000E+020
 30
1.0000000000000000E+020
  9
$PEXTMAX
 10
-1.0000000000000000E+020
 20
-1.0000000000000000E+020
 30
-1.0000000000000000E+020
  9
$PLIMMIN
 10
0.0
 20
0.0
  9
$PLIMMAX
 10
12.0
 20
9.0
  9
$UNITMODE
 70
     0
  9
$VISRETAIN
 70
     0
  9
$PLINEGEN
 70
     0
  9
$PSLTSCALE
 70
     0
  0
ENDSEC
  0
SECTION
  2
TABLES
  0
TABLE
  2
VPORT
 70
     1
  0
VPORT
  2
*ACTIVE
 70
     0
 10
0.0
 20
0.0
 11
1.0
 21
1.0
 12
327.43468968096602
 22
326.14813669309899
 13
0.0
 23
0.0
 14
10.0
 24
10.0
 15
10.0
 25
10.0
 16
0.0
 26
0.0
 36
1.0
 17
0.0
 27
0.0
 37
0.0
 40
666.50766896221307
 41
2.304913294797688
 42
50.0
 43
0.0
 44
0.0
 50
0.0
 51
0.0
 71
     0
 72
   500
 73
     1
 74
     0
 75
     0
 76
     0
 77
     0
 78
     0
  0
ENDTAB
  0
TABLE
  2
LTYPE
 70
     3
  0
LTYPE
  2
CONTINUOUS
 70
     0
  3
Solid Line
 72
    65
 73
     0
 40
0.0
  0
LTYPE
  2
CENTER
 70
     0
  3
____ _ ____ _ ____ _ ____ _ ____ _ ____ _ ____
 72
    65
 73
     4
 40
2.0
 49
1.25
 49
-0.25
 49
0.25
 49
-0.25
  0
LTYPE
  2
PHANTOM2
 70
     0
  3
___ _ _ ___ _ _ ___ _ _ ___ _ _
 72
    65
 73
     6
 40
1.25
 49
0.625
 49
-0.125
 49
0.125
 49
-0.125
 49
0.125
 49
-0.125
  0
ENDTAB
  0
TABLE
  2
LAYER
 70
     3
  0
LAYER
  2
0
 70
     0
 62
     7
  6
CONTINUOUS
  0
LAYER
  2
1
 70
     0
 62
     1
  6
CENTER
  0
LAYER
  2
DEFPOINTS
 70
     0
 62
     7
  6
CONTINUOUS
  0
ENDTAB
  0
TABLE
  2
STYLE
 70
     2
  0
STYLE
  2
STANDARD
 70
     0
 40
0.0
 41
1.0
 50
0.0
 71
     0
 42
6.0
  3
TXT
  4
BIGFONT
  0
STYLE
  2
STANDARD1
 70
     0
 40
0.0
 41
1.0
 50
0.0
 71
     0
 42
3.0
  3
txt
  4

  0
ENDTAB
  0
TABLE
  2
VIEW
 70
     1
  0
VIEW
  2
ALL
 70
     0
 40
270.0
 10
213.25689075630251
 20
135.0
 41
0.0
 11
0.0
 21
0.0
 31
1.0
 12
0.0
 22
0.0
 32
0.0
 42
0.0
 43
0.0
 44
0.0
 50
0.0
 71
     0
  0
ENDTAB
  0
TABLE
  2
UCS
 70
     0
  0
ENDTAB
  0
TABLE
  2
APPID
 70
     6
  0
APPID
  2
ACAD
 70
     0
  0
APPID
  2
ACAD_EXEMPT_FROM_CAD_STANDARDS
 70
     0
  0
APPID
  2
ACAD_MLEADERVER
 70
     0
  0
APPID
  2
ACAD_DSTYLE_DIMJAG
 70
     0
  0
APPID
  2
ACAD_DSTYLE_DIMTALN
 70
     0
  0
APPID
  2
ACAD_NAV_VCDISPLAY
 70
     0
  0
ENDTAB
  0
TABLE
  2
DIMSTYLE
 70
     1
  0
DIMSTYLE
  2
STANDARD
 70
     0
  3

  4

  5

  6

  7

 40
1.0
 41
0.18
 42
0.0625
 43
0.38
 44
0.18
 45
0.0
 46
0.0
 47
0.0
 48
0.0
140
0.18
141
0.09
142
0.0
143
25.399999999999999
144
1.0
145
0.0
146
1.0
147
0.09
 71
     0
 72
     0
 73
     1
 74
     1
 75
     0
 76
     0
 77
     0
 78
     0
170
     0
171
     2
172
     0
173
     0
174
     0
175
     0
176
     0
177
     0
178
     0
  0
ENDTAB
  0
ENDSEC
  0
SECTION
  2
BLOCKS
  0
BLOCK
  8
0
  2
$MODEL_SPACE
 70
     0
 10
0.0
 20
0.0
 30
0.0
  3
$MODEL_SPACE
  1

  0
ENDBLK
  5
126
  8
0
  0
BLOCK
 67
     1
  8
0
  2
$PAPER_SPACE
 70
     0
 10
0.0
 20
0.0
 30
0.0
  3
$PAPER_SPACE
  1

  0
ENDBLK
  5
124
 67
     1
  8
0
  0
ENDSEC
  0
SECTION
  2
ENTITIES
  0
LINE
  5
A127
  8
0
 10
389.49596621883347
 20
343.55847076364353
 30
0.0
 11
389.49596621883347
 21
341.15082094643668
 31
0.0
  0
LINE
  5
A128
  8
0
 10
399.4959678579612
 20
343.55847076364353
 30
0.0
 11
399.4959678579612
 21
341.15081998893089
 31
0.0
  0
LINE
  5
A129
  8
0
 10
390.24596773875192
 20
343.41077417918041
 30
0.0
 11
392.495968573217
 21
343.41077417918041
 31
0.0
  0
LINE
  5
A12A
  8
0
 10
392.495968573217
 20
343.56847316809478
 30
0.0
 11
392.495968573217
 21
343.41077417918041
 31
0.0
  0
LINE
  5
A12B
  8
0
 10
396.49596922886798
 20
343.56847316809478
 30
0.0
 11
396.49596922886798
 21
343.41077417918041
 31
0.0
  0
LINE
  5
A12C
  8
0
 10
396.49596922886798
 20
343.41077417918041
 30
0.0
 11
398.74596633804282
 21
343.41077417918041
 31
0.0
  0
LINE
  5
A1A6
  8
0
 10
389.24596943748429
 20
341.35787100382629
 30
0.0
 11
389.24596943748429
 21
343.75847414918729
 31
0.0
  0
LINE
  5
A1A7
  8
0
 10
389.74596672547301
 20
341.11485541649648
 30
0.0
 11
399.24596735132172
 21
341.11485541649648
 31
0.0
  0
LINE
  5
A1A8
  8
0
 10
399.74596836460069
 20
341.35787100382629
 30
0.0
 11
399.74596836460069
 21
343.75847414918729
 31
0.0
  0
LINE
  5
A1E2
  8
0
 10
390.24596773875192
 20
544.22052166041658
 30
0.0
 11
392.495968573217
 21
544.22052166041658
 31
0.0
  0
LINE
  5
A1E3
  8
0
 10
392.495968573217
 20
555.41280245956705
 30
0.0
 11
392.495968573217
 21
544.22052166041658
 31
0.0
  0
LINE
  5
A1E4
  8
0
 10
392.495968573217
 20
555.41280245956705
 30
0.0
 11
396.49596922886798
 21
555.41280245956705
 31
0.0
  0
LINE
  5
A1E5
  8
0
 10
396.49596922886798
 20
555.41280245956705
 30
0.0
 11
396.49596922886798
 21
544.22052166041658
 31
0.0
  0
LINE
  5
A1E6
  8
0
 10
396.49596922886798
 20
544.22052166041658
 30
0.0
 11
398.74596633804282
 21
544.22052166041658
 31
0.0
  0
LINE
  5
A1E7
  8
0
 10
389.49596621883347
 20
537.0664127039604
 30
0.0
 11
399.4959678579612
 21
537.0664127039604
 31
0.0
  0
LINE
  5
A1E8
  8
0
 10
389.49596621883347
 20
556.36387466069982
 30
0.0
 11
389.49596621883347
 21
537.0664127039604
 31
0.0
  0
LINE
  5
A1E9
  8
0
 10
389.49596621883347
 20
556.36387466069982
 30
0.0
 11
399.4959678579612
 21
556.36387466069982
 31
0.0
  0
LINE
  5
A1EA
  8
0
 10
399.4959678579612
 20
556.36387466069982
 30
0.0
 11
399.4959678579612
 21
537.0664127039604
 31
0.0
  0
LINE
  5
A1EB
  8
0
 10
396.49596922886798
 20
544.2217810413681
 30
0.0
 11
398.74596633804282
 21
544.2217810413681
 31
0.0
  0
LINE
  5
A1EC
  8
0
 10
390.24596773875192
 20
544.2217810413681
 30
0.0
 11
392.495968573217
 21
544.2217810413681
 31
0.0
  0
LINE
  5
A29C
  8
0
 10
389.24596943748429
 20
343.45847279616191
 30
0.0
 11
389.49596621883347
 21
343.45847279616191
 31
0.0
  0
LINE
  5
A29D
  8
0
 10
389.49596621883347
 20
343.55847076364353
 30
0.0
 11
392.495968573217
 21
343.55847076364353
 31
0.0
  0
LINE
  5
A29E
  8
0
 10
399.4959678579612
 20
343.45847279616191
 30
0.0
 11
399.74596836460069
 21
343.45847279616191
 31
0.0
  0
LINE
  5
A29F
  8
0
 10
396.49596922886798
 20
343.55847076364353
 30
0.0
 11
399.4959678579612
 21
343.55847076364353
 31
0.0
  0
LINE
  5
A2A0
  8
0
 10
396.49596922886798
 20
343.56847316809478
 30
0.0
 11
392.495968573217
 21
343.56847316809478
 31
0.0
  0
POLYLINE
  5
A33D
  8
0
 66
     1
 10
0.0
 20
0.0
 30
0.0
 70
     2
  0
VERTEX
  5
A33E
  8
0
 10
389.24596761954263
 20
341.35787130590518
 30
0.0
 42
0.0706708197567096
  0
VERTEX
  5
A33F
  8
0
 10
389.27904682243212
 20
341.2763515555564
 30
0.0
 42
0.1082010224203544
 70
     1
  0
VERTEX
  5
A340
  8
0
 10
389.31814247345659
 20
341.2337191854362
 30
0.0
 42
0.0235774632857346
  0
VERTEX
  5
A341
  8
0
 10
389.38567745583168
 20
341.19081762102269
 30
0.0
 42
0.0425189110177925
 70
     1
  0
VERTEX
  5
A342
  8
0
 10
389.4259849459163
 20
341.17214590251291
 30
0.0
 42
0.0234074040307269
  0
VERTEX
  5
A343
  8
0
 10
389.48689406773201
 20
341.15317027032893
 30
0.0
 42
0.012007883688412
 70
     1
  0
VERTEX
  5
A344
  8
0
 10
389.60789742279582
 20
341.12468630563632
 30
0.0
 42
0.0340361366129953
  0
VERTEX
  5
A345
  8
0
 10
389.65793853789268
 20
341.11767888261318
 30
0.0
 42
0.0195119909766773
 70
     1
  0
VERTEX
  5
A346
  8
0
 10
389.74596672547301
 20
341.11485541649648
 30
0.0
  0
SEQEND
  5
A347
  8
0
  0
POLYLINE
  5
A348
  8
0
 66
     1
 10
0.0
 20
0.0
 30
0.0
 70
     2
  0
VERTEX
  5
A349
  8
0
 10
399.74597018254241
 20
341.35787130590518
 30
0.0
 42
-0.0706708197567096
  0
VERTEX
  5
A34A
  8
0
 10
399.71289097965342
 20
341.2763515555564
 30
0.0
 42
-0.1082010224203544
 70
     1
  0
VERTEX
  5
A34B
  8
0
 10
399.67379532862827
 20
341.2337191854362
 30
0.0
 42
-0.0235774632857346
  0
VERTEX
  5
A34C
  8
0
 10
399.60626034625329
 20
341.19081762102269
 30
0.0
 42
-0.0425189110177925
 70
     1
  0
VERTEX
  5
A34D
  8
0
 10
399.56595285616919
 20
341.17214590251291
 30
0.0
 42
-0.0234074040307269
  0
VERTEX
  5
A34E
  8
0
 10
399.50504373435342
 20
341.15317027032893
 30
0.0
 42
-0.012007883688412
 70
     1
  0
VERTEX
  5
A34F
  8
0
 10
399.38404037928922
 20
341.12468630563632
 30
0.0
 42
-0.0340361366129953
  0
VERTEX
  5
A350
  8
0
 10
399.3339992641923
 20
341.11767888261318
 30
0.0
 42
-0.0195119909766773
 70
     1
  0
VERTEX
  5
A351
  8
0
 10
399.24597107661202
 20
341.11485541649648
 30
0.0
  0
SEQEND
  5
A352
  8
0
  0
POLYLINE
  5
A353
  8
0
 66
     1
 10
0.0
 20
0.0
 30
0.0
 70
     2
  0
VERTEX
  5
A354
  8
0
 10
390.24596773875192
 20
343.41077417918041
 30
0.0
 42
-0.0019776149924825
  0
VERTEX
  5
A355
  8
0
 10
390.5350731096874
 20
343.33735493488138
 30
0.0
 42
-0.0054368234243812
 70
     1
  0
VERTEX
  5
A356
  8
0
 10
390.63982874284511
 20
343.30909195152628
 30
0.0
 42
-0.0007984471447845
  0
VERTEX
  5
A357
  8
0
 10
391.33261349435588
 20
343.1128792288543
 30
0.0
 42
-0.0036928654681872
 70
     1
  0
VERTEX
  5
A358
  8
0
 10
391.48201769681327
 20
343.06911106510182
 30
0.0
 42
-0.0133769634004239
  0
VERTEX
  5
A359
  8
0
 10
391.81034289148329
 20
342.96062970293929
 30
0.0
 42
-0.0106507234950174
 70
     1
  0
VERTEX
  5
A35A
  8
0
 10
392.21566148726828
 20
342.80474033736817
 30
0.0
 42
-0.0147427793047595
  0
VERTEX
  5
A35B
  8
0
 10
392.6736848039705
 20
342.60132336943678
 30
0.0
 42
-0.0149457969031261
 70
     1
  0
VERTEX
  5
A35C
  8
0
 10
393.11278668939673
 20
342.3742127557897
 30
0.0
 42
-0.0035680642757838
  0
VERTEX
  5
A35D
  8
0
 10
393.2188352656662
 20
342.31428629291958
 30
0.0
 42
-0.0005678123574169
 70
     1
  0
VERTEX
  5
A35E
  8
0
 10
393.882085830086
 20
341.93222107788182
 30
0.0
 42
-0.0062245278031963
  0
VERTEX
  5
A35F
  8
0
 10
394.08511976682661
 20
341.81156090696072
 30
0.0
 42
-0.0030415515624725
 70
     1
  0
VERTEX
  5
A360
  8
0
 10
394.49596890104249
 20
341.55698031969848
 30
0.0
  0
SEQEND
  5
A361
  8
0
  0
POLYLINE
  5
A362
  8
0
 66
     1
 10
0.0
 20
0.0
 30
0.0
 70
     2
  0
VERTEX
  5
A363
  8
0
 10
398.74596633804282
 20
343.41077417918041
 30
0.0
 42
0.0019776149924825
  0
VERTEX
  5
A364
  8
0
 10
398.45686096710779
 20
343.33735493488138
 30
0.0
 42
0.0054368234243812
 70
     1
  0
VERTEX
  5
A365
  8
0
 10
398.35210533395002
 20
343.30909195152628
 30
0.0
 42
0.0007984471447845
  0
VERTEX
  5
A366
  8
0
 10
397.65932058243919
 20
343.1128792288543
 30
0.0
 42
0.0036928654681872
 70
     1
  0
VERTEX
  5
A367
  8
0
 10
397.50991637998192
 20
343.06911106510182
 30
0.0
 42
0.0133769634004239
  0
VERTEX
  5
A368
  8
0
 10
397.1815911853119
 20
342.96062970293929
 30
0.0
 42
0.0106507234950174
 70
     1
  0
VERTEX
  5
A369
  8
0
 10
396.7762725895268
 20
342.80474033736817
 30
0.0
 42
0.0147427793047595
  0
VERTEX
  5
A36A
  8
0
 10
396.31824927282469
 20
342.60132336943678
 30
0.0
 42
0.0149457969031261
 70
     1
  0
VERTEX
  5
A36B
  8
0
 10
395.87914738739801
 20
342.3742127557897
 30
0.0
 42
0.0035680642757838
  0
VERTEX
  5
A36C
  8
0
 10
395.77309881112888
 20
342.31428629291958
 30
0.0
 42
0.0005678123574169
 70
     1
  0
VERTEX
  5
A36D
  8
0
 10
395.10984824670919
 20
341.93222107788182
 30
0.0
 42
0.0062245278031963
  0
VERTEX
  5
A36E
  8
0
 10
394.90681430996852
 20
341.81156090696072
 30
0.0
 42
0.0030415515624725
 70
     1
  0
VERTEX
  5
A36F
  8
0
 10
394.49596517575259
 20
341.55698031969848
 30
0.0
  0
SEQEND
  5
A370
  8
0
  0
LINE
  5
A396
  8
0
 10
390.24596773875192
 20
544.22052166041658
 30
0.0
 11
394.49596890104249
 21
538.01748490509317
 31
0.0
  0
LINE
  5
A397
  8
0
 10
394.49596890104249
 20
538.01748490509317
 30
0.0
 11
398.74596633804282
 21
544.22052166041658
 31
0.0
  0
LINE
  5
A9ED
  8
0
 10
405.14596664202639
 20
300.75847245604291
 30
0.0
 11
405.14596664202639
 21
305.75847257711479
 31
0.0
  0
CIRCLE
  5
A9F2
  8
0
 10
395.45675782288117
 20
317.34117623429682
 30
0.0
 40
2.6208599999999929
  0
CIRCLE
  5
A9F3
  8
0
 10
395.45675782288117
 20
317.34117623429682
 30
0.0
 40
0.9214391999907434
  0
LINE
  5
A9F4
  8
0
 10
389.80069869053801
 20
317.34047555216142
 30
0.0
 11
390.72213806999162
 21
317.34117590673748
 31
0.0
  0
LINE
  5
A9F5
  8
0
 10
388.26692589414552
 20
314.76155579872909
 30
0.0
 11
389.802658193235
 21
314.76272367723772
 31
0.0
  0
LINE
  5
A9F6
  8
0
 10
390.72409757268861
 20
314.76342403181383
 30
0.0
 11
392.25982987177798
 21
314.76459004767719
 31
0.0
  0
LINE
  5
A9F7
  8
0
 10
389.802658193235
 20
314.76272367723772
 30
0.0
 11
389.80174549711182
 21
315.9656739313204
 31
0.0
  0
LINE
  5
A9F8
  8
0
 10
390.72213806999162
 20
317.34117590673748
 30
0.0
 11
390.72161652934977
 21
318.02857764848062
 31
0.0
  0
LINE
  5
A9F9
  8
0
 10
389.80174549711182
 20
315.9656739313204
 30
0.0
 11
390.72318487656548
 21
315.96637428589651
 31
0.0
  0
LINE
  5
A9FA
  8
0
 10
389.80017714989617
 20
318.02787729390451
 30
0.0
 11
389.80069869053801
 21
317.34047555216142
 31
0.0
  0
LINE
  5
A9FB
  8
0
 10
390.72318487656548
 20
315.96637428589651
 30
0.0
 11
390.72409757268861
 21
314.76342403181383
 31
0.0
  0
ARC
  5
A9FC
  8
0
 10
390.26089750924439
 20
318.0282274771501
 30
0.0
 40
0.4607195999956523
 50
0.0434716596511961
 51
180.0435788857952
  0
LINE
  5
A9FD
  8
0
 10
388.2644448508068
 20
318.02671127804109
 30
0.0
 11
388.26692589414552
 21
314.76155579872909
 31
0.0
  0
LINE
  5
A9FE
  8
0
 10
392.25982987177798
 20
314.76459004767719
 30
0.0
 11
392.25734882843932
 21
318.02974366434398
 31
0.0
  0
ARC
  5
A9FF
  8
0
 10
390.26089750924439
 20
318.0282274771501
 30
0.0
 40
1.996451599980078
 50
0.0435129004762914
 51
180.04353764497
  0
ARC
  5
AA00
  8
0
 10
375.05926997032071
 20
321.93703598284509
 30
0.0
 40
2.6220678085748639
 50
232.50323145985661
 51
260.7510319717482
  0
LINE
  5
AA01
  8
0
 10
370.68995014620259
 20
317.85133019872501
 30
0.0
 11
370.69021836710408
 21
317.49780946262672
 31
0.0
  0
LINE
  5
AA02
  8
0
 10
370.11102885795071
 20
317.49736987837139
 30
0.0
 11
370.11076063704922
 21
317.85088875182458
 31
0.0
  0
ARC
  5
AA03
  8
0
 10
371.36046649517039
 20
317.34594631363689
 30
0.0
 40
2.7565706992491288
 50
280.2456768014398
 51
3.2122154860513632
  0
LINE
  5
AA04
  8
0
 10
374.11243767333463
 20
317.85392858870807
 30
0.0
 11
374.11270589423611
 21
317.50040971525499
 31
0.0
  0
ARC
  5
AA05
  8
0
 10
374.84790048123432
 20
317.22326719684781
 30
0.0
 40
2.6220678085748479
 50
279.33601857369149
 51
307.58381908558272
  0
LINE
  5
AA06
  8
0
 10
371.85077668023541
 20
314.63333130665609
 30
0.0
 11
371.85127028120002
 21
313.98120527007171
 31
0.0
  0
LINE
  5
AA07
  8
0
 10
374.64141958249053
 20
314.63545099683591
 30
0.0
 11
374.6406465847536
 21
315.65256141908952
 31
0.0
  0
ARC
  5
AA08
  8
0
 10
375.04711369515371
 20
317.21364835086428
 30
0.0
 40
2.6099208569967192
 50
239.7290583165375
 51
261.05750239331451
  0
LINE
  5
AA09
  8
0
 10
374.63897392940947
 20
317.85432905741521
 30
0.0
 11
374.11243767333463
 21
317.85392858870807
 31
0.0
  0
ARC
  5
AA0A
  8
0
 10
375.08551826152052
 20
321.87889813252639
 30
0.0
 40
3.2132366393076781
 50
230.0711552631621
 51
262.00021456259162
  0
ARC
  5
AA0B
  8
0
 10
371.41231081071737
 20
317.1532820884193
 30
0.0
 40
3.2023049263789409
 50
277.87870404672219
 51
304.93670186527697
  0
ARC
  5
AA0C
  8
0
 10
374.85105930114418
 20
313.06506202210551
 30
0.0
 40
2.6220678085748772
 50
52.503231459856671
 51
80.751031971748205
  0
ARC
  5
AA0D
  8
0
 10
371.17135984332532
 20
317.39936388072761
 30
0.0
 40
3.5103562100482968
 50
341.49648327665352
 51
351.1295979818168
  0
ARC
  5
AA0E
  8
0
 10
375.00438657200579
 20
313.16055374074318
 30
0.0
 40
3.1651607403416699
 50
96.608030022915955
 51
99.165005866589581
  0
LINE
  5
AA0F
  8
0
 10
375.2689093430086
 20
320.36664620824638
 30
0.0
 11
375.26968234074548
 21
319.34953764863798
 31
0.0
  0
LINE
  5
AA10
  8
0
 10
375.27249120963052
 20
315.65304011889287
 30
0.0
 11
375.2732623447223
 21
314.63593155928442
 31
0.0
  0
ARC
  5
AA11
  8
0
 10
375.06242879023063
 20
317.7788308081029
 30
0.0
 40
2.622067808574843
 50
99.336018573691433
 51
127.5838190855866
  0
LINE
  5
AA12
  8
0
 10
374.63783957851371
 20
319.34905708618948
 30
0.0
 11
374.63706658077672
 21
320.36616564579788
 31
0.0
  0
ARC
  5
AA13
  8
0
 10
371.24596761954263
 20
317.25847236104801
 30
0.0
 40
3.3856527388923849
 50
317.23381982692212
 51
329.34626416763388
  0
ARC
  5
AA14
  8
0
 10
371.53267716575692
 20
317.4984495990135
 30
0.0
 40
0.8424586971344947
 50
180.0435607421945
 51
0.0434451930188062
  0
LINE
  5
AA15
  8
0
 10
375.27081855428651
 20
317.85480961986372
 30
0.0
 11
377.51550898743108
 21
317.85651394017532
 31
0.0
  0
LINE
  5
AA16
  8
0
 10
370.11076063704922
 20
317.85088875182458
 30
0.0
 11
370.68995014620259
 21
317.85133019872501
 31
0.0
  0
ARC
  5
AA17
  8
0
 10
374.81815981519321
 20
321.87869503115252
 30
0.0
 40
3.2132366393076368
 50
278.08683598285688
 51
310.01589528229601
  0
LINE
  5
AA18
  8
0
 10
371.21843472910359
 20
315.28733209558322
 30
0.0
 11
371.21793367755851
 21
315.94714433737579
 31
0.0
  0
ARC
  5
AA19
  8
0
 10
371.67062761544281
 20
317.38098543202619
 30
0.0
 40
2.1419296238024019
 50
176.89703507055651
 51
257.81231478316357
  0
LINE
  5
AA1A
  8
0
 10
371.21942751896808
 20
313.98072563894578
 30
0.0
 11
371.21893205535838
 21
314.63285074420759
 31
0.0
  0
ARC
  5
AA1B
  8
0
 10
371.44966921202331
 20
317.46936108341782
 30
0.0
 40
3.4962251487327212
 50
59.16608930843487
 51
266.22408712698359
  0
ARC
  5
AA1C
  8
0
 10
375.1588231341093
 20
317.50120371358088
 30
0.0
 40
3.5352051428218001
 50
237.2463569769069
 51
122.8406935685417
  0
ARC
  5
AA1D
  8
0
 10
374.84747856612381
 20
317.77866751913098
 30
0.0
 40
2.6220678085748679
 50
52.503231459856671
 51
80.751031971748205
  0
LINE
  5
AA1E
  8
0
 10
375.27135499608949
 20
317.14776814766708
 30
0.0
 11
375.27199574602082
 21
316.30516708679983
 31
0.0
  0
LINE
  5
AA1F
  8
0
 10
377.5160472918792
 20
317.14947433062378
 30
0.0
 11
375.27135499608949
 21
317.14776814766708
 31
0.0
  0
LINE
  5
AA20
  8
0
 10
374.6383331794782
 20
318.69693011828252
 30
0.0
 11
374.63897392940947
 21
317.85432905741521
 31
0.0
  0
ARC
  5
AA21
  8
0
 10
375.22349441818909
 20
317.60310169736448
 30
0.0
 40
2.8502572874417771
 50
140.53217560829731
 51
182.0913362175398
  0
ARC
  5
AA22
  8
0
 10
374.68782115267049
 20
317.6214940598328
 30
0.0
 40
2.8374386746214819
 50
4.7511618222695207
 51
39.276848098747458
  0
ARC
  5
AA23
  8
0
 10
374.68800445557832
 20
317.38019790435209
 30
0.0
 40
2.837438674621477
 50
320.81020244669929
 51
355.33588872317841
  0
LINE
  5
AA24
  8
0
 10
369.53156926525071
 20
317.85044916756942
 30
0.0
 11
369.5318374861522
 21
317.49692843147108
 31
0.0
  0
LINE
  5
AA25
  8
0
 10
368.95264797699878
 20
317.49648884721591
 30
0.0
 11
368.9523797560974
 21
317.85000958331409
 31
0.0
  0
ARC
  5
AA26
  8
0
 10
371.70511933857779
 20
317.34620813243089
 30
0.0
 40
2.7565706992490822
 50
176.8748350594031
 51
259.84137374400672
  0
LINE
  5
AA27
  8
0
 10
375.27017780435523
 20
318.69741068073102
 30
0.0
 11
375.27081855428651
 21
317.85480961986372
 31
0.0
  0
ARC
  5
AA28
  8
0
 10
371.63613567691942
 20
317.41604626602248
 30
0.0
 40
1.52727379003863
 50
176.9477245724284
 51
254.10813616549351
  0
ARC
  5
AA29
  8
0
 10
374.8443197462139
 20
321.9368726938734
 30
0.0
 40
2.622067808574839
 50
279.33601857369149
 51
307.58381908558272
  0
ARC
  5
AA2A
  8
0
 10
374.82481100994391
 20
313.12319987242438
 30
0.0
 40
3.2132366393075809
 50
50.071155263162012
 51
82.000214562591594
  0
LINE
  5
AA2B
  8
0
 10
368.9523797560974
 20
317.85000958331409
 30
0.0
 11
369.53156926525071
 21
317.85044916756942
 31
0.0
  0
LINE
  5
AA2C
  8
0
 10
374.6401511211439
 20
316.30468652435133
 30
0.0
 11
374.63973016334012
 21
316.85806722231689
 31
0.0
  0
ARC
  5
AA2D
  8
0
 10
375.0248118398145
 20
313.0858620382748
 30
0.0
 40
2.5952892922834598
 50
98.51243141081909
 51
109.4991308438221
  0
LINE
  5
AA2E
  8
0
 10
371.84977643979028
 20
315.94762489982429
 30
0.0
 11
371.85027935398062
 21
315.28781265803173
 31
0.0
  0
ARC
  5
AA2F
  8
0
 10
371.42934397087362
 20
317.4158891747461
 30
0.0
 40
1.5272737900386031
 50
285.97891437995821
 51
3.1393259730211271
  0
LINE
  5
AA30
  8
0
 10
373.53324816418132
 20
317.85348900445291
 30
0.0
 11
372.9540567923828
 21
317.85304942019769
 31
0.0
  0
LINE
  5
AA31
  8
0
 10
373.53351638508281
 20
317.49996826835462
 30
0.0
 11
373.53324816418132
 21
317.85348900445291
 31
0.0
  0
ARC
  5
AA32
  8
0
 10
371.39490534071768
 20
317.38077597699112
 30
0.0
 40
2.1419296238024419
 50
282.27473576227737
 51
3.1900154748808012
  0
LINE
  5
AA33
  8
0
 10
372.9540567923828
 20
317.85304942019769
 30
0.0
 11
372.95432501328418
 21
317.4995286840994
 31
0.0
  0
LINE
  5
AA34
  8
0
 10
380.5882699866338
 20
314.75572385676691
 30
0.0
 11
380.58409207356408
 21
320.25493034013101
 31
0.0
  0
LINE
  5
AA35
  8
0
 10
379.0483597744747
 20
320.25376246162239
 30
0.0
 11
379.05253768754437
 21
314.75455597825828
 31
0.0
  0
LINE
  5
AA36
  8
0
 10
379.05253768754437
 20
314.75455597825828
 30
0.0
 11
380.5882699866338
 21
314.75572385676691
 31
0.0
  0
LINE
  5
AA37
  8
0
 10
380.58409207356408
 20
320.25493034013101
 30
0.0
 11
379.0483597744747
 21
320.25376246162239
 31
0.0
  0
LINE
  5
AA38
  8
0
 10
383.65973272216752
 20
314.75805588849369
 30
0.0
 11
385.19546502125701
 21
314.75922376700231
 31
0.0
  0
LINE
  5
AA39
  8
0
 10
385.19546502125701
 20
314.75922376700231
 30
0.0
 11
385.19298397791817
 21
318.0243773836691
 31
0.0
  0
LINE
  5
AA3A
  8
0
 10
382.73829334271392
 20
314.75735739656278
 30
0.0
 11
382.73581229937508
 21
318.02251101322958
 31
0.0
  0
LINE
  5
AA3B
  8
0
 10
381.20256104362443
 20
314.75618951805421
 30
0.0
 11
382.73829334271392
 21
314.75735739656278
 31
0.0
  0
ARC
  5
AA3C
  8
0
 10
383.19653234800302
 20
318.02286053419851
 30
0.0
 40
0.4607195999954313
 50
0.0435252727199126
 51
180.04352527272641
  0
ARC
  5
AA3D
  8
0
 10
385.60793909114551
 20
318.11833442491718
 30
0.0
 40
2.0442900632568528
 50
357.41808065414182
 51
125.3979530990003
  0
LINE
  5
AA3E
  8
0
 10
383.6572516788288
 20
318.02321136780569
 30
0.0
 11
383.65973272216752
 21
314.75805588849369
 31
0.0
  0
ARC
  5
AA3F
  8
0
 10
385.65370283898352
 20
318.02472714701418
 30
0.0
 40
0.4607195999954313
 50
0.0435252727264264
 51
180.04352527272641
  0
LINE
  5
AA40
  8
0
 10
386.11690440071061
 20
314.75992412157842
 30
0.0
 11
387.6526329745098
 21
314.76109013744178
 31
0.0
  0
LINE
  5
AA41
  8
0
 10
386.11442335737178
 20
318.02507773824522
 30
0.0
 11
386.11690440071061
 21
314.75992412157842
 31
0.0
  0
ARC
  5
AA42
  8
0
 10
383.24215382379538
 20
318.11653723375139
 30
0.0
 40
2.0442900632568919
 50
54.68909744645017
 51
182.668969891307
  0
LINE
  5
AA43
  8
0
 10
387.6526329745098
 20
314.76109013744178
 30
0.0
 11
387.65015565646132
 21
318.02624375410858
 31
0.0
  0
LINE
  5
AA44
  8
0
 10
381.20008000028571
 20
318.02134313472101
 30
0.0
 11
381.20256104362443
 21
314.75618951805421
 31
0.0
  0
ARC
  5
AA45
  8
0
 10
370.74596761954263
 20
317.25847236104801
 30
0.0
 40
5.0000000000000142
 50
90.0
 51
270.0
  0
LINE
  5
AA46
  8
0
 10
395.74596770894959
 20
312.25847271122518
 30
0.0
 11
370.74596733642062
 21
312.25847271122518
 31
0.0
  0
LINE
  5
AA47
  8
0
 10
370.74596733642062
 20
322.25847155638519
 30
0.0
 11
395.74596770894959
 21
322.25847155638519
 31
0.0
  0
ARC
  5
AA48
  8
0
 10
395.74596761954263
 20
317.25847236104801
 30
0.0
 40
5.0000000000000284
 50
270.0
 51
90.0
  0
LINE
  5
AA49
  8
0
 10
369.74596717250779
 20
299.25847238479668
 30
0.0
 11
369.24596802187398
 21
298.75847236104789
 31
0.0
  0
ARC
  5
AA4A
  8
0
 10
368.74596761954263
 20
309.75847236104789
 30
0.0
 40
1.0
 50
0.0
 51
90.0
  0
LINE
  5
AA4B
  8
0
 10
350.74596766704008
 20
310.75847246535608
 30
0.0
 11
374.33175405716929
 21
310.75847236104801
 31
0.0
  0
ARC
  5
AA4C
  8
0
 10
350.74596761954263
 20
309.75847236104789
 30
0.0
 40
1.0
 50
90.0
 51
180.0
  0
LINE
  5
AA4D
  8
0
 10
349.74596761954263
 20
299.25847238479668
 30
0.0
 11
350.24596764329141
 21
298.75847236104789
 31
0.0
  0
LINE
  5
AA4E
  8
0
 10
349.74596761954263
 20
299.25847238479668
 30
0.0
 11
349.74596761954263
 21
309.75847230144331
 31
0.0
  0
LINE
  5
AA4F
  8
0
 10
369.74596717250779
 20
309.75847230144331
 30
0.0
 11
369.74596717250779
 21
299.25847238479668
 31
0.0
  0
POLYLINE
  5
AA50
  8
0
 10
375.44121615437473
 20
310.37859083959228
 30
0.0
 66
     1
 70
     8
  0
VERTEX
  8
0
  5
BC78
 10
375.441
 20
310.379
 30
0.000000
  70
    32
  0
VERTEX
  8
0
  5
BC79
 10
375.435
 20
310.384
 30
0.000000
  70
    32
  0
VERTEX
  8
0
  5
BC7A
 10
375.429
 20
310.390
 30
0.000000
  70
    32
  0
VERTEX
  8
0
  5
BC7B
 10
375.422
 20
310.395
 30
0.000000
  70
    32
  0
VERTEX
  8
0
  5
BC7C
 10
375.416
 20
310.400
 30
0.000000
  70
    32
  0
VERTEX
  8
0
  5
BC7D
 10
375.410
 20
310.406
 30
0.000000
  70
    32
  0
VERTEX
  8
0
  5
BC7E
 10
375.403
 20
310.411
 30
0.000000
  70
    32
  0
VERTEX
  8
0
  5
BC7F
 10
375.397
 20
310.417
 30
0.000000
  70
    32
  0
VERTEX
  8
0
  5
BC80
 10
375.390
 20
310.422
 30
0.000000
  70
    32
  0
VERTEX
  8
0
  5
BC81
 10
375.383
 20
310.427
 30
0.000000
  70
    32
  0
VERTEX
  8
0
  5
BC82
 10
375.377
 20
310.432
 30
0.000000
  70
    32
  0
VERTEX
  8
0
  5
BC83
 10
375.370
 20
310.437
 30
0.000000
  70
    32
  0
VERTEX
  8
0
  5
BC84
 10
375.363
 20
310.443
 30
0.000000
  70
    32
  0
VERTEX
  8
0
  5
BC85
 10
375.356
 20
310.448
 30
0.000000
  70
    32
  0
VERTEX
  8
0
  5
BC86
 10
375.349
 20
310.453
 30
0.000000
  70
    32
  0
VERTEX
  8
0
  5
BC87
 10
375.343
 20
310.458
 30
0.000000
  70
    32
  0
VERTEX
  8
0
  5
BC88
 10
375.336
 20
310.463
 30
0.000000
  70
    32
  0
VERTEX
  8
0
  5
BC89
 10
375.328
 20
310.468
 30
0.000000
  70
    32
  0
VERTEX
  8
0
  5
BC8A
 10
375.321
 20
310.473
 30
0.000000
  70
    32
  0
VERTEX
  8
0
  5
BC8B
 10
375.314
 20
310.478
 30
0.000000
  70
    32
  0
VERTEX
  8
0
  5
BC8C
 10
375.307
 20
310.483
 30
0.000000
  70
    32
  0
VERTEX
  8
0
  5
BC8D
 10
375.300
 20
310.487
 30
0.000000
  70
    32
  0
VERTEX
  8
0
  5
BC8E
 10
375.293
 20
310.492
 30
0.000000
  70
    32
  0
VERTEX
  8
0
  5
BC8F
 10
375.285
 20
310.497
 30
0.000000
  70
    32
  0
VERTEX
  8
0
  5
BC90
 10
375.278
 20
310.502
 30
0.000000
  70
    32
  0
VERTEX
  8
0
  5
BC91
 10
375.270
 20
310.506
 30
0.000000
  70
    32
  0
VERTEX
  8
0
  5
BC92
 10
375.263
 20
310.511
 30
0.000000
  70
    32
  0
VERTEX
  8
0
  5
BC93
 10
375.255
 20
310.516
 30
0.000000
  70
    32
  0
VERTEX
  8
0
  5
BC94
 10
375.248
 20
310.520
 30
0.000000
  70
    32
  0
VERTEX
  8
0
  5
BC95
 10
375.240
 20
310.525
 30
0.000000
  70
    32
  0
VERTEX
  8
0
  5
BC96
 10
375.233
 20
310.529
 30
0.000000
  70
    32
  0
VERTEX
  8
0
  5
BC97
 10
375.225
 20
310.534
 30
0.000000
  70
    32
  0
VERTEX
  8
0
  5
BC98
 10
375.217
 20
310.538
 30
0.000000
  70
    32
  0
VERTEX
  8
0
  5
BC99
 10
375.209
 20
310.543
 30
0.000000
  70
    32
  0
VERTEX
  8
0
  5
BC9A
 10
375.201
 20
310.547
 30
0.000000
  70
    32
  0
VERTEX
  8
0
  5
BC9B
 10
375.194
 20
310.551
 30
0.000000
  70
    32
  0
VERTEX
  8
0
  5
BC9C
 10
375.186
 20
310.556
 30
0.000000
  70
    32
  0
VERTEX
  8
0
  5
BC9D
 10
375.178
 20
310.560
 30
0.000000
  70
    32
  0
VERTEX
  8
0
  5
BC9E
 10
375.170
 20
310.564
 30
0.000000
  70
    32
  0
VERTEX
  8
0
  5
BC9F
 10
375.162
 20
310.568
 30
0.000000
  70
    32
  0
VERTEX
  8
0
  5
BCA0
 10
375.154
 20
310.572
 30
0.000000
  70
    32
  0
VERTEX
  8
0
  5
BCA1
 10
375.145
 20
310.576
 30
0.000000
  70
    32
  0
VERTEX
  8
0
  5
BCA2
 10
375.137
 20
310.580
 30
0.000000
  70
    32
  0
VERTEX
  8
0
  5
BCA3
 10
375.129
 20
310.584
 30
0.000000
  70
    32
  0
VERTEX
  8
0
  5
BCA4
 10
375.121
 20
310.588
 30
0.000000
  70
    32
  0
VERTEX
  8
0
  5
BCA5
 10
375.112
 20
310.592
 30
0.000000
  70
    32
  0
VERTEX
  8
0
  5
BCA6
 10
375.104
 20
310.596
 30
0.000000
  70
    32
  0
VERTEX
  8
0
  5
BCA7
 10
375.096
 20
310.600
 30
0.000000
  70
    32
  0
VERTEX
  8
0
  5
BCA8
 10
375.087
 20
310.604
 30
0.000000
  70
    32
  0
VERTEX
  8
0
  5
BCA9
 10
375.079
 20
310.608
 30
0.000000
  70
    32
  0
VERTEX
  8
0
  5
BCAA
 10
375.070
 20
310.611
 30
0.000000
  70
    32
  0
VERTEX
  8
0
  5
BCAB
 10
375.062
 20
310.615
 30
0.000000
  70
    32
  0
VERTEX
  8
0
  5
BCAC
 10
375.053
 20
310.618
 30
0.000000
  70
    32
  0
VERTEX
  8
0
  5
BCAD
 10
375.045
 20
310.622
 30
0.000000
  70
    32
  0
VERTEX
  8
0
  5
BCAE
 10
375.036
 20
310.626
 30
0.000000
  70
    32
  0
VERTEX
  8
0
  5
BCAF
 10
375.028
 20
310.629
 30
0.000000
  70
    32
  0
VERTEX
  8
0
  5
BCB0
 10
375.019
 20
310.633
 30
0.000000
  70
    32
  0
VERTEX
  8
0
  5
BCB1
 10
375.010
 20
310.636
 30
0.000000
  70
    32
  0
VERTEX
  8
0
  5
BCB2
 10
375.001
 20
310.639
 30
0.000000
  70
    32
  0
VERTEX
  8
0
  5
BCB3
 10
374.993
 20
310.643
 30
0.000000
  70
    32
  0
VERTEX
  8
0
  5
BCB4
 10
374.984
 20
310.646
 30
0.000000
  70
    32
  0
VERTEX
  8
0
  5
BCB5
 10
374.975
 20
310.649
 30
0.000000
  70
    32
  0
VERTEX
  8
0
  5
BCB6
 10
374.966
 20
310.652
 30
0.000000
  70
    32
  0
VERTEX
  8
0
  5
BCB7
 10
374.957
 20
310.655
 30
0.000000
  70
    32
  0
VERTEX
  8
0
  5
BCB8
 10
374.948
 20
310.659
 30
0.000000
  70
    32
  0
VERTEX
  8
0
  5
BCB9
 10
374.939
 20
310.662
 30
0.000000
  70
    32
  0
VERTEX
  8
0
  5
BCBA
 10
374.930
 20
310.665
 30
0.000000
  70
    32
  0
VERTEX
  8
0
  5
BCBB
 10
374.921
 20
310.668
 30
0.000000
  70
    32
  0
VERTEX
  8
0
  5
BCBC
 10
374.912
 20
310.670
 30
0.000000
  70
    32
  0
VERTEX
  8
0
  5
BCBD
 10
374.903
 20
310.673
 30
0.000000
  70
    32
  0
VERTEX
  8
0
  5
BCBE
 10
374.894
 20
310.676
 30
0.000000
  70
    32
  0
VERTEX
  8
0
  5
BCBF
 10
374.885
 20
310.679
 30
0.000000
  70
    32
  0
VERTEX
  8
0
  5
BCC0
 10
374.875
 20
310.682
 30
0.000000
  70
    32
  0
VERTEX
  8
0
  5
BCC1
 10
374.866
 20
310.684
 30
0.000000
  70
    32
  0
VERTEX
  8
0
  5
BCC2
 10
374.857
 20
310.687
 30
0.000000
  70
    32
  0
VERTEX
  8
0
  5
BCC3
 10
374.848
 20
310.690
 30
0.000000
  70
    32
  0
VERTEX
  8
0
  5
BCC4
 10
374.838
 20
310.692
 30
0.000000
  70
    32
  0
VERTEX
  8
0
  5
BCC5
 10
374.829
 20
310.695
 30
0.000000
  70
    32
  0
VERTEX
  8
0
  5
BCC6
 10
374.820
 20
310.697
 30
0.000000
  70
    32
  0
VERTEX
  8
0
  5
BCC7
 10
374.810
 20
310.699
 30
0.000000
  70
    32
  0
VERTEX
  8
0
  5
BCC8
 10
374.801
 20
310.702
 30
0.000000
  70
    32
  0
VERTEX
  8
0
  5
BCC9
 10
374.792
 20
310.704
 30
0.000000
  70
    32
  0
VERTEX
  8
0
  5
BCCA
 10
374.782
 20
310.706
 30
0.000000
  70
    32
  0
VERTEX
  8
0
  5
BCCB
 10
374.773
 20
310.709
 30
0.000000
  70
    32
  0
VERTEX
  8
0
  5
BCCC
 10
374.763
 20
310.711
 30
0.000000
  70
    32
  0
VERTEX
  8
0
  5
BCCD
 10
374.754
 20
310.713
 30
0.000000
  70
    32
  0
VERTEX
  8
0
  5
BCCE
 10
374.744
 20
310.715
 30
0.000000
  70
    32
  0
VERTEX
  8
0
  5
BCCF
 10
374.735
 20
310.717
 30
0.000000
  70
    32
  0
VERTEX
  8
0
  5
BCD0
 10
374.725
 20
310.719
 30
0.000000
  70
    32
  0
VERTEX
  8
0
  5
BCD1
 10
374.716
 20
310.721
 30
0.000000
  70
    32
  0
VERTEX
  8
0
  5
BCD2
 10
374.706
 20
310.723
 30
0.000000
  70
    32
  0
VERTEX
  8
0
  5
BCD3
 10
374.696
 20
310.725
 30
0.000000
  70
    32
  0
VERTEX
  8
0
  5
BCD4
 10
374.687
 20
310.726
 30
0.000000
  70
    32
  0
VERTEX
  8
0
  5
BCD5
 10
374.677
 20
310.728
 30
0.000000
  70
    32
  0
VERTEX
  8
0
  5
BCD6
 10
374.667
 20
310.730
 30
0.000000
  70
    32
  0
VERTEX
  8
0
  5
BCD7
 10
374.658
 20
310.732
 30
0.000000
  70
    32
  0
VERTEX
  8
0
  5
BCD8
 10
374.648
 20
310.733
 30
0.000000
  70
    32
  0
VERTEX
  8
0
  5
BCD9
 10
374.638
 20
310.735
 30
0.000000
  70
    32
  0
VERTEX
  8
0
  5
BCDA
 10
374.628
 20
310.736
 30
0.000000
  70
    32
  0
VERTEX
  8
0
  5
BCDB
 10
374.619
 20
310.738
 30
0.000000
  70
    32
  0
VERTEX
  8
0
  5
BCDC
 10
374.609
 20
310.739
 30
0.000000
  70
    32
  0
VERTEX
  8
0
  5
BCDD
 10
374.599
 20
310.740
 30
0.000000
  70
    32
  0
VERTEX
  8
0
  5
BCDE
 10
374.589
 20
310.742
 30
0.000000
  70
    32
  0
VERTEX
  8
0
  5
BCDF
 10
374.580
 20
310.743
 30
0.000000
  70
    32
  0
VERTEX
  8
0
  5
BCE0
 10
374.570
 20
310.744
 30
0.000000
  70
    32
  0
VERTEX
  8
0
  5
BCE1
 10
374.560
 20
310.745
 30
0.000000
  70
    32
  0
VERTEX
  8
0
  5
BCE2
 10
374.550
 20
310.746
 30
0.000000
  70
    32
  0
VERTEX
  8
0
  5
BCE3
 10
374.540
 20
310.748
 30
0.000000
  70
    32
  0
VERTEX
  8
0
  5
BCE4
 10
374.530
 20
310.749
 30
0.000000
  70
    32
  0
VERTEX
  8
0
  5
BCE5
 10
374.521
 20
310.750
 30
0.000000
  70
    32
  0
VERTEX
  8
0
  5
BCE6
 10
374.511
 20
310.750
 30
0.000000
  70
    32
  0
VERTEX
  8
0
  5
BCE7
 10
374.501
 20
310.751
 30
0.000000
  70
    32
  0
VERTEX
  8
0
  5
BCE8
 10
374.491
 20
310.752
 30
0.000000
  70
    32
  0
VERTEX
  8
0
  5
BCE9
 10
374.481
 20
310.753
 30
0.000000
  70
    32
  0
VERTEX
  8
0
  5
BCEA
 10
374.471
 20
310.754
 30
0.000000
  70
    32
  0
VERTEX
  8
0
  5
BCEB
 10
374.461
 20
310.754
 30
0.000000
  70
    32
  0
VERTEX
  8
0
  5
BCEC
 10
374.451
 20
310.755
 30
0.000000
  70
    32
  0
VERTEX
  8
0
  5
BCED
 10
374.441
 20
310.755
 30
0.000000
  70
    32
  0
VERTEX
  8
0
  5
BCEE
 10
374.431
 20
310.756
 30
0.000000
  70
    32
  0
VERTEX
  8
0
  5
BCEF
 10
374.421
 20
310.756
 30
0.000000
  70
    32
  0
VERTEX
  8
0
  5
BCF0
 10
374.411
 20
310.757
 30
0.000000
  70
    32
  0
VERTEX
  8
0
  5
BCF1
 10
374.401
 20
310.757
 30
0.000000
  70
    32
  0
VERTEX
  8
0
  5
BCF2
 10
374.392
 20
310.758
 30
0.000000
  70
    32
  0
VERTEX
  8
0
  5
BCF3
 10
374.382
 20
310.758
 30
0.000000
  70
    32
  0
VERTEX
  8
0
  5
BCF4
 10
374.372
 20
310.758
 30
0.000000
  70
    32
  0
VERTEX
  8
0
  5
BCF5
 10
374.362
 20
310.758
 30
0.000000
  70
    32
  0
VERTEX
  8
0
  5
BCF6
 10
374.352
 20
310.758
 30
0.000000
  70
    32
  0
VERTEX
  8
0
  5
BCF7
 10
374.342
 20
310.758
 30
0.000000
  70
    32
  0
VERTEX
  8
0
  5
BCF8
 10
374.332
 20
310.758
 30
0.000000
  70
    32
  0
SEQEND
  8
0
  5
BCF9
  0
LINE
  5
AA54
  8
0
 10
349.74596761954263
 20
309.75847230144331
 30
0.0
 11
349.74596761954263
 21
317.51347430833169
 31
0.0
  0
LINE
  5
AA55
  8
0
 10
403.74596902025172
 20
311.17268563099691
 30
0.0
 11
403.74596902025172
 21
343.75847414918729
 31
0.0
  0
LINE
  5
AA56
  8
0
 10
336.74596735132172
 20
343.75847414918729
 30
0.0
 11
336.74596735132172
 21
303.75847224928918
 31
0.0
  0
LINE
  5
AA5A
  8
0
 10
333.7459668595834
 20
306.75847274102762
 30
0.0
 11
333.7459668595834
 21
340.75847179480382
 31
0.0
  0
LINE
  5
AA5B
  8
0
 10
404.74596732151929
 20
342.75847212262943
 30
0.0
 11
404.74596732151929
 21
299.25847238479668
 31
0.0
  0
LINE
  5
AA5D
  8
0
 10
404.74596732151929
 20
299.25847238479668
 30
0.0
 11
404.24596630824038
 21
298.75847236104789
 31
0.0
  0
LINE
  5
AA5E
  8
0
 10
404.24596630824038
 20
298.75847236104789
 30
0.0
 11
350.24596764329141
 21
298.75847236104789
 31
0.0
  0
LINE
  5
AA60
  8
0
 10
329.74596806657752
 20
314.75847312100723
 30
0.0
 11
329.74596806657752
 21
332.75847420879188
 31
0.0
  0
LINE
  5
AA61
  8
0
 10
386.53886058223679
 20
299.25847238479668
 30
0.0
 11
375.44121615438598
 21
310.37859083959648
 31
0.0
  0
POLYLINE
  5
AA62
  8
0
 10
376.7459676195424
 20
311.17268592342111
 30
0.0
 66
     1
 70
     8
  0
VERTEX
  8
0
  5
BCFA
 10
376.746
 20
311.173
 30
0.000000
  70
    32
  0
VERTEX
  8
0
  5
BCFB
 10
376.731
 20
311.173
 30
0.000000
  70
    32
  0
VERTEX
  8
0
  5
BCFC
 10
376.717
 20
311.172
 30
0.000000
  70
    32
  0
VERTEX
  8
0
  5
BCFD
 10
376.702
 20
311.172
 30
0.000000
  70
    32
  0
VERTEX
  8
0
  5
BCFE
 10
376.688
 20
311.172
 30
0.000000
  70
    32
  0
VERTEX
  8
0
  5
BCFF
 10
376.673
 20
311.171
 30
0.000000
  70
    32
  0
VERTEX
  8
0
  5
BD00
 10
376.659
 20
311.171
 30
0.000000
  70
    32
  0
VERTEX
  8
0
  5
BD01
 10
376.644
 20
311.170
 30
0.000000
  70
    32
  0
VERTEX
  8
0
  5
BD02
 10
376.630
 20
311.169
 30
0.000000
  70
    32
  0
VERTEX
  8
0
  5
BD03
 10
376.616
 20
311.169
 30
0.000000
  70
    32
  0
VERTEX
  8
0
  5
BD04
 10
376.602
 20
311.168
 30
0.000000
  70
    32
  0
VERTEX
  8
0
  5
BD05
 10
376.587
 20
311.167
 30
0.000000
  70
    32
  0
VERTEX
  8
0
  5
BD06
 10
376.573
 20
311.165
 30
0.000000
  70
    32
  0
VERTEX
  8
0
  5
BD07
 10
376.559
 20
311.164
 30
0.000000
  70
    32
  0
VERTEX
  8
0
  5
BD08
 10
376.545
 20
311.163
 30
0.000000
  70
    32
  0
VERTEX
  8
0
  5
BD09
 10
376.532
 20
311.161
 30
0.000000
  70
    32
  0
VERTEX
  8
0
  5
BD0A
 10
376.518
 20
311.160
 30
0.000000
  70
    32
  0
VERTEX
  8
0
  5
BD0B
 10
376.504
 20
311.158
 30
0.000000
  70
    32
  0
VERTEX
  8
0
  5
BD0C
 10
376.490
 20
311.156
 30
0.000000
  70
    32
  0
VERTEX
  8
0
  5
BD0D
 10
376.476
 20
311.154
 30
0.000000
  70
    32
  0
VERTEX
  8
0
  5
BD0E
 10
376.463
 20
311.152
 30
0.000000
  70
    32
  0
VERTEX
  8
0
  5
BD0F
 10
376.449
 20
311.150
 30
0.000000
  70
    32
  0
VERTEX
  8
0
  5
BD10
 10
376.436
 20
311.148
 30
0.000000
  70
    32
  0
VERTEX
  8
0
  5
BD11
 10
376.422
 20
311.146
 30
0.000000
  70
    32
  0
VERTEX
  8
0
  5
BD12
 10
376.409
 20
311.143
 30
0.000000
  70
    32
  0
VERTEX
  8
0
  5
BD13
 10
376.396
 20
311.141
 30
0.000000
  70
    32
  0
VERTEX
  8
0
  5
BD14
 10
376.383
 20
311.138
 30
0.000000
  70
    32
  0
VERTEX
  8
0
  5
BD15
 10
376.369
 20
311.136
 30
0.000000
  70
    32
  0
VERTEX
  8
0
  5
BD16
 10
376.356
 20
311.133
 30
0.000000
  70
    32
  0
VERTEX
  8
0
  5
BD17
 10
376.343
 20
311.130
 30
0.000000
  70
    32
  0
VERTEX
  8
0
  5
BD18
 10
376.330
 20
311.127
 30
0.000000
  70
    32
  0
VERTEX
  8
0
  5
BD19
 10
376.317
 20
311.124
 30
0.000000
  70
    32
  0
VERTEX
  8
0
  5
BD1A
 10
376.304
 20
311.121
 30
0.000000
  70
    32
  0
VERTEX
  8
0
  5
BD1B
 10
376.292
 20
311.117
 30
0.000000
  70
    32
  0
VERTEX
  8
0
  5
BD1C
 10
376.279
 20
311.114
 30
0.000000
  70
    32
  0
VERTEX
  8
0
  5
BD1D
 10
376.266
 20
311.111
 30
0.000000
  70
    32
  0
VERTEX
  8
0
  5
BD1E
 10
376.254
 20
311.107
 30
0.000000
  70
    32
  0
VERTEX
  8
0
  5
BD1F
 10
376.241
 20
311.103
 30
0.000000
  70
    32
  0
VERTEX
  8
0
  5
BD20
 10
376.229
 20
311.099
 30
0.000000
  70
    32
  0
VERTEX
  8
0
  5
BD21
 10
376.216
 20
311.096
 30
0.000000
  70
    32
  0
VERTEX
  8
0
  5
BD22
 10
376.204
 20
311.092
 30
0.000000
  70
    32
  0
VERTEX
  8
0
  5
BD23
 10
376.192
 20
311.088
 30
0.000000
  70
    32
  0
VERTEX
  8
0
  5
BD24
 10
376.180
 20
311.083
 30
0.000000
  70
    32
  0
VERTEX
  8
0
  5
BD25
 10
376.168
 20
311.079
 30
0.000000
  70
    32
  0
VERTEX
  8
0
  5
BD26
 10
376.156
 20
311.075
 30
0.000000
  70
    32
  0
VERTEX
  8
0
  5
BD27
 10
376.144
 20
311.070
 30
0.000000
  70
    32
  0
VERTEX
  8
0
  5
BD28
 10
376.132
 20
311.066
 30
0.000000
  70
    32
  0
VERTEX
  8
0
  5
BD29
 10
376.120
 20
311.061
 30
0.000000
  70
    32
  0
VERTEX
  8
0
  5
BD2A
 10
376.108
 20
311.056
 30
0.000000
  70
    32
  0
VERTEX
  8
0
  5
BD2B
 10
376.097
 20
311.051
 30
0.000000
  70
    32
  0
VERTEX
  8
0
  5
BD2C
 10
376.085
 20
311.046
 30
0.000000
  70
    32
  0
VERTEX
  8
0
  5
BD2D
 10
376.074
 20
311.041
 30
0.000000
  70
    32
  0
VERTEX
  8
0
  5
BD2E
 10
376.062
 20
311.036
 30
0.000000
  70
    32
  0
VERTEX
  8
0
  5
BD2F
 10
376.051
 20
311.031
 30
0.000000
  70
    32
  0
VERTEX
  8
0
  5
BD30
 10
376.040
 20
311.025
 30
0.000000
  70
    32
  0
VERTEX
  8
0
  5
BD31
 10
376.028
 20
311.020
 30
0.000000
  70
    32
  0
VERTEX
  8
0
  5
BD32
 10
376.017
 20
311.014
 30
0.000000
  70
    32
  0
VERTEX
  8
0
  5
BD33
 10
376.006
 20
311.009
 30
0.000000
  70
    32
  0
VERTEX
  8
0
  5
BD34
 10
375.995
 20
311.003
 30
0.000000
  70
    32
  0
VERTEX
  8
0
  5
BD35
 10
375.984
 20
310.997
 30
0.000000
  70
    32
  0
VERTEX
  8
0
  5
BD36
 10
375.974
 20
310.991
 30
0.000000
  70
    32
  0
VERTEX
  8
0
  5
BD37
 10
375.963
 20
310.985
 30
0.000000
  70
    32
  0
VERTEX
  8
0
  5
BD38
 10
375.952
 20
310.979
 30
0.000000
  70
    32
  0
VERTEX
  8
0
  5
BD39
 10
375.942
 20
310.973
 30
0.000000
  70
    32
  0
VERTEX
  8
0
  5
BD3A
 10
375.931
 20
310.967
 30
0.000000
  70
    32
  0
VERTEX
  8
0
  5
BD3B
 10
375.921
 20
310.960
 30
0.000000
  70
    32
  0
VERTEX
  8
0
  5
BD3C
 10
375.910
 20
310.954
 30
0.000000
  70
    32
  0
VERTEX
  8
0
  5
BD3D
 10
375.900
 20
310.947
 30
0.000000
  70
    32
  0
VERTEX
  8
0
  5
BD3E
 10
375.890
 20
310.940
 30
0.000000
  70
    32
  0
VERTEX
  8
0
  5
BD3F
 10
375.880
 20
310.934
 30
0.000000
  70
    32
  0
VERTEX
  8
0
  5
BD40
 10
375.870
 20
310.927
 30
0.000000
  70
    32
  0
VERTEX
  8
0
  5
BD41
 10
375.860
 20
310.920
 30
0.000000
  70
    32
  0
VERTEX
  8
0
  5
BD42
 10
375.850
 20
310.913
 30
0.000000
  70
    32
  0
VERTEX
  8
0
  5
BD43
 10
375.840
 20
310.906
 30
0.000000
  70
    32
  0
VERTEX
  8
0
  5
BD44
 10
375.831
 20
310.898
 30
0.000000
  70
    32
  0
VERTEX
  8
0
  5
BD45
 10
375.821
 20
310.891
 30
0.000000
  70
    32
  0
VERTEX
  8
0
  5
BD46
 10
375.812
 20
310.884
 30
0.000000
  70
    32
  0
VERTEX
  8
0
  5
BD47
 10
375.802
 20
310.876
 30
0.000000
  70
    32
  0
VERTEX
  8
0
  5
BD48
 10
375.793
 20
310.868
 30
0.000000
  70
    32
  0
VERTEX
  8
0
  5
BD49
 10
375.784
 20
310.861
 30
0.000000
  70
    32
  0
VERTEX
  8
0
  5
BD4A
 10
375.775
 20
310.853
 30
0.000000
  70
    32
  0
VERTEX
  8
0
  5
BD4B
 10
375.766
 20
310.845
 30
0.000000
  70
    32
  0
VERTEX
  8
0
  5
BD4C
 10
375.757
 20
310.837
 30
0.000000
  70
    32
  0
VERTEX
  8
0
  5
BD4D
 10
375.748
 20
310.829
 30
0.000000
  70
    32
  0
VERTEX
  8
0
  5
BD4E
 10
375.739
 20
310.821
 30
0.000000
  70
    32
  0
VERTEX
  8
0
  5
BD4F
 10
375.730
 20
310.813
 30
0.000000
  70
    32
  0
VERTEX
  8
0
  5
BD50
 10
375.721
 20
310.804
 30
0.000000
  70
    32
  0
VERTEX
  8
0
  5
BD51
 10
375.713
 20
310.796
 30
0.000000
  70
    32
  0
VERTEX
  8
0
  5
BD52
 10
375.704
 20
310.787
 30
0.000000
  70
    32
  0
VERTEX
  8
0
  5
BD53
 10
375.696
 20
310.779
 30
0.000000
  70
    32
  0
VERTEX
  8
0
  5
BD54
 10
375.688
 20
310.770
 30
0.000000
  70
    32
  0
VERTEX
  8
0
  5
BD55
 10
375.680
 20
310.761
 30
0.000000
  70
    32
  0
VERTEX
  8
0
  5
BD56
 10
375.671
 20
310.753
 30
0.000000
  70
    32
  0
VERTEX
  8
0
  5
BD57
 10
375.663
 20
310.744
 30
0.000000
  70
    32
  0
VERTEX
  8
0
  5
BD58
 10
375.655
 20
310.735
 30
0.000000
  70
    32
  0
VERTEX
  8
0
  5
BD59
 10
375.648
 20
310.725
 30
0.000000
  70
    32
  0
VERTEX
  8
0
  5
BD5A
 10
375.640
 20
310.716
 30
0.000000
  70
    32
  0
VERTEX
  8
0
  5
BD5B
 10
375.632
 20
310.707
 30
0.000000
  70
    32
  0
VERTEX
  8
0
  5
BD5C
 10
375.625
 20
310.698
 30
0.000000
  70
    32
  0
VERTEX
  8
0
  5
BD5D
 10
375.617
 20
310.688
 30
0.000000
  70
    32
  0
VERTEX
  8
0
  5
BD5E
 10
375.610
 20
310.679
 30
0.000000
  70
    32
  0
VERTEX
  8
0
  5
BD5F
 10
375.603
 20
310.669
 30
0.000000
  70
    32
  0
VERTEX
  8
0
  5
BD60
 10
375.595
 20
310.659
 30
0.000000
  70
    32
  0
VERTEX
  8
0
  5
BD61
 10
375.588
 20
310.649
 30
0.000000
  70
    32
  0
VERTEX
  8
0
  5
BD62
 10
375.581
 20
310.640
 30
0.000000
  70
    32
  0
VERTEX
  8
0
  5
BD63
 10
375.574
 20
310.630
 30
0.000000
  70
    32
  0
VERTEX
  8
0
  5
BD64
 10
375.567
 20
310.620
 30
0.000000
  70
    32
  0
VERTEX
  8
0
  5
BD65
 10
375.561
 20
310.609
 30
0.000000
  70
    32
  0
VERTEX
  8
0
  5
BD66
 10
375.554
 20
310.599
 30
0.000000
  70
    32
  0
VERTEX
  8
0
  5
BD67
 10
375.548
 20
310.589
 30
0.000000
  70
    32
  0
VERTEX
  8
0
  5
BD68
 10
375.541
 20
310.579
 30
0.000000
  70
    32
  0
VERTEX
  8
0
  5
BD69
 10
375.535
 20
310.568
 30
0.000000
  70
    32
  0
VERTEX
  8
0
  5
BD6A
 10
375.528
 20
310.558
 30
0.000000
  70
    32
  0
VERTEX
  8
0
  5
BD6B
 10
375.522
 20
310.547
 30
0.000000
  70
    32
  0
VERTEX
  8
0
  5
BD6C
 10
375.516
 20
310.536
 30
0.000000
  70
    32
  0
VERTEX
  8
0
  5
BD6D
 10
375.510
 20
310.526
 30
0.000000
  70
    32
  0
VERTEX
  8
0
  5
BD6E
 10
375.504
 20
310.515
 30
0.000000
  70
    32
  0
VERTEX
  8
0
  5
BD6F
 10
375.499
 20
310.504
 30
0.000000
  70
    32
  0
VERTEX
  8
0
  5
BD70
 10
375.493
 20
310.493
 30
0.000000
  70
    32
  0
VERTEX
  8
0
  5
BD71
 10
375.487
 20
310.482
 30
0.000000
  70
    32
  0
VERTEX
  8
0
  5
BD72
 10
375.482
 20
310.471
 30
0.000000
  70
    32
  0
VERTEX
  8
0
  5
BD73
 10
375.476
 20
310.459
 30
0.000000
  70
    32
  0
VERTEX
  8
0
  5
BD74
 10
375.471
 20
310.448
 30
0.000000
  70
    32
  0
VERTEX
  8
0
  5
BD75
 10
375.466
 20
310.437
 30
0.000000
  70
    32
  0
VERTEX
  8
0
  5
BD76
 10
375.461
 20
310.425
 30
0.000000
  70
    32
  0
VERTEX
  8
0
  5
BD77
 10
375.456
 20
310.414
 30
0.000000
  70
    32
  0
VERTEX
  8
0
  5
BD78
 10
375.451
 20
310.402
 30
0.000000
  70
    32
  0
VERTEX
  8
0
  5
BD79
 10
375.446
 20
310.390
 30
0.000000
  70
    32
  0
VERTEX
  8
0
  5
BD7A
 10
375.441
 20
310.379
 30
0.000000
  70
    32
  0
SEQEND
  8
0
  5
BD7B
  0
LINE
  5
AA63
  8
0
 10
350.74596766704008
 20
323.75847273357698
 30
0.0
 11
350.74596766704008
 21
310.75847246535608
 31
0.0
  0
LINE
  5
AA64
  8
0
 10
403.74596902025172
 20
323.75847273357698
 30
0.0
 11
350.74596766704008
 21
323.75847273357698
 31
0.0
  0
LINE
  5
AA65
  8
0
 10
376.7459683198972
 20
311.17268563099691
 30
0.0
 11
404.74596732151929
 21
311.17268563099691
 31
0.0
  0
LINE
  5
AA66
  8
0
 10
403.74596902025172
 20
323.75847273357698
 30
0.0
 11
404.74596732151929
 21
323.75847273357698
 31
0.0
  0
LINE
  5
AA67
  8
1
 10
426.04596791756649
 20
323.75847236104789
 30
0.0
 11
324.7459680665774
 21
323.75847236104801
 31
0.0
  0
ARC
  5
AA68
  8
0
 10
306.10759762538191
 20
396.06118147239943
 30
0.0
 40
1.7500000000000171
 50
40.448237331985077
 51
120.0000000000005
  0
ARC
  5
AA69
  8
0
 10
314.85759762538243
 20
380.90573690617191
 30
0.0
 40
1.7500000000000271
 50
300.00000000000051
 51
19.55176266801168
  0
ARC
  5
AA6A
  8
0
 10
269.38971502997401
 20
364.75847236104858
 30
0.0
 40
50.0
 50
19.551762668040599
 51
40.448237331961757
  0
ARC
  5
AA6B
  8
0
 10
266.45823421481458
 20
371.8359460743182
 30
0.0
 40
1.000000000000012
 50
125.7105931375025
 51
209.9999999999973
  0
ARC
  5
AA6C
  8
0
 10
274.05324665270291
 20
358.68099864777889
 30
0.0
 40
1.0000000000000271
 50
209.9999999999973
 51
294.28940686249962
  0
POLYLINE
  5
AA6D
  8
0
 66
     1
 10
0.0
 20
0.0
 30
0.0
 70
   128
  0
VERTEX
  5
BA14
  8
0
 10
281.46022265270182
 20
383.85173962303071
 30
0.0
  0
VERTEX
  5
BA15
  8
0
 10
281.51296531274738
 20
383.76038805433183
 30
0.0
  0
VERTEX
  5
BA16
  8
0
 10
281.68718223884531
 20
383.45862463899522
 30
0.0
  0
VERTEX
  5
BA17
  8
0
 10
281.97914069011631
 20
382.9529462833014
 30
0.0
  0
VERTEX
  5
BA18
  8
0
 10
282.38199358299198
 20
382.25519195981889
 30
0.0
  0
VERTEX
  5
BA19
  8
0
 10
282.88629358127542
 20
381.38171569295793
 30
0.0
  0
VERTEX
  5
BA1A
  8
0
 10
283.48021661355921
 20
380.35299912877952
 30
0.0
  0
VERTEX
  5
BA1B
  8
0
 10
284.14985989644902
 20
379.19315234609508
 30
0.0
  0
VERTEX
  5
BA1C
  8
0
 10
284.8795101554669
 20
377.92936251350312
 30
0.0
  0
VERTEX
  5
BA1D
  8
0
 10
285.65206830814259
 20
376.5912531394568
 30
0.0
  0
VERTEX
  5
BA1E
  8
0
 10
286.44942944362538
 20
375.21017626710801
 30
0.0
  0
VERTEX
  5
BA1F
  8
0
 10
287.25290750577869
 20
373.81851957031159
 30
0.0
  0
VERTEX
  5
BA20
  8
0
 10
288.04365997627201
 20
372.44888678975968
 30
0.0
  0
VERTEX
  5
BA21
  8
0
 10
288.80316471174177
 20
371.13338992782508
 30
0.0
  0
VERTEX
  5
BA22
  8
0
 10
289.5136073739809
 20
369.90286693759828
 30
0.0
  0
VERTEX
  5
BA23
  8
0
 10
290.15834336593571
 20
368.7861515659896
 30
0.0
  0
VERTEX
  5
BA24
  8
0
 10
290.72225545957508
 20
367.80942515321652
 30
0.0
  0
VERTEX
  5
BA25
  8
0
 10
291.19213377550068
 20
366.99557588287269
 30
0.0
  0
VERTEX
  5
BA26
  8
0
 10
291.55695890500971
 20
366.36368469186698
 30
0.0
  0
VERTEX
  5
BA27
  8
0
 10
291.80817758157667
 20
365.92855588384538
 30
0.0
  0
VERTEX
  5
BA28
  8
0
 10
291.9399038465304
 20
365.70039675422578
 30
0.0
  0
VERTEX
  5
BA29
  8
0
 10
291.96022157981821
 20
365.66520766206662
 30
0.0
  0
SEQEND
  5
BA2A
  8
0
  0
POLYLINE
  5
AA6E
  8
0
 66
     1
 10
0.0
 20
0.0
 30
0.0
 70
   128
  0
VERTEX
  5
BA2B
  8
0
 10
265.59220706537189
 20
371.33594886251342
 30
0.0
  0
VERTEX
  5
BA2C
  8
0
 10
265.62153255060139
 20
371.28515825458419
 30
0.0
  0
VERTEX
  5
BA2D
  8
0
 10
265.76619302347132
 20
371.03460267969018
 30
0.0
  0
VERTEX
  5
BA2E
  8
0
 10
266.02731352165171
 20
370.58233008571523
 30
0.0
  0
VERTEX
  5
BA2F
  8
0
 10
266.39650469139042
 20
369.94286910482299
 30
0.0
  0
VERTEX
  5
BA30
  8
0
 10
266.86189775779673
 20
369.13677588888061
 30
0.0
  0
VERTEX
  5
BA31
  8
0
 10
267.40853940561237
 20
368.18996355720412
 30
0.0
  0
VERTEX
  5
BA32
  8
0
 10
268.01886116578999
 20
367.13286028095138
 30
0.0
  0
VERTEX
  5
BA33
  8
0
 10
268.67323820903721
 20
365.99944815822499
 30
0.0
  0
VERTEX
  5
BA34
  8
0
 10
269.35064499690952
 20
364.82614562698262
 30
0.0
  0
VERTEX
  5
BA35
  8
0
 10
270.02931093290272
 20
363.6506600756253
 30
0.0
  0
VERTEX
  5
BA36
  8
0
 10
270.6874132664484
 20
362.51078829952138
 30
0.0
  0
VERTEX
  5
BA37
  8
0
 10
271.3038147003931
 20
361.44315735288518
 30
0.0
  0
VERTEX
  5
BA38
  8
0
 10
271.85868923976841
 20
360.48208833523648
 30
0.0
  0
VERTEX
  5
BA39
  8
0
 10
272.33420764520588
 20
359.65846017785918
 30
0.0
  0
VERTEX
  5
BA3A
  8
0
 10
272.71508877590122
 20
358.99875224419492
 30
0.0
  0
VERTEX
  5
BA3B
  8
0
 10
272.98909132793369
 20
358.52416516133201
 30
0.0
  0
VERTEX
  5
BA3C
  8
0
 10
273.14740871503773
 20
358.24995399304288
 30
0.0
  0
VERTEX
  5
BA3D
  8
0
 10
273.18722461774769
 20
358.18099886961829
 30
0.0
  0
SEQEND
  5
BA3E
  8
0
  0
POLYLINE
  5
AA6F
  8
0
 66
     1
 10
0.0
 20
0.0
 30
0.0
 70
   128
  0
VERTEX
  5
BA3F
  8
0
 10
268.99132584646168
 20
364.44850549884688
 30
0.0
  0
VERTEX
  5
BA40
  8
0
 10
269.54670702531757
 20
363.48655358739751
 30
0.0
  0
VERTEX
  5
BA41
  8
0
 10
270.07250194862308
 20
362.57584676929372
 30
0.0
  0
VERTEX
  5
BA42
  8
0
 10
270.5423504622263
 20
361.76205710359471
 30
0.0
  0
VERTEX
  5
BA43
  8
0
 10
270.93267892911859
 20
361.08597651906859
 30
0.0
  0
VERTEX
  5
BA44
  8
0
 10
271.22392957523289
 20
360.58151633330237
 30
0.0
  0
VERTEX
  5
BA45
  8
0
 10
271.40149181201878
 20
360.27397126742261
 30
0.0
  0
VERTEX
  5
BA46
  8
0
 10
271.45670061424198
 20
360.17834679075139
 30
0.0
  0
SEQEND
  5
BA47
  8
0
  0
POLYLINE
  5
AA70
  8
0
 66
     1
 10
0.0
 20
0.0
 30
0.0
 70
   128
  0
VERTEX
  5
BA48
  8
0
 10
266.45670538261362
 20
368.83859620281112
 30
0.0
  0
VERTEX
  5
BA49
  8
0
 10
266.45694380119272
 20
368.83818642087829
 30
0.0
  0
VERTEX
  5
BA4A
  8
0
 10
266.52732198551121
 20
368.71628747173202
 30
0.0
  0
VERTEX
  5
BA4B
  8
0
 10
266.71951716258951
 20
368.38338808008092
 30
0.0
  0
VERTEX
  5
BA4C
  8
0
 10
267.02389573171558
 20
367.85618499704248
 30
0.0
  0
VERTEX
  5
BA4D
  8
0
 10
267.42519890382709
 20
367.16112033315551
 30
0.0
  0
VERTEX
  5
BA4E
  8
0
 10
267.9032952101511
 20
366.33303300329101
 30
0.0
  0
VERTEX
  5
BA4F
  8
0
 10
268.4342086823267
 20
365.41345999427688
 30
0.0
  0
VERTEX
  5
BA50
  8
0
 10
268.99132584646168
 20
364.44850549884688
 30
0.0
  0
SEQEND
  5
BA51
  8
0
  0
CIRCLE
  5
AA77
  8
0
 10
198.3756319196504
 20
323.75847236104789
 30
0.0
 40
13.00000000000006
  0
CIRCLE
  5
AA78
  8
0
 10
198.3756319196504
 20
323.75847236104789
 30
0.0
 40
9.0000000000000284
  0
CIRCLE
  5
AA79
  8
0
 10
198.3756319196504
 20
323.75847236104789
 30
0.0
 40
16.999999999999979
  0
CIRCLE
  5
AA7A
  8
0
 10
198.3756319196504
 20
323.75847236104789
 30
0.0
 40
19.999999999999979
  0
ARC
  5
AA7B
  8
0
 10
159.3756319196504
 20
309.75847236104789
 30
0.0
 40
1.0
 50
90.0
 51
180.0
  0
LINE
  5
AA7D
  8
0
 10
237.8756337375921
 20
298.75847236104789
 30
0.0
 11
158.87563010170879
 21
298.75847236104789
 31
0.0
  0
LINE
  5
AA7E
  8
0
 10
158.87563010170879
 20
298.75847236104789
 30
0.0
 11
158.3756328137201
 21
299.25847238479668
 31
0.0
  0
LINE
  5
AA7F
  8
0
 10
158.3756328137201
 20
299.25847238479668
 30
0.0
 11
158.3756328137201
 21
309.75847230144331
 31
0.0
  0
LINE
  5
AA81
  8
0
 10
159.3756319196504
 20
310.75847236104801
 30
0.0
 11
178.37563236668529
 21
310.75847246535608
 31
0.0
  0
LINE
  5
AA82
  8
0
 10
178.37563236668529
 20
310.75847246535608
 30
0.0
 11
178.37563236668529
 21
323.75847273357698
 31
0.0
  0
LINE
  5
AA83
  8
0
 10
218.37563147261559
 20
323.75847273357698
 30
0.0
 11
218.37563147261559
 21
310.75847246535608
 31
0.0
  0
LINE
  5
AA84
  8
0
 10
218.37563147261559
 20
310.75847246535608
 30
0.0
 11
237.3756319196504
 21
310.75847236104801
 31
0.0
  0
LINE
  5
AA85
  8
0
 10
238.37563102558079
 20
299.25847238479668
 30
0.0
 11
237.8756337375921
 21
298.75847236104789
 31
0.0
  0
LINE
  5
AA87
  8
0
 10
238.37563102558079
 20
299.25847238479668
 30
0.0
 11
238.37563102558079
 21
309.75847230144331
 31
0.0
  0
ARC
  5
AA89
  8
0
 10
237.3756319196504
 20
309.75847236104789
 30
0.0
 40
1.0
 50
0.0
 51
90.0
  0
POLYLINE
  5
AA8A
  8
0
 66
     1
 10
0.0
 20
0.0
 30
0.0
 70
   128
  0
VERTEX
  5
BA52
  8
0
 10
305.23259644821059
 20
397.57672236152581
 30
0.0
  0
VERTEX
  5
BA53
  8
0
 10
305.28533910825632
 20
397.48537824340752
 30
0.0
  0
VERTEX
  5
BA54
  8
0
 10
305.45956348493468
 20
397.18361482807092
 30
0.0
  0
VERTEX
  5
BA55
  8
0
 10
305.75151448562519
 20
396.6779290217965
 30
0.0
  0
VERTEX
  5
BA56
  8
0
 10
306.15436737850092
 20
395.98017469831399
 30
0.0
  0
VERTEX
  5
BA57
  8
0
 10
306.65866737678419
 20
395.10670588203362
 30
0.0
  0
VERTEX
  5
BA58
  8
0
 10
307.25259785964857
 20
394.07798931785521
 30
0.0
  0
VERTEX
  5
BA59
  8
0
 10
307.9222336919583
 20
392.91814253517077
 30
0.0
  0
VERTEX
  5
BA5A
  8
0
 10
308.6518839509763
 20
391.65435270257882
 30
0.0
  0
VERTEX
  5
BA5B
  8
0
 10
309.42444210365193
 20
390.3162358779519
 30
0.0
  0
VERTEX
  5
BA5C
  8
0
 10
310.22180323913472
 20
388.93516645618371
 30
0.0
  0
VERTEX
  5
BA5D
  8
0
 10
311.02528130128758
 20
387.54350230880669
 30
0.0
  0
VERTEX
  5
BA5E
  8
0
 10
311.81603377178089
 20
386.17387697883538
 30
0.0
  0
VERTEX
  5
BA5F
  8
0
 10
312.57553850725071
 20
384.85838011690078
 30
0.0
  0
VERTEX
  5
BA60
  8
0
 10
313.28598116948979
 20
383.62785712667397
 30
0.0
  0
VERTEX
  5
BA61
  8
0
 10
313.9307171614451
 20
382.5111417550653
 30
0.0
  0
VERTEX
  5
BA62
  8
0
 10
314.49462925508442
 20
381.53441534229211
 30
0.0
  0
VERTEX
  5
BA63
  8
0
 10
314.96450757101002
 20
380.72056607194838
 30
0.0
  0
VERTEX
  5
BA64
  8
0
 10
315.32933270051899
 20
380.08866743036208
 30
0.0
  0
VERTEX
  5
BA65
  8
0
 10
315.58055137708612
 20
379.65354607292107
 30
0.0
  0
VERTEX
  5
BA66
  8
0
 10
315.71227764203968
 20
379.42538694330148
 30
0.0
  0
VERTEX
  5
BA67
  8
0
 10
315.73259537532749
 20
379.39019040056161
 30
0.0
  0
SEQEND
  5
BA68
  8
0
  0
POLYLINE
  5
AA8B
  8
0
 66
     1
 10
0.0
 20
0.0
 30
0.0
 70
   128
  0
VERTEX
  5
BA69
  8
0
 10
307.43933176114928
 20
397.19651178308419
 30
0.0
  0
VERTEX
  5
BA6A
  8
0
 10
307.479855469016
 20
397.12632731386122
 30
0.0
  0
VERTEX
  5
BA6B
  8
0
 10
307.6406837017812
 20
396.84776500650338
 30
0.0
  0
VERTEX
  5
BA6C
  8
0
 10
307.91968559339421
 20
396.3645203489869
 30
0.0
  0
VERTEX
  5
BA6D
  8
0
 10
308.30925410106551
 20
395.68977341838769
 30
0.0
  0
VERTEX
  5
BA6E
  8
0
 10
308.7987572462834
 20
394.8419271487802
 30
0.0
  0
VERTEX
  5
BA6F
  8
0
 10
309.37484358861821
 20
393.84411559291772
 30
0.0
  0
VERTEX
  5
BA70
  8
0
 10
310.02180730417149
 20
392.72354082055978
 30
0.0
  0
VERTEX
  5
BA71
  8
0
 10
310.7219905169286
 20
391.51078746505669
 30
0.0
  0
VERTEX
  5
BA72
  8
0
 10
311.45629738881962
 20
390.23892865367822
 30
0.0
  0
VERTEX
  5
BA73
  8
0
 10
312.20470075920002
 20
388.94265428968367
 30
0.0
  0
VERTEX
  5
BA74
  8
0
 10
312.94678603723418
 20
387.6573248285859
 30
0.0
  0
VERTEX
  5
BA75
  8
0
 10
313.66230999544092
 20
386.41800270267419
 30
0.0
  0
VERTEX
  5
BA76
  8
0
 10
314.33175211265512
 20
385.25849864669738
 30
0.0
  0
VERTEX
  5
BA77
  8
0
 10
314.93685101583429
 20
384.2104329247087
 30
0.0
  0
VERTEX
  5
BA78
  8
0
 10
315.46111111953678
 20
383.30239341445861
 30
0.0
  0
VERTEX
  5
BA79
  8
0
 10
315.89021985843601
 20
382.55915329643187
 30
0.0
  0
VERTEX
  5
BA7A
  8
0
 10
316.21247982099482
 20
382.00097814985207
 30
0.0
  0
VERTEX
  5
BA7B
  8
0
 10
316.41909932210871
 20
381.64311186262069
 30
0.0
  0
VERTEX
  5
BA7C
  8
0
 10
316.50443827226582
 20
381.49529979415831
 30
0.0
  0
VERTEX
  5
BA7D
  8
0
 10
316.50668834760609
 20
381.49138823934487
 30
0.0
  0
SEQEND
  5
BA7E
  8
0
  0
POLYLINE
  5
AA8C
  8
0
 66
     1
 10
0.0
 20
0.0
 30
0.0
 70
   128
  0
VERTEX
  5
BA7F
  8
0
 10
265.87453936651173
 20
372.64792159982568
 30
0.0
  0
VERTEX
  5
BA80
  8
0
 10
265.87520991876551
 20
372.64676675983321
 30
0.0
  0
VERTEX
  5
BA81
  8
0
 10
265.94976042821833
 20
372.51764074750793
 30
0.0
  0
VERTEX
  5
BA82
  8
0
 10
266.14571069791742
 20
372.17824444957631
 30
0.0
  0
VERTEX
  5
BA83
  8
0
 10
266.45741318777033
 20
371.63835302778142
 30
0.0
  0
VERTEX
  5
BA84
  8
0
 10
266.87591975048008
 20
370.91349349208718
 30
0.0
  0
VERTEX
  5
BA85
  8
0
 10
267.38916789606043
 20
370.02451256700408
 30
0.0
  0
VERTEX
  5
BA86
  8
0
 10
267.98240547492929
 20
368.99699554630172
 30
0.0
  0
VERTEX
  5
BA87
  8
0
 10
268.63856320693912
 20
367.86049143262761
 30
0.0
  0
VERTEX
  5
BA88
  8
0
 10
269.33876877143803
 20
366.64770827480208
 30
0.0
  0
VERTEX
  5
BA89
  8
0
 10
270.06287579849192
 20
365.39352224059951
 30
0.0
  0
VERTEX
  5
BA8A
  8
0
 10
270.79004501417103
 20
364.13401649185079
 30
0.0
  0
VERTEX
  5
BA8B
  8
0
 10
271.49937008932062
 20
362.90543810315978
 30
0.0
  0
VERTEX
  5
BA8C
  8
0
 10
272.1704364331049
 20
361.74311027713668
 30
0.0
  0
VERTEX
  5
BA8D
  8
0
 10
272.78394704177799
 20
360.68048984595202
 30
0.0
  0
VERTEX
  5
BA8E
  8
0
 10
273.3222365887446
 20
359.74813536592382
 30
0.0
  0
VERTEX
  5
BA8F
  8
0
 10
273.7698376686854
 20
358.9728726524915
 30
0.0
  0
VERTEX
  5
BA90
  8
0
 10
274.1138607771677
 20
358.37700129338162
 30
0.0
  0
VERTEX
  5
BA91
  8
0
 10
274.34441899373951
 20
357.977668799838
 30
0.0
  0
VERTEX
  5
BA92
  8
0
 10
274.45486640050831
 20
357.78636024185079
 30
0.0
  0
VERTEX
  5
BA93
  8
0
 10
274.46458940818729
 20
357.76951820441138
 30
0.0
  0
SEQEND
  5
BA94
  8
0
  0
POINT
  5
AA8D
  8
0
 10
312.69098521919568
 20
389.7584723610492
 30
0.0
  0
LINE
  5
AA8E
  8
1
 10
317.02111223811789
 20
392.2584723610492
 30
0.0
 11
198.3756319196506
 21
323.75847236104789
 31
0.0
  0
POLYLINE
  5
AA9A
  8
0
 66
     1
 10
0.0
 20
0.0
 30
0.0
 70
   128
  0
VERTEX
  5
BA95
  8
0
 10
424.0459665466592
 20
458.38055348572078
 30
0.0
  0
VERTEX
  5
BA96
  8
0
 10
424.04215929997417
 20
458.52191335138622
 30
0.0
  0
VERTEX
  5
BA97
  8
0
 10
423.87598900092098
 20
459.32137555059728
 30
0.0
  0
VERTEX
  5
BA98
  8
0
 10
423.46769718420961
 20
460.09878403124162
 30
0.0
  0
VERTEX
  5
BA99
  8
0
 10
422.82684294474569
 20
460.83592212375942
 30
0.0
  0
VERTEX
  5
BA9A
  8
0
 10
421.96845410359361
 20
461.51550448116598
 30
0.0
  0
VERTEX
  5
BA9B
  8
0
 10
420.91265467894527
 20
462.12160921272579
 30
0.0
  0
VERTEX
  5
BA9C
  8
0
 10
419.68418059838268
 20
462.64002061065969
 30
0.0
  0
VERTEX
  5
BA9D
  8
0
 10
418.31182835591289
 20
463.05860167917552
 30
0.0
  0
VERTEX
  5
BA9E
  8
0
 10
416.82777700913402
 20
463.36752510246578
 30
0.0
  0
VERTEX
  5
BA9F
  8
0
 10
415.26679841769192
 20
463.55956381735149
 30
0.0
  0
VERTEX
  5
BAA0
  8
0
 10
413.66548238289812
 20
463.63021022257152
 30
0.0
  0
VERTEX
  5
BAA1
  8
0
 10
412.06137238038042
 20
463.5778102892333
 30
0.0
  0
VERTEX
  5
BAA2
  8
0
 10
410.4920565892503
 20
463.40359336313549
 30
0.0
  0
VERTEX
  5
BAA3
  8
0
 10
408.99431852591488
 20
463.11163491186443
 30
0.0
  0
VERTEX
  5
BAA4
  8
0
 10
407.60326905143711
 20
462.7087820189887
 30
0.0
  0
VERTEX
  5
BAA5
  8
0
 10
406.35151190650907
 20
462.20448202070543
 30
0.0
  0
VERTEX
  5
BAA6
  8
0
 10
405.26838747752163
 20
461.61055898842159
 30
0.0
  0
VERTEX
  5
BAA7
  8
0
 10
404.37928361785862
 20
460.94091570553132
 30
0.0
  0
VERTEX
  5
BAA8
  8
0
 10
403.7050358761594
 20
460.21126544651332
 30
0.0
  0
VERTEX
  5
BAA9
  8
0
 10
403.26145438445059
 20
459.43870729383769
 30
0.0
  0
VERTEX
  5
BAAA
  8
0
 10
403.05892897737482
 20
458.64134615835491
 30
0.0
  0
VERTEX
  5
BAAB
  8
0
 10
403.04596869242641
 20
458.38055348572078
 30
0.0
  0
SEQEND
  5
BAAC
  8
0
  0
LINE
  5
AAA0
  8
0
 10
420.04596589100811
 20
564.71514290746973
 30
0.0
 11
420.04596589100811
 21
528.71514445719049
 31
0.0
  0
LINE
  5
AAA1
  8
0
 10
421.04596791756597
 20
529.71514275845811
 30
0.0
 11
421.04596791756597
 21
563.7151446062021
 31
0.0
  0
LINE
  5
AAA3
  8
0
 10
407.04596562278721
 20
528.71514445719049
 30
0.0
 11
407.04596562278721
 21
564.71514290746984
 31
0.0
  0
LINE
  5
AAA4
  8
0
 10
406.04596732151958
 20
563.7151446062021
 30
0.0
 11
406.04596732151958
 21
529.71514275845811
 31
0.0
  0
POLYLINE
  5
AAA6
  8
0
 66
     1
 10
0.0
 20
0.0
 30
0.0
 70
   128
  0
VERTEX
  5
BAAD
  8
0
 10
413.54596761954281
 20
558.24623218354509
 30
0.0
  0
VERTEX
  5
BAAE
  8
0
 10
414.49025420439688
 20
558.13383179333732
 30
0.0
  0
VERTEX
  5
BAAF
  8
0
 10
415.36451278222057
 20
557.80496502843425
 30
0.0
  0
VERTEX
  5
BAB0
  8
0
 10
416.1038934994981
 20
557.28402322706506
 30
0.0
  0
VERTEX
  5
BAB1
  8
0
 10
416.65356753361669
 20
556.60964137491521
 30
0.0
  0
VERTEX
  5
BAB2
  8
0
 10
416.97275785696962
 20
555.83183708217666
 30
0.0
  0
VERTEX
  5
BAB3
  8
0
 10
417.03780887616131
 20
555.0082946064764
 30
0.0
  0
VERTEX
  5
BAB4
  8
0
 10
416.84387771380398
 20
554.20009380754755
 30
0.0
  0
VERTEX
  5
BAB5
  8
0
 10
416.40535889161077
 20
553.46717414063153
 30
0.0
  0
VERTEX
  5
BAB6
  8
0
 10
415.75477419388739
 20
552.8638936447793
 30
0.0
  0
VERTEX
  5
BAB7
  8
0
 10
414.94037358057949
 20
552.43499445345935
 30
0.0
  0
VERTEX
  5
BAB8
  8
0
 10
414.02255145800558
 20
552.21228635486887
 30
0.0
  0
VERTEX
  5
BAB9
  8
0
 10
413.06938378107998
 20
552.21228635486887
 30
0.0
  0
VERTEX
  5
BABA
  8
0
 10
412.15156165850613
 20
552.43499445345935
 30
0.0
  0
VERTEX
  5
BABB
  8
0
 10
411.33716104519817
 20
552.8638936447793
 30
0.0
  0
VERTEX
  5
BABC
  8
0
 10
410.68656889689419
 20
553.46717414063153
 30
0.0
  0
VERTEX
  5
BABD
  8
0
 10
410.24805007470098
 20
554.20009380754755
 30
0.0
  0
VERTEX
  5
BABE
  8
0
 10
410.05412636292431
 20
555.0082946064764
 30
0.0
  0
VERTEX
  5
BABF
  8
0
 10
410.1191699315354
 20
555.83183708217666
 30
0.0
  0
VERTEX
  5
BAC0
  8
0
 10
410.43836770546892
 20
556.60964137491521
 30
0.0
  0
VERTEX
  5
BAC1
  8
0
 10
410.98804173958752
 20
557.28402322706506
 30
0.0
  0
VERTEX
  5
BAC2
  8
0
 10
411.72742245686499
 20
557.80496502843425
 30
0.0
  0
VERTEX
  5
BAC3
  8
0
 10
412.60168103468868
 20
558.13383179333732
 30
0.0
  0
VERTEX
  5
BAC4
  8
0
 10
413.54596761954281
 20
558.24623218354509
 30
0.0
  0
SEQEND
  5
BAC5
  8
0
  0
POLYLINE
  5
AAA7
  8
0
 66
     1
 10
0.0
 20
0.0
 30
0.0
 70
   128
  0
VERTEX
  5
BAC6
  8
0
 10
413.54596761954281
 20
556.88020734664724
 30
0.0
  0
VERTEX
  5
BAC7
  8
0
 10
414.31851087105719
 20
556.77424146410749
 30
0.0
  0
VERTEX
  5
BAC8
  8
0
 10
415.0154307295129
 20
556.46671688732431
 30
0.0
  0
VERTEX
  5
BAC9
  8
0
 10
415.56850967896429
 20
555.98773582455442
 30
0.0
  0
VERTEX
  5
BACA
  8
0
 10
415.92361180079428
 20
555.38418477949415
 30
0.0
  0
VERTEX
  5
BACB
  8
0
 10
416.04596523535702
 20
554.71514406230972
 30
0.0
  0
VERTEX
  5
BACC
  8
0
 10
415.92361180079428
 20
554.04610241380271
 30
0.0
  0
VERTEX
  5
BACD
  8
0
 10
415.56850967896429
 20
553.44255136874256
 30
0.0
  0
VERTEX
  5
BACE
  8
0
 10
415.0154307295129
 20
552.96357030597255
 30
0.0
  0
VERTEX
  5
BACF
  8
0
 10
414.31851087105719
 20
552.65604572918937
 30
0.0
  0
VERTEX
  5
BAD0
  8
0
 10
413.54596761954281
 20
552.55008031231102
 30
0.0
  0
VERTEX
  5
BAD1
  8
0
 10
412.77342436802837
 20
552.65604572918937
 30
0.0
  0
VERTEX
  5
BAD2
  8
0
 10
412.07650450957271
 20
552.96357030597255
 30
0.0
  0
VERTEX
  5
BAD3
  8
0
 10
411.52342556012132
 20
553.44255136874256
 30
0.0
  0
VERTEX
  5
BAD4
  8
0
 10
411.16832343829128
 20
554.04610241380271
 30
0.0
  0
VERTEX
  5
BAD5
  8
0
 10
411.0459700037286
 20
554.71514406230972
 30
0.0
  0
VERTEX
  5
BAD6
  8
0
 10
411.16832343829128
 20
555.38418477949415
 30
0.0
  0
VERTEX
  5
BAD7
  8
0
 10
411.52342556012132
 20
555.98773582455442
 30
0.0
  0
VERTEX
  5
BAD8
  8
0
 10
412.07650450957271
 20
556.46671688732431
 30
0.0
  0
VERTEX
  5
BAD9
  8
0
 10
412.77342436802837
 20
556.77424146410749
 30
0.0
  0
VERTEX
  5
BADA
  8
0
 10
413.54596761954281
 20
556.88020734664724
 30
0.0
  0
SEQEND
  5
BADB
  8
0
  0
POLYLINE
  5
AAA8
  8
0
 66
     1
 10
0.0
 20
0.0
 30
0.0
 70
   128
  0
VERTEX
  5
BADC
  8
0
 10
418.73126469397852
 20
531.58237725836636
 30
0.0
  0
VERTEX
  5
BADD
  8
0
 10
418.72680334341982
 20
531.56803416636512
 30
0.0
  0
VERTEX
  5
BADE
  8
0
 10
418.54597030175182
 20
531.19232094463632
 30
0.0
  0
SEQEND
  5
BADF
  8
0
  0
POLYLINE
  5
AAA9
  8
0
 66
     1
 10
0.0
 20
0.0
 30
0.0
 70
   128
  0
VERTEX
  5
BAE0
  8
0
 10
408.54596866262409
 20
531.19232094463632
 30
0.0
  0
VERTEX
  5
BAE1
  8
0
 10
408.36512817037561
 20
531.56803416636512
 30
0.0
  0
VERTEX
  5
BAE2
  8
0
 10
408.36174137637403
 20
531.58023636122493
 30
0.0
  0
SEQEND
  5
BAE3
  8
0
  0
LINE
  5
AAAA
  8
0
 10
403.74596902025172
 20
566.71514323529527
 30
0.0
 11
336.74596735132172
 21
566.71514323529527
 31
0.0
  0
LINE
  5
AAAB
  8
0
 10
403.74596902025172
 20
526.71514412936494
 30
0.0
 11
403.74596902025172
 21
566.71514323529527
 31
0.0
  0
LINE
  5
AAAC
  8
0
 10
403.74596902025172
 20
526.71514412936494
 30
0.0
 11
336.74596735132172
 21
526.71514412936494
 31
0.0
  0
LINE
  5
AAAD
  8
0
 10
336.74596735132172
 20
566.71514323529527
 30
0.0
 11
336.74596735132172
 21
526.71514412936494
 31
0.0
  0
LINE
  5
AAAE
  8
0
 10
333.7459668595834
 20
529.71514275845811
 30
0.0
 11
333.7459668595834
 21
563.7151446062021
 31
0.0
  0
LINE
  5
AAAF
  8
0
 10
403.74596902025172
 20
566.71514323529527
 30
0.0
 11
404.74596732151929
 21
565.7151430713825
 31
0.0
  0
LINE
  5
AAB0
  8
0
 10
404.74596732151929
 20
565.7151430713825
 30
0.0
 11
404.74596732151929
 21
527.71514429327772
 31
0.0
  0
LINE
  5
AAB1
  8
0
 10
403.74596902025172
 20
526.71514412936494
 30
0.0
 11
404.74596732151929
 21
527.71514429327772
 31
0.0
  0
LINE
  5
AAB2
  8
0
 10
329.74596806657752
 20
537.7151440697603
 30
0.0
 11
329.74596806657752
 21
555.71514329489992
 31
0.0
  0
ARC
  5
AAB3
  8
0
 10
359.74596761954263
 20
576.71514368233011
 30
0.0
 40
10.0
 50
90.0
 51
180.0
  0
ARC
  5
AAB4
  8
0
 10
359.74596761954263
 20
576.71514368233011
 30
0.0
 40
10.0
 50
0.0
 51
90.0
  0
CIRCLE
  5
AAB5
  8
0
 10
359.74596761954263
 20
576.71514368233011
 30
0.0
 40
4.4999999999999432
  0
LINE
  5
AAB6
  8
0
 10
349.74596761954263
 20
566.71514323529527
 30
0.0
 11
349.74596761954263
 21
576.71514301177785
 31
0.0
  0
LINE
  5
AAB7
  8
0
 10
369.74596717250779
 20
576.71514301177785
 30
0.0
 11
369.74596717250779
 21
574.78621190962122
 31
0.0
  0
ARC
  5
AAB8
  8
0
 10
374.74596761954263
 20
574.78621149419564
 30
0.0
 40
5.000000000000056
 50
180.0
 51
225.0000000000046
  0
LINE
  5
AAB9
  8
0
 10
371.2104328055425
 20
571.25067672309206
 30
0.0
 11
375.74596815598437
 21
566.71514323529527
 31
0.0
  0
LINE
  5
AABA
  8
0
 10
349.74596761954263
 20
516.71514435288225
 30
0.0
 11
349.74596761954263
 21
526.71514412936494
 31
0.0
  0
LINE
  5
AABB
  8
0
 10
375.74596815598437
 20
526.71514412936494
 30
0.0
 11
371.2104328055425
 21
522.17961064156805
 31
0.0
  0
ARC
  5
AABC
  8
0
 10
374.74596761954263
 20
518.64407587046446
 30
0.0
 40
5.000000000000056
 50
135.00000000000921
 51
180.0
  0
CIRCLE
  5
AABD
  8
0
 10
359.74596761954263
 20
516.71514368233011
 30
0.0
 40
4.5
  0
LINE
  5
AABE
  8
0
 10
369.74596717250779
 20
518.644075455039
 30
0.0
 11
369.74596717250779
 21
516.71514435288225
 31
0.0
  0
ARC
  5
AABF
  8
0
 10
359.74596761954263
 20
516.71514368233011
 30
0.0
 40
10.00000000000003
 50
180.0
 51
270.0
  0
ARC
  5
AAC0
  8
0
 10
359.74596761954263
 20
516.71514368233011
 30
0.0
 40
10.00000000000003
 50
270.0
 51
0.0
  0
POLYLINE
  5
AAC1
  8
0
 66
     1
 10
0.0
 20
0.0
 30
0.0
 70
   128
  0
VERTEX
  5
BAE4
  8
0
 10
424.0459590960786
 20
434.61526519235912
 30
0.0
  0
VERTEX
  5
BAE5
  8
0
 10
424.04215929997417
 20
434.74953955587688
 30
0.0
  0
VERTEX
  5
BAE6
  8
0
 10
423.87598900092098
 20
435.549001755088
 30
0.0
  0
VERTEX
  5
BAE7
  8
0
 10
423.46769718420961
 20
436.32641023573223
 30
0.0
  0
VERTEX
  5
BAE8
  8
0
 10
422.82684294474569
 20
437.06354832825008
 30
0.0
  0
VERTEX
  5
BAE9
  8
0
 10
421.96845410359361
 20
437.74313068565669
 30
0.0
  0
VERTEX
  5
BAEA
  8
0
 10
420.91265467894527
 20
438.34923541721639
 30
0.0
  0
VERTEX
  5
BAEB
  8
0
 10
419.68418059838268
 20
438.86764681515041
 30
0.0
  0
VERTEX
  5
BAEC
  8
0
 10
418.31182835591289
 20
439.28622788366619
 30
0.0
  0
VERTEX
  5
BAED
  8
0
 10
416.82777700913402
 20
439.59515130695638
 30
0.0
  0
VERTEX
  5
BAEE
  8
0
 10
415.26679841769192
 20
439.78719002184209
 30
0.0
  0
VERTEX
  5
BAEF
  8
0
 10
413.66548238289812
 20
439.85783642706218
 30
0.0
  0
VERTEX
  5
BAF0
  8
0
 10
412.06137238038042
 20
439.80543649372402
 30
0.0
  0
VERTEX
  5
BAF1
  8
0
 10
410.4920565892503
 20
439.63121211704549
 30
0.0
  0
VERTEX
  5
BAF2
  8
0
 10
408.99431852591488
 20
439.33926111635509
 30
0.0
  0
VERTEX
  5
BAF3
  8
0
 10
407.60326905143711
 20
438.93640822347942
 30
0.0
  0
VERTEX
  5
BAF4
  8
0
 10
406.35151190650907
 20
438.43210822519598
 30
0.0
  0
VERTEX
  5
BAF5
  8
0
 10
405.26838747752163
 20
437.8381777423316
 30
0.0
  0
VERTEX
  5
BAF6
  8
0
 10
404.37928361785862
 20
437.16854191002187
 30
0.0
  0
VERTEX
  5
BAF7
  8
0
 10
403.7050358761594
 20
436.43889165100398
 30
0.0
  0
VERTEX
  5
BAF8
  8
0
 10
403.26145438445059
 20
435.6663334983283
 30
0.0
  0
VERTEX
  5
BAF9
  8
0
 10
403.05892897737482
 20
434.86897236284562
 30
0.0
  0
VERTEX
  5
BAFA
  8
0
 10
403.04597614300701
 20
434.61563027080842
 30
0.0
  0
SEQEND
  5
BAFB
  8
0
  0
POLYLINE
  5
AAC2
  8
0
 66
     1
 10
0.0
 20
0.0
 30
0.0
 70
   128
  0
VERTEX
  5
BAFC
  8
0
 10
422.26128427279451
 20
431.86673855957332
 30
0.0
  0
VERTEX
  5
BAFD
  8
0
 10
422.5542411018655
 20
432.60104543146429
 30
0.0
  0
VERTEX
  5
BAFE
  8
0
 10
422.60147778285
 20
433.34944880184469
 30
0.0
  0
VERTEX
  5
BAFF
  8
0
 10
422.40169791472408
 20
434.0915340798789
 30
0.0
  0
VERTEX
  5
BB00
  8
0
 10
421.9603627730653
 20
434.80705803808507
 30
0.0
  0
VERTEX
  5
BB01
  8
0
 10
421.28950504553768
 20
435.47650015529928
 30
0.0
  0
VERTEX
  5
BB02
  8
0
 10
420.40742335808733
 20
436.0815990584785
 30
0.0
  0
VERTEX
  5
BB03
  8
0
 10
419.33817563546148
 20
436.60585916218099
 30
0.0
  0
VERTEX
  5
BB04
  8
0
 10
418.11093835127798
 20
437.03496790108028
 30
0.0
  0
VERTEX
  5
BB05
  8
0
 10
416.75917206299749
 20
437.35722786363903
 30
0.0
  0
VERTEX
  5
BB06
  8
0
 10
415.31976459515539
 20
437.56384736475292
 30
0.0
  0
VERTEX
  5
BB07
  8
0
 10
413.83197305691692
 20
437.64918631491008
 30
0.0
  0
VERTEX
  5
BB08
  8
0
 10
412.33637331021282
 20
437.61092013296428
 30
0.0
  0
VERTEX
  5
BB09
  8
0
 10
410.87377218497249
 20
437.45009190019908
 30
0.0
  0
VERTEX
  5
BB0A
  8
0
 10
409.48406008971187
 20
437.17109000858608
 30
0.0
  0
VERTEX
  5
BB0B
  8
0
 10
408.20514930379841
 20
436.78152150091472
 30
0.0
  0
VERTEX
  5
BB0C
  8
0
 10
407.07191972029659
 20
436.29201835569683
 30
0.0
  0
VERTEX
  5
BB0D
  8
0
 10
406.11528379810312
 20
435.71593201336208
 30
0.0
  0
VERTEX
  5
BB0E
  8
0
 10
405.36134092104879
 20
435.06896829780879
 30
0.0
  0
VERTEX
  5
BB0F
  8
0
 10
404.83065096629122
 20
434.36878508505168
 30
0.0
  0
VERTEX
  5
BB10
  8
0
 10
404.53769413722011
 20
433.63447821316072
 30
0.0
  0
VERTEX
  5
BB11
  8
0
 10
404.49045745623562
 20
432.8860748427802
 30
0.0
  0
VERTEX
  5
BB12
  8
0
 10
404.69023359907118
 20
432.14398956474599
 30
0.0
  0
VERTEX
  5
BB13
  8
0
 10
405.13156874073002
 20
431.42846560653987
 30
0.0
  0
VERTEX
  5
BB14
  8
0
 10
405.80242646825758
 20
430.75902348932573
 30
0.0
  0
VERTEX
  5
BB15
  8
0
 10
406.68451188099829
 20
430.1539245861465
 30
0.0
  0
VERTEX
  5
BB16
  8
0
 10
407.75375587833378
 20
429.6296644824439
 30
0.0
  0
VERTEX
  5
BB17
  8
0
 10
408.98099688780758
 20
429.20055574354473
 30
0.0
  0
VERTEX
  5
BB18
  8
0
 10
410.33276317608812
 20
428.87829578098598
 30
0.0
  0
VERTEX
  5
BB19
  8
0
 10
411.77217064393022
 20
428.67167627987209
 30
0.0
  0
VERTEX
  5
BB1A
  8
0
 10
413.25996218216869
 20
428.58633732971492
 30
0.0
  0
VERTEX
  5
BB1B
  8
0
 10
414.75556192887279
 20
428.62460351166072
 30
0.0
  0
VERTEX
  5
BB1C
  8
0
 10
416.21816305411312
 20
428.78543174442592
 30
0.0
  0
VERTEX
  5
BB1D
  8
0
 10
417.60787514937368
 20
429.06443363603893
 30
0.0
  0
VERTEX
  5
BB1E
  8
0
 10
418.88678966057751
 20
429.45400214371028
 30
0.0
  0
VERTEX
  5
BB1F
  8
0
 10
420.02001551878902
 20
429.94350528892818
 30
0.0
  0
VERTEX
  5
BB20
  8
0
 10
420.9766477156922
 20
430.51959163126293
 30
0.0
  0
VERTEX
  5
BB21
  8
0
 10
421.73059431803682
 20
431.16655534681621
 30
0.0
  0
VERTEX
  5
BB22
  8
0
 10
422.26128427279451
 20
431.86673855957332
 30
0.0
  0
SEQEND
  5
BB23
  8
0
  0
LINE
  5
AAC3
  8
1
 10
324.74596806657701
 20
546.71514368233011
 30
0.0
 11
426.04596791756649
 21
546.71514368233011
 31
0.0
  0
CIRCLE
  5
AAC4
  8
0
 10
614.86937631245735
 20
323.75847236104818
 30
0.0
 40
5.9999999999997442
  0
ARC
  5
AAC5
  8
0
 10
498.38741060672641
 20
380.90573690617259
 30
0.0
 40
1.750000000000052
 50
160.4482373319839
 51
239.99999999999949
  0
ARC
  5
AAC6
  8
0
 10
507.13741060672641
 20
396.06118147240011
 30
0.0
 40
1.75000000000002
 50
59.99999999999946
 51
139.5517626680149
  0
ARC
  5
AAC7
  8
0
 10
543.85529320213436
 20
364.75847236104909
 30
0.0
 40
50.000000000000021
 50
139.55176266803821
 51
160.4482373319594
  0
ARC
  5
AAC8
  8
0
 10
539.19176157940592
 20
358.68099864777952
 30
0.0
 40
1.0000000000000959
 50
245.71059313750041
 51
330.00000000000267
  0
ARC
  5
AAC9
  8
0
 10
546.78677401729374
 20
371.83594607431883
 30
0.0
 40
0.9999999999999978
 50
329.99999999999062
 51
54.289406862497472
  0
CIRCLE
  5
AACA
  8
0
 10
614.86937631245792
 20
303.25847236104812
 30
0.0
 40
2.4999999999999849
  0
LINE
  5
AACB
  8
0
 10
613.45347850432915
 20
304.25608621266451
 30
0.0
 11
613.29746846972648
 21
302.53107581585431
 31
0.0
  0
LINE
  5
AACC
  8
0
 10
614.71336627785513
 20
301.53346196423792
 30
0.0
 11
616.28527412058645
 21
302.26085850943173
 31
0.0
  0
LINE
  5
AACD
  8
0
 10
616.28527412058645
 20
302.26085850943173
 30
0.0
 11
616.44128415518935
 21
303.98586890624199
 31
0.0
  0
LINE
  5
AACE
  8
0
 10
616.44128415518935
 20
303.98586890624199
 30
0.0
 11
615.0253863470607
 21
304.98348275785833
 31
0.0
  0
LINE
  5
AACF
  8
0
 10
615.0253863470607
 20
304.98348275785833
 30
0.0
 11
613.45347850432915
 21
304.25608621266451
 31
0.0
  0
LINE
  5
AAD0
  8
0
 10
613.29746846972648
 20
302.53107581585431
 30
0.0
 11
614.71336627785513
 21
301.53346196423792
 31
0.0
  0
LINE
  5
AAD1
  8
0
 10
525.08609936903747
 20
372.24927502501731
 30
0.0
 11
531.78478512644585
 21
383.85173910078589
 31
0.0
  0
LINE
  5
AAD2
  8
0
 10
521.28478512644551
 20
365.66520562131291
 30
0.0
 11
525.08609936903747
 21
372.24927502501731
 31
0.0
  0
LINE
  5
AAD3
  8
0
 10
542.80740878821962
 20
362.94348331568932
 30
0.0
 11
547.65279942107816
 21
371.33594607431871
 31
0.0
  0
LINE
  5
AAD4
  8
0
 10
540.05778698319045
 20
358.18099864777952
 30
0.0
 11
542.80740878821962
 21
362.94348331568932
 31
0.0
  0
LINE
  5
AADD
  8
0
 10
541.7883059040264
 20
360.17834534212699
 30
0.0
 11
546.78830590402629
 21
368.83859937997119
 31
0.0
  0
CIRCLE
  5
AADE
  8
0
 10
614.86937631245735
 20
323.75847236104818
 30
0.0
 40
16.999999620020638
  0
CIRCLE
  5
AADF
  8
0
 10
614.86937631245735
 20
323.75847236104818
 30
0.0
 40
18.0
  0
LINE
  5
AAE0
  8
0
 10
634.57648309364413
 20
310.46557914223501
 30
0.0
 11
623.01582292186504
 21
298.9049189704549
 31
0.0
  0
LINE
  5
AAE1
  8
0
 10
623.01582292186504
 20
298.9049189704549
 30
0.0
 11
622.6622695312717
 21
298.75847236104818
 31
0.0
  0
LINE
  5
AAE2
  8
0
 10
607.07648309364458
 20
298.75847236104801
 30
0.0
 11
606.72292970305125
 21
298.90491897045467
 31
0.0
  0
LINE
  5
AAE3
  8
0
 10
606.72292970305125
 20
298.90491897045467
 30
0.0
 11
595.16226953127125
 21
310.4655791422345
 31
0.0
  0
ARC
  5
AAE4
  8
0
 10
614.86937631245792
 20
303.25847236104812
 30
0.0
 40
2.9000000000000341
 50
0.0
 51
61.670783738550057
  0
ARC
  5
AAE5
  8
0
 10
614.86937631245792
 20
303.25847236104812
 30
0.0
 40
2.9000000000000341
 50
118.3292162614499
 51
0.0
  0
ARC
  5
AAE6
  8
0
 10
595.8693763124578
 20
311.172685923421
 30
0.0
 40
1.0
 50
180.0
 51
225.0000000000046
  0
LINE
  5
AAE7
  8
0
 10
634.86937631245746
 20
323.75847236104829
 30
0.0
 11
634.86937631245746
 21
310.75847236104829
 31
0.0
  0
ARC
  5
AAE8
  8
0
 10
633.86937631245735
 20
311.1726859234214
 30
0.0
 40
1.0
 50
314.9999999999954
 51
0.0
  0
LINE
  5
AAE9
  8
0
 10
594.86937631245735
 20
310.75847236104772
 30
0.0
 11
594.86937631245735
 21
323.75847236104778
 31
0.0
  0
ARC
  5
AAEA
  8
0
 10
614.86937631245735
 20
323.75847236104812
 30
0.0
 40
20.00000000000006
 50
0.0
 51
135.52248781406959
  0
ARC
  5
AAEB
  8
0
 10
614.86937631245735
 20
323.75847236104812
 30
0.0
 40
19.99999999999994
 50
164.47751218593081
 51
180.0
  0
LINE
  5
AAEC
  8
0
 10
575.86937631245792
 20
310.75847236104738
 30
0.0
 11
594.86937631245792
 21
310.75847236104772
 31
0.0
  0
LINE
  5
AAED
  8
0
 10
574.8693763124578
 20
299.2584723610475
 30
0.0
 11
575.36937631245792
 21
298.7584723610475
 31
0.0
  0
LINE
  5
AAEE
  8
0
 10
654.36937631245837
 20
298.75847236104852
 30
0.0
 11
654.86937631245837
 21
299.25847236104852
 31
0.0
  0
LINE
  5
AAEF
  8
0
 10
654.36937631245837
 20
298.75847236104852
 30
0.0
 11
575.36937631245792
 21
298.7584723610475
 31
0.0
  0
LINE
  5
AAF0
  8
0
 10
574.8693763124578
 20
299.2584723610475
 30
0.0
 11
574.8693763124578
 21
309.75847236104738
 31
0.0
  0
LINE
  5
AAF1
  8
0
 10
654.86937631245837
 20
299.25847236104852
 30
0.0
 11
654.86937631245746
 21
309.75847236104852
 31
0.0
  0
ARC
  5
AAF2
  8
0
 10
575.86937631245792
 20
309.75847236104738
 30
0.0
 40
1.0
 50
90.0
 51
180.0
  0
ARC
  5
AAF3
  8
0
 10
653.86937631245735
 20
309.75847236104852
 30
0.0
 40
1.0
 50
0.0
 51
90.0
  0
LINE
  5
AAF4
  8
0
 10
634.86937631245746
 20
310.75847236104818
 30
0.0
 11
653.86937631245735
 21
310.7584723610484
 31
0.0
  0
LINE
  5
AAF5
  8
0
 10
541.89027077996889
 20
363.15594624980469
 30
0.0
 11
547.37046536084199
 21
372.64792169924033
 31
0.0
  0
LINE
  5
AAF6
  8
0
 10
538.78041573274413
 20
357.76951930383689
 30
0.0
 11
541.89027077996889
 21
363.15594624980469
 31
0.0
  0
LINE
  5
AAF7
  8
0
 10
501.31372484931848
 20
385.97426185325429
 30
0.0
 11
508.01241060672641
 21
397.57672592902293
 31
0.0
  0
LINE
  5
AAF8
  8
0
 10
497.51241060672641
 20
379.39019244954977
 30
0.0
 11
501.31372484931848
 21
385.97426185325429
 31
0.0
  0
LINE
  5
AAF9
  8
0
 10
500.02097120567709
 20
387.17711386178519
 30
0.0
 11
505.80567393228228
 21
397.19651289094719
 31
0.0
  0
LINE
  5
AAFA
  8
0
 10
496.73831641932787
 20
381.4913889881193
 30
0.0
 11
500.02097120567709
 21
387.17711386178519
 31
0.0
  0
LINE
  5
AAFB
  8
0
 10
376.22396015418008
 20
155.9893348912635
 30
0.0
 11
374.49696213794192
 21
156.12153985602049
 31
0.0
  0
LINE
  5
AAFC
  8
0
 10
374.49696213794192
 20
156.12153985602049
 30
0.0
 11
373.51896912646731
 21
154.69201820268489
 31
0.0
  0
LINE
  5
AAFD
  8
0
 10
373.51896912646731
 20
154.69201820268489
 30
0.0
 11
374.26797599387601
 21
153.13029170100771
 31
0.0
  0
LINE
  5
AAFE
  8
0
 10
374.26797599387601
 20
153.13029170100771
 30
0.0
 11
375.99497401011422
 21
152.9980867362508
 31
0.0
  0
LINE
  5
AAFF
  8
0
 10
375.99497401011422
 20
152.9980867362508
 30
0.0
 11
376.97296515894368
 21
154.42760838958631
 31
0.0
  0
LINE
  5
AB00
  8
0
 10
376.97296515894368
 20
154.42760838958631
 30
0.0
 11
376.22396015418008
 21
155.9893348912635
 31
0.0
  0
LINE
  5
AB01
  8
0
 10
405.14596664202639
 20
152.059813352015
 30
0.0
 11
405.14596664202639
 21
157.05981324025629
 31
0.0
  0
ARC
  5
AB02
  8
0
 10
421.25543193608098
 20
242.89304598305151
 30
0.0
 40
2.7893873387962631
 50
353.78977298898923
 51
31.321659956665069
  0
POLYLINE
  5
AB03
  8
0
 66
     1
 10
0.0
 20
0.0
 30
0.0
 70
   128
  0
VERTEX
  5
BB24
  8
0
 10
403.06348128211948
 20
242.59129897290109
 30
0.0
  0
VERTEX
  5
BB25
  8
0
 10
403.05892897737482
 20
242.63361082011099
 30
0.0
  0
VERTEX
  5
BB26
  8
0
 10
403.10221312535259
 20
243.43708888226391
 30
0.0
  0
VERTEX
  5
BB27
  8
0
 10
403.39028982413259
 20
244.2278413527572
 30
0.0
  0
VERTEX
  5
BB28
  8
0
 10
403.91640884769407
 20
244.98734608822701
 30
0.0
  0
VERTEX
  5
BB29
  8
0
 10
404.66823575985882
 20
245.69778875046609
 30
0.0
  0
VERTEX
  5
BB2A
  8
0
 10
405.62814621222469
 20
246.34252474242089
 30
0.0
  0
VERTEX
  5
BB2B
  8
0
 10
406.77364690196958
 20
246.90643683606029
 30
0.0
  0
VERTEX
  5
BB2C
  8
0
 10
408.07788593662229
 20
247.37631515198589
 30
0.0
  0
VERTEX
  5
BB2D
  8
0
 10
409.51028985870329
 20
247.74114028149481
 30
0.0
  0
VERTEX
  5
BB2E
  8
0
 10
411.03728262675259
 20
247.99235895806191
 30
0.0
  0
VERTEX
  5
BB2F
  8
0
 10
412.62308655274359
 20
248.1240852230155
 30
0.0
  0
VERTEX
  5
BB30
  8
0
 10
414.23051206362697
 20
248.13323453598861
 30
0.0
  0
VERTEX
  5
BB31
  8
0
 10
415.82189647448507
 20
248.0195908301437
 30
0.0
  0
VERTEX
  5
BB32
  8
0
 10
417.35993472826931
 20
247.78581396275399
 30
0.0
  0
VERTEX
  5
BB33
  8
0
 10
418.8085809160516
 20
247.43738756113891
 30
0.0
  0
VERTEX
  5
BB34
  8
0
 10
420.13387529147121
 20
246.9824849122131
 30
0.0
  0
VERTEX
  5
BB35
  8
0
 10
421.30474893343899
 20
246.43175289564971
 30
0.0
  0
VERTEX
  5
BB36
  8
0
 10
422.29376880419699
 20
245.7981108182037
 30
0.0
  0
VERTEX
  5
BB37
  8
0
 10
423.07774124634722
 20
245.09640768700481
 30
0.0
  0
VERTEX
  5
BB38
  8
0
 10
423.63830057871792
 20
244.34308693343041
 30
0.0
  0
SEQEND
  5
BB39
  8
0
  0
POLYLINE
  5
AB08
  8
0
 66
     1
 10
0.0
 20
0.0
 30
0.0
 70
   128
  0
VERTEX
  5
BB3A
  8
0
 10
408.54644549978229
 20
225.17550722294689
 30
0.0
  0
VERTEX
  5
BB3B
  8
0
 10
408.68720559370968
 20
225.73088840180279
 30
0.0
  0
VERTEX
  5
BB3C
  8
0
 10
409.07159967315653
 20
226.2566833251083
 30
0.0
  0
VERTEX
  5
BB3D
  8
0
 10
409.68036053669903
 20
226.72653183871151
 30
0.0
  0
VERTEX
  5
BB3E
  8
0
 10
410.4829594303414
 20
227.11686030560369
 30
0.0
  0
VERTEX
  5
BB3F
  8
0
 10
411.43914459240892
 20
227.4081109517181
 30
0.0
  0
VERTEX
  5
BB40
  8
0
 10
412.50097898734072
 20
227.58567318850399
 30
0.0
  0
VERTEX
  5
BB41
  8
0
 10
413.61521331561062
 20
227.64064357214809
 30
0.0
  0
VERTEX
  5
BB42
  8
0
 10
414.72597567332241
 20
227.57026538782949
 30
0.0
  0
VERTEX
  5
BB43
  8
0
 10
415.77756551993338
 20
227.3780702107513
 30
0.0
  0
VERTEX
  5
BB44
  8
0
 10
416.71725509655931
 20
227.07368419104461
 30
0.0
  0
VERTEX
  5
BB45
  8
0
 10
417.49792693150488
 20
226.67238846951361
 30
0.0
  0
VERTEX
  5
BB46
  8
0
 10
418.08042077315298
 20
226.1942921631896
 30
0.0
  0
VERTEX
  5
BB47
  8
0
 10
418.43554524672481
 20
225.663378691014
 30
0.0
  0
VERTEX
  5
BB48
  8
0
 10
418.54597030175182
 20
225.14088437491301
 30
0.0
  0
SEQEND
  5
BB49
  8
0
  0
CIRCLE
  5
AB0A
  8
0
 10
391.94596761954239
 20
154.55981329613559
 30
0.0
 40
3.7999999999999541
  0
LINE
  5
AB0B
  8
0
 10
420.045965891008
 20
172.55981252127509
 30
0.0
 11
420.04596589100811
 21
136.55981407099591
 31
0.0
  0
LINE
  5
AB0E
  8
0
 10
421.04596791756597
 20
137.55981237226351
 30
0.0
 11
421.04596791756597
 21
171.5598142200075
 31
0.0
  0
LINE
  5
AB0F
  8
0
 10
407.04596562278721
 20
136.55981407099591
 30
0.0
 11
407.04596562278721
 21
172.55981252127509
 31
0.0
  0
LINE
  5
AB10
  8
0
 10
406.04596732151958
 20
171.5598142200075
 30
0.0
 11
406.04596732151958
 21
137.55981237226351
 31
0.0
  0
POLYLINE
  5
AB11
  8
0
 66
     1
 10
0.0
 20
0.0
 30
0.0
 70
   128
  0
VERTEX
  5
BB4A
  8
0
 10
413.54596761954281
 20
166.0909017973504
 30
0.0
  0
VERTEX
  5
BB4B
  8
0
 10
414.49025420439688
 20
165.9785014071426
 30
0.0
  0
VERTEX
  5
BB4C
  8
0
 10
415.36451278222057
 20
165.6496346422395
 30
0.0
  0
VERTEX
  5
BB4D
  8
0
 10
416.1038934994981
 20
165.12869284087029
 30
0.0
  0
VERTEX
  5
BB4E
  8
0
 10
416.65356753361669
 20
164.45431098872041
 30
0.0
  0
VERTEX
  5
BB4F
  8
0
 10
416.97275785696962
 20
163.67650669598191
 30
0.0
  0
VERTEX
  5
BB50
  8
0
 10
417.03780887616131
 20
162.85296422028159
 30
0.0
  0
VERTEX
  5
BB51
  8
0
 10
416.84387771380398
 20
162.0447634213528
 30
0.0
  0
VERTEX
  5
BB52
  8
0
 10
416.40535889161077
 20
161.31184375443669
 30
0.0
  0
VERTEX
  5
BB53
  8
0
 10
415.75477419388739
 20
160.70856325858449
 30
0.0
  0
VERTEX
  5
BB54
  8
0
 10
414.94037358057949
 20
160.27966406726449
 30
0.0
  0
VERTEX
  5
BB55
  8
0
 10
414.02255145800558
 20
160.05695596867409
 30
0.0
  0
VERTEX
  5
BB56
  8
0
 10
413.06938378107998
 20
160.05695596867409
 30
0.0
  0
VERTEX
  5
BB57
  8
0
 10
412.15156165850613
 20
160.27966406726449
 30
0.0
  0
VERTEX
  5
BB58
  8
0
 10
411.33716104519817
 20
160.70856325858449
 30
0.0
  0
VERTEX
  5
BB59
  8
0
 10
410.68656889689419
 20
161.31184375443669
 30
0.0
  0
VERTEX
  5
BB5A
  8
0
 10
410.24805007470098
 20
162.0447634213528
 30
0.0
  0
VERTEX
  5
BB5B
  8
0
 10
410.05412636292431
 20
162.85296422028159
 30
0.0
  0
VERTEX
  5
BB5C
  8
0
 10
410.1191699315354
 20
163.67650669598191
 30
0.0
  0
VERTEX
  5
BB5D
  8
0
 10
410.43836770546892
 20
164.45431098872041
 30
0.0
  0
VERTEX
  5
BB5E
  8
0
 10
410.98804173958752
 20
165.12869284087029
 30
0.0
  0
VERTEX
  5
BB5F
  8
0
 10
411.72742245686499
 20
165.6496346422395
 30
0.0
  0
VERTEX
  5
BB60
  8
0
 10
412.60168103468868
 20
165.9785014071426
 30
0.0
  0
VERTEX
  5
BB61
  8
0
 10
413.54596761954281
 20
166.0909017973504
 30
0.0
  0
SEQEND
  5
BB62
  8
0
  0
POLYLINE
  5
AB12
  8
0
 66
     1
 10
0.0
 20
0.0
 30
0.0
 70
   128
  0
VERTEX
  5
BB63
  8
0
 10
413.54596761954281
 20
164.72487696045249
 30
0.0
  0
VERTEX
  5
BB64
  8
0
 10
414.31851087105719
 20
164.6189110779128
 30
0.0
  0
VERTEX
  5
BB65
  8
0
 10
415.0154307295129
 20
164.31138650112959
 30
0.0
  0
VERTEX
  5
BB66
  8
0
 10
415.56850967896429
 20
163.8324054383597
 30
0.0
  0
VERTEX
  5
BB67
  8
0
 10
415.92361180079428
 20
163.22885439329951
 30
0.0
  0
VERTEX
  5
BB68
  8
0
 10
416.04596523535702
 20
162.559813676115
 30
0.0
  0
VERTEX
  5
BB69
  8
0
 10
415.92361180079428
 20
161.89077202760791
 30
0.0
  0
VERTEX
  5
BB6A
  8
0
 10
415.56850967896429
 20
161.28722098254769
 30
0.0
  0
VERTEX
  5
BB6B
  8
0
 10
415.0154307295129
 20
160.8082399197778
 30
0.0
  0
VERTEX
  5
BB6C
  8
0
 10
414.31851087105719
 20
160.50071534299471
 30
0.0
  0
VERTEX
  5
BB6D
  8
0
 10
413.54596761954281
 20
160.39474992611619
 30
0.0
  0
VERTEX
  5
BB6E
  8
0
 10
412.77342436802837
 20
160.50071534299471
 30
0.0
  0
VERTEX
  5
BB6F
  8
0
 10
412.07650450957271
 20
160.8082399197778
 30
0.0
  0
VERTEX
  5
BB70
  8
0
 10
411.52342556012132
 20
161.28722098254769
 30
0.0
  0
VERTEX
  5
BB71
  8
0
 10
411.16832343829128
 20
161.89077202760791
 30
0.0
  0
VERTEX
  5
BB72
  8
0
 10
411.0459700037286
 20
162.559813676115
 30
0.0
  0
VERTEX
  5
BB73
  8
0
 10
411.16832343829128
 20
163.22885439329951
 30
0.0
  0
VERTEX
  5
BB74
  8
0
 10
411.52342556012132
 20
163.8324054383597
 30
0.0
  0
VERTEX
  5
BB75
  8
0
 10
412.07650450957271
 20
164.31138650112959
 30
0.0
  0
VERTEX
  5
BB76
  8
0
 10
412.77342436802837
 20
164.6189110779128
 30
0.0
  0
VERTEX
  5
BB77
  8
0
 10
413.54596761954281
 20
164.72487696045249
 30
0.0
  0
SEQEND
  5
BB78
  8
0
  0
POLYLINE
  5
AB13
  8
0
 66
     1
 10
0.0
 20
0.0
 30
0.0
 70
   128
  0
VERTEX
  5
BB79
  8
0
 10
413.54596761954281
 20
141.58738110744571
 30
0.0
  0
VERTEX
  5
BB7A
  8
0
 10
414.49025420439688
 20
141.5224865504465
 30
0.0
  0
VERTEX
  5
BB7B
  8
0
 10
415.36451278222057
 20
141.33261502319189
 30
0.0
  0
VERTEX
  5
BB7C
  8
0
 10
416.1038934994981
 20
141.0318490543327
 30
0.0
  0
VERTEX
  5
BB7D
  8
0
 10
416.65356753361669
 20
140.6424956821761
 30
0.0
  0
VERTEX
  5
BB7E
  8
0
 10
416.97275785696962
 20
140.1934296318255
 30
0.0
  0
VERTEX
  5
BB7F
  8
0
 10
417.03780887616131
 20
139.71795686119421
 30
0.0
  0
VERTEX
  5
BB80
  8
0
 10
416.84387771380398
 20
139.25134189957009
 30
0.0
  0
VERTEX
  5
BB81
  8
0
 10
416.40535889161077
 20
138.8281917625032
 30
0.0
  0
VERTEX
  5
BB82
  8
0
 10
415.75477419388739
 20
138.47988643282281
 30
0.0
  0
VERTEX
  5
BB83
  8
0
 10
414.94037358057949
 20
138.2322607987486
 30
0.0
  0
VERTEX
  5
BB84
  8
0
 10
414.02255145800558
 20
138.10368054145201
 30
0.0
  0
VERTEX
  5
BB85
  8
0
 10
413.06938378107998
 20
138.10368054145201
 30
0.0
  0
VERTEX
  5
BB86
  8
0
 10
412.15156165850613
 20
138.2322607987486
 30
0.0
  0
VERTEX
  5
BB87
  8
0
 10
411.33716104519817
 20
138.47988643282281
 30
0.0
  0
VERTEX
  5
BB88
  8
0
 10
410.68656889689419
 20
138.8281917625032
 30
0.0
  0
VERTEX
  5
BB89
  8
0
 10
410.24805007470098
 20
139.25134189957009
 30
0.0
  0
VERTEX
  5
BB8A
  8
0
 10
410.05412636292431
 20
139.71795686119421
 30
0.0
  0
VERTEX
  5
BB8B
  8
0
 10
410.1191699315354
 20
140.1934296318255
 30
0.0
  0
VERTEX
  5
BB8C
  8
0
 10
410.43836770546892
 20
140.6424956821761
 30
0.0
  0
VERTEX
  5
BB8D
  8
0
 10
410.98804173958752
 20
141.0318490543327
 30
0.0
  0
VERTEX
  5
BB8E
  8
0
 10
411.72742245686499
 20
141.33261502319189
 30
0.0
  0
VERTEX
  5
BB8F
  8
0
 10
412.60168103468868
 20
141.5224865504465
 30
0.0
  0
VERTEX
  5
BB90
  8
0
 10
413.54596761954281
 20
141.58738110744571
 30
0.0
  0
SEQEND
  5
BB91
  8
0
  0
POLYLINE
  5
AB14
  8
0
 66
     1
 10
0.0
 20
0.0
 30
0.0
 70
   128
  0
VERTEX
  5
BB92
  8
0
 10
415.89117197287533
 20
141.13641981565581
 30
0.0
  0
VERTEX
  5
BB93
  8
0
 10
415.92361180079428
 20
141.08967766695841
 30
0.0
  0
VERTEX
  5
BB94
  8
0
 10
416.04596523535702
 20
140.70340697252379
 30
0.0
  0
VERTEX
  5
BB95
  8
0
 10
415.92361180079428
 20
140.31713534676661
 30
0.0
  0
VERTEX
  5
BB96
  8
0
 10
415.56850967896429
 20
139.96867541753869
 30
0.0
  0
VERTEX
  5
BB97
  8
0
 10
415.0154307295129
 20
139.692135942813
 30
0.0
  0
VERTEX
  5
BB98
  8
0
 10
414.31851087105719
 20
139.51458581322061
 30
0.0
  0
VERTEX
  5
BB99
  8
0
 10
413.54596761954281
 20
139.45340723329409
 30
0.0
  0
VERTEX
  5
BB9A
  8
0
 10
412.77342436802837
 20
139.51458581322061
 30
0.0
  0
VERTEX
  5
BB9B
  8
0
 10
412.07650450957271
 20
139.692135942813
 30
0.0
  0
VERTEX
  5
BB9C
  8
0
 10
411.52342556012132
 20
139.96867541753869
 30
0.0
  0
VERTEX
  5
BB9D
  8
0
 10
411.16832343829128
 20
140.31713534676661
 30
0.0
  0
VERTEX
  5
BB9E
  8
0
 10
411.0459700037286
 20
140.70340697252379
 30
0.0
  0
VERTEX
  5
BB9F
  8
0
 10
411.16832343829128
 20
141.08967766695841
 30
0.0
  0
VERTEX
  5
BBA0
  8
0
 10
411.20075581562969
 20
141.13641981565581
 30
0.0
  0
SEQEND
  5
BBA1
  8
0
  0
CIRCLE
  5
AB15
  8
0
 10
375.24596761954263
 20
154.55981329613559
 30
0.0
 40
2.8999999999999768
  0
CIRCLE
  5
AB16
  8
0
 10
391.94596761954239
 20
154.55981329613559
 30
0.0
 40
4.5
  0
LINE
  5
AB17
  8
0
 10
404.24596630824038
 20
161.85270654567711
 30
0.0
 11
403.8924139071745
 21
162.35270662763349
 31
0.0
  0
LINE
  5
AB18
  8
0
 10
403.8924139071745
 20
146.76691996463771
 30
0.0
 11
404.24596630824038
 21
147.26692004659409
 31
0.0
  0
LINE
  5
AB19
  8
0
 10
386.53886058223679
 20
145.35270616942279
 30
0.0
 11
371.2104328055425
 21
130.0242802553737
 31
0.0
  0
LINE
  5
AB1A
  8
0
 10
403.74596902025172
 20
146.41336709791059
 30
0.0
 11
403.8924139071745
 21
146.76691996463771
 31
0.0
  0
LINE
  5
AB1B
  8
0
 10
403.74596902025172
 20
146.41336709791059
 30
0.0
 11
388.30662631285622
 21
146.41336709791059
 31
0.0
  0
LINE
  5
AB1C
  8
0
 10
388.30662631285622
 20
162.70625949436061
 30
0.0
 11
403.74596902025172
 21
162.70625949436061
 31
0.0
  0
LINE
  5
AB1D
  8
0
 10
403.8924139071745
 20
162.35270662763349
 30
0.0
 11
403.74596902025172
 21
162.70625949436061
 31
0.0
  0
LINE
  5
AB1E
  8
0
 10
371.2104328055425
 20
179.09534633689759
 30
0.0
 11
386.53886058223679
 21
163.76692042284839
 31
0.0
  0
ARC
  5
AB1F
  8
0
 10
359.74596761954263
 20
124.5598132961356
 30
0.0
 40
10.0
 50
270.0
 51
0.0
  0
ARC
  5
AB20
  8
0
 10
359.74596761954263
 20
124.5598132961356
 30
0.0
 40
10.0
 50
180.0
 51
270.0
  0
CIRCLE
  5
AB21
  8
0
 10
359.74596761954263
 20
124.5598132961356
 30
0.0
 40
4.5
  0
LINE
  5
AB22
  8
0
 10
369.74596717250779
 20
126.48874506884449
 30
0.0
 11
369.74596717250779
 21
124.5598139666879
 31
0.0
  0
LINE
  5
AB23
  8
0
 10
349.74596761954263
 20
124.5598139666879
 30
0.0
 11
349.74596761954263
 21
184.55981262558339
 31
0.0
  0
ARC
  5
AB24
  8
0
 10
374.74596761954263
 20
126.4887454842701
 30
0.0
 40
5.000000000000056
 50
134.9999999999954
 51
180.0
  0
LINE
  5
AB25
  8
0
 10
404.24596630824038
 20
147.26692004659409
 30
0.0
 11
404.74596732151929
 21
147.47402662941451
 31
0.0
  0
LINE
  5
AB27
  8
0
 10
403.74596902025172
 20
134.85270724230639
 30
0.0
 11
403.74596902025172
 21
146.41336709791059
 31
0.0
  0
LINE
  5
AB28
  8
0
 10
404.74596732151929
 20
161.64559996285669
 30
0.0
 11
404.24596630824038
 21
161.85270654567711
 31
0.0
  0
CIRCLE
  5
AB2A
  8
0
 10
391.94596761954239
 20
154.55981329613559
 30
0.0
 40
4.0
  0
CIRCLE
  5
AB2B
  8
0
 10
375.24596761954263
 20
154.55981329613559
 30
0.0
 40
2.1000000000000218
  0
LINE
  5
AB2C
  8
0
 10
404.74596732151929
 20
173.55981268518801
 30
0.0
 11
404.74596732151929
 21
135.5598139070832
 31
0.0
  0
LINE
  5
AB2D
  8
0
 10
403.74596902025172
 20
162.70625949436061
 30
0.0
 11
403.74596902025172
 21
174.26691934996481
 31
0.0
  0
ARC
  5
AB2E
  8
0
 10
374.74596761954263
 20
182.6308811080012
 30
0.0
 40
5.000000000000056
 50
180.0
 51
225.0000000000046
  0
CIRCLE
  5
AB2F
  8
0
 10
359.74596761954263
 20
184.55981329613559
 30
0.0
 40
4.5
  0
LINE
  5
AB30
  8
0
 10
369.74596717250779
 20
184.55981262558339
 30
0.0
 11
369.74596717250779
 21
182.63088152342669
 31
0.0
  0
ARC
  5
AB31
  8
0
 10
359.74596761954263
 20
184.55981329613559
 30
0.0
 40
10.00000000000011
 50
90.0
 51
180.0
  0
ARC
  5
AB32
  8
0
 10
359.74596761954263
 20
184.55981329613559
 30
0.0
 40
10.00000000000011
 50
0.0
 51
90.0
  0
LINE
  5
AB33
  8
0
 10
333.7459668595834
 20
137.55981237226351
 30
0.0
 11
333.7459668595834
 21
171.5598142200075
 31
0.0
  0
LINE
  5
AB34
  8
0
 10
336.74596735132172
 20
174.55981284910069
 30
0.0
 11
336.74596735132172
 21
134.55981374317031
 31
0.0
  0
LINE
  5
AB35
  8
0
 10
376.7459683198972
 20
134.55981374317039
 30
0.0
 11
375.74596815598437
 21
134.55981374317039
 31
0.0
  0
LINE
  5
AB36
  8
0
 10
375.74596815598437
 20
174.55981284910081
 30
0.0
 11
376.7459683198972
 21
174.55981284910081
 31
0.0
  0
LINE
  5
AB37
  8
0
 10
403.74596902025172
 20
134.55981374317039
 30
0.0
 11
403.74596902025172
 21
134.85270724230639
 31
0.0
  0
LINE
  5
AB38
  8
0
 10
403.74596902025172
 20
134.55981374317039
 30
0.0
 11
376.7459683198972
 21
134.55981374317039
 31
0.0
  0
LINE
  5
AB39
  8
0
 10
403.74596902025172
 20
134.55981374317039
 30
0.0
 11
404.74596732151929
 21
135.5598139070832
 31
0.0
  0
LINE
  5
AB3A
  8
0
 10
403.74596902025172
 20
174.26691934996481
 30
0.0
 11
403.74596902025172
 21
174.55981284910081
 31
0.0
  0
LINE
  5
AB3B
  8
0
 10
376.7459683198972
 20
174.55981284910081
 30
0.0
 11
403.74596902025172
 21
174.55981284910081
 31
0.0
  0
LINE
  5
AB3C
  8
0
 10
403.74596902025172
 20
174.55981284910081
 30
0.0
 11
404.74596732151929
 21
173.55981268518801
 31
0.0
  0
LINE
  5
AB3D
  8
0
 10
329.74596806657752
 20
145.55981368356569
 30
0.0
 11
329.74596806657752
 21
163.55981290870531
 31
0.0
  0
POLYLINE
  5
AB3E
  8
0
 66
     1
 10
0.0
 20
0.0
 30
0.0
 70
   128
  0
VERTEX
  5
BBA2
  8
0
 10
421.80250732195827
 20
227.53892079525829
 30
0.0
  0
VERTEX
  5
BBA3
  8
0
 10
422.08433298361751
 20
226.82418659859539
 30
0.0
  0
VERTEX
  5
BBA4
  8
0
 10
422.12169019473049
 20
226.1057792656982
 30
0.0
  0
SEQEND
  5
BBA5
  8
0
  0
POLYLINE
  5
AB3F
  8
0
 66
     1
 10
0.0
 20
0.0
 30
0.0
 70
   128
  0
VERTEX
  5
BBA6
  8
0
 10
404.97024504435512
 20
226.1057792656982
 30
0.0
  0
VERTEX
  5
BBA7
  8
0
 10
404.95856998455969
 20
226.2470571749771
 30
0.0
  0
VERTEX
  5
BBA8
  8
0
 10
405.04602862489668
 20
226.97422639065621
 30
0.0
  0
VERTEX
  5
BBA9
  8
0
 10
405.37801532042482
 20
227.68355146580581
 30
0.0
  0
VERTEX
  5
BBAA
  8
0
 10
405.94497842681858
 20
228.35461780959011
 30
0.0
  0
VERTEX
  5
BBAB
  8
0
 10
406.73060862315151
 20
228.96812841826321
 30
0.0
  0
VERTEX
  5
BBAC
  8
0
 10
407.71230457318279
 20
229.5064179652297
 30
0.0
  0
VERTEX
  5
BBAD
  8
0
 10
408.86182485115978
 20
229.9540190451705
 30
0.0
  0
VERTEX
  5
BBAE
  8
0
 10
410.14609632981268
 20
230.29804215365289
 30
0.0
  0
VERTEX
  5
BBAF
  8
0
 10
411.52817903054211
 20
230.52860037022469
 30
0.0
  0
VERTEX
  5
BBB0
  8
0
 10
412.96830920470211
 20
230.63904777699349
 30
0.0
  0
VERTEX
  5
BBB1
  8
0
 10
414.42506162417379
 20
230.62622532778619
 30
0.0
  0
VERTEX
  5
BBB2
  8
0
 10
415.85651932251898
 20
230.4904831998908
 30
0.0
  0
VERTEX
  5
BBB3
  8
0
 10
417.22150294077852
 20
230.23574039870141
 30
0.0
  0
VERTEX
  5
BBB4
  8
0
 10
418.48075536978689
 20
229.8693133943641
 30
0.0
  0
VERTEX
  5
BBB5
  8
0
 10
419.59803698552099
 20
229.4017522090042
 30
0.0
  0
VERTEX
  5
BBB6
  8
0
 10
420.54122088444677
 20
228.84651259117959
 30
0.0
  0
VERTEX
  5
BBB7
  8
0
 10
421.2831571508691
 20
228.2195536845291
 30
0.0
  0
VERTEX
  5
BBB8
  8
0
 10
421.80250732195827
 20
227.53892079525829
 30
0.0
  0
SEQEND
  5
BBB9
  8
0
  0
POLYLINE
  5
AB40
  8
0
 66
     1
 10
0.0
 20
0.0
 30
0.0
 70
   128
  0
VERTEX
  5
BBBA
  8
0
 10
420.8460986424729
 20
226.6217841260993
 30
0.0
  0
VERTEX
  5
BBBB
  8
0
 10
421.10300211203548
 20
225.9531988256538
 30
0.0
  0
VERTEX
  5
BBBC
  8
0
 10
421.1170092035577
 20
225.27241692477111
 30
0.0
  0
VERTEX
  5
BBBD
  8
0
 10
420.88768033278438
 20
224.6013356798255
 30
0.0
  0
VERTEX
  5
BBBE
  8
0
 10
420.4223766733453
 20
223.96150962048409
 30
0.0
  0
VERTEX
  5
BBBF
  8
0
 10
419.73606644165972
 20
223.3735023491943
 30
0.0
  0
VERTEX
  5
BBC0
  8
0
 10
418.85079590571382
 20
222.8562234395111
 30
0.0
  0
VERTEX
  5
BBC1
  8
0
 10
418.54597030175182
 20
222.71539256506799
 30
0.0
  0
SEQEND
  5
BBC2
  8
0
  0
POLYLINE
  5
AB41
  8
0
 66
     1
 10
0.0
 20
0.0
 30
0.0
 70
   128
  0
VERTEX
  5
BBC3
  8
0
 10
408.54596866262409
 20
222.71539256506799
 30
0.0
  0
VERTEX
  5
BBC4
  8
0
 10
407.87809116733519
 20
223.04607913428191
 30
0.0
  0
VERTEX
  5
BBC5
  8
0
 10
407.06645844471899
 20
223.59272078209759
 30
0.0
  0
VERTEX
  5
BBC6
  8
0
 10
406.46308435094812
 20
224.2030425422752
 30
0.0
  0
VERTEX
  5
BBC7
  8
0
 10
406.08735902202579
 20
224.85741958552239
 30
0.0
  0
VERTEX
  5
BBC8
  8
0
 10
405.95135612380949
 20
225.53482637339471
 30
0.0
  0
VERTEX
  5
BBC9
  8
0
 10
406.05945287240002
 20
226.2134923093879
 30
0.0
  0
VERTEX
  5
BBCA
  8
0
 10
406.40817357194868
 20
226.87159464293359
 30
0.0
  0
VERTEX
  5
BBCB
  8
0
 10
406.98630509865728
 20
227.48799607687829
 30
0.0
  0
VERTEX
  5
BBCC
  8
0
 10
407.77527315509769
 20
228.04287061625359
 30
0.0
  0
VERTEX
  5
BBCD
  8
0
 10
408.74971223962763
 20
228.51838902169109
 30
0.0
  0
VERTEX
  5
BBCE
  8
0
 10
409.8783075619981
 20
228.89927015238641
 30
0.0
  0
VERTEX
  5
BBCF
  8
0
 10
411.12478969586351
 20
229.17327270441891
 30
0.0
  0
VERTEX
  5
BBD0
  8
0
 10
412.44908569348308
 20
229.33159009152291
 30
0.0
  0
VERTEX
  5
BBD1
  8
0
 10
413.80863783848741
 20
229.36913356715081
 30
0.0
  0
VERTEX
  5
BBD2
  8
0
 10
415.15974847567531
 20
229.28468868666531
 30
0.0
  0
VERTEX
  5
BBD3
  8
0
 10
416.45898817074749
 20
229.08098236256481
 30
0.0
  0
VERTEX
  5
BBD4
  8
0
 10
417.66460387003872
 20
228.7645487540328
 30
0.0
  0
VERTEX
  5
BBD5
  8
0
 10
418.7378376532838
 20
228.34556535416479
 30
0.0
  0
VERTEX
  5
BBD6
  8
0
 10
419.64420823348019
 20
227.83750281267999
 30
0.0
  0
VERTEX
  5
BBD7
  8
0
 10
420.35456893933269
 20
227.25668535166619
 30
0.0
  0
VERTEX
  5
BBD8
  8
0
 10
420.8460986424729
 20
226.6217841260993
 30
0.0
  0
VERTEX
  5
BBD9
  8
0
 10
420.8460986424729
 20
226.6217841260993
 30
0.0
  0
SEQEND
  5
BBDA
  8
0
  0
LINE
  5
AB42
  8
1
 10
173.3756319196504
 20
323.75847236104789
 30
0.0
 11
223.37563191965049
 21
323.75847236104789
 31
0.0
  0
LINE
  5
AB43
  8
1
 10
198.3756319196504
 20
348.75847236104789
 30
0.0
 11
198.3756319196504
 21
293.75847236104801
 31
0.0
  0
LINE
  5
AB44
  8
1
 10
352.24596761954263
 20
516.71514368232988
 30
0.0
 11
367.24596761954263
 21
516.71514368233022
 31
0.0
  0
LINE
  5
AB45
  8
1
 10
359.74596761954263
 20
524.21514368232999
 30
0.0
 11
359.74596761954263
 21
509.21514368233011
 31
0.0
  0
LINE
  5
AB46
  8
0
 10
329.74596806657752
 20
332.75847420879188
 30
0.0
 11
333.7459668595834
 21
336.75847113915268
 31
0.0
  0
LINE
  5
AB47
  8
0
 10
333.7459668595834
 20
340.75847179480382
 30
0.0
 11
336.74596735132172
 21
343.75847414918729
 31
0.0
  0
LINE
  5
AB48
  8
0
 10
336.74596735132172
 20
343.75847414918729
 30
0.0
 11
389.24596943748429
 21
343.75847414918729
 31
0.0
  0
LINE
  5
AB4E
  8
0
 10
399.74596836460069
 20
343.75847414918729
 30
0.0
 11
403.74596902025172
 21
343.75847414918729
 31
0.0
  0
LINE
  5
AB4F
  8
0
 10
403.74596902025172
 20
343.75847414918729
 30
0.0
 11
404.74596732151929
 21
342.75847212262943
 31
0.0
  0
LINE
  5
AB50
  8
0
 10
404.74596732151929
 20
339.7584734935362
 30
0.0
 11
406.04596732151958
 21
339.7584734935362
 31
0.0
  0
LINE
  5
AB51
  8
0
 10
329.74596806657752
 20
314.75847312100723
 30
0.0
 11
333.7459668595834
 21
310.75847246535608
 31
0.0
  0
LINE
  5
AB52
  8
0
 10
333.7459668595834
 20
306.75847274102762
 30
0.0
 11
336.74596735132172
 21
303.75847224928918
 31
0.0
  0
LINE
  5
AB53
  8
0
 10
336.74596735132172
 20
303.75847224928918
 30
0.0
 11
349.74596761954263
 21
303.75847224928918
 31
0.0
  0
LINE
  5
AB54
  8
0
 10
386.53886058223679
 20
299.25847238479668
 30
0.0
 11
386.18530818117102
 21
298.75847236104789
 31
0.0
  0
LINE
  5
AB55
  8
0
 10
405.14596664202639
 20
300.75847245604291
 30
0.0
 11
404.74596732151929
 21
300.75847245604291
 31
0.0
  0
LINE
  5
AB56
  8
0
 10
405.14596664202639
 20
305.75847257711479
 30
0.0
 11
404.74596732151929
 21
305.75847257711479
 31
0.0
  0
LINE
  5
AB57
  8
0
 10
404.74596732151929
 20
307.75847197361782
 30
0.0
 11
406.04596732151958
 21
307.75847197361782
 31
0.0
  0
POLYLINE
  5
AB6E
  8
0
 66
     1
 10
0.0
 20
0.0
 30
0.0
 70
     2
  0
VERTEX
  5
AB6F
  8
0
 10
349.74596761954263
 20
317.51347436264962
 30
0.0
 42
-0.0100039131339355
  0
VERTEX
  5
AB70
  8
0
 10
349.79501412150381
 20
318.5815591368335
 30
0.0
 42
-0.0223017170767198
 70
     1
  0
VERTEX
  5
AB71
  8
0
 10
349.84792075788442
 20
319.05844102236802
 30
0.0
 42
-0.0013824795323017
  0
VERTEX
  5
AB72
  8
0
 10
350.14125929680722
 20
320.90129424524252
 30
0.0
 42
-0.0103040220612866
 70
     1
  0
VERTEX
  5
AB73
  8
0
 10
350.18638852099463
 20
321.14758624515082
 30
0.0
 42
-0.0010549005705656
  0
VERTEX
  5
AB74
  8
0
 10
350.2393088926101
 20
321.40346680801639
 30
0.0
 42
-0.0002048428274682
 70
     1
  0
VERTEX
  5
AB75
  8
0
 10
350.51515732584448
 20
322.72050952571959
 30
0.0
 42
-0.0029844741189079
  0
VERTEX
  5
AB76
  8
0
 10
350.58220710209122
 20
323.03076321147432
 30
0.0
 42
-0.0012700144581591
 70
     1
  0
VERTEX
  5
AB77
  8
0
 10
350.74596766704008
 20
323.75847236104789
 30
0.0
  0
SEQEND
  5
AB78
  8
0
  0
LINE
  5
AB7B
  8
0
 10
217.6461410488514
 20
329.11080623529227
 30
0.0
 11
271.456704085208
 21
360.17834077885999
 31
0.0
  0
LINE
  5
AB7C
  8
0
 10
271.456704085208
 20
360.17834077885999
 30
0.0
 11
271.63971667602482
 21
360.86135641523259
 31
0.0
  0
LINE
  5
AB7D
  8
0
 10
267.13971500709482
 20
368.65558759160888
 30
0.0
 11
266.45670538261362
 21
368.83859620281112
 31
0.0
  0
LINE
  5
AB7E
  8
0
 10
266.45670538261362
 20
368.83859620281112
 30
0.0
 11
212.64560441388909
 21
337.77160495207391
 31
0.0
  0
LINE
  5
AB7F
  8
0
 10
274.4645924993647
 20
357.76951930383632
 30
0.0
 11
291.96022157981821
 21
365.66520766206662
 31
0.0
  0
LINE
  5
AB80
  8
0
 10
291.96022157981821
 20
365.66520766206662
 30
0.0
 11
315.73259537532749
 21
379.39019040056161
 31
0.0
  0
LINE
  5
AB81
  8
0
 10
305.23259644821059
 20
397.57672236152581
 30
0.0
 11
281.46022265270182
 21
383.85173962303071
 31
0.0
  0
LINE
  5
AB82
  8
0
 10
281.46022265270182
 20
383.85173962303071
 30
0.0
 11
265.87453936651173
 21
372.64792159982568
 31
0.0
  0
LINE
  5
AB85
  8
0
 10
602.39439718058611
 20
336.73440761286628
 30
0.0
 11
546.78830590402629
 21
368.83859937997101
 31
0.0
  0
LINE
  5
AB86
  8
0
 10
546.78830590402629
 20
368.83859937997101
 30
0.0
 11
546.10529320213436
 21
368.65558667807937
 31
0.0
  0
LINE
  5
AB87
  8
0
 10
541.60529320213425
 20
360.86135804401931
 30
0.0
 11
541.7883059040264
 21
360.17834534212722
 31
0.0
  0
LINE
  5
AB88
  8
0
 10
541.7883059040264
 20
360.17834534212722
 30
0.0
 11
597.39439718058566
 21
328.07415357502168
 31
0.0
  0
LINE
  5
AB8B
  8
0
 10
547.37046536084199
 20
372.64792169924033
 30
0.0
 11
531.78478512644585
 21
383.85173910078589
 31
0.0
  0
LINE
  5
AB8C
  8
0
 10
531.78478512644585
 20
383.85173910078589
 30
0.0
 11
508.01241060672641
 21
397.57672592902247
 31
0.0
  0
LINE
  5
AB8D
  8
0
 10
497.51241060672641
 20
379.39019244954977
 30
0.0
 11
521.28478512644494
 21
365.66520562131308
 31
0.0
  0
LINE
  5
AB8E
  8
0
 10
521.28478512644494
 20
365.66520562131308
 30
0.0
 11
538.78041573274413
 21
357.76951930383677
 31
0.0
  0
LINE
  5
AB8F
  8
0
 10
329.74596806657752
 20
555.71514329489992
 30
0.0
 11
333.7459668595834
 21
559.71514395055101
 31
0.0
  0
LINE
  5
AB90
  8
0
 10
333.7459668595834
 20
563.7151446062021
 30
0.0
 11
336.74596735132172
 21
566.71514323529527
 31
0.0
  0
LINE
  5
AB91
  8
0
 10
329.74596806657752
 20
537.7151440697603
 30
0.0
 11
333.7459668595834
 21
533.71514341410921
 31
0.0
  0
LINE
  5
AB92
  8
0
 10
333.7459668595834
 20
529.71514275845811
 30
0.0
 11
336.74596735132172
 21
526.71514412936494
 31
0.0
  0
LINE
  5
AB95
  8
0
 10
404.74596732151929
 20
562.71514444228933
 30
0.0
 11
406.04596732151958
 21
562.71514444228933
 31
0.0
  0
LINE
  5
AB96
  8
0
 10
406.04596732151958
 20
563.7151446062021
 30
0.0
 11
407.04596562278721
 21
564.71514290746973
 31
0.0
  0
LINE
  5
AB97
  8
0
 10
407.04596562278721
 20
564.71514290746973
 30
0.0
 11
420.04596589100811
 21
564.71514290746973
 31
0.0
  0
LINE
  5
AB98
  8
0
 10
420.04596589100811
 20
564.71514290746973
 30
0.0
 11
421.04596791756597
 21
563.7151446062021
 31
0.0
  0
LINE
  5
AB99
  8
0
 10
404.74596732151929
 20
530.71514292237089
 30
0.0
 11
406.04596732151958
 21
530.71514292237089
 31
0.0
  0
LINE
  5
AB9A
  8
0
 10
406.04596732151958
 20
529.71514275845811
 30
0.0
 11
407.04596562278721
 21
528.71514445719049
 31
0.0
  0
LINE
  5
AB9B
  8
0
 10
407.04596562278721
 20
528.71514445719049
 30
0.0
 11
408.54596866262409
 21
528.71514445719049
 31
0.0
  0
LINE
  5
AB9C
  8
0
 10
418.54597030175182
 20
528.71514445719049
 30
0.0
 11
420.04596589100811
 21
528.71514445719049
 31
0.0
  0
LINE
  5
AB9D
  8
0
 10
420.04596589100811
 20
528.71514445719049
 30
0.0
 11
421.04596791756597
 21
529.71514275845811
 31
0.0
  0
LINE
  5
AB9E
  8
0
 10
418.54597030175182
 20
531.55969882932231
 30
0.0
 11
418.54597030175182
 21
508.60676491168198
 31
0.0
  0
LINE
  5
AB9F
  8
0
 10
408.54596866262409
 20
478.77441827221588
 30
0.0
 11
408.54596866262409
 21
499.9465117968748
 31
0.0
  0
POLYLINE
  5
ABA0
  8
0
 66
     1
 10
0.0
 20
0.0
 30
0.0
 70
     2
  0
VERTEX
  5
ABA1
  8
0
 10
408.54596866262409
 20
530.50785286900327
 30
0.0
 42
-0.0196544428778654
  0
VERTEX
  5
ABA2
  8
0
 10
408.46403513088723
 20
530.61411139608231
 30
0.0
 42
-0.0313699046351764
 70
     1
  0
VERTEX
  5
ABA3
  8
0
 10
408.41972152414422
 20
530.68561115993361
 30
0.0
 42
-0.0118933322121131
  0
VERTEX
  5
ABA4
  8
0
 10
408.33490626368439
 20
530.85327573444124
 30
0.0
 42
-0.0302187478431327
 70
     1
  0
VERTEX
  5
ABA5
  8
0
 10
408.30717199585382
 20
530.92189088035821
 30
0.0
 42
-0.0503800706672934
  0
VERTEX
  5
ABA6
  8
0
 10
408.2854880000159
 20
531.01749890193719
 30
0.0
 42
-0.0348479273329291
 70
     1
  0
VERTEX
  5
ABA7
  8
0
 10
408.27803410970682
 20
531.15884742499577
 30
0.0
 42
-0.0448077132575572
  0
VERTEX
  5
ABA8
  8
0
 10
408.296895263088
 20
531.3352141953784
 30
0.0
 42
-0.03132478036278
 70
     1
  0
VERTEX
  5
ABA9
  8
0
 10
408.36174137637403
 20
531.58023636122493
 30
0.0
 42
-0.0256093113311774
  0
VERTEX
  5
ABAA
  8
0
 10
408.41418867466922
 20
531.71443787215344
 30
0.0
 42
-0.0136667204667977
 70
     1
  0
VERTEX
  5
ABAB
  8
0
 10
408.53183880242608
 20
531.95731081764097
 30
0.0
 42
-0.0537217664180155
  0
VERTEX
  5
ABAC
  8
0
 10
408.84926045563219
 20
532.43575398937651
 30
0.0
 42
-0.0423480121440991
 70
     1
  0
VERTEX
  5
ABAD
  8
0
 10
409.35978944214179
 20
532.95414627276773
 30
0.0
 42
-0.0288802844464929
  0
VERTEX
  5
ABAE
  8
0
 10
409.8903142951566
 20
533.35799826603238
 30
0.0
 42
-0.0306541123027015
 70
     1
  0
VERTEX
  5
ABAF
  8
0
 10
410.43184348490189
 20
533.67646664328845
 30
0.0
 42
-0.0152231350785447
  0
VERTEX
  5
ABB0
  8
0
 10
410.9879979408588
 20
533.93821440052329
 30
0.0
 42
-0.0250955744598888
 70
     1
  0
VERTEX
  5
ABB1
  8
0
 10
411.33719530420461
 20
534.06935806410547
 30
0.0
 42
-0.0209562105441075
  0
VERTEX
  5
ABB2
  8
0
 10
411.82653378647223
 20
534.20329798659816
 30
0.0
 42
-0.016459857810978
 70
     1
  0
VERTEX
  5
ABB3
  8
0
 10
412.46044304458832
 20
534.32675637186344
 30
0.0
 42
-0.0162739430210662
  0
VERTEX
  5
ABB4
  8
0
 10
413.05827628599309
 20
534.40302374696296
 30
0.0
 42
-0.0200842593919416
 70
     1
  0
VERTEX
  5
ABB5
  8
0
 10
413.54596761954281
 20
534.42947248545215
 30
0.0
 42
-0.0280635057116415
  0
VERTEX
  5
ABB6
  8
0
 10
414.08421225944119
 20
534.40680117759337
 30
0.0
 42
-0.0206606090338904
 70
     1
  0
VERTEX
  5
ABB7
  8
0
 10
414.8085913758286
 20
534.30507224952692
 30
0.0
 42
-0.0186539013976912
  0
VERTEX
  5
ABB8
  8
0
 10
415.36830874214462
 20
534.18099985809113
 30
0.0
 42
-0.0201400555817948
 70
     1
  0
VERTEX
  5
ABB9
  8
0
 10
415.87628796739409
 20
534.02624223668568
 30
0.0
 42
-0.0298779077750457
  0
VERTEX
  5
ABBA
  8
0
 10
416.4526052326791
 20
533.78547257203581
 30
0.0
 42
-0.0269168344172761
 70
     1
  0
VERTEX
  5
ABBB
  8
0
 10
417.05781600708991
 20
533.44750502214504
 30
0.0
 42
-0.0220453804986492
  0
VERTEX
  5
ABBC
  8
0
 10
417.55307620155548
 20
533.10342118951428
 30
0.0
 42
-0.0307958571775296
 70
     1
  0
VERTEX
  5
ABBD
  8
0
 10
417.87980863565178
 20
532.8209609665123
 30
0.0
 42
-0.0214206624413735
  0
VERTEX
  5
ABBE
  8
0
 10
418.2137931745865
 20
532.46498620262423
 30
0.0
 42
-0.0325244205326536
 70
     1
  0
VERTEX
  5
ABBF
  8
0
 10
418.40735525905251
 20
532.20806968224736
 30
0.0
 42
-0.0110116313114392
  0
VERTEX
  5
ABC0
  8
0
 10
418.52984868482588
 20
532.01209279363695
 30
0.0
 42
-0.0162549167839285
 70
     1
  0
VERTEX
  5
ABC1
  8
0
 10
418.6054815478023
 20
531.8749864762699
 30
0.0
 42
-0.0205972078435655
  0
VERTEX
  5
ABC2
  8
0
 10
418.69125020309718
 20
531.68817111667806
 30
0.0
 42
-0.0227399085931591
 70
     1
  0
VERTEX
  5
ABC3
  8
0
 10
418.754005776349
 20
531.51285345819417
 30
0.0
 42
-0.0320180168452427
  0
VERTEX
  5
ABC4
  8
0
 10
418.79336305039942
 20
531.34792872977334
 30
0.0
 42
-0.0354215696917359
 70
     1
  0
VERTEX
  5
ABC5
  8
0
 10
418.80858027625618
 20
531.19538705865511
 30
0.0
 42
-0.0279952902224829
  0
VERTEX
  5
ABC6
  8
0
 10
418.8056892151389
 20
531.08974838342624
 30
0.0
 42
-0.0344933839569185
 70
     1
  0
VERTEX
  5
ABC7
  8
0
 10
418.79267196515133
 20
531.00493688237805
 30
0.0
 42
-0.0390403463514459
  0
VERTEX
  5
ABC8
  8
0
 10
418.77324076947662
 20
530.94196422433765
 30
0.0
 42
-0.0114245302233322
 70
     1
  0
VERTEX
  5
ABC9
  8
0
 10
418.68562569041478
 20
530.73484227232325
 30
0.0
 42
-0.0355130888940585
  0
VERTEX
  5
ABCA
  8
0
 10
418.63795841270979
 20
530.64633612722832
 30
0.0
 42
-0.0221968523275412
 70
     1
  0
VERTEX
  5
ABCB
  8
0
 10
418.54597030175182
 20
530.51455652889535
 30
0.0
  0
SEQEND
  5
ABCC
  8
0
  0
POLYLINE
  5
ABCD
  8
0
 66
     1
 10
0.0
 20
0.0
 30
0.0
 70
     2
  0
VERTEX
  5
ABCE
  8
0
 10
404.97024504435512
 20
475.16917771276769
 30
0.0
 42
-0.0502287150906824
  0
VERTEX
  5
ABCF
  8
0
 10
405.18512277338499
 20
476.00331698092913
 30
0.0
 42
-0.0726364186757405
 70
     1
  0
VERTEX
  5
ABD0
  8
0
 10
405.47017078094541
 20
476.52819119857219
 30
0.0
 42
-0.0082882026089231
  0
VERTEX
  5
ABD1
  8
0
 10
405.89000618974018
 20
477.07014043847653
 30
0.0
 42
-0.0281729909669663
 70
     1
  0
VERTEX
  5
ABD2
  8
0
 10
406.02490074877551
 20
477.22026463755009
 30
0.0
 42
-0.0194286604457815
  0
VERTEX
  5
ABD3
  8
0
 10
406.29744654070049
 20
477.47092732497208
 30
0.0
 42
-0.0135869479525543
 70
     1
  0
VERTEX
  5
ABD4
  8
0
 10
406.7098931664658
 20
477.80280464824568
 30
0.0
 42
-0.0409435994279178
  0
VERTEX
  5
ABD5
  8
0
 10
407.42178191804391
 20
478.25765733147892
 30
0.0
 42
-0.0279308017160628
 70
     1
  0
VERTEX
  5
ABD6
  8
0
 10
408.54596866262409
 20
478.77441827221588
 30
0.0
 42
-0.0341558253429707
  0
VERTEX
  5
ABD7
  8
0
 10
410.00299839708708
 20
479.23591082251602
 30
0.0
 42
-0.0326889552546515
 70
     1
  0
VERTEX
  5
ABD8
  8
0
 10
411.57593121502617
 20
479.51093603230169
 30
0.0
 42
-0.0115564509779968
  0
VERTEX
  5
ABD9
  8
0
 10
412.69805467007973
 20
479.60613133166129
 30
0.0
 42
-0.0152693068655095
 70
     1
  0
VERTEX
  5
ABDA
  8
0
 10
413.55005105599361
 20
479.63253821167189
 30
0.0
 42
-0.0191777345197327
  0
VERTEX
  5
ABDB
  8
0
 10
414.78513856029252
 20
479.58570249973059
 30
0.0
 42
-0.020003801780177
 70
     1
  0
VERTEX
  5
ABDC
  8
0
 10
415.96211318917619
 20
479.44825253344658
 30
0.0
 42
-0.0254213140301325
  0
VERTEX
  5
ABDD
  8
0
 10
417.36246590172959
 20
479.15403576481299
 30
0.0
 42
-0.0292168352264582
 70
     1
  0
VERTEX
  5
ABDE
  8
0
 10
418.54597030175182
 20
478.76663839992818
 30
0.0
 42
-0.0104282131457748
  0
VERTEX
  5
ABDF
  8
0
 10
419.08104112088489
 20
478.54317703905087
 30
0.0
 42
-0.0129013849884909
 70
     1
  0
VERTEX
  5
ABE0
  8
0
 10
419.50466929200041
 20
478.34256602458612
 30
0.0
 42
-0.0284829793508132
  0
VERTEX
  5
ABE1
  8
0
 10
420.02379830252812
 20
478.04186210389588
 30
0.0
 42
-0.0204868078063749
 70
     1
  0
VERTEX
  5
ABE2
  8
0
 10
420.70095383875559
 20
477.55542427592542
 30
0.0
 42
-0.0439210890764668
  0
VERTEX
  5
ABE3
  8
0
 10
420.99298930291292
 20
477.28244051990322
 30
0.0
 42
-0.018016390476048
 70
     1
  0
VERTEX
  5
ABE4
  8
0
 10
421.61628829118081
 20
476.5353194194646
 30
0.0
 42
-0.0761779679455792
  0
VERTEX
  5
ABE5
  8
0
 10
421.89297867318049
 20
476.03739380179849
 30
0.0
 42
-0.0484303721557612
 70
     1
  0
VERTEX
  5
ABE6
  8
0
 10
422.12110904944387
 20
475.17410254654231
 30
0.0
  0
SEQEND
  5
ABE7
  8
0
  0
LINE
  5
ABE8
  8
0
 10
404.97024504435512
 20
475.16917771276769
 30
0.0
 11
403.05892897737482
 21
458.64134615835491
 31
0.0
  0
LINE
  5
ABE9
  8
0
 10
403.04596869242641
 20
458.38055348572078
 30
0.0
 11
403.04597614300701
 21
434.61563027080842
 31
0.0
  0
LINE
  5
ABEA
  8
0
 10
424.0459665466592
 20
434.60817969021139
 30
0.0
 11
424.0459665466592
 21
458.38055348572078
 31
0.0
  0
LINE
  5
ABEB
  8
0
 10
424.04215929997417
 20
458.52191335138622
 30
0.0
 11
422.12110904944387
 21
475.17410254654231
 31
0.0
  0
POLYLINE
  5
ABEC
  8
0
 66
     1
 10
0.0
 20
0.0
 30
0.0
 70
     2
  0
VERTEX
  5
ABED
  8
0
 10
403.04597614300701
 20
434.61563027080842
 30
0.0
 42
0.0361263659221492
  0
VERTEX
  5
ABEE
  8
0
 10
403.09861754095073
 20
433.88717345065987
 30
0.0
 42
0.0576071294660727
 70
     1
  0
VERTEX
  5
ABEF
  8
0
 10
403.21635675374182
 20
433.44359391546669
 30
0.0
 42
0.0168607602296792
  0
VERTEX
  5
ABF0
  8
0
 10
403.55037867470492
 20
432.67138770095528
 30
0.0
 42
0.0341757283461287
 70
     1
  0
VERTEX
  5
ABF1
  8
0
 10
403.7533000145076
 20
432.30886449531772
 30
0.0
 42
0.0364520931494533
  0
VERTEX
  5
ABF2
  8
0
 10
404.25906090992061
 20
431.6456257036325
 30
0.0
 42
0.0380899327126473
 70
     1
  0
VERTEX
  5
ABF3
  8
0
 10
404.83201349883979
 20
431.08973065990102
 30
0.0
 42
0.0228026309416527
  0
VERTEX
  5
ABF4
  8
0
 10
405.57384555353929
 20
430.52748405869278
 30
0.0
 42
0.028806716744028
 70
     1
  0
VERTEX
  5
ABF5
  8
0
 10
406.2039776518763
 20
430.14516391617531
 30
0.0
 42
0.0122574261858558
  0
VERTEX
  5
ABF6
  8
0
 10
406.96536788372208
 20
429.76485445077338
 30
0.0
 42
0.0190354721843851
 70
     1
  0
VERTEX
  5
ABF7
  8
0
 10
407.47010905297338
 20
429.55105912213531
 30
0.0
 42
0.0116497080021198
  0
VERTEX
  5
ABF8
  8
0
 10
408.36848015125082
 20
429.23398189326309
 30
0.0
 42
0.0169298286916818
 70
     1
  0
VERTEX
  5
ABF9
  8
0
 10
408.99821402376301
 20
429.05143728237613
 30
0.0
 42
0.0048739123151346
  0
VERTEX
  5
ABFA
  8
0
 10
409.58625767200817
 20
428.90844363380228
 30
0.0
 42
0.0085968903180256
 70
     1
  0
VERTEX
  5
ABFB
  8
0
 10
409.9217222004317
 20
428.83638143450099
 30
0.0
 42
0.0063631480751445
  0
VERTEX
  5
ABFC
  8
0
 10
410.4443639594482
 20
428.74037019664712
 30
0.0
 42
0.0067392062447804
 70
     1
  0
VERTEX
  5
ABFD
  8
0
 10
410.94004976847009
 20
428.66267704454839
 30
0.0
 42
0.0080646838817248
  0
VERTEX
  5
ABFE
  8
0
 10
411.38402992026738
 20
428.60649781488542
 30
0.0
 42
0.005748891773116
 70
     1
  0
VERTEX
  5
ABFF
  8
0
 10
412.00877529302392
 20
428.54492470504351
 30
0.0
 42
0.011454106058064
  0
VERTEX
  5
AC00
  8
0
 10
412.67718768737359
 20
428.50219855156729
 30
0.0
 42
0.0091424739905198
 70
     1
  0
VERTEX
  5
AC01
  8
0
 10
413.51605910384291
 20
428.48320044772021
 30
0.0
 42
0.0118865770597172
  0
VERTEX
  5
AC02
  8
0
 10
414.34283495290941
 20
428.49925276790299
 30
0.0
 42
0.0110857583272314
 70
     1
  0
VERTEX
  5
AC03
  8
0
 10
415.22759368925011
 20
428.55715932577488
 30
0.0
 42
0.0086111106792632
  0
VERTEX
  5
AC04
  8
0
 10
415.75812755050708
 20
428.61293592481002
 30
0.0
 42
0.0065965800370567
 70
     1
  0
VERTEX
  5
AC05
  8
0
 10
416.44812562935749
 20
428.70677020927542
 30
0.0
 42
0.0161690706149613
  0
VERTEX
  5
AC06
  8
0
 10
417.26840636340052
 20
428.85662215940488
 30
0.0
 42
0.0127684774684688
 70
     1
  0
VERTEX
  5
AC07
  8
0
 10
418.2943347912705
 20
429.10612102699582
 30
0.0
 42
0.0186929804193355
  0
VERTEX
  5
AC08
  8
0
 10
419.13418433483088
 20
429.36727882690968
 30
0.0
 42
0.0179322710581314
 70
     1
  0
VERTEX
  5
AC09
  8
0
 10
419.98736901047772
 20
429.70284069073972
 30
0.0
 42
0.0171865178190244
  0
VERTEX
  5
AC0A
  8
0
 10
420.65668604719212
 20
430.02200062856377
 30
0.0
 42
0.0178118997955687
 70
     1
  0
VERTEX
  5
AC0B
  8
0
 10
421.27939959668669
 20
430.3743721432545
 30
0.0
 42
0.0194039888801421
  0
VERTEX
  5
AC0C
  8
0
 10
421.72440375686699
 20
430.67191796293559
 30
0.0
 42
0.016182227232034
 70
     1
  0
VERTEX
  5
AC0D
  8
0
 10
422.23122715427638
 20
431.06569628937399
 30
0.0
 42
0.0313003251532392
  0
VERTEX
  5
AC0E
  8
0
 10
422.74051637831781
 20
431.54537988342167
 30
0.0
 42
0.0319880843842947
 70
     1
  0
VERTEX
  5
AC0F
  8
0
 10
423.17565722760452
 20
432.07390951455272
 30
0.0
 42
0.0295858621683658
  0
VERTEX
  5
AC10
  8
0
 10
423.48150653690482
 20
432.55564337864519
 30
0.0
 42
0.0294596728697622
 70
     1
  0
VERTEX
  5
AC11
  8
0
 10
423.72954310005753
 20
433.07224743331312
 30
0.0
 42
0.0237861452041318
  0
VERTEX
  5
AC12
  8
0
 10
423.85327943994611
 20
433.42075966368083
 30
0.0
 42
0.0146706447949631
 70
     1
  0
VERTEX
  5
AC13
  8
0
 10
424.00983911933321
 20
433.99935754733878
 30
0.0
 42
0.0439400169164996
  0
VERTEX
  5
AC14
  8
0
 10
424.04029718008218
 20
434.20492740023673
 30
0.0
 42
0.0226099458819335
 70
     1
  0
VERTEX
  5
AC15
  8
0
 10
424.0459665466592
 20
434.60817969021139
 30
0.0
  0
SEQEND
  5
AC16
  8
0
  0
POLYLINE
  5
AC17
  8
0
 66
     1
 10
0.0
 20
0.0
 30
0.0
 70
     2
  0
VERTEX
  5
AC18
  8
0
 10
413.54625367407971
 20
550.77758674054735
 30
0.0
 42
0.0343030907590799
  0
VERTEX
  5
AC19
  8
0
 10
414.437191935518
 20
550.84086212590682
 30
0.0
 42
0.0555681683832571
 70
     1
  0
VERTEX
  5
AC1A
  8
0
 10
414.97237723192842
 20
550.9778044199935
 30
0.0
 42
0.0132102747711773
  0
VERTEX
  5
AC1B
  8
0
 10
415.96381033507072
 20
551.38295781126203
 30
0.0
 42
0.0376334343296897
 70
     1
  0
VERTEX
  5
AC1C
  8
0
 10
416.29601185438139
 20
551.55997738897304
 30
0.0
 42
0.0226806591902755
  0
VERTEX
  5
AC1D
  8
0
 10
416.82016821931018
 20
551.92646055402224
 30
0.0
 42
0.0272995501780661
 70
     1
  0
VERTEX
  5
AC1E
  8
0
 10
417.22318259106902
 20
552.27294636466888
 30
0.0
 42
0.0237639290564942
  0
VERTEX
  5
AC1F
  8
0
 10
417.57507440864981
 20
552.64424257550138
 30
0.0
 42
0.0220437809220463
 70
     1
  0
VERTEX
  5
AC20
  8
0
 10
417.91619509244077
 20
553.07749980926155
 30
0.0
 42
0.0357692030368757
  0
VERTEX
  5
AC21
  8
0
 10
418.26197639386368
 20
553.63973421707317
 30
0.0
 42
0.0340778848281729
 70
     1
  0
VERTEX
  5
AC22
  8
0
 10
418.53921590755181
 20
554.27456967745661
 30
0.0
 42
0.0312639062575828
  0
VERTEX
  5
AC23
  8
0
 10
418.70083342295209
 20
554.83426933521798
 30
0.0
 42
0.0343774380294069
 70
     1
  0
VERTEX
  5
AC24
  8
0
 10
418.77995742266103
 20
555.3582411658299
 30
0.0
 42
0.0302822579312651
  0
VERTEX
  5
AC25
  8
0
 10
418.79089458531001
 20
555.88904700708031
 30
0.0
 42
0.0332156714616305
 70
     1
  0
VERTEX
  5
AC26
  8
0
 10
418.73950482391177
 20
556.37043272307847
 30
0.0
 42
0.0298584526865203
  0
VERTEX
  5
AC27
  8
0
 10
418.64115195673048
 20
556.78588529152626
 30
0.0
 42
0.0286512085655025
 70
     1
  0
VERTEX
  5
AC28
  8
0
 10
418.48883168738712
 20
557.20389115090063
 30
0.0
 42
0.0391220468218934
  0
VERTEX
  5
AC29
  8
0
 10
418.2341534506881
 20
557.68724481023742
 30
0.0
 42
0.0385737880915313
 70
     1
  0
VERTEX
  5
AC2A
  8
0
 10
417.90314595460808
 20
558.13159271240011
 30
0.0
 42
0.0297345005642682
  0
VERTEX
  5
AC2B
  8
0
 10
417.52874300712119
 20
558.51248362546494
 30
0.0
 42
0.031403532379708
 70
     1
  0
VERTEX
  5
AC2C
  8
0
 10
417.13286858166612
 20
558.82724599048925
 30
0.0
 42
0.02368131717928
  0
VERTEX
  5
AC2D
  8
0
 10
416.67432886557748
 20
559.11575660113624
 30
0.0
 42
0.0252074390049535
 70
     1
  0
VERTEX
  5
AC2E
  8
0
 10
416.21911863289728
 20
559.34347793041218
 30
0.0
 42
0.0255056585329201
  0
VERTEX
  5
AC2F
  8
0
 10
415.73738809609438
 20
559.52614992540703
 30
0.0
 42
0.0204604032458302
 70
     1
  0
VERTEX
  5
AC30
  8
0
 10
415.1186465974892
 20
559.6977461066723
 30
0.0
 42
0.0300679928766166
  0
VERTEX
  5
AC31
  8
0
 10
414.37280221024128
 20
559.82539076333944
 30
0.0
 42
0.0274722235369957
 70
     1
  0
VERTEX
  5
AC32
  8
0
 10
413.54596761954281
 20
559.87045689102933
 30
0.0
 42
0.0269648903462047
  0
VERTEX
  5
AC33
  8
0
 10
412.80159315069608
 20
559.82992530315903
 30
0.0
 42
0.0255458666433374
 70
     1
  0
VERTEX
  5
AC34
  8
0
 10
412.02473891943191
 20
559.70503984840934
 30
0.0
 42
0.0257468642144409
  0
VERTEX
  5
AC35
  8
0
 10
411.38124735936799
 20
559.53250800306841
 30
0.0
 42
0.0265265252785818
 70
     1
  0
VERTEX
  5
AC36
  8
0
 10
410.7775248747389
 20
559.30078769698764
 30
0.0
 42
0.0377134460477701
  0
VERTEX
  5
AC37
  8
0
 10
410.1383189080388
 20
558.9557992301477
 30
0.0
 42
0.0407349157631095
 70
     1
  0
VERTEX
  5
AC38
  8
0
 10
409.60354228263247
 20
558.5477997538718
 30
0.0
 42
0.0280699593081044
  0
VERTEX
  5
AC39
  8
0
 10
409.19042824181719
 20
558.13146770718254
 30
0.0
 42
0.0361775860529344
 70
     1
  0
VERTEX
  5
AC3A
  8
0
 10
408.91377111155629
 20
557.76985248004212
 30
0.0
 42
0.0232630933929003
  0
VERTEX
  5
AC3B
  8
0
 10
408.71328571220232
 20
557.43097200122986
 30
0.0
 42
0.025741668121728
 70
     1
  0
VERTEX
  5
AC3C
  8
0
 10
408.56291669941669
 20
557.10842559361379
 30
0.0
 42
0.0356737438680616
  0
VERTEX
  5
AC3D
  8
0
 10
408.40201893895392
 20
556.61203426638997
 30
0.0
 42
0.0365998405621535
 70
     1
  0
VERTEX
  5
AC3E
  8
0
 10
408.31648378845227
 20
556.11063092912946
 30
0.0
 42
0.0233090497882666
  0
VERTEX
  5
AC3F
  8
0
 10
408.29697320246208
 20
555.71430001215799
 30
0.0
 42
0.0241157585975492
 70
     1
  0
VERTEX
  5
AC40
  8
0
 10
408.31447376927821
 20
555.33114787661384
 30
0.0
 42
0.0274195637839804
  0
VERTEX
  5
AC41
  8
0
 10
408.37588037558362
 20
554.92121480796425
 30
0.0
 42
0.0224064042737064
 70
     1
  0
VERTEX
  5
AC42
  8
0
 10
408.50051934959441
 20
554.42964907237229
 30
0.0
 42
0.0352025973510605
  0
VERTEX
  5
AC43
  8
0
 10
408.69168733412511
 20
553.92711460946077
 30
0.0
 42
0.0276705713944058
 70
     1
  0
VERTEX
  5
AC44
  8
0
 10
409.01297476444319
 20
553.32360966746432
 30
0.0
 42
0.0335186156379597
  0
VERTEX
  5
AC45
  8
0
 10
409.35571937625542
 20
552.83482770469959
 30
0.0
 42
0.0282860412774104
 70
     1
  0
VERTEX
  5
AC46
  8
0
 10
409.83000679076201
 20
552.31027265774526
 30
0.0
 42
0.0371672931041473
  0
VERTEX
  5
AC47
  8
0
 10
410.41967605052469
 20
551.80871833156107
 30
0.0
 42
0.036973091475696
 70
     1
  0
VERTEX
  5
AC48
  8
0
 10
411.08038828260709
 20
551.39759748106746
 30
0.0
 42
0.0306706661339791
  0
VERTEX
  5
AC49
  8
0
 10
411.48024273741288
 20
551.21837278536475
 30
0.0
 42
0.0143644209435139
 70
     1
  0
VERTEX
  5
AC4A
  8
0
 10
412.36431005416529
 20
550.91424562081693
 30
0.0
 42
0.0469068183165869
  0
VERTEX
  5
AC4B
  8
0
 10
412.80519351721068
 20
550.82080182041545
 30
0.0
 42
0.0284385553216353
 70
     1
  0
VERTEX
  5
AC4C
  8
0
 10
413.54625367408011
 20
550.77758674054735
 30
0.0
  0
SEQEND
  5
AC4D
  8
0
  0
LINE
  5
AC4E
  8
0
 10
329.74596806657752
 20
163.55981290870531
 30
0.0
 11
333.7459668595834
 21
167.5598135643564
 31
0.0
  0
LINE
  5
AC4F
  8
0
 10
333.7459668595834
 20
171.5598142200075
 30
0.0
 11
336.74596735132172
 21
174.55981284910069
 31
0.0
  0
LINE
  5
AC50
  8
0
 10
336.74596735132172
 20
174.55981284910069
 30
0.0
 11
349.74596761954263
 21
174.55981284910069
 31
0.0
  0
LINE
  5
AC51
  8
0
 10
329.74596806657752
 20
145.55981368356569
 30
0.0
 11
333.7459668595834
 21
141.5598130279146
 31
0.0
  0
LINE
  5
AC52
  8
0
 10
333.7459668595834
 20
137.55981237226351
 30
0.0
 11
336.74596735132172
 21
134.55981374317031
 31
0.0
  0
LINE
  5
AC53
  8
0
 10
336.74596735132172
 20
134.55981374317031
 30
0.0
 11
349.74596761954263
 21
134.55981374317031
 31
0.0
  0
LINE
  5
AC54
  8
0
 10
404.74596732151929
 20
157.05981324025629
 30
0.0
 11
405.14596664202639
 21
157.05981324025629
 31
0.0
  0
LINE
  5
AC55
  8
0
 10
404.74596732151929
 20
152.059813352015
 30
0.0
 11
405.14596664202639
 21
152.059813352015
 31
0.0
  0
LINE
  5
AC56
  8
0
 10
404.74596732151929
 20
170.55981405609469
 30
0.0
 11
406.04596732151958
 21
170.55981405609469
 31
0.0
  0
LINE
  5
AC57
  8
0
 10
406.04596732151958
 20
137.55981237226351
 30
0.0
 11
407.04596562278721
 21
136.55981407099591
 31
0.0
  0
LINE
  5
AC58
  8
0
 10
407.04596562278721
 20
136.55981407099591
 30
0.0
 11
420.04596589100811
 21
136.55981407099591
 31
0.0
  0
LINE
  5
AC59
  8
0
 10
420.04596589100811
 20
136.55981407099591
 30
0.0
 11
421.04596791756597
 21
137.55981237226351
 31
0.0
  0
LINE
  5
AC5A
  8
0
 10
404.74596732151929
 20
138.55981253617631
 30
0.0
 11
406.04596732151958
 21
138.55981253617631
 31
0.0
  0
LINE
  5
AC5B
  8
0
 10
406.04596732151958
 20
171.5598142200075
 30
0.0
 11
407.04596562278721
 21
172.55981252127509
 31
0.0
  0
LINE
  5
AC5C
  8
0
 10
407.04596562278721
 20
172.55981252127509
 30
0.0
 11
420.04596589100811
 21
172.55981252127509
 31
0.0
  0
LINE
  5
AC5D
  8
0
 10
420.04596589100811
 20
172.55981252127509
 30
0.0
 11
421.04596791756597
 21
171.5598142200075
 31
0.0
  0
POLYLINE
  5
AC5E
  8
0
 66
     1
 10
0.0
 20
0.0
 30
0.0
 70
     2
  0
VERTEX
  5
AC5F
  8
0
 10
413.5462647574704
 20
137.0240402985992
 30
0.0
 42
0.0106704166106401
  0
VERTEX
  5
AC60
  8
0
 10
414.45842738790719
 20
137.03646463716399
 30
0.0
 42
0.0169601804891748
 70
     1
  0
VERTEX
  5
AC61
  8
0
 10
415.0311020307758
 20
137.07597126476381
 30
0.0
 42
0.0013558770517924
  0
VERTEX
  5
AC62
  8
0
 10
415.946302642435
 20
137.1728902148763
 30
0.0
 42
0.0086475091978975
 70
     1
  0
VERTEX
  5
AC63
  8
0
 10
416.0894782772807
 20
137.1909554720464
 30
0.0
 42
0.019329793676274
  0
VERTEX
  5
AC64
  8
0
 10
416.74261212847472
 20
137.31079242634021
 30
0.0
 42
0.0230226384904393
 70
     1
  0
VERTEX
  5
AC65
  8
0
 10
417.2805904425436
 20
137.45745683681491
 30
0.0
 42
0.0127474676580495
  0
VERTEX
  5
AC66
  8
0
 10
417.48658729349557
 20
137.52978922200799
 30
0.0
 42
0.0115556422343464
 70
     1
  0
VERTEX
  5
AC67
  8
0
 10
417.7096787231639
 20
137.62052548968501
 30
0.0
 42
0.0297875057154061
  0
VERTEX
  5
AC68
  8
0
 10
417.9543119692957
 20
137.74446961233639
 30
0.0
 42
0.0235866568256767
 70
     1
  0
VERTEX
  5
AC69
  8
0
 10
418.24473130459319
 20
137.9329541311879
 30
0.0
 42
0.0452292040274157
  0
VERTEX
  5
AC6A
  8
0
 10
418.40418811620651
 20
138.07091239958771
 30
0.0
 42
0.0346338516614326
 70
     1
  0
VERTEX
  5
AC6B
  8
0
 10
418.58099087975052
 20
138.281708136931
 30
0.0
 42
0.0688682718301605
  0
VERTEX
  5
AC6C
  8
0
 10
418.72457889938732
 20
138.55015695520001
 30
0.0
 42
0.0687701923471198
 70
     1
  0
VERTEX
  5
AC6D
  8
0
 10
418.79001399651901
 20
138.84791959861829
 30
0.0
 42
0.042214239744052
  0
VERTEX
  5
AC6E
  8
0
 10
418.78860607509017
 20
139.1093649598167
 30
0.0
 42
0.0454563650784592
 70
     1
  0
VERTEX
  5
AC6F
  8
0
 10
418.74497845342052
 20
139.3482848114063
 30
0.0
 42
0.030486884676102
  0
VERTEX
  5
AC70
  8
0
 10
418.65561616219918
 20
139.60713365376679
 30
0.0
 42
0.0308544974890808
 70
     1
  0
VERTEX
  5
AC71
  8
0
 10
418.53668960645012
 20
139.85018072348819
 30
0.0
 42
0.0367226538398057
  0
VERTEX
  5
AC72
  8
0
 10
418.27868976862243
 20
140.2353733363741
 30
0.0
 42
0.0356395109125988
 70
     1
  0
VERTEX
  5
AC73
  8
0
 10
417.95843485455538
 20
140.58977628339071
 30
0.0
 42
0.0161749210122946
  0
VERTEX
  5
AC74
  8
0
 10
417.65677600402472
 20
140.86102874863599
 30
0.0
 42
0.0194281343775294
 70
     1
  0
VERTEX
  5
AC75
  8
0
 10
417.39016964817699
 20
141.0684461116831
 30
0.0
 42
0.0191130343368989
  0
VERTEX
  5
AC76
  8
0
 10
417.00120830909088
 20
141.32556855704411
 30
0.0
 42
0.0176658828911912
 70
     1
  0
VERTEX
  5
AC77
  8
0
 10
416.56110326697711
 20
141.57206520645079
 30
0.0
 42
0.0212497880845394
  0
VERTEX
  5
AC78
  8
0
 10
416.07542062587208
 20
141.79641774887051
 30
0.0
 42
0.023940045334056
 70
     1
  0
VERTEX
  5
AC79
  8
0
 10
415.62805031738299
 20
141.9558622344141
 30
0.0
 42
0.0206778212282339
  0
VERTEX
  5
AC7A
  8
0
 10
415.17781722836111
 20
142.07233641203379
 30
0.0
 42
0.0153692141144456
 70
     1
  0
VERTEX
  5
AC7B
  8
0
 10
414.56247573285322
 20
142.18498500928899
 30
0.0
 42
0.0157113261754214
  0
VERTEX
  5
AC7C
  8
0
 10
414.04273455883867
 20
142.2470781719091
 30
0.0
 42
0.0165307513609489
 70
     1
  0
VERTEX
  5
AC7D
  8
0
 10
413.54596761954281
 20
142.27414256491869
 30
0.0
 42
0.0322410633530098
  0
VERTEX
  5
AC7E
  8
0
 10
412.9606829976637
 20
142.248906426058
 30
0.0
 42
0.0232339083694692
 70
     1
  0
VERTEX
  5
AC7F
  8
0
 10
412.15776784556368
 20
142.12426218620911
 30
0.0
 42
0.0210868965185192
  0
VERTEX
  5
AC80
  8
0
 10
411.50353232046473
 20
141.96232990494121
 30
0.0
 42
0.0256175375377403
 70
     1
  0
VERTEX
  5
AC81
  8
0
 10
410.97966933699672
 20
141.7793577146229
 30
0.0
 42
0.0247647554099155
  0
VERTEX
  5
AC82
  8
0
 10
410.4154661318475
 20
141.515963387629
 30
0.0
 42
0.0268575241010515
 70
     1
  0
VERTEX
  5
AC83
  8
0
 10
409.92296710060458
 20
141.22074923603989
 30
0.0
 42
0.0171483201932031
  0
VERTEX
  5
AC84
  8
0
 10
409.51727918238203
 20
140.9262039727343
 30
0.0
 42
0.0218963165100524
 70
     1
  0
VERTEX
  5
AC85
  8
0
 10
409.21846585445468
 20
140.6714015344769
 30
0.0
 42
0.0211168855248305
  0
VERTEX
  5
AC86
  8
0
 10
409.02328372986938
 20
140.47359309640129
 30
0.0
 42
0.0151269344160102
 70
     1
  0
VERTEX
  5
AC87
  8
0
 10
408.77158012992362
 20
140.17851456997121
 30
0.0
 42
0.042084376427974
  0
VERTEX
  5
AC88
  8
0
 10
408.58954312915409
 20
139.907731362269
 30
0.0
 42
0.0302451144190995
 70
     1
  0
VERTEX
  5
AC89
  8
0
 10
408.39334914875411
 20
139.49873681880939
 30
0.0
 42
0.0742598031923276
  0
VERTEX
  5
AC8A
  8
0
 10
408.29726812718258
 20
139.1036443535852
 30
0.0
 42
0.0775740165562256
 70
     1
  0
VERTEX
  5
AC8B
  8
0
 10
408.32238065348878
 20
138.71502423497779
 30
0.0
 42
0.066128927605885
  0
VERTEX
  5
AC8C
  8
0
 10
408.44242766100751
 20
138.38761188220059
 30
0.0
 42
0.0740868682973815
 70
     1
  0
VERTEX
  5
AC8D
  8
0
 10
408.62636656462058
 20
138.13607672321751
 30
0.0
 42
0.033861562949908
  0
VERTEX
  5
AC8E
  8
0
 10
408.90161405568409
 20
137.89281272431271
 30
0.0
 42
0.0447007821974542
 70
     1
  0
VERTEX
  5
AC8F
  8
0
 10
409.13657227360682
 20
137.74328581531
 30
0.0
 42
0.0198609443877095
  0
VERTEX
  5
AC90
  8
0
 10
409.53059905204918
 20
137.5588940908861
 30
0.0
 42
0.0269351412969548
 70
     1
  0
VERTEX
  5
AC91
  8
0
 10
409.83267227859773
 20
137.4506370221651
 30
0.0
 42
0.013020510192638
  0
VERTEX
  5
AC92
  8
0
 10
410.31441796886833
 20
137.32030088310921
 30
0.0
 42
0.0172016865232702
 70
     1
  0
VERTEX
  5
AC93
  8
0
 10
410.68440677991828
 20
137.243841529463
 30
0.0
 42
0.0094721232178881
  0
VERTEX
  5
AC94
  8
0
 10
411.31394205735558
 20
137.1484126577738
 30
0.0
 42
0.0127888247110268
 70
     1
  0
VERTEX
  5
AC95
  8
0
 10
411.78292955635828
 20
137.09855043804191
 30
0.0
 42
0.0045623326079984
  0
VERTEX
  5
AC96
  8
0
 10
411.93240144027959
 20
137.08788699902169
 30
0.0
 42
0.0008403950440249
 70
     1
  0
VERTEX
  5
AC97
  8
0
 10
412.74441549977598
 20
137.03876962796821
 30
0.0
 42
0.0100920403750907
  0
VERTEX
  5
AC98
  8
0
 10
413.00875999671678
 20
137.02857395630309
 30
0.0
 42
0.0049663893421496
 70
     1
  0
VERTEX
  5
AC99
  8
0
 10
413.5462647574704
 20
137.0240402985992
 30
0.0
  0
SEQEND
  5
AC9A
  8
0
  0
POLYLINE
  5
AC9B
  8
0
 66
     1
 10
0.0
 20
0.0
 30
0.0
 70
     2
  0
VERTEX
  5
AC9C
  8
0
 10
413.61737766415757
 20
158.62276249810421
 30
0.0
 42
0.0364595811606817
  0
VERTEX
  5
AC9D
  8
0
 10
414.52330010557898
 20
158.70351327337909
 30
0.0
 42
0.0531264067798646
 70
     1
  0
VERTEX
  5
AC9E
  8
0
 10
415.12610682710141
 20
158.8690097511479
 30
0.0
 42
0.0059520588565487
  0
VERTEX
  5
AC9F
  8
0
 10
415.83802302627868
 20
159.15832175055689
 30
0.0
 42
0.0252470649642184
 70
     1
  0
VERTEX
  5
ACA0
  8
0
 10
416.00137837573311
 20
159.2369064237549
 30
0.0
 42
0.0204910984712666
  0
VERTEX
  5
ACA1
  8
0
 10
416.4838703481459
 20
159.5260252230207
 30
0.0
 42
0.0246904525285883
 70
     1
  0
VERTEX
  5
ACA2
  8
0
 10
416.86108945340351
 20
159.80117277864821
 30
0.0
 42
0.0193967816795794
  0
VERTEX
  5
ACA3
  8
0
 10
417.20797724212878
 20
160.10440733457449
 30
0.0
 42
0.019989826371573
 70
     1
  0
VERTEX
  5
ACA4
  8
0
 10
417.52038642109159
 20
160.4242249617987
 30
0.0
 42
0.0207235319434888
  0
VERTEX
  5
ACA5
  8
0
 10
417.76261929532802
 20
160.71637046255969
 30
0.0
 42
0.0164315857375223
 70
     1
  0
VERTEX
  5
ACA6
  8
0
 10
418.0398850601477
 20
161.10642437896081
 30
0.0
 42
0.0319710246309475
  0
VERTEX
  5
ACA7
  8
0
 10
418.29728908774899
 20
161.5547586174232
 30
0.0
 42
0.0265765931070641
 70
     1
  0
VERTEX
  5
ACA8
  8
0
 10
418.54175275436131
 20
162.12638809668289
 30
0.0
 42
0.0333631786978987
  0
VERTEX
  5
ACA9
  8
0
 10
418.6941651825245
 20
162.64800172032639
 30
0.0
 42
0.032195553766596
 70
     1
  0
VERTEX
  5
ACAA
  8
0
 10
418.78009884988739
 20
163.20449563540461
 30
0.0
 42
0.030556948017315
  0
VERTEX
  5
ACAB
  8
0
 10
418.7929710140333
 20
163.6683071691229
 30
0.0
 42
0.0284988193505899
 70
     1
  0
VERTEX
  5
ACAC
  8
0
 10
418.74809790292687
 20
164.16371723035661
 30
0.0
 42
0.037097589610234
  0
VERTEX
  5
ACAD
  8
0
 10
418.64362397890397
 20
164.62769877451569
 30
0.0
 42
0.0336136180106591
 70
     1
  0
VERTEX
  5
ACAE
  8
0
 10
418.4573703193746
 20
165.11829691636439
 30
0.0
 42
0.0453203309388013
  0
VERTEX
  5
ACAF
  8
0
 10
418.11485045216841
 20
165.71566338733351
 30
0.0
 42
0.050266218366492
 70
     1
  0
VERTEX
  5
ACB0
  8
0
 10
417.70919832005609
 20
166.1860431367013
 30
0.0
 42
0.0173025295399158
  0
VERTEX
  5
ACB1
  8
0
 10
417.32625339520507
 20
166.5247010457158
 30
0.0
 42
0.0258398868868118
 70
     1
  0
VERTEX
  5
ACB2
  8
0
 10
417.05114481539289
 20
166.72860588494149
 30
0.0
 42
0.0154544352050318
  0
VERTEX
  5
ACB3
  8
0
 10
416.75414305706312
 20
166.91285456795339
 30
0.0
 42
0.0138665484058784
 70
     1
  0
VERTEX
  5
ACB4
  8
0
 10
416.41168166707303
 20
167.09844170176939
 30
0.0
 42
0.0325333412474141
  0
VERTEX
  5
ACB5
  8
0
 10
415.93765334757057
 20
167.301009371709
 30
0.0
 42
0.0218804398976539
 70
     1
  0
VERTEX
  5
ACB6
  8
0
 10
415.20472313354139
 20
167.52375967874269
 30
0.0
 42
0.0341214411553124
  0
VERTEX
  5
ACB7
  8
0
 10
414.42061094819752
 20
167.6689379019505
 30
0.0
 42
0.0310600702847757
 70
     1
  0
VERTEX
  5
ACB8
  8
0
 10
413.54596761954281
 20
167.7151269704959
 30
0.0
 42
0.0244185542973683
  0
VERTEX
  5
ACB9
  8
0
 10
412.76906073221062
 20
167.66988515844861
 30
0.0
 42
0.0260567786086736
 70
     1
  0
VERTEX
  5
ACBA
  8
0
 10
412.04891650412623
 20
167.55433599931959
 30
0.0
 42
0.0227191457641054
  0
VERTEX
  5
ACBB
  8
0
 10
411.44063156473737
 20
167.39471279895929
 30
0.0
 42
0.0233864246349453
 70
     1
  0
VERTEX
  5
ACBC
  8
0
 10
410.86647092830481
 20
167.18589280623809
 30
0.0
 42
0.035513287955244
  0
VERTEX
  5
ACBD
  8
0
 10
410.35163142806732
 20
166.9265800176656
 30
0.0
 42
0.0295919852961445
 70
     1
  0
VERTEX
  5
ACBE
  8
0
 10
409.7796131351983
 20
166.53796581855079
 30
0.0
 42
0.0433436612273844
  0
VERTEX
  5
ACBF
  8
0
 10
409.26355216580532
 20
166.06433902248699
 30
0.0
 42
0.0460480063540943
 70
     1
  0
VERTEX
  5
ACC0
  8
0
 10
408.86466224331701
 20
165.5391718159627
 30
0.0
 42
0.0349899274923717
  0
VERTEX
  5
ACC1
  8
0
 10
408.59864890178858
 20
165.03755477544451
 30
0.0
 42
0.0390018840328413
 70
     1
  0
VERTEX
  5
ACC2
  8
0
 10
408.4288770283469
 20
164.55713711274871
 30
0.0
 42
0.0309733978571737
  0
VERTEX
  5
ACC3
  8
0
 10
408.33169101708381
 20
164.0771981950254
 30
0.0
 42
0.0318679713813958
 70
     1
  0
VERTEX
  5
ACC4
  8
0
 10
408.29642913513447
 20
163.6025454054255
 30
0.0
 42
0.0397112603341366
  0
VERTEX
  5
ACC5
  8
0
 10
408.3428926426659
 20
162.9296585548588
 30
0.0
 42
0.0419880700828323
 70
     1
  0
VERTEX
  5
ACC6
  8
0
 10
408.48974681268783
 20
162.30875569453889
 30
0.0
 42
0.0220072504134888
  0
VERTEX
  5
ACC7
  8
0
 10
408.6842382783297
 20
161.7923321514142
 30
0.0
 42
0.0270734338418957
 70
     1
  0
VERTEX
  5
ACC8
  8
0
 10
408.8827557974227
 20
161.38995655148651
 30
0.0
 42
0.0218562496807341
  0
VERTEX
  5
ACC9
  8
0
 10
409.1263606608976
 20
160.9980682400853
 30
0.0
 42
0.0195225047333779
 70
     1
  0
VERTEX
  5
ACCA
  8
0
 10
409.43438548867277
 20
160.58341535246569
 30
0.0
 42
0.0331591360285045
  0
VERTEX
  5
ACCB
  8
0
 10
409.79367335461751
 20
160.1932671258557
 30
0.0
 42
0.0229976516587993
 70
     1
  0
VERTEX
  5
ACCC
  8
0
 10
410.3711501601623
 20
159.69260402179981
 30
0.0
 42
0.039963200323309
  0
VERTEX
  5
ACCD
  8
0
 10
410.65827489499043
 20
159.5010223613269
 30
0.0
 42
0.0123924533439285
 70
     1
  0
VERTEX
  5
ACCE
  8
0
 10
411.64225468650909
 20
158.98407365541951
 30
0.0
 42
0.069616920424774
  0
VERTEX
  5
ACCF
  8
0
 10
412.42236022381297
 20
158.7256068695232
 30
0.0
 42
0.0475763559957516
 70
     1
  0
VERTEX
  5
ACD0
  8
0
 10
413.61737766415757
 20
158.62276249810421
 30
0.0
  0
SEQEND
  5
ACD1
  8
0
  0
LINE
  5
ACD2
  8
0
 10
408.54596866262409
 20
172.55981252127509
 30
0.0
 11
408.54616966467779
 21
194.7390041241633
 31
0.0
  0
LINE
  5
ACD3
  8
0
 10
418.54597030175182
 20
225.14088437491301
 30
0.0
 11
418.54597030175182
 21
203.39925758957969
 31
0.0
  0
LINE
  5
ACD4
  8
0
 10
404.97024504435512
 20
226.1057792656982
 30
0.0
 11
403.06348128211948
 21
242.59129897290109
 31
0.0
  0
LINE
  5
ACD5
  8
0
 10
403.05892897737482
 20
242.63361082011099
 30
0.0
 11
403.04596869242641
 21
266.66677728825459
 31
0.0
  0
LINE
  5
ACD6
  8
0
 10
424.0459665466592
 20
266.66677728825459
 30
0.0
 11
424.04469455523707
 21
242.8666685833247
 31
0.0
  0
LINE
  5
ACD7
  8
0
 10
424.02845023167578
 20
242.59129897290109
 30
0.0
 11
422.12169019473049
 21
226.1057792656982
 31
0.0
  0
POLYLINE
  5
ACD8
  8
0
 66
     1
 10
0.0
 20
0.0
 30
0.0
 70
     2
  0
VERTEX
  5
ACD9
  8
0
 10
403.04596869242641
 20
266.66677728825459
 30
0.0
 42
-0.0066940332219761
  0
VERTEX
  5
ACDA
  8
0
 10
403.05694125067839
 20
267.38763101839498
 30
0.0
 42
-0.0576071294660727
 70
     1
  0
VERTEX
  5
ACDB
  8
0
 10
403.17468046346897
 20
267.83121055358822
 30
0.0
 42
-0.0168607602296792
  0
VERTEX
  5
ACDC
  8
0
 10
403.50870238443213
 20
268.60341676809958
 30
0.0
 42
-0.0341757283461287
 70
     1
  0
VERTEX
  5
ACDD
  8
0
 10
403.71162372423481
 20
268.96593997373719
 30
0.0
 42
-0.0364520931494533
  0
VERTEX
  5
ACDE
  8
0
 10
404.21738461964787
 20
269.62917876542241
 30
0.0
 42
-0.0380899327126473
 70
     1
  0
VERTEX
  5
ACDF
  8
0
 10
404.790337208567
 20
270.18507380915378
 30
0.0
 42
-0.0228026309416527
  0
VERTEX
  5
ACE0
  8
0
 10
405.5321692632665
 20
270.74732041036202
 30
0.0
 42
-0.028806716744028
 70
     1
  0
VERTEX
  5
ACE1
  8
0
 10
406.16230136160351
 20
271.12964055287949
 30
0.0
 42
-0.0122574261858558
  0
VERTEX
  5
ACE2
  8
0
 10
406.92369159344929
 20
271.50995001828147
 30
0.0
 42
-0.0190354721843851
 70
     1
  0
VERTEX
  5
ACE3
  8
0
 10
407.42843276270048
 20
271.7237453469196
 30
0.0
 42
-0.0116497080021198
  0
VERTEX
  5
ACE4
  8
0
 10
408.32680386097849
 20
272.04082257579182
 30
0.0
 42
-0.0169298286916818
 70
     1
  0
VERTEX
  5
ACE5
  8
0
 10
408.95653773349022
 20
272.22336718667867
 30
0.0
 42
-0.0048739123151346
  0
VERTEX
  5
ACE6
  8
0
 10
409.5445813817359
 20
272.36636083525258
 30
0.0
 42
-0.0085968903180256
 70
     1
  0
VERTEX
  5
ACE7
  8
0
 10
409.88004591015891
 20
272.43842303455392
 30
0.0
 42
-0.0063631480751445
  0
VERTEX
  5
ACE8
  8
0
 10
410.40268766917598
 20
272.53443427240791
 30
0.0
 42
-0.0067392062447804
 70
     1
  0
VERTEX
  5
ACE9
  8
0
 10
410.8983734781973
 20
272.61212742450641
 30
0.0
 42
-0.0080646838817248
  0
VERTEX
  5
ACEA
  8
0
 10
411.34235362999522
 20
272.66830665416961
 30
0.0
 42
-0.005748891773116
 70
     1
  0
VERTEX
  5
ACEB
  8
0
 10
411.96709900275113
 20
272.72987976401151
 30
0.0
 42
-0.011454106058064
  0
VERTEX
  5
ACEC
  8
0
 10
412.6355113971012
 20
272.77260591748768
 30
0.0
 42
-0.0091424739905198
 70
     1
  0
VERTEX
  5
ACED
  8
0
 10
413.47438281357012
 20
272.79160402133471
 30
0.0
 42
-0.0118865770597172
  0
VERTEX
  5
ACEE
  8
0
 10
414.30115866263708
 20
272.77555170115193
 30
0.0
 42
-0.0110857583272314
 70
     1
  0
VERTEX
  5
ACEF
  8
0
 10
415.18591739897732
 20
272.71764514327998
 30
0.0
 42
-0.0086111106792632
  0
VERTEX
  5
ACF0
  8
0
 10
415.71645126023481
 20
272.66186854424501
 30
0.0
 42
-0.0065965800370567
 70
     1
  0
VERTEX
  5
ACF1
  8
0
 10
416.4064493390847
 20
272.56803425977938
 30
0.0
 42
-0.0161690706149613
  0
VERTEX
  5
ACF2
  8
0
 10
417.22673007312818
 20
272.41818230965009
 30
0.0
 42
-0.0127684774684688
 70
     1
  0
VERTEX
  5
ACF3
  8
0
 10
418.25265850099771
 20
272.16868344205909
 30
0.0
 42
-0.0186929804193355
  0
VERTEX
  5
ACF4
  8
0
 10
419.0925080445586
 20
271.90752564214517
 30
0.0
 42
-0.0179322710581314
 70
     1
  0
VERTEX
  5
ACF5
  8
0
 10
419.94569272020487
 20
271.57196377831519
 30
0.0
 42
-0.0171865178190244
  0
VERTEX
  5
ACF6
  8
0
 10
420.61500975691979
 20
271.2528038404912
 30
0.0
 42
-0.0178118997955687
 70
     1
  0
VERTEX
  5
ACF7
  8
0
 10
421.2377233064139
 20
270.90043232580041
 30
0.0
 42
-0.0194039888801421
  0
VERTEX
  5
ACF8
  8
0
 10
421.68272746659483
 20
270.60288650611938
 30
0.0
 42
-0.016182227232034
 70
     1
  0
VERTEX
  5
ACF9
  8
0
 10
422.18955086400359
 20
270.20910817968092
 30
0.0
 42
-0.0313003251532392
  0
VERTEX
  5
ACFA
  8
0
 10
422.69884008804542
 20
269.7294245856333
 30
0.0
 42
-0.0319880843842947
 70
     1
  0
VERTEX
  5
ACFB
  8
0
 10
423.13398093733161
 20
269.2008949545023
 30
0.0
 42
-0.0295858621683658
  0
VERTEX
  5
ACFC
  8
0
 10
423.43983024663203
 20
268.71916109040973
 30
0.0
 42
-0.0294596728697622
 70
     1
  0
VERTEX
  5
ACFD
  8
0
 10
423.68786680978468
 20
268.20255703574179
 30
0.0
 42
-0.0237861452041318
  0
VERTEX
  5
ACFE
  8
0
 10
423.81160314967332
 20
267.85404480537409
 30
0.0
 42
-0.0146706447949631
 70
     1
  0
VERTEX
  5
ACFF
  8
0
 10
423.96816282906042
 20
267.27544692171608
 30
0.0
 42
-0.0439400169164996
  0
VERTEX
  5
AD00
  8
0
 10
423.99862088980939
 20
267.06987706881819
 30
0.0
 42
-0.0226099458819335
 70
     1
  0
VERTEX
  5
AD01
  8
0
 10
424.0459665466592
 20
266.66677728825459
 30
0.0
  0
SEQEND
  5
AD02
  8
0
  0
POLYLINE
  5
AD03
  8
0
 66
     1
 10
0.0
 20
0.0
 30
0.0
 70
     2
  0
VERTEX
  5
AD04
  8
0
 10
404.97024504435512
 20
226.1057792656982
 30
0.0
 42
0.0247820149864499
  0
VERTEX
  5
AD05
  8
0
 10
405.03324816709568
 20
225.7178923032925
 30
0.0
 42
0.0461786312400018
 70
     1
  0
VERTEX
  5
AD06
  8
0
 10
405.09624290628471
 20
225.51629569298021
 30
0.0
 42
0.0156511080522718
  0
VERTEX
  5
AD07
  8
0
 10
405.34969416043072
 20
224.9584508361886
 30
0.0
 42
0.033439337681879
 70
     1
  0
VERTEX
  5
AD08
  8
0
 10
405.49346150693771
 20
224.7100193754415
 30
0.0
 42
0.0242362459247172
  0
VERTEX
  5
AD09
  8
0
 10
405.78145740912208
 20
224.3231522387641
 30
0.0
 42
0.0278900565393397
 70
     1
  0
VERTEX
  5
AD0A
  8
0
 10
406.0653961756629
 20
224.01477111422341
 30
0.0
 42
0.0166870770810489
  0
VERTEX
  5
AD0B
  8
0
 10
406.37148267614202
 20
223.7366847768744
 30
0.0
 42
0.0181382829970787
 70
     1
  0
VERTEX
  5
AD0C
  8
0
 10
406.67021533876323
 20
223.50105142678001
 30
0.0
 42
0.0208743860883798
  0
VERTEX
  5
AD0D
  8
0
 10
406.87485940081967
 20
223.36407690059789
 30
0.0
 42
0.0055445025931275
 70
     1
  0
VERTEX
  5
AD0E
  8
0
 10
407.67115441737349
 20
222.88998151548279
 30
0.0
 42
0.0290869160852126
  0
VERTEX
  5
AD0F
  8
0
 10
407.96780237145953
 20
222.74012699690161
 30
0.0
 42
0.015526954744012
 70
     1
  0
VERTEX
  5
AD10
  8
0
 10
408.54596866262409
 20
222.51016632252569
 30
0.0
  0
SEQEND
  5
AD11
  8
0
  0
POLYLINE
  5
AD12
  8
0
 66
     1
 10
0.0
 20
0.0
 30
0.0
 70
     2
  0
VERTEX
  5
AD13
  8
0
 10
422.12169019473049
 20
226.1057792656982
 30
0.0
 42
-0.0247820149864499
  0
VERTEX
  5
AD14
  8
0
 10
422.05868707199028
 20
225.7178923032925
 30
0.0
 42
-0.0461786312400018
 70
     1
  0
VERTEX
  5
AD15
  8
0
 10
421.9956923328013
 20
225.51629569298021
 30
0.0
 42
-0.0156511080522718
  0
VERTEX
  5
AD16
  8
0
 10
421.7422410786553
 20
224.9584508361886
 30
0.0
 42
-0.033439337681879
 70
     1
  0
VERTEX
  5
AD17
  8
0
 10
421.5984737321478
 20
224.7100193754415
 30
0.0
 42
-0.0242362459247172
  0
VERTEX
  5
AD18
  8
0
 10
421.31047782996387
 20
224.3231522387641
 30
0.0
 42
-0.0278900565393397
 70
     1
  0
VERTEX
  5
AD19
  8
0
 10
421.0265390634226
 20
224.01477111422341
 30
0.0
 42
-0.0166870770810489
  0
VERTEX
  5
AD1A
  8
0
 10
420.72045256294399
 20
223.7366847768744
 30
0.0
 42
-0.0181382829970787
 70
     1
  0
VERTEX
  5
AD1B
  8
0
 10
420.42171990032227
 20
223.50105142678001
 30
0.0
 42
-0.0208743860883798
  0
VERTEX
  5
AD1C
  8
0
 10
420.21707583826628
 20
223.36407690059789
 30
0.0
 42
-0.0055445025931275
 70
     1
  0
VERTEX
  5
AD1D
  8
0
 10
419.42078082171201
 20
222.88998151548279
 30
0.0
 42
-0.0290869160852126
  0
VERTEX
  5
AD1E
  8
0
 10
419.12413286762637
 20
222.74012699690161
 30
0.0
 42
-0.015526954744012
 70
     1
  0
VERTEX
  5
AD1F
  8
0
 10
418.54596657646152
 20
222.51016632252569
 30
0.0
  0
SEQEND
  5
AD20
  8
0
  0
POLYLINE
  5
AD21
  8
0
 66
     1
 10
0.0
 20
0.0
 30
0.0
 70
     2
  0
VERTEX
  5
AD22
  8
0
 10
386.53886058223679
 20
163.76692042284839
 30
0.0
 42
0.0215468704648998
  0
VERTEX
  5
AD23
  8
0
 10
386.88630967547812
 20
163.44201205046031
 30
0.0
 42
0.0323107785168142
 70
     1
  0
VERTEX
  5
AD24
  8
0
 10
387.14010277011897
 20
163.25139007581151
 30
0.0
 42
0.0053107817679367
  0
VERTEX
  5
AD25
  8
0
 10
387.40796903897308
 20
163.08008178244401
 30
0.0
 42
0.0061841076846084
 70
     1
  0
VERTEX
  5
AD26
  8
0
 10
387.64133034683658
 20
162.9382912664509
 30
0.0
 42
0.0495523949487561
  0
VERTEX
  5
AD27
  8
0
 10
387.8848441277828
 20
162.825252751443
 30
0.0
 42
0.0303094244890081
 70
     1
  0
VERTEX
  5
AD28
  8
0
 10
388.30662631285622
 20
162.70625949436061
 30
0.0
  0
SEQEND
  5
AD29
  8
0
  0
POLYLINE
  5
AD2A
  8
0
 66
     1
 10
0.0
 20
0.0
 30
0.0
 70
     2
  0
VERTEX
  5
AD2B
  8
0
 10
386.53886058223679
 20
145.35270616942279
 30
0.0
 42
-0.0215468704648998
  0
VERTEX
  5
AD2C
  8
0
 10
386.88630967547812
 20
145.6776145418109
 30
0.0
 42
-0.0323107785168142
 70
     1
  0
VERTEX
  5
AD2D
  8
0
 10
387.14010277011897
 20
145.8682365164596
 30
0.0
 42
-0.0053107817679367
  0
VERTEX
  5
AD2E
  8
0
 10
387.40796903897308
 20
146.03954480982719
 30
0.0
 42
-0.0061841076846084
 70
     1
  0
VERTEX
  5
AD2F
  8
0
 10
387.64133034683658
 20
146.1813353258203
 30
0.0
 42
-0.0495523949487561
  0
VERTEX
  5
AD30
  8
0
 10
387.8848441277828
 20
146.2943738408282
 30
0.0
 42
-0.0303094244890081
 70
     1
  0
VERTEX
  5
AD31
  8
0
 10
388.30662631285622
 20
146.41336709791059
 30
0.0
  0
SEQEND
  5
AD32
  8
0
  0
LINE
  5
AD33
  8
1
 10
614.86937631245735
 20
348.75847236104812
 30
0.0
 11
614.86937631245735
 21
293.75847236104812
 31
0.0
  0
LINE
  5
AD34
  8
1
 10
639.86937631245735
 20
323.75847236104812
 30
0.0
 11
589.86937631245735
 21
323.75847236104812
 31
0.0
  0
LINE
  5
AD35
  8
1
 10
496.22389599398952
 20
392.25847236104818
 30
0.0
 11
614.86937631245735
 21
323.75847236104801
 31
0.0
  0
LINE
  5
AD36
  8
1
 10
413.54596948218801
 20
423.48303519864038
 30
0.0
 11
413.54596948218801
 21
551.71514368232999
 31
0.0
  0
LINE
  5
AD37
  8
1
 10
359.74596761954263
 20
584.21514368233011
 30
0.0
 11
359.74596761954263
 21
569.21514368233011
 31
0.0
  0
LINE
  5
AD38
  8
1
 10
352.24596761954263
 20
576.71514368232977
 30
0.0
 11
367.24596761954263
 21
576.71514368233011
 31
0.0
  0
LINE
  5
AD39
  8
1
 10
413.54596948218841
 20
402.81164676155117
 30
0.0
 11
413.54596948218841
 21
318.75847236104801
 31
0.0
  0
LINE
  5
AD3A
  8
1
 10
352.24596761954263
 20
184.5598132961353
 30
0.0
 11
367.24596761954263
 21
184.5598132961355
 31
0.0
  0
LINE
  5
AD3B
  8
1
 10
359.74596761954263
 20
192.05981329613539
 30
0.0
 11
359.74596761954263
 21
177.05981329613539
 31
0.0
  0
LINE
  5
AD3C
  8
1
 10
324.7459680665774
 20
154.5598132961355
 30
0.0
 11
426.04596791756649
 21
154.5598132961355
 31
0.0
  0
LINE
  5
AD3D
  8
1
 10
359.74596761954263
 20
132.0598132961355
 30
0.0
 11
359.74596761954263
 21
117.0598132961355
 31
0.0
  0
LINE
  5
AD3E
  8
1
 10
352.24596761954263
 20
124.5598132961354
 30
0.0
 11
367.24596761954263
 21
124.5598132961356
 31
0.0
  0
LINE
  5
AD3F
  8
1
 10
413.54596948218841
 20
277.7919217798252
 30
0.0
 11
413.54596948218801
 21
149.5598132961355
 31
0.0
  0
CIRCLE
  5
AD40
  8
0
 10
198.3756319196504
 20
323.75847236104789
 30
0.0
 40
6.0
  0
LINE
  5
AD44
  8
0
 10
424.0459665466596
 20
388.48346010633298
 30
0.0
 11
424.02849493515993
 21
387.9590584415991
 31
0.0
  0
POLYLINE
  5
AD45
  8
0
 66
     1
 10
0.0
 20
0.0
 30
0.0
 70
   128
  0
VERTEX
  5
BBDB
  8
0
 10
423.27978609097499
 20
371.34862975068881
 30
0.0
  0
VERTEX
  5
BBDC
  8
0
 10
422.56467936528219
 20
370.10179743953529
 30
0.0
  0
VERTEX
  5
BBDD
  8
0
 10
421.63817731631298
 20
368.96411613412693
 30
0.0
  0
VERTEX
  5
BBDE
  8
0
 10
420.52200583708782
 20
367.96224401183912
 30
0.0
  0
VERTEX
  5
BBDF
  8
0
 10
419.24231646550197
 20
367.11968020387479
 30
0.0
  0
VERTEX
  5
BBE0
  8
0
 10
417.82911268961919
 20
366.45615384765449
 30
0.0
  0
VERTEX
  5
BBE1
  8
0
 10
416.31551234019298
 20
365.98722920604541
 30
0.0
  0
VERTEX
  5
BBE2
  8
0
 10
414.73700253260631
 20
365.72389588542768
 30
0.0
  0
VERTEX
  5
BBE3
  8
0
 10
413.13056794894243
 20
365.67232296653577
 30
0.0
  0
VERTEX
  5
BBE4
  8
0
 10
411.53387127411861
 20
365.83372489400688
 30
0.0
  0
VERTEX
  5
BBE5
  8
0
 10
409.98434422505397
 20
366.20431677289793
 30
0.0
  0
VERTEX
  5
BBE6
  8
0
 10
408.51828975570697
 20
366.77540377565208
 30
0.0
  0
VERTEX
  5
BBE7
  8
0
 10
407.17008484495182
 20
367.53361211009809
 30
0.0
  0
VERTEX
  5
BBE8
  8
0
 10
405.9713236798097
 20
368.46116469093153
 30
0.0
  0
VERTEX
  5
BBE9
  8
0
 10
404.95010612500209
 20
369.53632072397062
 30
0.0
  0
VERTEX
  5
BBEA
  8
0
 10
404.13036717069639
 20
370.73388234563657
 30
0.0
  0
VERTEX
  5
BBEB
  8
0
 10
403.53132186425228
 20
372.02576831765958
 30
0.0
  0
VERTEX
  5
BBEC
  8
0
 10
403.16701082480449
 20
373.38171438165489
 30
0.0
  0
VERTEX
  5
BBED
  8
0
 10
403.04596869242692
 20
374.75846991725751
 30
0.0
  0
SEQEND
  5
BBEE
  8
0
  0
ARC
  5
AD46
  8
0
 10
416.01884101780843
 20
374.77114073680133
 30
0.0
 40
8.0271355292908222
 50
334.76273746832419
 51
359.9095586736172
  0
POLYLINE
  5
AD47
  8
0
 66
     1
 10
0.0
 20
0.0
 30
0.0
 70
   128
  0
VERTEX
  5
BBEF
  8
0
 10
422.00618384373678
 20
363.92021463104078
 30
0.0
  0
VERTEX
  5
BBF0
  8
0
 10
421.9390392113973
 20
363.62474695630863
 30
0.0
  0
VERTEX
  5
BBF1
  8
0
 10
421.50920776618023
 20
362.41913125701728
 30
0.0
  0
SEQEND
  5
BBF2
  8
0
  0
LINE
  5
AD4D
  8
0
 10
420.04596589100851
 20
305.75847257711479
 30
0.0
 11
420.04596589100851
 21
341.75847382136169
 31
0.0
  0
LINE
  5
AD4E
  8
0
 10
407.04596562278761
 20
341.75847382136169
 30
0.0
 11
407.04596562278761
 21
305.75847257711467
 31
0.0
  0
LINE
  5
AD4F
  8
0
 10
421.04596791756649
 20
340.75847179480382
 30
0.0
 11
421.04596791756649
 21
306.75847274102762
 31
0.0
  0
LINE
  5
AD50
  8
0
 10
406.04596732151998
 20
306.75847274102762
 30
0.0
 11
406.04596732151998
 21
340.75847179480382
 31
0.0
  0
POLYLINE
  5
AD51
  8
0
 66
     1
 10
0.0
 20
0.0
 30
0.0
 70
   128
  0
VERTEX
  5
BBF3
  8
0
 10
418.80048592203502
 20
332.46569521493609
 30
0.0
  0
VERTEX
  5
BBF4
  8
0
 10
418.72680334342022
 20
332.99403549023458
 30
0.0
  0
VERTEX
  5
BBF5
  8
0
 10
418.54597030175228
 20
333.6447878260214
 30
0.0
  0
SEQEND
  5
BBF6
  8
0
  0
POLYLINE
  5
AD52
  8
0
 66
     1
 10
0.0
 20
0.0
 30
0.0
 70
   128
  0
VERTEX
  5
BBF7
  8
0
 10
408.54596866262449
 20
333.6447878260214
 30
0.0
  0
VERTEX
  5
BBF8
  8
0
 10
408.36512817037601
 20
332.99403549023458
 30
0.0
  0
VERTEX
  5
BBF9
  8
0
 10
408.30321837198107
 20
332.33558401687873
 30
0.0
  0
SEQEND
  5
BBFA
  8
0
  0
POLYLINE
  5
AD53
  8
0
 66
     1
 10
0.0
 20
0.0
 30
0.0
 70
   128
  0
VERTEX
  5
BBFB
  8
0
 10
413.54596761954321
 20
306.41104052626082
 30
0.0
  0
VERTEX
  5
BBFC
  8
0
 10
414.67455921662349
 20
306.47241142429903
 30
0.0
  0
VERTEX
  5
BBFD
  8
0
 10
415.75038580191631
 20
306.65365517922231
 30
0.0
  0
VERTEX
  5
BBFE
  8
0
 10
416.72313360465068
 20
306.94629628994062
 30
0.0
  0
VERTEX
  5
BBFF
  8
0
 10
417.5473168302824
 20
307.33665176518753
 30
0.0
  0
VERTEX
  5
BC00
  8
0
 10
418.1844085265447
 20
307.80646861382309
 30
0.0
  0
VERTEX
  5
BC01
  8
0
 10
418.60460637105012
 20
308.33377879895761
 30
0.0
  0
VERTEX
  5
BC02
  8
0
 10
418.74298600447668
 20
308.66405558623859
 30
0.0
  0
SEQEND
  5
BC03
  8
0
  0
POLYLINE
  5
AD54
  8
0
 66
     1
 10
0.0
 20
0.0
 30
0.0
 70
   128
  0
VERTEX
  5
BC04
  8
0
 10
408.36134700072307
 20
308.62305317856863
 30
0.0
  0
VERTEX
  5
BC05
  8
0
 10
408.4873288680364
 20
308.33377879895761
 30
0.0
  0
VERTEX
  5
BC06
  8
0
 10
408.90753043783212
 20
307.80646861382309
 30
0.0
  0
VERTEX
  5
BC07
  8
0
 10
409.54461468351383
 20
307.33665176518753
 30
0.0
  0
VERTEX
  5
BC08
  8
0
 10
410.36880163443578
 20
306.94629628994062
 30
0.0
  0
VERTEX
  5
BC09
  8
0
 10
411.34154943717022
 20
306.65365517922231
 30
0.0
  0
VERTEX
  5
BC0A
  8
0
 10
412.41736857188238
 20
306.47241142429903
 30
0.0
  0
VERTEX
  5
BC0B
  8
0
 10
413.54596761954321
 20
306.41104052626082
 30
0.0
  0
SEQEND
  5
BC0C
  8
0
  0
POLYLINE
  5
AD55
  8
0
 66
     1
 10
0.0
 20
0.0
 30
0.0
 70
   128
  0
VERTEX
  5
BC0D
  8
0
 10
413.54596761954321
 20
307.28604090251508
 30
0.0
  0
VERTEX
  5
BC0E
  8
0
 10
414.49025420439739
 20
307.35093545951429
 30
0.0
  0
VERTEX
  5
BC0F
  8
0
 10
415.36451278222103
 20
307.54080698676893
 30
0.0
  0
VERTEX
  5
BC10
  8
0
 10
416.1038934994985
 20
307.84157295562812
 30
0.0
  0
VERTEX
  5
BC11
  8
0
 10
416.65356753361721
 20
308.23092632778469
 30
0.0
  0
VERTEX
  5
BC12
  8
0
 10
416.97275785697002
 20
308.67999237813541
 30
0.0
  0
VERTEX
  5
BC13
  8
0
 10
417.03780887616171
 20
309.15546514876672
 30
0.0
  0
VERTEX
  5
BC14
  8
0
 10
416.84387771380437
 20
309.62208011039093
 30
0.0
  0
VERTEX
  5
BC15
  8
0
 10
416.40535889161129
 20
310.04523117878028
 30
0.0
  0
VERTEX
  5
BC16
  8
0
 10
415.7547741938879
 20
310.39353557713821
 30
0.0
  0
VERTEX
  5
BC17
  8
0
 10
414.94037358057989
 20
310.64116027988979
 30
0.0
  0
VERTEX
  5
BC18
  8
0
 10
414.02255145800609
 20
310.76974053718641
 30
0.0
  0
VERTEX
  5
BC19
  8
0
 10
413.06938378108038
 20
310.76974053718641
 30
0.0
  0
VERTEX
  5
BC1A
  8
0
 10
412.15156165850658
 20
310.64116027988979
 30
0.0
  0
VERTEX
  5
BC1B
  8
0
 10
411.33716104519863
 20
310.39353557713821
 30
0.0
  0
VERTEX
  5
BC1C
  8
0
 10
410.68656889689458
 20
310.04523117878028
 30
0.0
  0
VERTEX
  5
BC1D
  8
0
 10
410.2480500747015
 20
309.62208011039093
 30
0.0
  0
VERTEX
  5
BC1E
  8
0
 10
410.05412636292471
 20
309.15546514876672
 30
0.0
  0
VERTEX
  5
BC1F
  8
0
 10
410.11916993153591
 20
308.67999237813541
 30
0.0
  0
VERTEX
  5
BC20
  8
0
 10
410.43836770546932
 20
308.23092632778469
 30
0.0
  0
VERTEX
  5
BC21
  8
0
 10
410.98804173958803
 20
307.84157295562812
 30
0.0
  0
VERTEX
  5
BC22
  8
0
 10
411.7274224568655
 20
307.54080698676893
 30
0.0
  0
VERTEX
  5
BC23
  8
0
 10
412.60168103468908
 20
307.35093545951429
 30
0.0
  0
VERTEX
  5
BC24
  8
0
 10
413.54596761954321
 20
307.28604090251508
 30
0.0
  0
SEQEND
  5
BC25
  8
0
  0
POLYLINE
  5
AD56
  8
0
 66
     1
 10
0.0
 20
0.0
 30
0.0
 70
   128
  0
VERTEX
  5
BC26
  8
0
 10
413.54596761954321
 20
308.65206573941299
 30
0.0
  0
VERTEX
  5
BC27
  8
0
 10
414.3185108710577
 20
308.71324525066211
 30
0.0
  0
VERTEX
  5
BC28
  8
0
 10
415.0154307295133
 20
308.8907944489319
 30
0.0
  0
VERTEX
  5
BC29
  8
0
 10
415.5685096789648
 20
309.16733392365762
 30
0.0
  0
VERTEX
  5
BC2A
  8
0
 10
415.92361180079479
 20
309.51579478420803
 30
0.0
  0
VERTEX
  5
BC2B
  8
0
 10
416.04596523535753
 20
309.90206547864273
 30
0.0
  0
VERTEX
  5
BC2C
  8
0
 10
415.92361180079479
 20
310.28833710439989
 30
0.0
  0
VERTEX
  5
BC2D
  8
0
 10
415.89117197287578
 20
310.33507832177469
 30
0.0
  0
SEQEND
  5
BC2E
  8
0
  0
POLYLINE
  5
AD57
  8
0
 66
     1
 10
0.0
 20
0.0
 30
0.0
 70
   128
  0
VERTEX
  5
BC2F
  8
0
 10
411.20075581563009
 20
310.33507832177469
 30
0.0
  0
VERTEX
  5
BC30
  8
0
 10
411.16832343829168
 20
310.28833710439989
 30
0.0
  0
VERTEX
  5
BC31
  8
0
 10
411.045970003729
 20
309.90206547864273
 30
0.0
  0
VERTEX
  5
BC32
  8
0
 10
411.16832343829168
 20
309.51579478420803
 30
0.0
  0
VERTEX
  5
BC33
  8
0
 10
411.52342556012172
 20
309.16733392365762
 30
0.0
  0
VERTEX
  5
BC34
  8
0
 10
412.07650450957323
 20
308.8907944489319
 30
0.0
  0
VERTEX
  5
BC35
  8
0
 10
412.77342436802883
 20
308.71324525066211
 30
0.0
  0
VERTEX
  5
BC36
  8
0
 10
413.54596761954321
 20
308.65206573941299
 30
0.0
  0
SEQEND
  5
BC37
  8
0
  0
POLYLINE
  5
AD58
  8
0
 66
     1
 10
0.0
 20
0.0
 30
0.0
 70
   128
  0
VERTEX
  5
BC38
  8
0
 10
423.27978609097499
 20
385.07361993976423
 30
0.0
  0
VERTEX
  5
BC39
  8
0
 10
422.56467936528219
 20
383.82678762861082
 30
0.0
  0
VERTEX
  5
BC3A
  8
0
 10
421.63817731631298
 20
382.68909887262168
 30
0.0
  0
VERTEX
  5
BC3B
  8
0
 10
420.52200583708782
 20
381.68723420091459
 30
0.0
  0
VERTEX
  5
BC3C
  8
0
 10
419.24231646550197
 20
380.84466294236972
 30
0.0
  0
VERTEX
  5
BC3D
  8
0
 10
417.82911268961919
 20
380.18113658614942
 30
0.0
  0
VERTEX
  5
BC3E
  8
0
 10
416.31551234019298
 20
379.71221939512083
 30
0.0
  0
VERTEX
  5
BC3F
  8
0
 10
414.73700253260631
 20
379.44887862392261
 30
0.0
  0
VERTEX
  5
BC40
  8
0
 10
413.13056794894243
 20
379.39731315561119
 30
0.0
  0
VERTEX
  5
BC41
  8
0
 10
411.53387127411861
 20
379.5587150830824
 30
0.0
  0
VERTEX
  5
BC42
  8
0
 10
409.98434422505397
 20
379.9292995113928
 30
0.0
  0
VERTEX
  5
BC43
  8
0
 10
408.51828975570697
 20
380.50039396472761
 30
0.0
  0
VERTEX
  5
BC44
  8
0
 10
407.17008484495182
 20
381.25860229917362
 30
0.0
  0
VERTEX
  5
BC45
  8
0
 10
405.9713236798097
 20
382.186154880007
 30
0.0
  0
VERTEX
  5
BC46
  8
0
 10
404.95010612500209
 20
383.26131091304609
 30
0.0
  0
VERTEX
  5
BC47
  8
0
 10
404.13036717069639
 20
384.45886508413139
 30
0.0
  0
VERTEX
  5
BC48
  8
0
 10
403.53132186425228
 20
385.75075850673511
 30
0.0
  0
VERTEX
  5
BC49
  8
0
 10
403.16701082480449
 20
387.10670457073041
 30
0.0
  0
VERTEX
  5
BC4A
  8
0
 10
403.04603574765218
 20
388.45033482499912
 30
0.0
  0
SEQEND
  5
BC4B
  8
0
  0
ARC
  5
AD59
  8
0
 10
415.9972327583809
 20
388.5031410412135
 30
0.0
 40
8.0496706781928751
 50
334.78318018286899
 51
356.1243853371675
  0
POLYLINE
  5
AD5A
  8
0
 66
     1
 10
0.0
 20
0.0
 30
0.0
 70
   128
  0
VERTEX
  5
BC4C
  8
0
 10
421.95168284667028
 20
386.39935389943912
 30
0.0
  0
VERTEX
  5
BC4D
  8
0
 10
421.27739785206808
 20
385.24133995958158
 30
0.0
  0
VERTEX
  5
BC4E
  8
0
 10
420.39222417367
 20
384.19523374028989
 30
0.0
  0
VERTEX
  5
BC4F
  8
0
 10
419.32029424202938
 20
383.28956351466962
 30
0.0
  0
VERTEX
  5
BC50
  8
0
 10
418.09085903656978
 20
382.54905030914142
 30
0.0
  0
VERTEX
  5
BC51
  8
0
 10
416.73745362055797
 20
381.99387774654218
 30
0.0
  0
VERTEX
  5
BC52
  8
0
 10
415.29698817027111
 20
381.63920030780622
 30
0.0
  0
VERTEX
  5
BC53
  8
0
 10
413.80875704777731
 20
381.49468884654829
 30
0.0
  0
VERTEX
  5
BC54
  8
0
 10
412.31336591732997
 20
381.56428471990421
 30
0.0
  0
VERTEX
  5
BC55
  8
0
 10
410.85159180653591
 20
381.8460880298216
 30
0.0
  0
VERTEX
  5
BC56
  8
0
 10
409.4633139480402
 20
382.33240977712461
 30
0.0
  0
VERTEX
  5
BC57
  8
0
 10
408.1863999177267
 20
383.00999537893131
 30
0.0
  0
VERTEX
  5
BC58
  8
0
 10
407.05568117988599
 20
383.86035249420001
 30
0.0
  0
VERTEX
  5
BC59
  8
0
 10
406.1020031381895
 20
384.86028001495191
 30
0.0
  0
VERTEX
  5
BC5A
  8
0
 10
405.35137576950092
 20
385.98252371736362
 30
0.0
  0
VERTEX
  5
BC5B
  8
0
 10
404.82427326930059
 20
387.19644681402042
 30
0.0
  0
VERTEX
  5
BC5C
  8
0
 10
404.53507525814069
 20
388.46895382591077
 30
0.0
  0
VERTEX
  5
BC5D
  8
0
 10
404.49167190087343
 20
389.76533249803367
 30
0.0
  0
VERTEX
  5
BC5E
  8
0
 10
404.69524783981342
 20
391.05020747371498
 30
0.0
  0
VERTEX
  5
BC5F
  8
0
 10
405.14024866712589
 20
392.28854612298801
 30
0.0
  0
VERTEX
  5
BC60
  8
0
 10
405.81453366172809
 20
393.44656006284538
 30
0.0
  0
VERTEX
  5
BC61
  8
0
 10
406.69971106541652
 20
394.49267373271772
 30
0.0
  0
VERTEX
  5
BC62
  8
0
 10
407.77163727176679
 20
395.39833650775739
 30
0.0
  0
VERTEX
  5
BC63
  8
0
 10
409.00107620251669
 20
396.13884971328571
 30
0.0
  0
VERTEX
  5
BC64
  8
0
 10
410.3544816185285
 20
396.69402227588478
 30
0.0
  0
VERTEX
  5
BC65
  8
0
 10
411.79494706881542
 20
397.0486997146208
 30
0.0
  0
VERTEX
  5
BC66
  8
0
 10
413.28317074072862
 20
397.19321117587867
 30
0.0
  0
VERTEX
  5
BC67
  8
0
 10
414.77856932175649
 20
397.12362275310352
 30
0.0
  0
VERTEX
  5
BC68
  8
0
 10
416.24034343255062
 20
396.84181944318601
 30
0.0
  0
VERTEX
  5
BC69
  8
0
 10
417.62861756575597
 20
396.35549024530241
 30
0.0
  0
VERTEX
  5
BC6A
  8
0
 10
418.90553532135982
 20
395.67791209407642
 30
0.0
  0
VERTEX
  5
BC6B
  8
0
 10
420.03625033391017
 20
394.82755497880771
 30
0.0
  0
VERTEX
  5
BC6C
  8
0
 10
420.98993210089702
 20
393.8276200074751
 30
0.0
  0
VERTEX
  5
BC6D
  8
0
 10
421.7405631948759
 20
392.70538375564399
 30
0.0
  0
VERTEX
  5
BC6E
  8
0
 10
422.26766196978588
 20
391.49145320840671
 30
0.0
  0
VERTEX
  5
BC6F
  8
0
 10
422.55685625565548
 20
390.21894619651619
 30
0.0
  0
VERTEX
  5
BC70
  8
0
 10
422.6002633382131
 20
388.92257497497388
 30
0.0
  0
VERTEX
  5
BC71
  8
0
 10
422.39668367398281
 20
387.63769254871198
 30
0.0
  0
VERTEX
  5
BC72
  8
0
 10
421.95168284667028
 20
386.39935389943912
 30
0.0
  0
SEQEND
  5
BC73
  8
0
  0
ARC
  5
AD5B
  8
0
 10
614.86937631245735
 20
323.75847236104789
 30
0.0
 40
18.999999761581421
 50
165.2575234865725
 51
180.0
  0
LINE
  5
AD5C
  8
0
 10
406.04596732151998
 20
306.75847274102762
 30
0.0
 11
407.04596562278761
 21
305.75847257711479
 31
0.0
  0
LINE
  5
AD5D
  8
0
 10
407.04596562278761
 20
305.75847257711479
 30
0.0
 11
420.04596589100851
 21
305.75847257711479
 31
0.0
  0
LINE
  5
AD5E
  8
0
 10
420.04596589100851
 20
305.75847257711479
 30
0.0
 11
421.04596791756649
 21
306.75847274102762
 31
0.0
  0
LINE
  5
AD5F
  8
0
 10
406.04596732151998
 20
340.75847179480382
 30
0.0
 11
407.04596562278761
 21
341.75847382136169
 31
0.0
  0
LINE
  5
AD60
  8
0
 10
407.04596562278761
 20
341.75847382136169
 30
0.0
 11
408.54596866262449
 21
341.75847382136169
 31
0.0
  0
LINE
  5
AD61
  8
0
 10
418.54597030175228
 20
341.75847382136169
 30
0.0
 11
420.04596589100851
 21
341.75847382136169
 31
0.0
  0
LINE
  5
AD62
  8
0
 10
420.04596589100851
 20
341.75847382136169
 30
0.0
 11
421.04596791756649
 21
340.75847179480382
 31
0.0
  0
POLYLINE
  5
AD63
  8
0
 66
     1
 10
0.0
 20
0.0
 30
0.0
 70
     2
  0
VERTEX
  5
AD64
  8
0
 10
413.5502331761117
 20
306.22265302754369
 30
0.0
 42
0.0106704166106401
  0
VERTEX
  5
AD65
  8
0
 10
414.4623958065481
 20
306.2350773661085
 30
0.0
 42
0.0169601804891748
 70
     1
  0
VERTEX
  5
AD66
  8
0
 10
415.03507044941671
 20
306.27458399370829
 30
0.0
 42
0.0013558770517924
  0
VERTEX
  5
AD67
  8
0
 10
415.95027106107631
 20
306.37150294382081
 30
0.0
 42
0.0086475091978975
 70
     1
  0
VERTEX
  5
AD68
  8
0
 10
416.0934466959219
 20
306.38956820099088
 30
0.0
 42
0.019329793676274
  0
VERTEX
  5
AD69
  8
0
 10
416.74658054711603
 20
306.5094051552847
 30
0.0
 42
0.0230226384904393
 70
     1
  0
VERTEX
  5
AD6A
  8
0
 10
417.28455886118439
 20
306.65606956575948
 30
0.0
 42
0.0127474676580495
  0
VERTEX
  5
AD6B
  8
0
 10
417.49055571213688
 20
306.7284019509525
 30
0.0
 42
0.0115556422343464
 70
     1
  0
VERTEX
  5
AD6C
  8
0
 10
417.71364714180481
 20
306.81913821862952
 30
0.0
 42
0.0297875057154061
  0
VERTEX
  5
AD6D
  8
0
 10
417.95828038793701
 20
306.9430823412809
 30
0.0
 42
0.0235866568256767
 70
     1
  0
VERTEX
  5
AD6E
  8
0
 10
418.24869972323398
 20
307.1315668601323
 30
0.0
 42
0.0452292040274157
  0
VERTEX
  5
AD6F
  8
0
 10
418.40815653484742
 20
307.26952512853222
 30
0.0
 42
0.0346338516614326
 70
     1
  0
VERTEX
  5
AD70
  8
0
 10
418.58495929839182
 20
307.4803208658754
 30
0.0
 42
0.0688682718301605
  0
VERTEX
  5
AD71
  8
0
 10
418.72854731802812
 20
307.74876968414452
 30
0.0
 42
0.0687701923471198
 70
     1
  0
VERTEX
  5
AD72
  8
0
 10
418.79398241515992
 20
308.04653232756277
 30
0.0
 42
0.042214239744052
  0
VERTEX
  5
AD73
  8
0
 10
418.79257449373148
 20
308.30797768876118
 30
0.0
 42
0.0454563650784592
 70
     1
  0
VERTEX
  5
AD74
  8
0
 10
418.74894687206188
 20
308.54689754035081
 30
0.0
 42
0.030486884676102
  0
VERTEX
  5
AD75
  8
0
 10
418.65958458084009
 20
308.80574638271128
 30
0.0
 42
0.0308544974890808
 70
     1
  0
VERTEX
  5
AD76
  8
0
 10
418.54065802509149
 20
309.0487934524329
 30
0.0
 42
0.0367226538398057
  0
VERTEX
  5
AD77
  8
0
 10
418.28265818726362
 20
309.43398606531861
 30
0.0
 42
0.0356395109125988
 70
     1
  0
VERTEX
  5
AD78
  8
0
 10
417.96240327319668
 20
309.7883890123353
 30
0.0
 42
0.0161749210122946
  0
VERTEX
  5
AD79
  8
0
 10
417.66074442266603
 20
310.0596414775805
 30
0.0
 42
0.0194281343775294
 70
     1
  0
VERTEX
  5
AD7A
  8
0
 10
417.3941380668179
 20
310.26705884062761
 30
0.0
 42
0.0191130343368989
  0
VERTEX
  5
AD7B
  8
0
 10
417.00517672773231
 20
310.5241812859885
 30
0.0
 42
0.0176658828911912
 70
     1
  0
VERTEX
  5
AD7C
  8
0
 10
416.56507168561842
 20
310.77067793539533
 30
0.0
 42
0.0212497880845394
  0
VERTEX
  5
AD7D
  8
0
 10
416.07938904451328
 20
310.99503047781502
 30
0.0
 42
0.023940045334056
 70
     1
  0
VERTEX
  5
AD7E
  8
0
 10
415.63201873602418
 20
311.15447496335861
 30
0.0
 42
0.0206778212282339
  0
VERTEX
  5
AD7F
  8
0
 10
415.18178564700202
 20
311.27094914097819
 30
0.0
 42
0.0153692141144456
 70
     1
  0
VERTEX
  5
AD80
  8
0
 10
414.56644415149452
 20
311.38359773823339
 30
0.0
 42
0.0157113261754214
  0
VERTEX
  5
AD81
  8
0
 10
414.04670297747992
 20
311.44569090085372
 30
0.0
 42
0.0165307513609489
 70
     1
  0
VERTEX
  5
AD82
  8
0
 10
413.54993603818411
 20
311.4727552938632
 30
0.0
 42
0.0322410633530098
  0
VERTEX
  5
AD83
  8
0
 10
412.964651416305
 20
311.44751915500262
 30
0.0
 42
0.0232339083694692
 70
     1
  0
VERTEX
  5
AD84
  8
0
 10
412.16173626420499
 20
311.32287491515359
 30
0.0
 42
0.0210868965185192
  0
VERTEX
  5
AD85
  8
0
 10
411.50750073910552
 20
311.16094263388572
 30
0.0
 42
0.0256175375377403
 70
     1
  0
VERTEX
  5
AD86
  8
0
 10
410.98363775563797
 20
310.97797044356747
 30
0.0
 42
0.0247647554099155
  0
VERTEX
  5
AD87
  8
0
 10
410.4194345504888
 20
310.71457611657343
 30
0.0
 42
0.0268575241010515
 70
     1
  0
VERTEX
  5
AD88
  8
0
 10
409.92693551924589
 20
310.41936196498438
 30
0.0
 42
0.0171483201932031
  0
VERTEX
  5
AD89
  8
0
 10
409.52124760102328
 20
310.12481670167881
 30
0.0
 42
0.0218963165100524
 70
     1
  0
VERTEX
  5
AD8A
  8
0
 10
409.22243427309559
 20
309.87001426342141
 30
0.0
 42
0.0211168855248305
  0
VERTEX
  5
AD8B
  8
0
 10
409.0272521485108
 20
309.67220582534583
 30
0.0
 42
0.0151269344160102
 70
     1
  0
VERTEX
  5
AD8C
  8
0
 10
408.77554854856447
 20
309.3771272989157
 30
0.0
 42
0.042084376427974
  0
VERTEX
  5
AD8D
  8
0
 10
408.59351154779552
 20
309.10634409121349
 30
0.0
 42
0.0302451144190995
 70
     1
  0
VERTEX
  5
AD8E
  8
0
 10
408.39731756739542
 20
308.6973495477539
 30
0.0
 42
0.0742598031923276
  0
VERTEX
  5
AD8F
  8
0
 10
408.30123654582388
 20
308.30225708252959
 30
0.0
 42
0.0775740165562256
 70
     1
  0
VERTEX
  5
AD90
  8
0
 10
408.32634907213009
 20
307.91363696392227
 30
0.0
 42
0.066128927605885
  0
VERTEX
  5
AD91
  8
0
 10
408.44639607964882
 20
307.5862246111451
 30
0.0
 42
0.0740868682973815
 70
     1
  0
VERTEX
  5
AD92
  8
0
 10
408.63033498326189
 20
307.33468945216208
 30
0.0
 42
0.033861562949908
  0
VERTEX
  5
AD93
  8
0
 10
408.9055824743254
 20
307.09142545325722
 30
0.0
 42
0.0447007821974542
 70
     1
  0
VERTEX
  5
AD94
  8
0
 10
409.14054069224773
 20
306.94189854425451
 30
0.0
 42
0.0198609443877095
  0
VERTEX
  5
AD95
  8
0
 10
409.53456747068998
 20
306.75750681983061
 30
0.0
 42
0.0269351412969548
 70
     1
  0
VERTEX
  5
AD96
  8
0
 10
409.83664069723858
 20
306.64924975110961
 30
0.0
 42
0.013020510192638
  0
VERTEX
  5
AD97
  8
0
 10
410.31838638750918
 20
306.51891361205372
 30
0.0
 42
0.0172016865232702
 70
     1
  0
VERTEX
  5
AD98
  8
0
 10
410.6883751985597
 20
306.44245425840739
 30
0.0
 42
0.0094721232178881
  0
VERTEX
  5
AD99
  8
0
 10
411.317910475997
 20
306.34702538671831
 30
0.0
 42
0.0127888247110268
 70
     1
  0
VERTEX
  5
AD9A
  8
0
 10
411.78689797499959
 20
306.29716316698642
 30
0.0
 42
0.0045623326079984
  0
VERTEX
  5
AD9B
  8
0
 10
411.9363698589209
 20
306.2864997279662
 30
0.0
 42
0.0008403950440249
 70
     1
  0
VERTEX
  5
AD9C
  8
0
 10
412.7483839184174
 20
306.2373823569128
 30
0.0
 42
0.0100920403750907
  0
VERTEX
  5
AD9D
  8
0
 10
413.0127284153582
 20
306.2271866852476
 30
0.0
 42
0.0049663893421496
 70
     1
  0
VERTEX
  5
AD9E
  8
0
 10
413.5502331761117
 20
306.22265302754369
 30
0.0
  0
SEQEND
  5
AD9F
  8
0
  0
POLYLINE
  5
ADA0
  8
0
 66
     1
 10
0.0
 20
0.0
 30
0.0
 70
     2
  0
VERTEX
  5
ADA1
  8
0
 10
408.54596866262449
 20
333.90044704862419
 30
0.0
 42
0.0431961357863927
  0
VERTEX
  5
ADA2
  8
0
 10
408.34756941900781
 20
333.37301231385158
 30
0.0
 42
0.063172662687434
 70
     1
  0
VERTEX
  5
ADA3
  8
0
 10
408.2909083213076
 20
332.99105488730987
 30
0.0
 42
0.009967984266145
  0
VERTEX
  5
ADA4
  8
0
 10
408.29037427307998
 20
332.52949343522351
 30
0.0
 42
0.023685799992138
 70
     1
  0
VERTEX
  5
ADA5
  8
0
 10
408.30321837198107
 20
332.33558401687873
 30
0.0
 42
0.0343490404033844
  0
VERTEX
  5
ADA6
  8
0
 10
408.39290935235113
 20
331.84870794588733
 30
0.0
 42
0.0271070359221252
 70
     1
  0
VERTEX
  5
ADA7
  8
0
 10
408.58123723754579
 20
331.2506034850993
 30
0.0
 42
0.0345570497076422
  0
VERTEX
  5
ADA8
  8
0
 10
408.89016874347629
 20
330.57402168508338
 30
0.0
 42
0.0384681187565055
 70
     1
  0
VERTEX
  5
ADA9
  8
0
 10
409.25325649409342
 20
330.01290356245153
 30
0.0
 42
0.0203059188427906
  0
VERTEX
  5
ADAA
  8
0
 10
409.59752033891289
 20
329.59733003174853
 30
0.0
 42
0.0231417950698514
 70
     1
  0
VERTEX
  5
ADAB
  8
0
 10
409.93013980052501
 20
329.26022809197428
 30
0.0
 42
0.0220703388569448
  0
VERTEX
  5
ADAC
  8
0
 10
410.29826375777202
 20
328.94910142293361
 30
0.0
 42
0.0192628798167282
 70
     1
  0
VERTEX
  5
ADAD
  8
0
 10
410.74797813194789
 20
328.62870589444549
 30
0.0
 42
0.0355896371852024
  0
VERTEX
  5
ADAE
  8
0
 10
411.17897122062539
 20
328.38798956607411
 30
0.0
 42
0.0228016374377494
 70
     1
  0
VERTEX
  5
ADAF
  8
0
 10
411.89033474755792
 20
328.09340496668813
 30
0.0
 42
0.0459483024482744
  0
VERTEX
  5
ADB0
  8
0
 10
412.62520619659739
 20
327.90169692070208
 30
0.0
 42
0.0377268845394051
 70
     1
  0
VERTEX
  5
ADB1
  8
0
 10
413.54596761954321
 20
327.8205199617941
 30
0.0
 42
0.0458916675431241
  0
VERTEX
  5
ADB2
  8
0
 10
414.4639643324312
 20
327.89337907619489
 30
0.0
 42
0.0483541132998425
 70
     1
  0
VERTEX
  5
ADB3
  8
0
 10
415.30705084887899
 20
328.1244909674524
 30
0.0
 42
0.0303191917250825
  0
VERTEX
  5
ADB4
  8
0
 10
416.04634719935979
 20
328.45891143637419
 30
0.0
 42
0.0363352846952982
 70
     1
  0
VERTEX
  5
ADB5
  8
0
 10
416.62092213528501
 20
328.81759369138342
 30
0.0
 42
0.0264812083181451
  0
VERTEX
  5
ADB6
  8
0
 10
417.13965274202832
 20
329.24021471978489
 30
0.0
 42
0.0291406425303424
 70
     1
  0
VERTEX
  5
ADB7
  8
0
 10
417.56556938062198
 20
329.67427555502968
 30
0.0
 42
0.0374452995068209
  0
VERTEX
  5
ADB8
  8
0
 10
418.06210035767339
 20
330.33727401821591
 30
0.0
 42
0.0420766633376789
 70
     1
  0
VERTEX
  5
ADB9
  8
0
 10
418.40513840110259
 20
330.99004297357141
 30
0.0
 42
0.0238408325268329
  0
VERTEX
  5
ADBA
  8
0
 10
418.6487669876455
 20
331.65319722241168
 30
0.0
 42
0.036879866622464
 70
     1
  0
VERTEX
  5
ADBB
  8
0
 10
418.75326798564078
 20
332.09815969113401
 30
0.0
 42
0.0137448769988028
  0
VERTEX
  5
ADBC
  8
0
 10
418.79862243689689
 20
332.44653923113702
 30
0.0
 42
0.0250489363360336
 70
     1
  0
VERTEX
  5
ADBD
  8
0
 10
418.80862421912752
 20
332.63914056581871
 30
0.0
 42
0.0273728716604267
  0
VERTEX
  5
ADBE
  8
0
 10
418.80125388953411
 20
332.7782411605678
 30
0.0
 42
0.0078833481090027
 70
     1
  0
VERTEX
  5
ADBF
  8
0
 10
418.74174491173881
 20
333.25789974370372
 30
0.0
 42
0.0404131572940509
  0
VERTEX
  5
ADC0
  8
0
 10
418.68666685422062
 20
333.50422174202032
 30
0.0
 42
0.0248682998566855
 70
     1
  0
VERTEX
  5
ADC1
  8
0
 10
418.54597030175228
 20
333.88907373734298
 30
0.0
  0
SEQEND
  5
ADC2
  8
0
  0
LINE
  5
ADC3
  8
0
 10
418.54597030175228
 20
332.50847370215251
 30
0.0
 11
418.54597030175228
 21
344.2965936149352
 31
0.0
  0
LINE
  5
ADC4
  8
0
 10
408.54596866262449
 20
359.09276720338778
 30
0.0
 11
408.54596866262449
 21
349.2965901224764
 31
0.0
  0
POLYLINE
  5
ADC5
  8
0
 66
     1
 10
0.0
 20
0.0
 30
0.0
 70
     2
  0
VERTEX
  5
ADC6
  8
0
 10
405.08574767005939
 20
363.92021463104078
 30
0.0
 42
0.0137468136570836
  0
VERTEX
  5
ADC7
  8
0
 10
405.28115204850332
 20
363.24057919633401
 30
0.0
 42
0.0223591409678818
 70
     1
  0
VERTEX
  5
ADC8
  8
0
 10
405.43116776240367
 20
362.83235535808387
 30
0.0
 42
0.0050867424461093
  0
VERTEX
  5
ADC9
  8
0
 10
405.75509708347181
 20
362.08100156745257
 30
0.0
 42
0.0130408969824867
 70
     1
  0
VERTEX
  5
ADCA
  8
0
 10
405.89200860019758
 20
361.79265865999929
 30
0.0
 42
0.0446628718311455
  0
VERTEX
  5
ADCB
  8
0
 10
406.25948318536848
 20
361.20476525645171
 30
0.0
 42
0.0295880464734162
 70
     1
  0
VERTEX
  5
ADCC
  8
0
 10
406.9385566565561
 20
360.41002105644719
 30
0.0
 42
0.032238326982435
  0
VERTEX
  5
ADCD
  8
0
 10
407.65499267611852
 20
359.75570867584452
 30
0.0
 42
0.0285976663252122
 70
     1
  0
VERTEX
  5
ADCE
  8
0
 10
408.54596866262449
 20
359.12168309875318
 30
0.0
 42
0.0242093114677032
  0
VERTEX
  5
ADCF
  8
0
 10
409.52994679056792
 20
358.56755308845618
 30
0.0
 42
0.0321897133137776
 70
     1
  0
VERTEX
  5
ADD0
  8
0
 10
410.31252688396762
 20
358.2365739139484
 30
0.0
 42
0.0222878319870632
  0
VERTEX
  5
ADD1
  8
0
 10
411.28665376094199
 20
357.94461556909249
 30
0.0
 42
0.0281297702802395
 70
     1
  0
VERTEX
  5
ADD2
  8
0
 10
412.07807098809923
 20
357.79209817129009
 30
0.0
 42
0.011484768975861
  0
VERTEX
  5
ADD3
  8
0
 10
412.78247356994962
 20
357.71346759946528
 30
0.0
 42
0.0157306081002496
 70
     1
  0
VERTEX
  5
ADD4
  8
0
 10
413.2991724014131
 20
357.68411862847239
 30
0.0
 42
0.0171961359420319
  0
VERTEX
  5
ADD5
  8
0
 10
413.8641223583499
 20
357.68926407993717
 30
0.0
 42
0.0124977242952775
 70
     1
  0
VERTEX
  5
ADD6
  8
0
 10
414.63956185745383
 20
357.7424575819731
 30
0.0
 42
0.0270631786256229
  0
VERTEX
  5
ADD7
  8
0
 10
415.33890064253001
 20
357.84643465047913
 30
0.0
 42
0.0188632287222791
 70
     1
  0
VERTEX
  5
ADD8
  8
0
 10
416.32396665650913
 20
358.08690486588478
 30
0.0
 42
0.0369987508177448
  0
VERTEX
  5
ADD9
  8
0
 10
417.46873184679538
 20
358.5062287348423
 30
0.0
 42
0.0367742854439948
 70
     1
  0
VERTEX
  5
ADDA
  8
0
 10
418.54597030175228
 20
359.09276720338778
 30
0.0
 42
0.0179731611764654
  0
VERTEX
  5
ADDB
  8
0
 10
419.16558508955808
 20
359.52403703625868
 30
0.0
 42
0.0214853134056377
 70
     1
  0
VERTEX
  5
ADDC
  8
0
 10
419.653930164663
 20
359.92459817113053
 30
0.0
 42
0.0266171994503692
  0
VERTEX
  5
ADDD
  8
0
 10
420.00236399044701
 20
360.27146757099791
 30
0.0
 42
0.0104228258529883
 70
     1
  0
VERTEX
  5
ADDE
  8
0
 10
420.8236921795542
 20
361.22012968744338
 30
0.0
 42
0.0433663196937339
  0
VERTEX
  5
ADDF
  8
0
 10
421.10283139844881
 20
361.62288868154093
 30
0.0
 42
0.0237407896423621
 70
     1
  0
VERTEX
  5
ADE0
  8
0
 10
421.50920776618023
 20
362.41913125701728
 30
0.0
  0
SEQEND
  5
ADE1
  8
0
  0
LINE
  5
ADE2
  8
0
 10
405.08574767005939
 20
363.92021463104078
 30
0.0
 11
403.16701082480449
 21
373.38171438165489
 31
0.0
  0
LINE
  5
ADE3
  8
0
 10
403.04596869242692
 20
374.75846991725751
 30
0.0
 11
403.04603574765218
 21
388.45033482499912
 31
0.0
  0
LINE
  5
ADE4
  8
0
 10
422.00618384373678
 20
363.92021463104078
 30
0.0
 11
423.88726917994518
 21
373.183469333132
 31
0.0
  0
LINE
  5
ADE5
  8
0
 10
424.0459665466596
 20
374.75846991725763
 30
0.0
 11
424.0459665466596
 21
388.48346010633298
 31
0.0
  0
POLYLINE
  5
ADE6
  8
0
 66
     1
 10
0.0
 20
0.0
 30
0.0
 70
     2
  0
VERTEX
  5
ADE7
  8
0
 10
403.04603574765218
 20
388.45033482499912
 30
0.0
 42
-0.0087347549993145
  0
VERTEX
  5
ADE8
  8
0
 10
403.06243263860358
 20
388.92744271621967
 30
0.0
 42
-0.0189155744994066
 70
     1
  0
VERTEX
  5
ADE9
  8
0
 10
403.08217467931212
 20
389.14706620358447
 30
0.0
 42
-0.0083166706928094
  0
VERTEX
  5
ADEA
  8
0
 10
403.20318243046489
 20
389.98094114605402
 30
0.0
 42
-0.0110551639208547
 70
     1
  0
VERTEX
  5
ADEB
  8
0
 10
403.31845052806318
 20
390.60429191576929
 30
0.0
 42
-0.0413426555413891
  0
VERTEX
  5
ADEC
  8
0
 10
403.50426290856279
 20
391.23246097996758
 30
0.0
 42
-0.0209663430365437
 70
     1
  0
VERTEX
  5
ADED
  8
0
 10
404.02105859498852
 20
392.41450179908082
 30
0.0
 42
-0.057264108832515
  0
VERTEX
  5
ADEE
  8
0
 10
404.99713996270611
 20
393.94238516015571
 30
0.0
 42
-0.0542059950036
 70
     1
  0
VERTEX
  5
ADEF
  8
0
 10
406.35886557693033
 20
395.28839268286589
 30
0.0
 42
-0.0207643989083124
  0
VERTEX
  5
ADF0
  8
0
 10
407.37233404399649
 20
396.02696200170612
 30
0.0
 42
-0.0275056963508225
 70
     1
  0
VERTEX
  5
ADF1
  8
0
 10
408.18785028417142
 20
396.50834753677691
 30
0.0
 42
-0.0228563876763983
  0
VERTEX
  5
ADF2
  8
0
 10
409.10771486287598
 20
396.9330499896675
 30
0.0
 42
-0.0202505194059146
 70
     1
  0
VERTEX
  5
ADF3
  8
0
 10
410.18324266939948
 20
397.32119508708098
 30
0.0
 42
-0.0430707325039546
  0
VERTEX
  5
ADF4
  8
0
 10
411.94398022366698
 20
397.71448232087522
 30
0.0
 42
-0.041678077176212
 70
     1
  0
VERTEX
  5
ADF5
  8
0
 10
413.80580740573618
 20
397.80832614438208
 30
0.0
 42
-0.0214470576358782
  0
VERTEX
  5
ADF6
  8
0
 10
415.06312482652351
 20
397.71279560679068
 30
0.0
 42
-0.0264253677876494
 70
     1
  0
VERTEX
  5
ADF7
  8
0
 10
416.07173226567778
 20
397.53804111064221
 30
0.0
 42
-0.0257750443960158
  0
VERTEX
  5
ADF8
  8
0
 10
417.35239460780531
 20
397.17540809435241
 30
0.0
 42
-0.0282332251546324
 70
     1
  0
VERTEX
  5
ADF9
  8
0
 10
418.47921067076908
 20
396.72020417922442
 30
0.0
 42
-0.0268835065107096
  0
VERTEX
  5
ADFA
  8
0
 10
419.47552906190862
 20
396.18347913146681
 30
0.0
 42
-0.0260669989416824
 70
     1
  0
VERTEX
  5
ADFB
  8
0
 10
420.43876313350978
 20
395.52448258672172
 30
0.0
 42
-0.0290468227642595
  0
VERTEX
  5
ADFC
  8
0
 10
421.25091008868549
 20
394.8261245627985
 30
0.0
 42
-0.0274488583362451
 70
     1
  0
VERTEX
  5
ADFD
  8
0
 10
422.02148762087921
 20
393.99502023451691
 30
0.0
 42
-0.0367697788643546
  0
VERTEX
  5
ADFE
  8
0
 10
422.8306210547475
 20
392.85980320477302
 30
0.0
 42
-0.0415936206382597
 70
     1
  0
VERTEX
  5
ADFF
  8
0
 10
423.38080321750789
 20
391.75652462892799
 30
0.0
 42
-0.0204887399892343
  0
VERTEX
  5
AE00
  8
0
 10
423.56201297206678
 20
391.24176357383948
 30
0.0
 42
-0.0097462942367951
 70
     1
  0
VERTEX
  5
AE01
  8
0
 10
423.87676522570291
 20
390.13894521420121
 30
0.0
 42
-0.0391877668902648
  0
VERTEX
  5
AE02
  8
0
 10
423.99107728150051
 20
389.51142257690321
 30
0.0
 42
-0.0242584061693931
 70
     1
  0
VERTEX
  5
AE03
  8
0
 10
424.0459665466596
 20
388.48346010633298
 30
0.0
  0
SEQEND
  5
AE04
  8
0
  0
LINE
  5
AE05
  8
0
 10
595.86937655087604
 20
323.75847236104789
 30
0.0
 11
595.86937655087604
 21
309.75847212262983
 31
0.0
  0
LINE
  5
AE06
  8
0
 10
633.86937607403888
 20
323.75847236104812
 30
0.0
 11
633.86937607403888
 21
309.75847212262943
 31
0.0
  0
ARC
  5
AE07
  8
0
 10
614.86937631245735
 20
323.75847236104789
 30
0.0
 40
18.999999761581421
 50
0.0
 51
134.74247651342321
  0
ARC
  5
B74D
  8
0
 10
414.65860593543442
 20
349.31425379091559
 30
0.0
 40
3.8874044967947472
 50
327.05718365970517
 51
359.73965736375629
  0
LINE
  5
B74E
  8
0
 10
417.920969137599
 20
347.20027648288669
 30
0.0
 11
417.920969137599
 21
342.20027881119267
 31
0.0
  0
ARC
  5
B74F
  8
0
 10
414.70461397494722
 20
344.2965936149352
 30
0.0
 40
3.8392025589576768
 50
326.90501016306467
 51
33.094989836935333
  0
ARC
  5
B750
  8
0
 10
412.43333302894229
 20
349.31425379091559
 30
0.0
 40
3.8874044967947472
 50
180.26034263624371
 51
212.9428163402948
  0
LINE
  5
B751
  8
0
 10
409.17096982677771
 20
347.20027648288669
 30
0.0
 11
409.17096982677771
 21
342.20027881119267
 31
0.0
  0
ARC
  5
B752
  8
0
 10
412.38732498942949
 20
344.2965936149352
 30
0.0
 40
3.8392025589576768
 50
146.905010163084
 51
213.09498983691589
  0
LINE
  5
B755
  8
0
 10
418.54597030175228
 20
349.2965901224764
 30
0.0
 11
418.54597030175228
 21
359.09276720338778
 31
0.0
  0
LINE
  5
B756
  8
0
 10
408.54596866262449
 20
344.2965936149352
 30
0.0
 11
408.54596866262449
 21
332.50847370215251
 31
0.0
  0
LINE
  5
B757
  8
0
 10
417.92096913759821
 20
509.81707195005811
 30
0.0
 11
417.92096913759821
 21
501.15681883525019
 31
0.0
  0
ARC
  5
B758
  8
0
 10
416.88388070591782
 20
499.85473909983659
 30
0.0
 40
1.664621294018884
 50
3.1603918302390199
 51
51.463164967038779
  0
ARC
  5
B759
  8
0
 10
417.021903233503
 20
508.60676491168198
 30
0.0
 40
1.507701106668643
 50
306.60648530331252
 51
53.393514696687483
  0
LINE
  5
B75A
  8
0
 10
409.17096982677759
 20
509.81707195005811
 30
0.0
 11
409.17096982677759
 21
501.15681883525019
 31
0.0
  0
ARC
  5
B75B
  8
0
 10
410.20805825845798
 20
499.85473909983659
 30
0.0
 40
1.664621294018884
 50
128.53683503294491
 51
176.83960816976099
  0
ARC
  5
B75C
  8
0
 10
410.0700357308728
 20
508.60676491168198
 30
0.0
 40
1.507701106668643
 50
126.60648530328849
 51
233.39351469671141
  0
LINE
  5
B75F
  8
0
 10
418.54597030175182
 20
499.9465117968748
 30
0.0
 11
418.54597030175182
 21
478.77441804718092
 31
0.0
  0
LINE
  5
B760
  8
0
 10
408.54596866262409
 20
508.60676491168198
 30
0.0
 11
408.54596866262409
 21
531.55969882932231
 31
0.0
  0
LINE
  5
B7BA
  8
0
 10
417.92096913759809
 20
204.60956427734749
 30
0.0
 11
417.92096913759809
 21
195.94931116253949
 31
0.0
  0
ARC
  5
B7BB
  8
0
 10
416.88388070591782
 20
194.64723142712589
 30
0.0
 40
1.664621294018884
 50
3.1603918302391452
 51
51.46316496703885
  0
ARC
  5
B7BC
  8
0
 10
417.021903233503
 20
203.39925723897139
 30
0.0
 40
1.507701106668643
 50
306.6064853033127
 51
53.393514696687383
  0
LINE
  5
B7BD
  8
0
 10
409.17117082883459
 20
204.60956462795579
 30
0.0
 11
409.17117082883459
 21
195.9493115131479
 31
0.0
  0
ARC
  5
B7BE
  8
0
 10
410.20825926051492
 20
194.64723177773431
 30
0.0
 40
1.664621294018884
 50
128.53683503294499
 51
176.83960816976079
  0
ARC
  5
B7BF
  8
0
 10
410.07023673292957
 20
203.39925758957969
 30
0.0
 40
1.507701106668643
 50
126.6064853032897
 51
233.3935146967103
  0
LINE
  5
B7FF
  8
0
 10
570.03701717565855
 20
353.10654784135858
 30
0.0
 11
576.96522105620284
 21
349.10654896765732
 31
0.0
  0
LINE
  5
B800
  8
0
 10
576.96522105620227
 20
349.10654896765681
 30
0.0
 11
573.96521899890058
 21
343.91039587008908
 31
0.0
  0
LINE
  5
B801
  8
0
 10
570.03701717565832
 20
353.10654784135818
 30
0.0
 11
567.03701511835618
 21
347.91039474379039
 31
0.0
  0
LINE
  5
B802
  8
0
 10
567.03701511835618
 20
347.91039474379039
 30
0.0
 11
573.96521899890058
 21
343.91039587008908
 31
0.0
  0
LINE
  5
B809
  8
0
 10
243.20799281357591
 20
353.10654327809152
 30
0.0
 11
236.2797889330316
 21
349.10654440439009
 31
0.0
  0
LINE
  5
B80A
  8
0
 10
236.27978893303199
 20
349.10654440438969
 30
0.0
 11
239.27979099033379
 21
343.91039130682191
 31
0.0
  0
LINE
  5
B80B
  8
0
 10
243.20799281357611
 20
353.10654327809101
 30
0.0
 11
246.20799487087811
 21
347.91039018052328
 31
0.0
  0
LINE
  5
B80C
  8
0
 10
246.20799487087811
 20
347.91039018052328
 30
0.0
 11
239.27979099033379
 21
343.91039130682191
 31
0.0
  0
LINE
  5
B80F
  8
0
 10
418.54597030175182
 20
194.7390041241633
 30
0.0
 11
418.54597030175182
 21
172.55981252127509
 31
0.0
  0
LINE
  5
B810
  8
0
 10
408.54624814944691
 20
203.39925758957969
 30
0.0
 11
408.54644549978229
 21
225.17550722294689
 31
0.0
  0
TEXT
  5
B9B1
  8
0
 62
     3
 10
0.0
 20
0.0
 30
0.0
 40
10.0
  1
QLRC-12L
  7
STANDARD1
  0
ENDSEC
  0
EOF
