  0
SECTION
  2
HEADER
  9
$ACADVER
  1
AC1009
  9
$INSBASE
 10
0.0
 20
0.0
 30
0.0
  9
$EXTMIN
 10
0.0
 20
-2.960436562073669
 30
0.0
  9
$EXTMAX
 10
652.29444964028198
 20
633.94322446588171
 30
0.0
  9
$LIMMIN
 10
0.0
 20
0.0
  9
$LIMMAX
 10
375.0
 20
270.0
  9
$ORTHOMODE
 70
     1
  9
$REGENMODE
 70
     1
  9
$FILLMODE
 70
     1
  9
$QTEXTMODE
 70
     0
  9
$MIRRTEXT
 70
     0
  9
$DRAGMODE
 70
     2
  9
$LTSCALE
 40
10.0
  9
$OSMODE
 70
  3071
  9
$ATTMODE
 70
     1
  9
$TEXTSIZE
 40
6.0
  9
$TRACEWID
 40
0.05
  9
$TEXTSTYLE
  7
STANDARD
  9
$CLAYER
  8
0
  9
$CELTYPE
  6
BYLAYER
  9
$CECOLOR
 62
   256
  9
$DIMSCALE
 40
1.0
  9
$DIMASZ
 40
3.0
  9
$DIMEXO
 40
2.0
  9
$DIMDLI
 40
0.3799999999999999
  9
$DIMRND
 40
0.0
  9
$DIMDLE
 40
0.0
  9
$DIMEXE
 40
2.0
  9
$DIMTP
 40
0.0
  9
$DIMTM
 40
0.0
  9
$DIMTXT
 40
3.2000000000000002
  9
$DIMCEN
 40
0.09
  9
$DIMTSZ
 40
0.0
  9
$DIMTOL
 70
     0
  9
$DIMLIM
 70
     0
  9
$DIMTIH
 70
     0
  9
$DIMTOH
 70
     0
  9
$DIMSE1
 70
     0
  9
$DIMSE2
 70
     0
  9
$DIMTAD
 70
     1
  9
$DIMZIN
 70
     9
  9
$DIMBLK
  1

  9
$DIMASO
 70
     0
  9
$DIMSHO
 70
     0
  9
$DIMPOST
  1

  9
$DIMAPOST
  1

  9
$DIMALT
 70
     0
  9
$DIMALTD
 70
     2
  9
$DIMALTF
 40
25.399999999999999
  9
$DIMLFAC
 40
1.0
  9
$DIMTOFL
 70
     0
  9
$DIMTVP
 40
0.0
  9
$DIMTIX
 70
     0
  9
$DIMSOXD
 70
     0
  9
$DIMSAH
 70
     0
  9
$DIMBLK1
  1

  9
$DIMBLK2
  1

  9
$DIMSTYLE
  2
STANDARD
  9
$DIMCLRD
 70
     0
  9
$DIMCLRE
 70
     0
  9
$DIMCLRT
 70
     0
  9
$DIMTFAC
 40
1.0
  9
$DIMGAP
 40
0.09
  9
$LUNITS
 70
     2
  9
$LUPREC
 70
     4
  9
$SKETCHINC
 40
0.1
  9
$FILLETRAD
 40
20.0
  9
$AUNITS
 70
     0
  9
$AUPREC
 70
     0
  9
$MENU
  1
E:\r13\win\SUPPORT\ACAD
  9
$ELEVATION
 40
0.0
  9
$PELEVATION
 40
0.0
  9
$THICKNESS
 40
0.0
  9
$LIMCHECK
 70
     0
  9
$BLIPMODE
 70
     0
  9
$CHAMFERA
 40
0.0
  9
$CHAMFERB
 40
0.0
  9
$SKPOLY
 70
     0
  9
$TDCREATE
 40
2449840.6320370371
  9
$TDUPDATE
 40
2456598.429443785
  9
$TDINDWG
 40
0.3947918287
  9
$TDUSRTIMER
 40
0.3947918287
  9
$USRTIMER
 70
     1
  9
$ANGBASE
 50
0.0
  9
$ANGDIR
 70
     0
  9
$PDMODE
 70
     0
  9
$PDSIZE
 40
0.0
  9
$PLINEWID
 40
0.0
  9
$COORDS
 70
     1
  9
$SPLFRAME
 70
     0
  9
$SPLINETYPE
 70
     6
  9
$SPLINESEGS
 70
     8
  9
$ATTDIA
 70
     0
  9
$ATTREQ
 70
     1
  9
$HANDLING
 70
     1
  9
$HANDSEED
  5
BCD9
  9
$SURFTAB1
 70
     6
  9
$SURFTAB2
 70
     6
  9
$SURFTYPE
 70
     6
  9
$SURFU
 70
     6
  9
$SURFV
 70
     6
  9
$UCSNAME
  2

  9
$UCSORG
 10
0.0
 20
0.0
 30
0.0
  9
$UCSXDIR
 10
1.0
 20
0.0
 30
0.0
  9
$UCSYDIR
 10
0.0
 20
1.0
 30
0.0
  9
$PUCSNAME
  2

  9
$PUCSORG
 10
0.0
 20
0.0
 30
0.0
  9
$PUCSXDIR
 10
1.0
 20
0.0
 30
0.0
  9
$PUCSYDIR
 10
0.0
 20
1.0
 30
0.0
  9
$USERI1
 70
     0
  9
$USERI2
 70
     1
  9
$USERI3
 70
     0
  9
$USERI4
 70
     0
  9
$USERI5
 70
     0
  9
$USERR1
 40
0.0
  9
$USERR2
 40
0.0
  9
$USERR3
 40
0.0
  9
$USERR4
 40
0.0
  9
$USERR5
 40
0.0
  9
$WORLDVIEW
 70
     1
  9
$SHADEDGE
 70
     3
  9
$SHADEDIF
 70
    70
  9
$TILEMODE
 70
     1
  9
$MAXACTVP
 70
    16
  9
$PLIMCHECK
 70
     0
  9
$PEXTMIN
 10
1.0000000000000000E+020
 20
1.0000000000000000E+020
 30
1.0000000000000000E+020
  9
$PEXTMAX
 10
-1.0000000000000000E+020
 20
-1.0000000000000000E+020
 30
-1.0000000000000000E+020
  9
$PLIMMIN
 10
0.0
 20
0.0
  9
$PLIMMAX
 10
12.0
 20
9.0
  9
$UNITMODE
 70
     0
  9
$VISRETAIN
 70
     0
  9
$PLINEGEN
 70
     0
  9
$PSLTSCALE
 70
     0
  0
ENDSEC
  0
SECTION
  2
TABLES
  0
TABLE
  2
VPORT
 70
     1
  0
VPORT
  2
*ACTIVE
 70
     0
 10
0.0
 20
0.0
 11
1.0
 21
1.0
 12
326.14722633888249
 22
352.50854082961939
 13
0.0
 23
0.0
 14
10.0
 24
10.0
 15
10.0
 25
10.0
 16
0.0
 26
0.0
 36
1.0
 17
0.0
 27
0.0
 37
0.0
 40
719.88538386819198
 41
2.304913294797688
 42
50.0
 43
0.0
 44
0.0
 50
0.0
 51
0.0
 71
     0
 72
   500
 73
     1
 74
     0
 75
     0
 76
     0
 77
     0
 78
     0
  0
ENDTAB
  0
TABLE
  2
LTYPE
 70
     3
  0
LTYPE
  2
CONTINUOUS
 70
     0
  3
Solid Line
 72
    65
 73
     0
 40
0.0
  0
LTYPE
  2
CENTER
 70
     0
  3
____ _ ____ _ ____ _ ____ _ ____ _ ____ _ ____
 72
    65
 73
     4
 40
2.0
 49
1.25
 49
-0.25
 49
0.25
 49
-0.25
  0
LTYPE
  2
PHANTOM2
 70
     0
  3
___ _ _ ___ _ _ ___ _ _ ___ _ _
 72
    65
 73
     6
 40
1.25
 49
0.625
 49
-0.125
 49
0.125
 49
-0.125
 49
0.125
 49
-0.125
  0
ENDTAB
  0
TABLE
  2
LAYER
 70
     3
  0
LAYER
  2
0
 70
     0
 62
     7
  6
CONTINUOUS
  0
LAYER
  2
1
 70
     0
 62
     1
  6
CENTER
  0
LAYER
  2
DEFPOINTS
 70
     0
 62
     7
  6
CONTINUOUS
  0
ENDTAB
  0
TABLE
  2
STYLE
 70
     2
  0
STYLE
  2
STANDARD
 70
     0
 40
0.0
 41
1.0
 50
0.0
 71
     0
 42
6.0
  3
TXT
  4
BIGFONT
  0
STYLE
  2
STANDARD1
 70
     0
 40
0.0
 41
1.0
 50
0.0
 71
     0
 42
3.0
  3
txt
  4

  0
ENDTAB
  0
TABLE
  2
VIEW
 70
     1
  0
VIEW
  2
ALL
 70
     0
 40
270.0
 10
213.25689075630251
 20
135.0
 41
0.0
 11
0.0
 21
0.0
 31
1.0
 12
0.0
 22
0.0
 32
0.0
 42
0.0
 43
0.0
 44
0.0
 50
0.0
 71
     0
  0
ENDTAB
  0
TABLE
  2
UCS
 70
     0
  0
ENDTAB
  0
TABLE
  2
APPID
 70
     6
  0
APPID
  2
ACAD
 70
     0
  0
APPID
  2
ACAD_EXEMPT_FROM_CAD_STANDARDS
 70
     0
  0
APPID
  2
ACAD_MLEADERVER
 70
     0
  0
APPID
  2
ACAD_DSTYLE_DIMJAG
 70
     0
  0
APPID
  2
ACAD_DSTYLE_DIMTALN
 70
     0
  0
APPID
  2
ACAD_NAV_VCDISPLAY
 70
     0
  0
ENDTAB
  0
TABLE
  2
DIMSTYLE
 70
     1
  0
DIMSTYLE
  2
STANDARD
 70
     0
  3

  4

  5

  6

  7

 40
1.0
 41
0.18
 42
0.0625
 43
0.38
 44
0.18
 45
0.0
 46
0.0
 47
0.0
 48
0.0
140
0.18
141
0.09
142
0.0
143
25.399999999999999
144
1.0
145
0.0
146
1.0
147
0.09
 71
     0
 72
     0
 73
     1
 74
     1
 75
     0
 76
     0
 77
     0
 78
     0
170
     0
171
     2
172
     0
173
     0
174
     0
175
     0
176
     0
177
     0
178
     0
  0
ENDTAB
  0
ENDSEC
  0
SECTION
  2
BLOCKS
  0
BLOCK
  8
0
  2
$MODEL_SPACE
 70
     0
 10
0.0
 20
0.0
 30
0.0
  3
$MODEL_SPACE
  1

  0
ENDBLK
  5
126
  8
0
  0
BLOCK
 67
     1
  8
0
  2
$PAPER_SPACE
 70
     0
 10
0.0
 20
0.0
 30
0.0
  3
$PAPER_SPACE
  1

  0
ENDBLK
  5
124
 67
     1
  8
0
  0
ENDSEC
  0
SECTION
  2
ENTITIES
  0
LINE
  5
A125
  8
0
 10
405.14596664202639
 20
303.48365339302018
 30
0.0
 11
405.14596664202639
 21
305.75847257711479
 31
0.0
  0
LINE
  5
A126
  8
0
 10
405.14596664202639
 20
300.75847245604291
 30
0.0
 11
405.14596664202639
 21
303.48365339302018
 31
0.0
  0
LINE
  5
A12D
  8
0
 10
421.80250732195799
 20
363.15594897456958
 30
0.0
 11
422.0061838437361
 21
363.92021463104078
 31
0.0
  0
LINE
  5
A12E
  8
0
 10
405.08574767005871
 20
363.92021463104078
 30
0.0
 11
405.2074491788191
 21
363.42166648097827
 31
0.0
  0
POLYLINE
  5
A12F
  8
0
 66
     1
 10
0.0
 20
0.0
 30
0.0
 70
   128
  0
VERTEX
  5
B93D
  8
0
 10
423.8872691799445
 20
373.183469333132
 30
0.0
  0
VERTEX
  5
B93E
  8
0
 10
423.96230397713612
 20
373.61286864467462
 30
0.0
  0
VERTEX
  5
B93F
  8
0
 10
424.04215929997389
 20
375.00331834741428
 30
0.0
  0
VERTEX
  5
B940
  8
0
 10
423.8759890009207
 20
376.38802365251382
 30
0.0
  0
VERTEX
  5
B941
  8
0
 10
423.46769718420933
 20
377.73453728147342
 30
0.0
  0
VERTEX
  5
B942
  8
0
 10
422.82684294474552
 20
379.01129112430408
 30
0.0
  0
VERTEX
  5
B943
  8
0
 10
421.96845410359327
 20
380.18836364932849
 30
0.0
  0
VERTEX
  5
B944
  8
0
 10
420.91265467894499
 20
381.2381653565962
 30
0.0
  0
VERTEX
  5
B945
  8
0
 10
419.6841805983824
 20
382.13609442897632
 30
0.0
  0
VERTEX
  5
B946
  8
0
 10
418.31182835591261
 20
382.86108807512119
 30
0.0
  0
VERTEX
  5
B947
  8
0
 10
416.8277770091338
 20
383.39616642185041
 30
0.0
  0
VERTEX
  5
B948
  8
0
 10
415.26679841769158
 20
383.72879014201948
 30
0.0
  0
VERTEX
  5
B949
  8
0
 10
413.66548238289778
 20
383.85115102716281
 30
0.0
  0
VERTEX
  5
B94A
  8
0
 10
412.06137238038008
 20
383.76038805433109
 30
0.0
  0
VERTEX
  5
B94B
  8
0
 10
410.49205658925001
 20
383.45862463899448
 30
0.0
  0
VERTEX
  5
B94C
  8
0
 10
408.99431852591459
 20
382.95294628330061
 30
0.0
  0
VERTEX
  5
B94D
  8
0
 10
407.60326905143683
 20
382.25519195981809
 30
0.0
  0
VERTEX
  5
B94E
  8
0
 10
406.3515119065089
 20
381.38171569295719
 30
0.0
  0
VERTEX
  5
B94F
  8
0
 10
405.2683874775214
 20
380.35299912877872
 30
0.0
  0
VERTEX
  5
B950
  8
0
 10
404.37928361785828
 20
379.19315234609439
 30
0.0
  0
VERTEX
  5
B951
  8
0
 10
403.70503587615912
 20
377.92936251350238
 30
0.0
  0
VERTEX
  5
B952
  8
0
 10
403.26145438445042
 20
376.591253139456
 30
0.0
  0
VERTEX
  5
B953
  8
0
 10
403.05892897737448
 20
375.21017626710727
 30
0.0
  0
VERTEX
  5
B954
  8
0
 10
403.10221312535231
 20
373.8185195703108
 30
0.0
  0
VERTEX
  5
B955
  8
0
 10
403.20466605914061
 20
373.183469333132
 30
0.0
  0
SEQEND
  5
B956
  8
0
  0
LINE
  5
A130
  8
0
 10
403.05569542539541
 20
388.87478695102521
 30
0.0
 11
403.04596869242607
 21
388.48346010633298
 31
0.0
  0
CIRCLE
  5
A131
  8
0
 10
395.4567578228814
 20
317.34117623429688
 30
0.0
 40
2.6208599999999929
  0
CIRCLE
  5
A132
  8
0
 10
395.4567578228814
 20
317.34117623429688
 30
0.0
 40
0.9214391999907434
  0
LINE
  5
A133
  8
0
 10
389.80069869053801
 20
317.34047555216148
 30
0.0
 11
390.72213806999162
 21
317.34117590673759
 31
0.0
  0
LINE
  5
A134
  8
0
 10
388.26692589414552
 20
314.7615557987292
 30
0.0
 11
389.802658193235
 21
314.76272367723777
 31
0.0
  0
LINE
  5
A135
  8
0
 10
390.72409757268861
 20
314.76342403181388
 30
0.0
 11
392.25982987177798
 21
314.7645900476773
 31
0.0
  0
LINE
  5
A136
  8
0
 10
389.802658193235
 20
314.76272367723777
 30
0.0
 11
389.80174549711182
 21
315.9656739313204
 31
0.0
  0
LINE
  5
A137
  8
0
 10
390.72213806999162
 20
317.34117590673759
 30
0.0
 11
390.72161652934977
 21
318.02857764848068
 31
0.0
  0
LINE
  5
A138
  8
0
 10
389.80174549711182
 20
315.9656739313204
 30
0.0
 11
390.72318487656548
 21
315.96637428589662
 31
0.0
  0
LINE
  5
A139
  8
0
 10
389.80017714989617
 20
318.02787729390462
 30
0.0
 11
389.80069869053801
 21
317.34047555216148
 31
0.0
  0
LINE
  5
A13A
  8
0
 10
390.72318487656548
 20
315.96637428589662
 30
0.0
 11
390.72409757268861
 21
314.76342403181388
 31
0.0
  0
ARC
  5
A13B
  8
0
 10
390.26089750924478
 20
318.02822747715021
 30
0.0
 40
0.4607195999956523
 50
0.0434716596511961
 51
180.0435788857952
  0
LINE
  5
A13C
  8
0
 10
388.2644448508068
 20
318.02671127804109
 30
0.0
 11
388.26692589414552
 21
314.7615557987292
 31
0.0
  0
LINE
  5
A13D
  8
0
 10
392.25982987177798
 20
314.7645900476773
 30
0.0
 11
392.25734882843932
 21
318.0297436643441
 31
0.0
  0
ARC
  5
A13E
  8
0
 10
390.26089750924478
 20
318.02822747715021
 30
0.0
 40
1.996451599980078
 50
0.0435129004762914
 51
180.04353764497651
  0
ARC
  5
A13F
  8
0
 10
375.05926997032088
 20
321.9370359828452
 30
0.0
 40
2.6220678085748639
 50
232.50323145985661
 51
260.7510319717482
  0
LINE
  5
A140
  8
0
 10
370.68995014620259
 20
317.85133019872501
 30
0.0
 11
370.69021836710408
 21
317.49780946262672
 31
0.0
  0
LINE
  5
A141
  8
0
 10
370.11102885795071
 20
317.4973698783715
 30
0.0
 11
370.11076063704922
 21
317.85088875182458
 31
0.0
  0
ARC
  5
A142
  8
0
 10
371.36046649517039
 20
317.345946313637
 30
0.0
 40
2.7565706992491288
 50
280.2456768014398
 51
3.2122154860513632
  0
LINE
  5
A143
  8
0
 10
374.11243767333463
 20
317.85392858870819
 30
0.0
 11
374.11270589423611
 21
317.50040971525499
 31
0.0
  0
ARC
  5
A144
  8
0
 10
374.84790048123432
 20
317.22326719684793
 30
0.0
 40
2.6220678085748479
 50
279.33601857369149
 51
307.58381908558272
  0
LINE
  5
A145
  8
0
 10
371.85077668023541
 20
314.63333130665609
 30
0.0
 11
371.85127028120002
 21
313.98120527007183
 31
0.0
  0
LINE
  5
A146
  8
0
 10
374.64141958249053
 20
314.63545099683603
 30
0.0
 11
374.6406465847536
 21
315.65256141908958
 31
0.0
  0
ARC
  5
A147
  8
0
 10
375.04711369515422
 20
317.21364835086439
 30
0.0
 40
2.6099208569967192
 50
239.7290583165375
 51
261.05750239331451
  0
LINE
  5
A148
  8
0
 10
374.63897392940947
 20
317.85432905741533
 30
0.0
 11
374.11243767333463
 21
317.85392858870819
 31
0.0
  0
ARC
  5
A149
  8
0
 10
375.08551826152097
 20
321.8788981325265
 30
0.0
 40
3.2132366393076781
 50
230.0711552631621
 51
262.00021456259162
  0
ARC
  5
A14A
  8
0
 10
371.41231081071783
 20
317.1532820884193
 30
0.0
 40
3.2023049263789409
 50
277.87870404672219
 51
304.93670186527697
  0
ARC
  5
A14B
  8
0
 10
374.85105930114452
 20
313.06506202210551
 30
0.0
 40
2.6220678085748772
 50
52.503231459856671
 51
80.751031971748205
  0
ARC
  5
A14C
  8
0
 10
371.17135984332549
 20
317.39936388072772
 30
0.0
 40
3.5103562100482968
 50
341.49648327665352
 51
351.1295979818168
  0
ARC
  5
A14D
  8
0
 10
375.00438657200613
 20
313.1605537407433
 30
0.0
 40
3.1651607403416699
 50
96.608030022915955
 51
99.165005866589581
  0
LINE
  5
A14E
  8
0
 10
375.2689093430086
 20
320.36664620824649
 30
0.0
 11
375.26968234074548
 21
319.34953764863798
 31
0.0
  0
LINE
  5
A14F
  8
0
 10
375.27249120963052
 20
315.65304011889287
 30
0.0
 11
375.2732623447223
 21
314.63593155928447
 31
0.0
  0
ARC
  5
A150
  8
0
 10
375.0624287902308
 20
317.77883080810301
 30
0.0
 40
2.622067808574843
 50
99.336018573691433
 51
127.5838190855866
  0
LINE
  5
A151
  8
0
 10
374.63783957851371
 20
319.34905708618948
 30
0.0
 11
374.63706658077672
 21
320.36616564579799
 31
0.0
  0
ARC
  5
A152
  8
0
 10
371.24596761954263
 20
317.25847236104801
 30
0.0
 40
3.3856527388923849
 50
317.23381982692212
 51
329.34626416763388
  0
ARC
  5
A153
  8
0
 10
371.53267716575738
 20
317.4984495990135
 30
0.0
 40
0.8424586971344947
 50
180.0435607421945
 51
0.0434451930188062
  0
LINE
  5
A154
  8
0
 10
375.27081855428651
 20
317.85480961986377
 30
0.0
 11
377.51550898743108
 21
317.85651394017532
 31
0.0
  0
LINE
  5
A155
  8
0
 10
370.11076063704922
 20
317.85088875182458
 30
0.0
 11
370.68995014620259
 21
317.85133019872501
 31
0.0
  0
ARC
  5
A156
  8
0
 10
374.81815981519338
 20
321.87869503115257
 30
0.0
 40
3.2132366393076368
 50
278.08683598285688
 51
310.01589528229601
  0
LINE
  5
A157
  8
0
 10
371.21843472910359
 20
315.28733209558322
 30
0.0
 11
371.21793367755851
 21
315.9471443373759
 31
0.0
  0
ARC
  5
A158
  8
0
 10
371.67062761544321
 20
317.38098543202619
 30
0.0
 40
2.1419296238024019
 50
176.89703507055651
 51
257.81231478317773
  0
LINE
  5
A159
  8
0
 10
371.21942751896808
 20
313.98072563894578
 30
0.0
 11
371.21893205535838
 21
314.63285074420759
 31
0.0
  0
ARC
  5
A15A
  8
0
 10
371.44966921202382
 20
317.46936108341782
 30
0.0
 40
3.4962251487327212
 50
59.16608930843487
 51
266.22408712698359
  0
ARC
  5
A15B
  8
0
 10
375.15882313410953
 20
317.50120371358088
 30
0.0
 40
3.5352051428218001
 50
237.2463569769069
 51
122.84069356854521
  0
ARC
  5
A15C
  8
0
 10
374.84747856612381
 20
317.77866751913109
 30
0.0
 40
2.6220678085748679
 50
52.503231459856671
 51
80.751031971748205
  0
LINE
  5
A15D
  8
0
 10
375.27135499608949
 20
317.14776814766719
 30
0.0
 11
375.27199574602082
 21
316.30516708679988
 31
0.0
  0
LINE
  5
A15E
  8
0
 10
377.5160472918792
 20
317.14947433062389
 30
0.0
 11
375.27135499608949
 21
317.14776814766719
 31
0.0
  0
LINE
  5
A15F
  8
0
 10
374.6383331794782
 20
318.69693011828258
 30
0.0
 11
374.63897392940947
 21
317.85432905741533
 31
0.0
  0
ARC
  5
A160
  8
0
 10
375.2234944181896
 20
317.60310169736459
 30
0.0
 40
2.8502572874417771
 50
140.53217560829731
 51
182.0913362175398
  0
ARC
  5
A161
  8
0
 10
374.68782115267072
 20
317.6214940598328
 30
0.0
 40
2.8374386746214819
 50
4.7511618222695207
 51
39.276848098747458
  0
ARC
  5
A162
  8
0
 10
374.68800445557872
 20
317.38019790435209
 30
0.0
 40
2.837438674621477
 50
320.81020244669929
 51
355.33588872317841
  0
LINE
  5
A163
  8
0
 10
369.53156926525071
 20
317.85044916756942
 30
0.0
 11
369.5318374861522
 21
317.49692843147108
 31
0.0
  0
LINE
  5
A164
  8
0
 10
368.95264797699878
 20
317.49648884721591
 30
0.0
 11
368.9523797560974
 21
317.8500095833142
 31
0.0
  0
ARC
  5
A165
  8
0
 10
371.7051193385783
 20
317.346208132431
 30
0.0
 40
2.7565706992490822
 50
176.87483505939659
 51
259.84137374400672
  0
LINE
  5
A166
  8
0
 10
375.27017780435523
 20
318.69741068073108
 30
0.0
 11
375.27081855428651
 21
317.85480961986377
 31
0.0
  0
ARC
  5
A167
  8
0
 10
371.63613567691959
 20
317.41604626602259
 30
0.0
 40
1.52727379003863
 50
176.9477245724284
 51
254.1081361655078
  0
ARC
  5
A168
  8
0
 10
374.8443197462139
 20
321.93687269387351
 30
0.0
 40
2.622067808574839
 50
279.33601857369149
 51
307.58381908558272
  0
ARC
  5
A169
  8
0
 10
374.82481100994409
 20
313.12319987242438
 30
0.0
 40
3.2132366393075809
 50
50.071155263147837
 51
82.000214562591594
  0
LINE
  5
A16A
  8
0
 10
368.9523797560974
 20
317.8500095833142
 30
0.0
 11
369.53156926525071
 21
317.85044916756942
 31
0.0
  0
LINE
  5
A16B
  8
0
 10
374.6401511211439
 20
316.30468652435138
 30
0.0
 11
374.63973016334012
 21
316.858067222317
 31
0.0
  0
ARC
  5
A16C
  8
0
 10
375.02481183981467
 20
313.08586203827491
 30
0.0
 40
2.5952892922834598
 50
98.51243141081909
 51
109.4991308438221
  0
LINE
  5
A16D
  8
0
 10
371.84977643979028
 20
315.9476248998244
 30
0.0
 11
371.85027935398062
 21
315.28781265803173
 31
0.0
  0
ARC
  5
A16E
  8
0
 10
371.42934397087379
 20
317.4158891747461
 30
0.0
 40
1.5272737900386031
 50
285.97891437995821
 51
3.1393259730211271
  0
LINE
  5
A16F
  8
0
 10
373.53324816418132
 20
317.85348900445302
 30
0.0
 11
372.9540567923828
 21
317.85304942019769
 31
0.0
  0
LINE
  5
A170
  8
0
 10
373.53351638508281
 20
317.49996826835468
 30
0.0
 11
373.53324816418132
 21
317.85348900445302
 31
0.0
  0
ARC
  5
A171
  8
0
 10
371.39490534071768
 20
317.38077597699117
 30
0.0
 40
2.1419296238024419
 50
282.27473576227737
 51
3.1900154748808012
  0
LINE
  5
A172
  8
0
 10
372.9540567923828
 20
317.85304942019769
 30
0.0
 11
372.95432501328418
 21
317.4995286840994
 31
0.0
  0
LINE
  5
A173
  8
0
 10
380.5882699866338
 20
314.75572385676702
 30
0.0
 11
380.58409207356408
 21
320.25493034013112
 31
0.0
  0
LINE
  5
A174
  8
0
 10
379.0483597744747
 20
320.2537624616225
 30
0.0
 11
379.05253768754437
 21
314.7545559782584
 31
0.0
  0
LINE
  5
A175
  8
0
 10
379.05253768754437
 20
314.7545559782584
 30
0.0
 11
380.5882699866338
 21
314.75572385676702
 31
0.0
  0
LINE
  5
A176
  8
0
 10
380.58409207356408
 20
320.25493034013112
 30
0.0
 11
379.0483597744747
 21
320.2537624616225
 31
0.0
  0
LINE
  5
A177
  8
0
 10
383.65973272216752
 20
314.7580558884938
 30
0.0
 11
385.19546502125701
 21
314.75922376700242
 31
0.0
  0
LINE
  5
A178
  8
0
 10
385.19546502125701
 20
314.75922376700242
 30
0.0
 11
385.19298397791817
 21
318.0243773836691
 31
0.0
  0
LINE
  5
A179
  8
0
 10
382.73829334271392
 20
314.75735739656278
 30
0.0
 11
382.73581229937508
 21
318.02251101322958
 31
0.0
  0
LINE
  5
A17A
  8
0
 10
381.20256104362443
 20
314.75618951805433
 30
0.0
 11
382.73829334271392
 21
314.75735739656278
 31
0.0
  0
ARC
  5
A17B
  8
0
 10
383.1965323480033
 20
318.02286053419863
 30
0.0
 40
0.4607195999954313
 50
0.0435252727264264
 51
180.04352527272641
  0
ARC
  5
A17C
  8
0
 10
385.60793909114568
 20
318.11833442491729
 30
0.0
 40
2.0442900632568528
 50
357.41808065414182
 51
125.3979530990003
  0
LINE
  5
A17D
  8
0
 10
383.6572516788288
 20
318.02321136780569
 30
0.0
 11
383.65973272216752
 21
314.7580558884938
 31
0.0
  0
ARC
  5
A17E
  8
0
 10
385.65370283898392
 20
318.02472714701418
 30
0.0
 40
0.4607195999954313
 50
0.0435252727264264
 51
180.04352527272641
  0
LINE
  5
A17F
  8
0
 10
386.11690440071061
 20
314.75992412157848
 30
0.0
 11
387.6526329745098
 21
314.7610901374419
 31
0.0
  0
LINE
  5
A180
  8
0
 10
386.11442335737178
 20
318.02507773824527
 30
0.0
 11
386.11690440071061
 21
314.75992412157848
 31
0.0
  0
ARC
  5
A181
  8
0
 10
383.24215382379589
 20
318.1165372337515
 30
0.0
 40
2.0442900632568919
 50
54.68909744645017
 51
182.668969891307
  0
LINE
  5
A182
  8
0
 10
387.6526329745098
 20
314.7610901374419
 30
0.0
 11
387.65015565646132
 21
318.02624375410869
 31
0.0
  0
LINE
  5
A183
  8
0
 10
381.20008000028571
 20
318.02134313472112
 30
0.0
 11
381.20256104362443
 21
314.75618951805433
 31
0.0
  0
ARC
  5
A184
  8
0
 10
370.74596761954263
 20
317.25847236104801
 30
0.0
 40
5.0000000000000142
 50
90.0
 51
270.0
  0
LINE
  5
A185
  8
0
 10
395.74596770894959
 20
312.25847271122529
 30
0.0
 11
370.74596733642062
 21
312.25847271122529
 31
0.0
  0
LINE
  5
A186
  8
0
 10
370.74596733642062
 20
322.2584715563853
 30
0.0
 11
395.74596770894959
 21
322.2584715563853
 31
0.0
  0
ARC
  5
A187
  8
0
 10
395.74596761954263
 20
317.25847236104801
 30
0.0
 40
5.0000000000000284
 50
270.0
 51
90.0
  0
POLYLINE
  5
A18C
  8
0
 66
     1
 10
0.0
 20
0.0
 30
0.0
 70
   128
  0
VERTEX
  5
B957
  8
0
 10
418.54597030175159
 20
364.5084752220709
 30
0.0
  0
VERTEX
  5
B958
  8
0
 10
418.54548601401279
 20
364.5684449452956
 30
0.0
  0
VERTEX
  5
B959
  8
0
 10
418.40472964537571
 20
365.53038940616437
 30
0.0
  0
VERTEX
  5
B95A
  8
0
 10
418.02033184063862
 20
366.44109622426822
 30
0.0
  0
VERTEX
  5
B95B
  8
0
 10
417.4115747023863
 20
367.25489334054782
 30
0.0
  0
VERTEX
  5
B95C
  8
0
 10
416.60897580874388
 20
367.93096647449329
 30
0.0
  0
VERTEX
  5
B95D
  8
0
 10
415.65279064667652
 20
368.43543038554981
 30
0.0
  0
VERTEX
  5
B95E
  8
0
 10
414.59095625174467
 20
368.74297545142957
 30
0.0
  0
VERTEX
  5
B95F
  8
0
 10
413.47672192347471
 20
368.83818642087772
 30
0.0
  0
VERTEX
  5
B960
  8
0
 10
412.36595956576292
 20
368.71628747173139
 30
0.0
  0
VERTEX
  5
B961
  8
0
 10
411.3143697191519
 20
368.38338808008029
 30
0.0
  0
VERTEX
  5
B962
  8
0
 10
410.37468014252607
 20
367.85618499704202
 30
0.0
  0
VERTEX
  5
B963
  8
0
 10
409.5940083075804
 20
367.16112033315488
 30
0.0
  0
VERTEX
  5
B964
  8
0
 10
409.011510740642
 20
366.33303300329038
 30
0.0
  0
VERTEX
  5
B965
  8
0
 10
408.65638626707022
 20
365.41345999427631
 30
0.0
  0
VERTEX
  5
B966
  8
0
 10
408.54644549978201
 20
364.44850549884632
 30
0.0
  0
SEQEND
  5
B967
  8
0
  0
LINE
  5
A18E
  8
0
 10
406.0459673215193
 20
338.48090381213018
 30
0.0
 11
406.0459673215193
 21
340.75847179480388
 31
0.0
  0
LINE
  5
A18F
  8
0
 10
406.0459673215193
 20
306.75847274102762
 30
0.0
 11
406.0459673215193
 21
338.48090381213018
 31
0.0
  0
LINE
  5
A190
  8
0
 10
407.04596562278692
 20
339.34692949839427
 30
0.0
 11
407.04596562278692
 21
305.75847257711479
 31
0.0
  0
LINE
  5
A191
  8
0
 10
407.04596562278692
 20
341.7584738213618
 30
0.0
 11
407.04596562278692
 21
339.34692949839427
 31
0.0
  0
LINE
  5
A192
  8
0
 10
420.04596589100782
 20
305.75847257711479
 30
0.0
 11
420.04596589100782
 21
341.7584738213618
 31
0.0
  0
LINE
  5
A193
  8
0
 10
421.0459679175658
 20
340.75847179480388
 30
0.0
 11
421.0459679175658
 21
306.75847274102762
 31
0.0
  0
POLYLINE
  5
A194
  8
0
 66
     1
 10
0.0
 20
0.0
 30
0.0
 70
   128
  0
VERTEX
  5
B968
  8
0
 10
413.54596761954252
 20
312.22738330103948
 30
0.0
  0
VERTEX
  5
B969
  8
0
 10
414.49025420439671
 20
312.33978462256982
 30
0.0
  0
VERTEX
  5
B96A
  8
0
 10
415.36451278222029
 20
312.66865138747289
 30
0.0
  0
VERTEX
  5
B96B
  8
0
 10
416.10389349949781
 20
313.18959318884208
 30
0.0
  0
VERTEX
  5
B96C
  8
0
 10
416.65356753361652
 20
313.86397410966953
 30
0.0
  0
VERTEX
  5
B96D
  8
0
 10
416.97275785696928
 20
314.64177840240791
 30
0.0
  0
VERTEX
  5
B96E
  8
0
 10
417.03780887616102
 20
315.46532087810829
 30
0.0
  0
VERTEX
  5
B96F
  8
0
 10
416.84387771380369
 20
316.2735226083596
 30
0.0
  0
VERTEX
  5
B970
  8
0
 10
416.4053588916106
 20
317.00644180961439
 30
0.0
  0
VERTEX
  5
B971
  8
0
 10
415.75477419388722
 20
317.60972277112802
 30
0.0
  0
VERTEX
  5
B972
  8
0
 10
414.94037358057921
 20
318.03862103112527
 30
0.0
  0
VERTEX
  5
B973
  8
0
 10
414.02255145800541
 20
318.26133006103828
 30
0.0
  0
VERTEX
  5
B974
  8
0
 10
413.06938378107969
 20
318.26133006103828
 30
0.0
  0
VERTEX
  5
B975
  8
0
 10
412.1515616585059
 20
318.03862103112527
 30
0.0
  0
VERTEX
  5
B976
  8
0
 10
411.33716104519789
 20
317.60972277112802
 30
0.0
  0
VERTEX
  5
B977
  8
0
 10
410.6865688968939
 20
317.00644180961439
 30
0.0
  0
VERTEX
  5
B978
  8
0
 10
410.24805007470081
 20
316.2735226083596
 30
0.0
  0
VERTEX
  5
B979
  8
0
 10
410.05412636292402
 20
315.46532087810829
 30
0.0
  0
VERTEX
  5
B97A
  8
0
 10
410.11916993153523
 20
314.64177840240791
 30
0.0
  0
VERTEX
  5
B97B
  8
0
 10
410.43836770546858
 20
313.86397410966953
 30
0.0
  0
VERTEX
  5
B97C
  8
0
 10
410.98804173958717
 20
313.18959318884208
 30
0.0
  0
VERTEX
  5
B97D
  8
0
 10
411.72742245686482
 20
312.66865138747289
 30
0.0
  0
VERTEX
  5
B97E
  8
0
 10
412.6016810346884
 20
312.33978462256982
 30
0.0
  0
VERTEX
  5
B97F
  8
0
 10
413.54596761954252
 20
312.22738330103948
 30
0.0
  0
SEQEND
  5
B980
  8
0
  0
POLYLINE
  5
A195
  8
0
 66
     1
 10
0.0
 20
0.0
 30
0.0
 70
   128
  0
VERTEX
  5
B981
  8
0
 10
413.54596761954252
 20
313.59340906925991
 30
0.0
  0
VERTEX
  5
B982
  8
0
 10
414.31851087105701
 20
313.6993749517996
 30
0.0
  0
VERTEX
  5
B983
  8
0
 10
415.01543072951262
 20
314.00689952858278
 30
0.0
  0
VERTEX
  5
B984
  8
0
 10
415.56850967896412
 20
314.48588059135272
 30
0.0
  0
VERTEX
  5
B985
  8
0
 10
415.92361180079411
 20
315.08943163641288
 30
0.0
  0
VERTEX
  5
B986
  8
0
 10
416.04596523535668
 20
315.75847328492
 30
0.0
  0
VERTEX
  5
B987
  8
0
 10
415.92361180079411
 20
316.42751307078203
 30
0.0
  0
VERTEX
  5
B988
  8
0
 10
415.56850967896412
 20
317.03106411584213
 30
0.0
  0
VERTEX
  5
B989
  8
0
 10
415.01543072951262
 20
317.51004517861202
 30
0.0
  0
VERTEX
  5
B98A
  8
0
 10
414.31851087105701
 20
317.8175697553952
 30
0.0
  0
VERTEX
  5
B98B
  8
0
 10
413.54596761954252
 20
317.92353563793489
 30
0.0
  0
VERTEX
  5
B98C
  8
0
 10
412.77342436802809
 20
317.8175697553952
 30
0.0
  0
VERTEX
  5
B98D
  8
0
 10
412.07650450957237
 20
317.51004517861202
 30
0.0
  0
VERTEX
  5
B98E
  8
0
 10
411.52342556012098
 20
317.03106411584213
 30
0.0
  0
VERTEX
  5
B98F
  8
0
 10
411.168323438291
 20
316.42751307078203
 30
0.0
  0
VERTEX
  5
B990
  8
0
 10
411.04597000372831
 20
315.75847328492
 30
0.0
  0
VERTEX
  5
B991
  8
0
 10
411.168323438291
 20
315.08943163641288
 30
0.0
  0
VERTEX
  5
B992
  8
0
 10
411.52342556012098
 20
314.48588059135272
 30
0.0
  0
VERTEX
  5
B993
  8
0
 10
412.07650450957237
 20
314.00689952858278
 30
0.0
  0
VERTEX
  5
B994
  8
0
 10
412.77342436802809
 20
313.6993749517996
 30
0.0
  0
VERTEX
  5
B995
  8
0
 10
413.54596761954252
 20
313.59340906925991
 30
0.0
  0
SEQEND
  5
B996
  8
0
  0
POLYLINE
  5
A196
  8
0
 66
     1
 10
0.0
 20
0.0
 30
0.0
 70
   128
  0
VERTEX
  5
B997
  8
0
 10
413.54596761954252
 20
336.73090399094423
 30
0.0
  0
VERTEX
  5
B998
  8
0
 10
414.49025420439671
 20
336.79579854794338
 30
0.0
  0
VERTEX
  5
B999
  8
0
 10
415.36451278222029
 20
336.98566914387538
 30
0.0
  0
VERTEX
  5
B99A
  8
0
 10
416.10389349949781
 20
337.2864379067023
 30
0.0
  0
VERTEX
  5
B99B
  8
0
 10
416.65356753361652
 20
337.67579034753629
 30
0.0
  0
VERTEX
  5
B99C
  8
0
 10
416.97275785696928
 20
338.12485546656438
 30
0.0
  0
VERTEX
  5
B99D
  8
0
 10
417.03780887616102
 20
338.60032916851827
 30
0.0
  0
VERTEX
  5
B99E
  8
0
 10
416.84387771380369
 20
339.06694413014247
 30
0.0
  0
VERTEX
  5
B99F
  8
0
 10
416.4053588916106
 20
339.49009612985452
 30
0.0
  0
VERTEX
  5
B9A0
  8
0
 10
415.75477419388722
 20
339.8383995968897
 30
0.0
  0
VERTEX
  5
B9A1
  8
0
 10
414.94037358057921
 20
340.08602336831882
 30
0.0
  0
VERTEX
  5
B9A2
  8
0
 10
414.02255145800541
 20
340.21460548826047
 30
0.0
  0
VERTEX
  5
B9A3
  8
0
 10
413.06938378107969
 20
340.21460548826047
 30
0.0
  0
VERTEX
  5
B9A4
  8
0
 10
412.1515616585059
 20
340.08602336831882
 30
0.0
  0
VERTEX
  5
B9A5
  8
0
 10
411.33716104519789
 20
339.8383995968897
 30
0.0
  0
VERTEX
  5
B9A6
  8
0
 10
410.6865688968939
 20
339.49009612985452
 30
0.0
  0
VERTEX
  5
B9A7
  8
0
 10
410.24805007470081
 20
339.06694413014247
 30
0.0
  0
VERTEX
  5
B9A8
  8
0
 10
410.05412636292402
 20
338.60032916851827
 30
0.0
  0
VERTEX
  5
B9A9
  8
0
 10
410.11916993153523
 20
338.12485546656438
 30
0.0
  0
VERTEX
  5
B9AA
  8
0
 10
410.43836770546858
 20
337.67579034753629
 30
0.0
  0
VERTEX
  5
B9AB
  8
0
 10
410.98804173958717
 20
337.2864379067023
 30
0.0
  0
VERTEX
  5
B9AC
  8
0
 10
411.72742245686482
 20
336.98566914387538
 30
0.0
  0
VERTEX
  5
B9AD
  8
0
 10
412.6016810346884
 20
336.79579854794338
 30
0.0
  0
VERTEX
  5
B9AE
  8
0
 10
413.54596761954252
 20
336.73090399094423
 30
0.0
  0
SEQEND
  5
B9AF
  8
0
  0
POLYLINE
  5
A197
  8
0
 66
     1
 10
0.0
 20
0.0
 30
0.0
 70
   128
  0
VERTEX
  5
B9B0
  8
0
 10
415.8911719728751
 20
337.18186528273418
 30
0.0
  0
VERTEX
  5
B9B1
  8
0
 10
415.92361180079411
 20
337.22860650010898
 30
0.0
  0
VERTEX
  5
B9B2
  8
0
 10
416.04596523535668
 20
337.6148781258662
 30
0.0
  0
VERTEX
  5
B9B3
  8
0
 10
415.92361180079411
 20
338.00114975162342
 30
0.0
  0
VERTEX
  5
B9B4
  8
0
 10
415.56850967896412
 20
338.34960968085119
 30
0.0
  0
VERTEX
  5
B9B5
  8
0
 10
415.01543072951262
 20
338.62614915557702
 30
0.0
  0
VERTEX
  5
B9B6
  8
0
 10
414.31851087105701
 20
338.8037002164919
 30
0.0
  0
VERTEX
  5
B9B7
  8
0
 10
413.54596761954252
 20
338.8648806590636
 30
0.0
  0
VERTEX
  5
B9B8
  8
0
 10
412.77342436802809
 20
338.8037002164919
 30
0.0
  0
VERTEX
  5
B9B9
  8
0
 10
412.07650450957237
 20
338.62614915557702
 30
0.0
  0
VERTEX
  5
B9BA
  8
0
 10
411.52342556012098
 20
338.34960968085119
 30
0.0
  0
VERTEX
  5
B9BB
  8
0
 10
411.168323438291
 20
338.00114975162342
 30
0.0
  0
VERTEX
  5
B9BC
  8
0
 10
411.04597000372831
 20
337.6148781258662
 30
0.0
  0
VERTEX
  5
B9BD
  8
0
 10
411.168323438291
 20
337.22860650010898
 30
0.0
  0
VERTEX
  5
B9BE
  8
0
 10
411.20075581562941
 20
337.18186528273418
 30
0.0
  0
SEQEND
  5
B9BF
  8
0
  0
LINE
  5
A198
  8
0
 10
369.74596717250779
 20
299.25847238479668
 30
0.0
 11
369.24596802187398
 21
298.75847236104801
 31
0.0
  0
ARC
  5
A199
  8
0
 10
368.74596761954263
 20
309.75847236104801
 30
0.0
 40
1.0
 50
0.0
 51
90.0
  0
LINE
  5
A19A
  8
0
 10
350.74596766704008
 20
310.75847246535608
 30
0.0
 11
374.33175405716969
 21
310.75847236104801
 31
0.0
  0
ARC
  5
A19B
  8
0
 10
350.74596761954263
 20
309.75847236104801
 30
0.0
 40
1.0
 50
90.0
 51
180.0
  0
LINE
  5
A19C
  8
0
 10
349.74596761954263
 20
299.25847238479668
 30
0.0
 11
350.24596764329141
 21
298.75847236104801
 31
0.0
  0
LINE
  5
A19D
  8
0
 10
349.74596761954263
 20
299.25847238479668
 30
0.0
 11
349.74596761954263
 21
309.75847230144331
 31
0.0
  0
LINE
  5
A19E
  8
0
 10
369.74596717250779
 20
309.75847230144331
 30
0.0
 11
369.74596717250779
 21
299.25847238479668
 31
0.0
  0
POLYLINE
  5
A19F
  8
0
 10
375.44121615437513
 20
310.37859083959239
 30
0.0
 66
     1
 70
     8
  0
VERTEX
  8
0
  5
BBD5
 10
375.441
 20
310.379
 30
0.000000
  70
    32
  0
VERTEX
  8
0
  5
BBD6
 10
375.435
 20
310.384
 30
0.000000
  70
    32
  0
VERTEX
  8
0
  5
BBD7
 10
375.429
 20
310.390
 30
0.000000
  70
    32
  0
VERTEX
  8
0
  5
BBD8
 10
375.422
 20
310.395
 30
0.000000
  70
    32
  0
VERTEX
  8
0
  5
BBD9
 10
375.416
 20
310.400
 30
0.000000
  70
    32
  0
VERTEX
  8
0
  5
BBDA
 10
375.410
 20
310.406
 30
0.000000
  70
    32
  0
VERTEX
  8
0
  5
BBDB
 10
375.403
 20
310.411
 30
0.000000
  70
    32
  0
VERTEX
  8
0
  5
BBDC
 10
375.397
 20
310.417
 30
0.000000
  70
    32
  0
VERTEX
  8
0
  5
BBDD
 10
375.390
 20
310.422
 30
0.000000
  70
    32
  0
VERTEX
  8
0
  5
BBDE
 10
375.383
 20
310.427
 30
0.000000
  70
    32
  0
VERTEX
  8
0
  5
BBDF
 10
375.377
 20
310.432
 30
0.000000
  70
    32
  0
VERTEX
  8
0
  5
BBE0
 10
375.370
 20
310.437
 30
0.000000
  70
    32
  0
VERTEX
  8
0
  5
BBE1
 10
375.363
 20
310.443
 30
0.000000
  70
    32
  0
VERTEX
  8
0
  5
BBE2
 10
375.356
 20
310.448
 30
0.000000
  70
    32
  0
VERTEX
  8
0
  5
BBE3
 10
375.349
 20
310.453
 30
0.000000
  70
    32
  0
VERTEX
  8
0
  5
BBE4
 10
375.343
 20
310.458
 30
0.000000
  70
    32
  0
VERTEX
  8
0
  5
BBE5
 10
375.336
 20
310.463
 30
0.000000
  70
    32
  0
VERTEX
  8
0
  5
BBE6
 10
375.328
 20
310.468
 30
0.000000
  70
    32
  0
VERTEX
  8
0
  5
BBE7
 10
375.321
 20
310.473
 30
0.000000
  70
    32
  0
VERTEX
  8
0
  5
BBE8
 10
375.314
 20
310.478
 30
0.000000
  70
    32
  0
VERTEX
  8
0
  5
BBE9
 10
375.307
 20
310.483
 30
0.000000
  70
    32
  0
VERTEX
  8
0
  5
BBEA
 10
375.300
 20
310.487
 30
0.000000
  70
    32
  0
VERTEX
  8
0
  5
BBEB
 10
375.293
 20
310.492
 30
0.000000
  70
    32
  0
VERTEX
  8
0
  5
BBEC
 10
375.285
 20
310.497
 30
0.000000
  70
    32
  0
VERTEX
  8
0
  5
BBED
 10
375.278
 20
310.502
 30
0.000000
  70
    32
  0
VERTEX
  8
0
  5
BBEE
 10
375.270
 20
310.506
 30
0.000000
  70
    32
  0
VERTEX
  8
0
  5
BBEF
 10
375.263
 20
310.511
 30
0.000000
  70
    32
  0
VERTEX
  8
0
  5
BBF0
 10
375.255
 20
310.516
 30
0.000000
  70
    32
  0
VERTEX
  8
0
  5
BBF1
 10
375.248
 20
310.520
 30
0.000000
  70
    32
  0
VERTEX
  8
0
  5
BBF2
 10
375.240
 20
310.525
 30
0.000000
  70
    32
  0
VERTEX
  8
0
  5
BBF3
 10
375.233
 20
310.529
 30
0.000000
  70
    32
  0
VERTEX
  8
0
  5
BBF4
 10
375.225
 20
310.534
 30
0.000000
  70
    32
  0
VERTEX
  8
0
  5
BBF5
 10
375.217
 20
310.538
 30
0.000000
  70
    32
  0
VERTEX
  8
0
  5
BBF6
 10
375.209
 20
310.543
 30
0.000000
  70
    32
  0
VERTEX
  8
0
  5
BBF7
 10
375.201
 20
310.547
 30
0.000000
  70
    32
  0
VERTEX
  8
0
  5
BBF8
 10
375.194
 20
310.551
 30
0.000000
  70
    32
  0
VERTEX
  8
0
  5
BBF9
 10
375.186
 20
310.556
 30
0.000000
  70
    32
  0
VERTEX
  8
0
  5
BBFA
 10
375.178
 20
310.560
 30
0.000000
  70
    32
  0
VERTEX
  8
0
  5
BBFB
 10
375.170
 20
310.564
 30
0.000000
  70
    32
  0
VERTEX
  8
0
  5
BBFC
 10
375.162
 20
310.568
 30
0.000000
  70
    32
  0
VERTEX
  8
0
  5
BBFD
 10
375.154
 20
310.572
 30
0.000000
  70
    32
  0
VERTEX
  8
0
  5
BBFE
 10
375.145
 20
310.576
 30
0.000000
  70
    32
  0
VERTEX
  8
0
  5
BBFF
 10
375.137
 20
310.580
 30
0.000000
  70
    32
  0
VERTEX
  8
0
  5
BC00
 10
375.129
 20
310.584
 30
0.000000
  70
    32
  0
VERTEX
  8
0
  5
BC01
 10
375.121
 20
310.588
 30
0.000000
  70
    32
  0
VERTEX
  8
0
  5
BC02
 10
375.112
 20
310.592
 30
0.000000
  70
    32
  0
VERTEX
  8
0
  5
BC03
 10
375.104
 20
310.596
 30
0.000000
  70
    32
  0
VERTEX
  8
0
  5
BC04
 10
375.096
 20
310.600
 30
0.000000
  70
    32
  0
VERTEX
  8
0
  5
BC05
 10
375.087
 20
310.604
 30
0.000000
  70
    32
  0
VERTEX
  8
0
  5
BC06
 10
375.079
 20
310.608
 30
0.000000
  70
    32
  0
VERTEX
  8
0
  5
BC07
 10
375.070
 20
310.611
 30
0.000000
  70
    32
  0
VERTEX
  8
0
  5
BC08
 10
375.062
 20
310.615
 30
0.000000
  70
    32
  0
VERTEX
  8
0
  5
BC09
 10
375.053
 20
310.618
 30
0.000000
  70
    32
  0
VERTEX
  8
0
  5
BC0A
 10
375.045
 20
310.622
 30
0.000000
  70
    32
  0
VERTEX
  8
0
  5
BC0B
 10
375.036
 20
310.626
 30
0.000000
  70
    32
  0
VERTEX
  8
0
  5
BC0C
 10
375.028
 20
310.629
 30
0.000000
  70
    32
  0
VERTEX
  8
0
  5
BC0D
 10
375.019
 20
310.633
 30
0.000000
  70
    32
  0
VERTEX
  8
0
  5
BC0E
 10
375.010
 20
310.636
 30
0.000000
  70
    32
  0
VERTEX
  8
0
  5
BC0F
 10
375.001
 20
310.639
 30
0.000000
  70
    32
  0
VERTEX
  8
0
  5
BC10
 10
374.993
 20
310.643
 30
0.000000
  70
    32
  0
VERTEX
  8
0
  5
BC11
 10
374.984
 20
310.646
 30
0.000000
  70
    32
  0
VERTEX
  8
0
  5
BC12
 10
374.975
 20
310.649
 30
0.000000
  70
    32
  0
VERTEX
  8
0
  5
BC13
 10
374.966
 20
310.652
 30
0.000000
  70
    32
  0
VERTEX
  8
0
  5
BC14
 10
374.957
 20
310.655
 30
0.000000
  70
    32
  0
VERTEX
  8
0
  5
BC15
 10
374.948
 20
310.659
 30
0.000000
  70
    32
  0
VERTEX
  8
0
  5
BC16
 10
374.939
 20
310.662
 30
0.000000
  70
    32
  0
VERTEX
  8
0
  5
BC17
 10
374.930
 20
310.665
 30
0.000000
  70
    32
  0
VERTEX
  8
0
  5
BC18
 10
374.921
 20
310.668
 30
0.000000
  70
    32
  0
VERTEX
  8
0
  5
BC19
 10
374.912
 20
310.670
 30
0.000000
  70
    32
  0
VERTEX
  8
0
  5
BC1A
 10
374.903
 20
310.673
 30
0.000000
  70
    32
  0
VERTEX
  8
0
  5
BC1B
 10
374.894
 20
310.676
 30
0.000000
  70
    32
  0
VERTEX
  8
0
  5
BC1C
 10
374.885
 20
310.679
 30
0.000000
  70
    32
  0
VERTEX
  8
0
  5
BC1D
 10
374.875
 20
310.682
 30
0.000000
  70
    32
  0
VERTEX
  8
0
  5
BC1E
 10
374.866
 20
310.684
 30
0.000000
  70
    32
  0
VERTEX
  8
0
  5
BC1F
 10
374.857
 20
310.687
 30
0.000000
  70
    32
  0
VERTEX
  8
0
  5
BC20
 10
374.848
 20
310.690
 30
0.000000
  70
    32
  0
VERTEX
  8
0
  5
BC21
 10
374.838
 20
310.692
 30
0.000000
  70
    32
  0
VERTEX
  8
0
  5
BC22
 10
374.829
 20
310.695
 30
0.000000
  70
    32
  0
VERTEX
  8
0
  5
BC23
 10
374.820
 20
310.697
 30
0.000000
  70
    32
  0
VERTEX
  8
0
  5
BC24
 10
374.810
 20
310.699
 30
0.000000
  70
    32
  0
VERTEX
  8
0
  5
BC25
 10
374.801
 20
310.702
 30
0.000000
  70
    32
  0
VERTEX
  8
0
  5
BC26
 10
374.792
 20
310.704
 30
0.000000
  70
    32
  0
VERTEX
  8
0
  5
BC27
 10
374.782
 20
310.706
 30
0.000000
  70
    32
  0
VERTEX
  8
0
  5
BC28
 10
374.773
 20
310.709
 30
0.000000
  70
    32
  0
VERTEX
  8
0
  5
BC29
 10
374.763
 20
310.711
 30
0.000000
  70
    32
  0
VERTEX
  8
0
  5
BC2A
 10
374.754
 20
310.713
 30
0.000000
  70
    32
  0
VERTEX
  8
0
  5
BC2B
 10
374.744
 20
310.715
 30
0.000000
  70
    32
  0
VERTEX
  8
0
  5
BC2C
 10
374.735
 20
310.717
 30
0.000000
  70
    32
  0
VERTEX
  8
0
  5
BC2D
 10
374.725
 20
310.719
 30
0.000000
  70
    32
  0
VERTEX
  8
0
  5
BC2E
 10
374.716
 20
310.721
 30
0.000000
  70
    32
  0
VERTEX
  8
0
  5
BC2F
 10
374.706
 20
310.723
 30
0.000000
  70
    32
  0
VERTEX
  8
0
  5
BC30
 10
374.696
 20
310.725
 30
0.000000
  70
    32
  0
VERTEX
  8
0
  5
BC31
 10
374.687
 20
310.726
 30
0.000000
  70
    32
  0
VERTEX
  8
0
  5
BC32
 10
374.677
 20
310.728
 30
0.000000
  70
    32
  0
VERTEX
  8
0
  5
BC33
 10
374.667
 20
310.730
 30
0.000000
  70
    32
  0
VERTEX
  8
0
  5
BC34
 10
374.658
 20
310.732
 30
0.000000
  70
    32
  0
VERTEX
  8
0
  5
BC35
 10
374.648
 20
310.733
 30
0.000000
  70
    32
  0
VERTEX
  8
0
  5
BC36
 10
374.638
 20
310.735
 30
0.000000
  70
    32
  0
VERTEX
  8
0
  5
BC37
 10
374.628
 20
310.736
 30
0.000000
  70
    32
  0
VERTEX
  8
0
  5
BC38
 10
374.619
 20
310.738
 30
0.000000
  70
    32
  0
VERTEX
  8
0
  5
BC39
 10
374.609
 20
310.739
 30
0.000000
  70
    32
  0
VERTEX
  8
0
  5
BC3A
 10
374.599
 20
310.740
 30
0.000000
  70
    32
  0
VERTEX
  8
0
  5
BC3B
 10
374.589
 20
310.742
 30
0.000000
  70
    32
  0
VERTEX
  8
0
  5
BC3C
 10
374.580
 20
310.743
 30
0.000000
  70
    32
  0
VERTEX
  8
0
  5
BC3D
 10
374.570
 20
310.744
 30
0.000000
  70
    32
  0
VERTEX
  8
0
  5
BC3E
 10
374.560
 20
310.745
 30
0.000000
  70
    32
  0
VERTEX
  8
0
  5
BC3F
 10
374.550
 20
310.746
 30
0.000000
  70
    32
  0
VERTEX
  8
0
  5
BC40
 10
374.540
 20
310.748
 30
0.000000
  70
    32
  0
VERTEX
  8
0
  5
BC41
 10
374.530
 20
310.749
 30
0.000000
  70
    32
  0
VERTEX
  8
0
  5
BC42
 10
374.521
 20
310.750
 30
0.000000
  70
    32
  0
VERTEX
  8
0
  5
BC43
 10
374.511
 20
310.750
 30
0.000000
  70
    32
  0
VERTEX
  8
0
  5
BC44
 10
374.501
 20
310.751
 30
0.000000
  70
    32
  0
VERTEX
  8
0
  5
BC45
 10
374.491
 20
310.752
 30
0.000000
  70
    32
  0
VERTEX
  8
0
  5
BC46
 10
374.481
 20
310.753
 30
0.000000
  70
    32
  0
VERTEX
  8
0
  5
BC47
 10
374.471
 20
310.754
 30
0.000000
  70
    32
  0
VERTEX
  8
0
  5
BC48
 10
374.461
 20
310.754
 30
0.000000
  70
    32
  0
VERTEX
  8
0
  5
BC49
 10
374.451
 20
310.755
 30
0.000000
  70
    32
  0
VERTEX
  8
0
  5
BC4A
 10
374.441
 20
310.755
 30
0.000000
  70
    32
  0
VERTEX
  8
0
  5
BC4B
 10
374.431
 20
310.756
 30
0.000000
  70
    32
  0
VERTEX
  8
0
  5
BC4C
 10
374.421
 20
310.756
 30
0.000000
  70
    32
  0
VERTEX
  8
0
  5
BC4D
 10
374.411
 20
310.757
 30
0.000000
  70
    32
  0
VERTEX
  8
0
  5
BC4E
 10
374.401
 20
310.757
 30
0.000000
  70
    32
  0
VERTEX
  8
0
  5
BC4F
 10
374.392
 20
310.758
 30
0.000000
  70
    32
  0
VERTEX
  8
0
  5
BC50
 10
374.382
 20
310.758
 30
0.000000
  70
    32
  0
VERTEX
  8
0
  5
BC51
 10
374.372
 20
310.758
 30
0.000000
  70
    32
  0
VERTEX
  8
0
  5
BC52
 10
374.362
 20
310.758
 30
0.000000
  70
    32
  0
VERTEX
  8
0
  5
BC53
 10
374.352
 20
310.758
 30
0.000000
  70
    32
  0
VERTEX
  8
0
  5
BC54
 10
374.342
 20
310.758
 30
0.000000
  70
    32
  0
VERTEX
  8
0
  5
BC55
 10
374.332
 20
310.758
 30
0.000000
  70
    32
  0
SEQEND
  8
0
  5
BC56
  0
LINE
  5
A1A3
  8
0
 10
349.74596761954263
 20
309.75847230144331
 30
0.0
 11
349.74596761954263
 21
317.51347430833169
 31
0.0
  0
LINE
  5
A1A4
  8
0
 10
403.74596902025172
 20
311.17268563099691
 30
0.0
 11
403.74596902025172
 21
343.75847414918729
 31
0.0
  0
LINE
  5
A1A5
  8
0
 10
336.74596735132172
 20
343.75847414918729
 30
0.0
 11
336.74596735132172
 21
303.7584722492893
 31
0.0
  0
LINE
  5
A1A9
  8
0
 10
333.7459668595834
 20
306.75847274102762
 30
0.0
 11
333.7459668595834
 21
340.75847179480388
 31
0.0
  0
LINE
  5
A1AA
  8
0
 10
404.74596732151929
 20
342.75847212262943
 30
0.0
 11
404.7459673215194
 21
311.17268563099702
 31
0.0
  0
LINE
  5
A1AB
  8
0
 10
404.74596732151929
 20
311.17268563099702
 30
0.0
 11
404.74596732151929
 21
299.25847238479668
 31
0.0
  0
LINE
  5
A1AC
  8
0
 10
404.74596732151929
 20
299.25847238479668
 30
0.0
 11
404.24596630824038
 21
298.75847236104801
 31
0.0
  0
LINE
  5
A1AD
  8
0
 10
404.24596630824038
 20
298.75847236104801
 30
0.0
 11
350.24596764329141
 21
298.75847236104801
 31
0.0
  0
LINE
  5
A1AF
  8
0
 10
329.74596806657752
 20
314.75847312100723
 30
0.0
 11
329.74596806657752
 21
332.75847420879199
 31
0.0
  0
POLYLINE
  5
A1B0
  8
0
 66
     1
 10
0.0
 20
0.0
 30
0.0
 70
   128
  0
VERTEX
  5
B9C0
  8
0
 10
422.0061838437361
 20
363.92021463104078
 30
0.0
  0
VERTEX
  5
B9C1
  8
0
 10
422.08433298361717
 20
364.39389274307092
 30
0.0
  0
VERTEX
  5
B9C2
  8
0
 10
422.12052790415709
 20
365.65527603813013
 30
0.0
  0
VERTEX
  5
B9C3
  8
0
 10
421.91004155171339
 20
366.90382198282077
 30
0.0
  0
VERTEX
  5
B9C4
  8
0
 10
421.45894614947269
 20
368.10359642692401
 30
0.0
  0
VERTEX
  5
B9C5
  8
0
 10
420.78020570767347
 20
369.22008828111478
 30
0.0
  0
VERTEX
  5
B9C6
  8
0
 10
419.8933407474799
 20
370.22118554302051
 30
0.0
  0
VERTEX
  5
B9C7
  8
0
 10
418.82388440859739
 20
371.07808426805332
 30
0.0
  0
VERTEX
  5
B9C8
  8
0
 10
417.6025852371497
 20
371.76613048501798
 30
0.0
  0
VERTEX
  5
B9C9
  8
0
 10
416.26458762181232
 20
372.26552800126859
 30
0.0
  0
VERTEX
  5
B9CA
  8
0
 10
414.84838126194899
 20
372.56191954799488
 30
0.0
  0
VERTEX
  5
B9CB
  8
0
 10
413.39470593226378
 20
372.64676675983259
 30
0.0
  0
VERTEX
  5
B9CC
  8
0
 10
411.94538174164722
 20
372.5176407475073
 30
0.0
  0
VERTEX
  5
B9CD
  8
0
 10
410.54210213911961
 20
372.17824444957569
 30
0.0
  0
VERTEX
  5
B9CE
  8
0
 10
409.22523809564541
 20
371.63835302778079
 30
0.0
  0
VERTEX
  5
B9CF
  8
0
 10
408.03267581355988
 20
370.91349349208667
 30
0.0
  0
VERTEX
  5
B9D0
  8
0
 10
406.99871776593147
 20
370.02451256700351
 30
0.0
  0
VERTEX
  5
B9D1
  8
0
 10
406.15311412108372
 20
368.99699554630109
 30
0.0
  0
VERTEX
  5
B9D2
  8
0
 10
405.52019102466528
 20
367.86049143262699
 30
0.0
  0
VERTEX
  5
B9D3
  8
0
 10
405.11815397036497
 20
366.64770827480152
 30
0.0
  0
VERTEX
  5
B9D4
  8
0
 10
404.95856998455952
 20
365.39352224059888
 30
0.0
  0
VERTEX
  5
B9D5
  8
0
 10
405.04602862489651
 20
364.1340164918501
 30
0.0
  0
VERTEX
  5
B9D6
  8
0
 10
405.08574767005871
 20
363.92021463104078
 30
0.0
  0
SEQEND
  5
B9D7
  8
0
  0
POLYLINE
  5
A1B1
  8
0
 66
     1
 10
0.0
 20
0.0
 30
0.0
 70
   128
  0
VERTEX
  5
B9D8
  8
0
 10
420.84609864247273
 20
362.94348076768711
 30
0.0
  0
VERTEX
  5
B9D9
  8
0
 10
421.1030021120352
 20
364.10150215812519
 30
0.0
  0
VERTEX
  5
B9DA
  8
0
 10
421.11700920355742
 20
365.28064594455549
 30
0.0
  0
VERTEX
  5
B9DB
  8
0
 10
420.8876803327841
 20
366.44299612232038
 30
0.0
  0
VERTEX
  5
B9DC
  8
0
 10
420.42237667334501
 20
367.55121038146808
 30
0.0
  0
VERTEX
  5
B9DD
  8
0
 10
419.73606644165937
 20
368.56966004558399
 30
0.0
  0
VERTEX
  5
B9DE
  8
0
 10
418.85079590571348
 20
369.46562216468652
 30
0.0
  0
VERTEX
  5
B9DF
  8
0
 10
417.79502628338759
 20
370.21028534360721
 30
0.0
  0
VERTEX
  5
B9E0
  8
0
 10
416.60268751872007
 20
370.7797257680495
 30
0.0
  0
VERTEX
  5
B9E1
  8
0
 10
415.31210539830153
 20
371.1556373614867
 30
0.0
  0
VERTEX
  5
B9E2
  8
0
 10
413.96475730431501
 20
371.32594273277118
 30
0.0
  0
VERTEX
  5
B9E3
  8
0
 10
412.60394601118992
 20
371.28515825458362
 30
0.0
  0
VERTEX
  5
B9E4
  8
0
 10
411.27341387761061
 20
371.03460267968973
 30
0.0
  0
VERTEX
  5
B9E5
  8
0
 10
410.01592723620359
 20
370.5823300857146
 30
0.0
  0
VERTEX
  5
B9E6
  8
0
 10
408.8718943108363
 20
369.94286910482242
 30
0.0
  0
VERTEX
  5
B9E7
  8
0
 10
407.87809116733501
 20
369.13677588887998
 30
0.0
  0
VERTEX
  5
B9E8
  8
0
 10
407.06645844471882
 20
368.1899635572035
 30
0.0
  0
VERTEX
  5
B9E9
  8
0
 10
406.46308435094778
 20
367.13286028095081
 30
0.0
  0
VERTEX
  5
B9EA
  8
0
 10
406.08735902202551
 20
365.99944815822442
 30
0.0
  0
VERTEX
  5
B9EB
  8
0
 10
405.95135612380932
 20
364.826145626982
 30
0.0
  0
VERTEX
  5
B9EC
  8
0
 10
406.05945287239967
 20
363.65066007562473
 30
0.0
  0
VERTEX
  5
B9ED
  8
0
 10
406.40817357194851
 20
362.5107882995207
 30
0.0
  0
VERTEX
  5
B9EE
  8
0
 10
406.98630509865711
 20
361.4431573528845
 30
0.0
  0
VERTEX
  5
B9EF
  8
0
 10
407.77527315509741
 20
360.4820883352358
 30
0.0
  0
VERTEX
  5
B9F0
  8
0
 10
408.54596866262381
 20
359.80739728399112
 30
0.0
  0
SEQEND
  5
B9F1
  8
0
  0
ARC
  5
A1B2
  8
0
 10
414.59862016035783
 20
365.11408539281848
 30
0.0
 40
6.6138122004735482
 50
306.64350774275772
 51
340.84088597282039
  0
POLYLINE
  5
A1B3
  8
0
 66
     1
 10
0.0
 20
0.0
 30
0.0
 70
   128
  0
VERTEX
  5
B9F2
  8
0
 10
424.04596654665892
 20
388.48346010633298
 30
0.0
  0
VERTEX
  5
B9F3
  8
0
 10
424.01914913882769
 20
388.96231316039263
 30
0.0
  0
VERTEX
  5
B9F4
  8
0
 10
423.83993351467387
 20
390.33823685460698
 30
0.0
  0
VERTEX
  5
B9F5
  8
0
 10
423.4359860379742
 20
391.6186076426701
 30
0.0
  0
VERTEX
  5
B9F6
  8
0
 10
422.77495302876031
 20
392.93749806751242
 30
0.0
  0
VERTEX
  5
B9F7
  8
0
 10
421.92571959489192
 20
394.10940867847199
 30
0.0
  0
VERTEX
  5
B9F8
  8
0
 10
420.8831817280485
 20
395.16080079093592
 30
0.0
  0
VERTEX
  5
B9F9
  8
0
 10
419.66761796701019
 20
396.06569064971541
 30
0.0
  0
VERTEX
  5
B9FA
  8
0
 10
418.30521413626877
 20
396.80048169432672
 30
0.0
  0
VERTEX
  5
B9FB
  8
0
 10
416.83018360338832
 20
397.35557146831269
 30
0.0
  0
VERTEX
  5
B9FC
  8
0
 10
415.26920501194621
 20
397.68818773790122
 30
0.0
  0
VERTEX
  5
B9FD
  8
0
 10
413.6678889771523
 20
397.8105486230445
 30
0.0
  0
VERTEX
  5
B9FE
  8
0
 10
412.0637789746346
 20
397.71979310079331
 30
0.0
  0
VERTEX
  5
B9FF
  8
0
 10
410.43135265197952
 20
397.36780591316568
 30
0.0
  0
VERTEX
  5
BA00
  8
0
 10
409.00385847354733
 20
396.89557255382402
 30
0.0
  0
VERTEX
  5
BA01
  8
0
 10
407.72619477707622
 20
396.25081268925379
 30
0.0
  0
VERTEX
  5
BA02
  8
0
 10
406.41628642353521
 20
395.33588214721283
 30
0.0
  0
VERTEX
  5
BA03
  8
0
 10
405.39636023688939
 20
394.43166285918858
 30
0.0
  0
VERTEX
  5
BA04
  8
0
 10
404.44007683378049
 20
393.13373609415441
 30
0.0
  0
VERTEX
  5
BA05
  8
0
 10
403.79831150750891
 20
391.95265985120392
 30
0.0
  0
VERTEX
  5
BA06
  8
0
 10
403.30884537054288
 20
390.57915240611641
 30
0.0
  0
VERTEX
  5
BA07
  8
0
 10
403.14657333664502
 20
389.74743423475229
 30
0.0
  0
VERTEX
  5
BA08
  8
0
 10
403.05569542539541
 20
388.87478695102521
 30
0.0
  0
SEQEND
  5
BA09
  8
0
  0
LINE
  5
A1B4
  8
0
 10
386.53886058223679
 20
299.25847238479668
 30
0.0
 11
375.44121615438638
 21
310.3785908395966
 31
0.0
  0
POLYLINE
  5
A1B5
  8
0
 10
376.74596761954257
 20
311.17268592342123
 30
0.0
 66
     1
 70
     8
  0
VERTEX
  8
0
  5
BC57
 10
376.746
 20
311.173
 30
0.000000
  70
    32
  0
VERTEX
  8
0
  5
BC58
 10
376.731
 20
311.173
 30
0.000000
  70
    32
  0
VERTEX
  8
0
  5
BC59
 10
376.717
 20
311.172
 30
0.000000
  70
    32
  0
VERTEX
  8
0
  5
BC5A
 10
376.702
 20
311.172
 30
0.000000
  70
    32
  0
VERTEX
  8
0
  5
BC5B
 10
376.688
 20
311.172
 30
0.000000
  70
    32
  0
VERTEX
  8
0
  5
BC5C
 10
376.673
 20
311.171
 30
0.000000
  70
    32
  0
VERTEX
  8
0
  5
BC5D
 10
376.659
 20
311.171
 30
0.000000
  70
    32
  0
VERTEX
  8
0
  5
BC5E
 10
376.644
 20
311.170
 30
0.000000
  70
    32
  0
VERTEX
  8
0
  5
BC5F
 10
376.630
 20
311.169
 30
0.000000
  70
    32
  0
VERTEX
  8
0
  5
BC60
 10
376.616
 20
311.169
 30
0.000000
  70
    32
  0
VERTEX
  8
0
  5
BC61
 10
376.602
 20
311.168
 30
0.000000
  70
    32
  0
VERTEX
  8
0
  5
BC62
 10
376.587
 20
311.167
 30
0.000000
  70
    32
  0
VERTEX
  8
0
  5
BC63
 10
376.573
 20
311.165
 30
0.000000
  70
    32
  0
VERTEX
  8
0
  5
BC64
 10
376.559
 20
311.164
 30
0.000000
  70
    32
  0
VERTEX
  8
0
  5
BC65
 10
376.545
 20
311.163
 30
0.000000
  70
    32
  0
VERTEX
  8
0
  5
BC66
 10
376.532
 20
311.161
 30
0.000000
  70
    32
  0
VERTEX
  8
0
  5
BC67
 10
376.518
 20
311.160
 30
0.000000
  70
    32
  0
VERTEX
  8
0
  5
BC68
 10
376.504
 20
311.158
 30
0.000000
  70
    32
  0
VERTEX
  8
0
  5
BC69
 10
376.490
 20
311.156
 30
0.000000
  70
    32
  0
VERTEX
  8
0
  5
BC6A
 10
376.476
 20
311.154
 30
0.000000
  70
    32
  0
VERTEX
  8
0
  5
BC6B
 10
376.463
 20
311.152
 30
0.000000
  70
    32
  0
VERTEX
  8
0
  5
BC6C
 10
376.449
 20
311.150
 30
0.000000
  70
    32
  0
VERTEX
  8
0
  5
BC6D
 10
376.436
 20
311.148
 30
0.000000
  70
    32
  0
VERTEX
  8
0
  5
BC6E
 10
376.422
 20
311.146
 30
0.000000
  70
    32
  0
VERTEX
  8
0
  5
BC6F
 10
376.409
 20
311.143
 30
0.000000
  70
    32
  0
VERTEX
  8
0
  5
BC70
 10
376.396
 20
311.141
 30
0.000000
  70
    32
  0
VERTEX
  8
0
  5
BC71
 10
376.383
 20
311.138
 30
0.000000
  70
    32
  0
VERTEX
  8
0
  5
BC72
 10
376.369
 20
311.136
 30
0.000000
  70
    32
  0
VERTEX
  8
0
  5
BC73
 10
376.356
 20
311.133
 30
0.000000
  70
    32
  0
VERTEX
  8
0
  5
BC74
 10
376.343
 20
311.130
 30
0.000000
  70
    32
  0
VERTEX
  8
0
  5
BC75
 10
376.330
 20
311.127
 30
0.000000
  70
    32
  0
VERTEX
  8
0
  5
BC76
 10
376.317
 20
311.124
 30
0.000000
  70
    32
  0
VERTEX
  8
0
  5
BC77
 10
376.304
 20
311.121
 30
0.000000
  70
    32
  0
VERTEX
  8
0
  5
BC78
 10
376.292
 20
311.117
 30
0.000000
  70
    32
  0
VERTEX
  8
0
  5
BC79
 10
376.279
 20
311.114
 30
0.000000
  70
    32
  0
VERTEX
  8
0
  5
BC7A
 10
376.266
 20
311.111
 30
0.000000
  70
    32
  0
VERTEX
  8
0
  5
BC7B
 10
376.254
 20
311.107
 30
0.000000
  70
    32
  0
VERTEX
  8
0
  5
BC7C
 10
376.241
 20
311.103
 30
0.000000
  70
    32
  0
VERTEX
  8
0
  5
BC7D
 10
376.229
 20
311.099
 30
0.000000
  70
    32
  0
VERTEX
  8
0
  5
BC7E
 10
376.216
 20
311.096
 30
0.000000
  70
    32
  0
VERTEX
  8
0
  5
BC7F
 10
376.204
 20
311.092
 30
0.000000
  70
    32
  0
VERTEX
  8
0
  5
BC80
 10
376.192
 20
311.088
 30
0.000000
  70
    32
  0
VERTEX
  8
0
  5
BC81
 10
376.180
 20
311.083
 30
0.000000
  70
    32
  0
VERTEX
  8
0
  5
BC82
 10
376.168
 20
311.079
 30
0.000000
  70
    32
  0
VERTEX
  8
0
  5
BC83
 10
376.156
 20
311.075
 30
0.000000
  70
    32
  0
VERTEX
  8
0
  5
BC84
 10
376.144
 20
311.070
 30
0.000000
  70
    32
  0
VERTEX
  8
0
  5
BC85
 10
376.132
 20
311.066
 30
0.000000
  70
    32
  0
VERTEX
  8
0
  5
BC86
 10
376.120
 20
311.061
 30
0.000000
  70
    32
  0
VERTEX
  8
0
  5
BC87
 10
376.108
 20
311.056
 30
0.000000
  70
    32
  0
VERTEX
  8
0
  5
BC88
 10
376.097
 20
311.051
 30
0.000000
  70
    32
  0
VERTEX
  8
0
  5
BC89
 10
376.085
 20
311.046
 30
0.000000
  70
    32
  0
VERTEX
  8
0
  5
BC8A
 10
376.074
 20
311.041
 30
0.000000
  70
    32
  0
VERTEX
  8
0
  5
BC8B
 10
376.062
 20
311.036
 30
0.000000
  70
    32
  0
VERTEX
  8
0
  5
BC8C
 10
376.051
 20
311.031
 30
0.000000
  70
    32
  0
VERTEX
  8
0
  5
BC8D
 10
376.040
 20
311.025
 30
0.000000
  70
    32
  0
VERTEX
  8
0
  5
BC8E
 10
376.028
 20
311.020
 30
0.000000
  70
    32
  0
VERTEX
  8
0
  5
BC8F
 10
376.017
 20
311.014
 30
0.000000
  70
    32
  0
VERTEX
  8
0
  5
BC90
 10
376.006
 20
311.009
 30
0.000000
  70
    32
  0
VERTEX
  8
0
  5
BC91
 10
375.995
 20
311.003
 30
0.000000
  70
    32
  0
VERTEX
  8
0
  5
BC92
 10
375.984
 20
310.997
 30
0.000000
  70
    32
  0
VERTEX
  8
0
  5
BC93
 10
375.974
 20
310.991
 30
0.000000
  70
    32
  0
VERTEX
  8
0
  5
BC94
 10
375.963
 20
310.985
 30
0.000000
  70
    32
  0
VERTEX
  8
0
  5
BC95
 10
375.952
 20
310.979
 30
0.000000
  70
    32
  0
VERTEX
  8
0
  5
BC96
 10
375.942
 20
310.973
 30
0.000000
  70
    32
  0
VERTEX
  8
0
  5
BC97
 10
375.931
 20
310.967
 30
0.000000
  70
    32
  0
VERTEX
  8
0
  5
BC98
 10
375.921
 20
310.960
 30
0.000000
  70
    32
  0
VERTEX
  8
0
  5
BC99
 10
375.910
 20
310.954
 30
0.000000
  70
    32
  0
VERTEX
  8
0
  5
BC9A
 10
375.900
 20
310.947
 30
0.000000
  70
    32
  0
VERTEX
  8
0
  5
BC9B
 10
375.890
 20
310.940
 30
0.000000
  70
    32
  0
VERTEX
  8
0
  5
BC9C
 10
375.880
 20
310.934
 30
0.000000
  70
    32
  0
VERTEX
  8
0
  5
BC9D
 10
375.870
 20
310.927
 30
0.000000
  70
    32
  0
VERTEX
  8
0
  5
BC9E
 10
375.860
 20
310.920
 30
0.000000
  70
    32
  0
VERTEX
  8
0
  5
BC9F
 10
375.850
 20
310.913
 30
0.000000
  70
    32
  0
VERTEX
  8
0
  5
BCA0
 10
375.840
 20
310.906
 30
0.000000
  70
    32
  0
VERTEX
  8
0
  5
BCA1
 10
375.831
 20
310.898
 30
0.000000
  70
    32
  0
VERTEX
  8
0
  5
BCA2
 10
375.821
 20
310.891
 30
0.000000
  70
    32
  0
VERTEX
  8
0
  5
BCA3
 10
375.812
 20
310.884
 30
0.000000
  70
    32
  0
VERTEX
  8
0
  5
BCA4
 10
375.802
 20
310.876
 30
0.000000
  70
    32
  0
VERTEX
  8
0
  5
BCA5
 10
375.793
 20
310.868
 30
0.000000
  70
    32
  0
VERTEX
  8
0
  5
BCA6
 10
375.784
 20
310.861
 30
0.000000
  70
    32
  0
VERTEX
  8
0
  5
BCA7
 10
375.775
 20
310.853
 30
0.000000
  70
    32
  0
VERTEX
  8
0
  5
BCA8
 10
375.766
 20
310.845
 30
0.000000
  70
    32
  0
VERTEX
  8
0
  5
BCA9
 10
375.757
 20
310.837
 30
0.000000
  70
    32
  0
VERTEX
  8
0
  5
BCAA
 10
375.748
 20
310.829
 30
0.000000
  70
    32
  0
VERTEX
  8
0
  5
BCAB
 10
375.739
 20
310.821
 30
0.000000
  70
    32
  0
VERTEX
  8
0
  5
BCAC
 10
375.730
 20
310.813
 30
0.000000
  70
    32
  0
VERTEX
  8
0
  5
BCAD
 10
375.721
 20
310.804
 30
0.000000
  70
    32
  0
VERTEX
  8
0
  5
BCAE
 10
375.713
 20
310.796
 30
0.000000
  70
    32
  0
VERTEX
  8
0
  5
BCAF
 10
375.704
 20
310.787
 30
0.000000
  70
    32
  0
VERTEX
  8
0
  5
BCB0
 10
375.696
 20
310.779
 30
0.000000
  70
    32
  0
VERTEX
  8
0
  5
BCB1
 10
375.688
 20
310.770
 30
0.000000
  70
    32
  0
VERTEX
  8
0
  5
BCB2
 10
375.680
 20
310.761
 30
0.000000
  70
    32
  0
VERTEX
  8
0
  5
BCB3
 10
375.671
 20
310.753
 30
0.000000
  70
    32
  0
VERTEX
  8
0
  5
BCB4
 10
375.663
 20
310.744
 30
0.000000
  70
    32
  0
VERTEX
  8
0
  5
BCB5
 10
375.655
 20
310.735
 30
0.000000
  70
    32
  0
VERTEX
  8
0
  5
BCB6
 10
375.648
 20
310.725
 30
0.000000
  70
    32
  0
VERTEX
  8
0
  5
BCB7
 10
375.640
 20
310.716
 30
0.000000
  70
    32
  0
VERTEX
  8
0
  5
BCB8
 10
375.632
 20
310.707
 30
0.000000
  70
    32
  0
VERTEX
  8
0
  5
BCB9
 10
375.625
 20
310.698
 30
0.000000
  70
    32
  0
VERTEX
  8
0
  5
BCBA
 10
375.617
 20
310.688
 30
0.000000
  70
    32
  0
VERTEX
  8
0
  5
BCBB
 10
375.610
 20
310.679
 30
0.000000
  70
    32
  0
VERTEX
  8
0
  5
BCBC
 10
375.603
 20
310.669
 30
0.000000
  70
    32
  0
VERTEX
  8
0
  5
BCBD
 10
375.595
 20
310.659
 30
0.000000
  70
    32
  0
VERTEX
  8
0
  5
BCBE
 10
375.588
 20
310.649
 30
0.000000
  70
    32
  0
VERTEX
  8
0
  5
BCBF
 10
375.581
 20
310.640
 30
0.000000
  70
    32
  0
VERTEX
  8
0
  5
BCC0
 10
375.574
 20
310.630
 30
0.000000
  70
    32
  0
VERTEX
  8
0
  5
BCC1
 10
375.567
 20
310.620
 30
0.000000
  70
    32
  0
VERTEX
  8
0
  5
BCC2
 10
375.561
 20
310.609
 30
0.000000
  70
    32
  0
VERTEX
  8
0
  5
BCC3
 10
375.554
 20
310.599
 30
0.000000
  70
    32
  0
VERTEX
  8
0
  5
BCC4
 10
375.548
 20
310.589
 30
0.000000
  70
    32
  0
VERTEX
  8
0
  5
BCC5
 10
375.541
 20
310.579
 30
0.000000
  70
    32
  0
VERTEX
  8
0
  5
BCC6
 10
375.535
 20
310.568
 30
0.000000
  70
    32
  0
VERTEX
  8
0
  5
BCC7
 10
375.528
 20
310.558
 30
0.000000
  70
    32
  0
VERTEX
  8
0
  5
BCC8
 10
375.522
 20
310.547
 30
0.000000
  70
    32
  0
VERTEX
  8
0
  5
BCC9
 10
375.516
 20
310.536
 30
0.000000
  70
    32
  0
VERTEX
  8
0
  5
BCCA
 10
375.510
 20
310.526
 30
0.000000
  70
    32
  0
VERTEX
  8
0
  5
BCCB
 10
375.504
 20
310.515
 30
0.000000
  70
    32
  0
VERTEX
  8
0
  5
BCCC
 10
375.499
 20
310.504
 30
0.000000
  70
    32
  0
VERTEX
  8
0
  5
BCCD
 10
375.493
 20
310.493
 30
0.000000
  70
    32
  0
VERTEX
  8
0
  5
BCCE
 10
375.487
 20
310.482
 30
0.000000
  70
    32
  0
VERTEX
  8
0
  5
BCCF
 10
375.482
 20
310.471
 30
0.000000
  70
    32
  0
VERTEX
  8
0
  5
BCD0
 10
375.476
 20
310.459
 30
0.000000
  70
    32
  0
VERTEX
  8
0
  5
BCD1
 10
375.471
 20
310.448
 30
0.000000
  70
    32
  0
VERTEX
  8
0
  5
BCD2
 10
375.466
 20
310.437
 30
0.000000
  70
    32
  0
VERTEX
  8
0
  5
BCD3
 10
375.461
 20
310.425
 30
0.000000
  70
    32
  0
VERTEX
  8
0
  5
BCD4
 10
375.456
 20
310.414
 30
0.000000
  70
    32
  0
VERTEX
  8
0
  5
BCD5
 10
375.451
 20
310.402
 30
0.000000
  70
    32
  0
VERTEX
  8
0
  5
BCD6
 10
375.446
 20
310.390
 30
0.000000
  70
    32
  0
VERTEX
  8
0
  5
BCD7
 10
375.441
 20
310.379
 30
0.000000
  70
    32
  0
SEQEND
  8
0
  5
BCD8
  0
LINE
  5
A1B6
  8
0
 10
350.74596766704008
 20
323.75847273357698
 30
0.0
 11
350.74596766704008
 21
310.75847246535608
 31
0.0
  0
LINE
  5
A1B7
  8
0
 10
403.74596902025172
 20
323.75847273357698
 30
0.0
 11
350.74596766704008
 21
323.75847273357698
 31
0.0
  0
LINE
  5
A1B8
  8
0
 10
376.7459683198972
 20
311.17268563099702
 30
0.0
 11
404.74596732151929
 21
311.17268563099702
 31
0.0
  0
LINE
  5
A1B9
  8
0
 10
403.74596902025172
 20
323.75847273357698
 30
0.0
 11
404.74596732151929
 21
323.75847273357698
 31
0.0
  0
LINE
  5
A1BA
  8
1
 10
426.04596791756569
 20
323.75847236104801
 30
0.0
 11
324.7459680665774
 21
323.75847236104812
 31
0.0
  0
ARC
  5
A1BB
  8
0
 10
90.64366621391855
 20
396.06118147239852
 30
0.0
 40
1.7500000000000171
 50
59.99999999999946
 51
139.55176266801979
  0
ARC
  5
A1BC
  8
0
 10
81.89366621391855
 20
380.90573690617077
 30
0.0
 40
1.7500000000000271
 50
160.44823733198831
 51
239.99999999999949
  0
ARC
  5
A1BD
  8
0
 10
127.36154880932671
 20
364.75847236104801
 30
0.0
 40
50.0
 50
139.55176266803821
 51
160.4482373319594
  0
ARC
  5
A1BE
  8
0
 10
130.29302962448631
 20
371.83594607431758
 30
0.0
 40
1.000000000000012
 50
330.00000000000267
 51
54.289406862497472
  0
ARC
  5
A1BF
  8
0
 10
122.69801718659819
 20
358.68099864777832
 30
0.0
 40
1.0000000000000271
 50
245.71059313750041
 51
330.00000000000267
  0
POLYLINE
  5
A1C0
  8
0
 66
     1
 10
0.0
 20
0.0
 30
0.0
 70
   128
  0
VERTEX
  5
BA0A
  8
0
 10
115.2910411865991
 20
383.85173962302991
 30
0.0
  0
VERTEX
  5
BA0B
  8
0
 10
115.23829852655351
 20
383.76038805433109
 30
0.0
  0
VERTEX
  5
BA0C
  8
0
 10
115.06408160045559
 20
383.45862463899448
 30
0.0
  0
VERTEX
  5
BA0D
  8
0
 10
114.77212314918459
 20
382.95294628330061
 30
0.0
  0
VERTEX
  5
BA0E
  8
0
 10
114.36927025630889
 20
382.25519195981809
 30
0.0
  0
VERTEX
  5
BA0F
  8
0
 10
113.86497025802549
 20
381.38171569295719
 30
0.0
  0
VERTEX
  5
BA10
  8
0
 10
113.2710472257417
 20
380.35299912877872
 30
0.0
  0
VERTEX
  5
BA11
  8
0
 10
112.60140394285141
 20
379.19315234609439
 30
0.0
  0
VERTEX
  5
BA12
  8
0
 10
111.8717536838335
 20
377.92936251350238
 30
0.0
  0
VERTEX
  5
BA13
  8
0
 10
111.0991955311579
 20
376.591253139456
 30
0.0
  0
VERTEX
  5
BA14
  8
0
 10
110.3018343956751
 20
375.21017626710727
 30
0.0
  0
VERTEX
  5
BA15
  8
0
 10
109.4983563335222
 20
373.8185195703108
 30
0.0
  0
VERTEX
  5
BA16
  8
0
 10
108.70760386302889
 20
372.44888678975889
 30
0.0
  0
VERTEX
  5
BA17
  8
0
 10
107.9480991275591
 20
371.13338992782428
 30
0.0
  0
VERTEX
  5
BA18
  8
0
 10
107.23765646532
 20
369.90286693759748
 30
0.0
  0
VERTEX
  5
BA19
  8
0
 10
106.5929204733652
 20
368.7861515659888
 30
0.0
  0
VERTEX
  5
BA1A
  8
0
 10
106.02900837972579
 20
367.80942515321573
 30
0.0
  0
VERTEX
  5
BA1B
  8
0
 10
105.5591300638002
 20
366.99557588287189
 30
0.0
  0
VERTEX
  5
BA1C
  8
0
 10
105.1943049342912
 20
366.36368469186618
 30
0.0
  0
VERTEX
  5
BA1D
  8
0
 10
104.9430862577242
 20
365.92855588384458
 30
0.0
  0
VERTEX
  5
BA1E
  8
0
 10
104.8113599927706
 20
365.70039675422498
 30
0.0
  0
VERTEX
  5
BA1F
  8
0
 10
104.79104225948269
 20
365.66520766206582
 30
0.0
  0
SEQEND
  5
BA20
  8
0
  0
POLYLINE
  5
A1C1
  8
0
 66
     1
 10
0.0
 20
0.0
 30
0.0
 70
   128
  0
VERTEX
  5
BA21
  8
0
 10
131.159056773929
 20
371.33594886251279
 30
0.0
  0
VERTEX
  5
BA22
  8
0
 10
131.1297312886995
 20
371.28515825458362
 30
0.0
  0
VERTEX
  5
BA23
  8
0
 10
130.9850708158296
 20
371.03460267968973
 30
0.0
  0
VERTEX
  5
BA24
  8
0
 10
130.72395031764921
 20
370.5823300857146
 30
0.0
  0
VERTEX
  5
BA25
  8
0
 10
130.3547591479105
 20
369.94286910482242
 30
0.0
  0
VERTEX
  5
BA26
  8
0
 10
129.88936608150419
 20
369.13677588887998
 30
0.0
  0
VERTEX
  5
BA27
  8
0
 10
129.34272443368849
 20
368.1899635572035
 30
0.0
  0
VERTEX
  5
BA28
  8
0
 10
128.7324026735109
 20
367.13286028095081
 30
0.0
  0
VERTEX
  5
BA29
  8
0
 10
128.07802563026371
 20
365.99944815822442
 30
0.0
  0
VERTEX
  5
BA2A
  8
0
 10
127.4006188423914
 20
364.826145626982
 30
0.0
  0
VERTEX
  5
BA2B
  8
0
 10
126.7219529063982
 20
363.65066007562473
 30
0.0
  0
VERTEX
  5
BA2C
  8
0
 10
126.0638505728525
 20
362.5107882995207
 30
0.0
  0
VERTEX
  5
BA2D
  8
0
 10
125.4474491389078
 20
361.4431573528845
 30
0.0
  0
VERTEX
  5
BA2E
  8
0
 10
124.89257459953249
 20
360.4820883352358
 30
0.0
  0
VERTEX
  5
BA2F
  8
0
 10
124.417056194095
 20
359.65846017785861
 30
0.0
  0
VERTEX
  5
BA30
  8
0
 10
124.0361750633997
 20
358.99875224419429
 30
0.0
  0
VERTEX
  5
BA31
  8
0
 10
123.7621725113672
 20
358.52416516133138
 30
0.0
  0
VERTEX
  5
BA32
  8
0
 10
123.60385512426321
 20
358.2499539930422
 30
0.0
  0
VERTEX
  5
BA33
  8
0
 10
123.5640392215532
 20
358.18099886961772
 30
0.0
  0
SEQEND
  5
BA34
  8
0
  0
POLYLINE
  5
A1C2
  8
0
 66
     1
 10
0.0
 20
0.0
 30
0.0
 70
   128
  0
VERTEX
  5
BA35
  8
0
 10
127.7599379928392
 20
364.44850549884632
 30
0.0
  0
VERTEX
  5
BA36
  8
0
 10
127.2045568139833
 20
363.48655358739688
 30
0.0
  0
VERTEX
  5
BA37
  8
0
 10
126.67876189067781
 20
362.57584676929309
 30
0.0
  0
VERTEX
  5
BA38
  8
0
 10
126.20891337707459
 20
361.76205710359409
 30
0.0
  0
VERTEX
  5
BA39
  8
0
 10
125.81858491018239
 20
361.08597651906803
 30
0.0
  0
VERTEX
  5
BA3A
  8
0
 10
125.527334264068
 20
360.58151633330181
 30
0.0
  0
VERTEX
  5
BA3B
  8
0
 10
125.3497720272821
 20
360.27397126742198
 30
0.0
  0
VERTEX
  5
BA3C
  8
0
 10
125.29456322505889
 20
360.17834679075082
 30
0.0
  0
SEQEND
  5
BA3D
  8
0
  0
POLYLINE
  5
A1C3
  8
0
 66
     1
 10
0.0
 20
0.0
 30
0.0
 70
   128
  0
VERTEX
  5
BA3E
  8
0
 10
130.2945584566873
 20
368.83859620281049
 30
0.0
  0
VERTEX
  5
BA3F
  8
0
 10
130.2943200381082
 20
368.83818642087772
 30
0.0
  0
VERTEX
  5
BA40
  8
0
 10
130.22394185378971
 20
368.71628747173139
 30
0.0
  0
VERTEX
  5
BA41
  8
0
 10
130.03174667671141
 20
368.38338808008029
 30
0.0
  0
VERTEX
  5
BA42
  8
0
 10
129.72736810758531
 20
367.85618499704202
 30
0.0
  0
VERTEX
  5
BA43
  8
0
 10
129.3260649354738
 20
367.16112033315488
 30
0.0
  0
VERTEX
  5
BA44
  8
0
 10
128.84796862914979
 20
366.33303300329038
 30
0.0
  0
VERTEX
  5
BA45
  8
0
 10
128.31705515697419
 20
365.41345999427631
 30
0.0
  0
VERTEX
  5
BA46
  8
0
 10
127.7599379928392
 20
364.44850549884632
 30
0.0
  0
SEQEND
  5
BA47
  8
0
  0
CIRCLE
  5
A1CA
  8
0
 10
198.37563191965069
 20
323.75847236104801
 30
0.0
 40
13.00000000000006
  0
CIRCLE
  5
A1CB
  8
0
 10
198.37563191965069
 20
323.75847236104801
 30
0.0
 40
9.0000000000000284
  0
CIRCLE
  5
A1CC
  8
0
 10
198.37563191965069
 20
323.75847236104801
 30
0.0
 40
16.999999999999979
  0
CIRCLE
  5
A1CD
  8
0
 10
198.37563191965069
 20
323.75847236104801
 30
0.0
 40
19.999999999999979
  0
ARC
  5
A1CE
  8
0
 10
159.3756319196504
 20
309.75847236104801
 30
0.0
 40
1.0
 50
90.0
 51
180.0
  0
LINE
  5
A1CF
  8
0
 10
159.3756311149877
 20
310.75847246535608
 30
0.0
 11
178.37563236668529
 21
310.75847246535608
 31
0.0
  0
LINE
  5
A1D0
  8
0
 10
237.8756337375921
 20
298.75847236104801
 30
0.0
 11
158.87563010170879
 21
298.75847236104801
 31
0.0
  0
LINE
  5
A1D1
  8
0
 10
158.87563010170879
 20
298.75847236104801
 30
0.0
 11
158.3756328137201
 21
299.25847238479668
 31
0.0
  0
LINE
  5
A1D2
  8
0
 10
158.3756328137201
 20
299.25847238479668
 30
0.0
 11
158.3756328137201
 21
309.75847230144331
 31
0.0
  0
LINE
  5
A1D5
  8
0
 10
178.37563236668529
 20
310.75847246535608
 30
0.0
 11
178.37563236668529
 21
323.75847273357698
 31
0.0
  0
LINE
  5
A1D6
  8
0
 10
218.37563147261559
 20
323.75847273357698
 30
0.0
 11
218.37563147261559
 21
310.75847246535608
 31
0.0
  0
LINE
  5
A1D7
  8
0
 10
218.37563147261559
 20
310.75847246535608
 30
0.0
 11
237.3756319196504
 21
310.75847236104801
 31
0.0
  0
LINE
  5
A1D8
  8
0
 10
238.37563102558079
 20
299.25847238479668
 30
0.0
 11
237.8756337375921
 21
298.75847236104801
 31
0.0
  0
LINE
  5
A1DA
  8
0
 10
238.37563102558079
 20
299.25847238479668
 30
0.0
 11
238.37563102558079
 21
309.75847230144331
 31
0.0
  0
ARC
  5
A1DC
  8
0
 10
237.3756319196504
 20
309.75847236104801
 30
0.0
 40
1.0
 50
0.0
 51
90.0
  0
POLYLINE
  5
A1DD
  8
0
 66
     1
 10
0.0
 20
0.0
 30
0.0
 70
   128
  0
VERTEX
  5
BA48
  8
0
 10
91.518667391089821
 20
397.57672236152479
 30
0.0
  0
VERTEX
  5
BA49
  8
0
 10
91.465924731044197
 20
397.4853782434065
 30
0.0
  0
VERTEX
  5
BA4A
  8
0
 10
91.29170035436573
 20
397.18361482806989
 30
0.0
  0
VERTEX
  5
BA4B
  8
0
 10
90.999749353675256
 20
396.67792902179548
 30
0.0
  0
VERTEX
  5
BA4C
  8
0
 10
90.596896460799584
 20
395.98017469831302
 30
0.0
  0
VERTEX
  5
BA4D
  8
0
 10
90.092596462516212
 20
395.1067058820326
 30
0.0
  0
VERTEX
  5
BA4E
  8
0
 10
89.498665979651832
 20
394.07798931785419
 30
0.0
  0
VERTEX
  5
BA4F
  8
0
 10
88.829030147342095
 20
392.91814253516981
 30
0.0
  0
VERTEX
  5
BA50
  8
0
 10
88.099379888324165
 20
391.6543527025778
 30
0.0
  0
VERTEX
  5
BA51
  8
0
 10
87.326821735648537
 20
390.31623587795087
 30
0.0
  0
VERTEX
  5
BA52
  8
0
 10
86.529460600165734
 20
388.93516645618269
 30
0.0
  0
VERTEX
  5
BA53
  8
0
 10
85.725982538012886
 20
387.54350230880573
 30
0.0
  0
VERTEX
  5
BA54
  8
0
 10
84.935230067519555
 20
386.17387697883441
 30
0.0
  0
VERTEX
  5
BA55
  8
0
 10
84.175725332049751
 20
384.8583801168997
 30
0.0
  0
VERTEX
  5
BA56
  8
0
 10
83.465282669810676
 20
383.62785712667301
 30
0.0
  0
VERTEX
  5
BA57
  8
0
 10
82.820546677855873
 20
382.51114175506427
 30
0.0
  0
VERTEX
  5
BA58
  8
0
 10
82.256634584216485
 20
381.53441534229108
 30
0.0
  0
VERTEX
  5
BA59
  8
0
 10
81.786756268290901
 20
380.7205660719473
 30
0.0
  0
VERTEX
  5
BA5A
  8
0
 10
81.421931138781915
 20
380.088667430361
 30
0.0
  0
VERTEX
  5
BA5B
  8
0
 10
81.170712462214851
 20
379.65354607292011
 30
0.0
  0
VERTEX
  5
BA5C
  8
0
 10
81.038986197261224
 20
379.42538694330051
 30
0.0
  0
VERTEX
  5
BA5D
  8
0
 10
81.018668463973427
 20
379.39019040056058
 30
0.0
  0
SEQEND
  5
BA5E
  8
0
  0
POLYLINE
  5
A1DE
  8
0
 66
     1
 10
0.0
 20
0.0
 30
0.0
 70
   128
  0
VERTEX
  5
BA5F
  8
0
 10
89.311932078151131
 20
397.19651178308322
 30
0.0
  0
VERTEX
  5
BA60
  8
0
 10
89.271408370284462
 20
397.1263273138602
 30
0.0
  0
VERTEX
  5
BA61
  8
0
 10
89.110580137519264
 20
396.84776500650241
 30
0.0
  0
VERTEX
  5
BA62
  8
0
 10
88.831578245906243
 20
396.36452034898588
 30
0.0
  0
VERTEX
  5
BA63
  8
0
 10
88.442009738234901
 20
395.68977341838672
 30
0.0
  0
VERTEX
  5
BA64
  8
0
 10
87.952506593017006
 20
394.84192714877918
 30
0.0
  0
VERTEX
  5
BA65
  8
0
 10
87.376420250682244
 20
393.84411559291669
 30
0.0
  0
VERTEX
  5
BA66
  8
0
 10
86.729456535128975
 20
392.72354082055881
 30
0.0
  0
VERTEX
  5
BA67
  8
0
 10
86.029273322371864
 20
391.51078746505573
 30
0.0
  0
VERTEX
  5
BA68
  8
0
 10
85.294966450480842
 20
390.23892865367719
 30
0.0
  0
VERTEX
  5
BA69
  8
0
 10
84.546563080100441
 20
388.94265428968259
 30
0.0
  0
VERTEX
  5
BA6A
  8
0
 10
83.804477802066231
 20
387.65732482858488
 30
0.0
  0
VERTEX
  5
BA6B
  8
0
 10
83.088953843860054
 20
386.41800270267322
 30
0.0
  0
VERTEX
  5
BA6C
  8
0
 10
82.419511726645851
 20
385.2584986466963
 30
0.0
  0
VERTEX
  5
BA6D
  8
0
 10
81.814412823466682
 20
384.21043292470767
 30
0.0
  0
VERTEX
  5
BA6E
  8
0
 10
81.290152719764123
 20
383.30239341445758
 30
0.0
  0
VERTEX
  5
BA6F
  8
0
 10
80.861043980864906
 20
382.55915329643079
 30
0.0
  0
VERTEX
  5
BA70
  8
0
 10
80.538784018306146
 20
382.00097814985111
 30
0.0
  0
VERTEX
  5
BA71
  8
0
 10
80.332164517192254
 20
381.64311186261961
 30
0.0
  0
VERTEX
  5
BA72
  8
0
 10
80.246825567035103
 20
381.49529979415729
 30
0.0
  0
VERTEX
  5
BA73
  8
0
 10
80.244575491694832
 20
381.49138823934391
 30
0.0
  0
SEQEND
  5
BA74
  8
0
  0
POLYLINE
  5
A1DF
  8
0
 66
     1
 10
0.0
 20
0.0
 30
0.0
 70
   128
  0
VERTEX
  5
BA75
  8
0
 10
130.87672447278919
 20
372.64792159982522
 30
0.0
  0
VERTEX
  5
BA76
  8
0
 10
130.87605392053541
 20
372.64676675983259
 30
0.0
  0
VERTEX
  5
BA77
  8
0
 10
130.80150341108259
 20
372.5176407475073
 30
0.0
  0
VERTEX
  5
BA78
  8
0
 10
130.6055531413835
 20
372.17824444957569
 30
0.0
  0
VERTEX
  5
BA79
  8
0
 10
130.29385065153059
 20
371.63835302778079
 30
0.0
  0
VERTEX
  5
BA7A
  8
0
 10
129.87534408882081
 20
370.91349349208667
 30
0.0
  0
VERTEX
  5
BA7B
  8
0
 10
129.36209594324049
 20
370.02451256700351
 30
0.0
  0
VERTEX
  5
BA7C
  8
0
 10
128.76885836437171
 20
368.99699554630109
 30
0.0
  0
VERTEX
  5
BA7D
  8
0
 10
128.11270063236179
 20
367.86049143262699
 30
0.0
  0
VERTEX
  5
BA7E
  8
0
 10
127.41249506786291
 20
366.64770827480152
 30
0.0
  0
VERTEX
  5
BA7F
  8
0
 10
126.688388040809
 20
365.39352224059888
 30
0.0
  0
VERTEX
  5
BA80
  8
0
 10
125.9612188251299
 20
364.1340164918501
 30
0.0
  0
VERTEX
  5
BA81
  8
0
 10
125.2518937499803
 20
362.90543810315921
 30
0.0
  0
VERTEX
  5
BA82
  8
0
 10
124.58082740619599
 20
361.74311027713611
 30
0.0
  0
VERTEX
  5
BA83
  8
0
 10
123.9673167975229
 20
360.68048984595129
 30
0.0
  0
VERTEX
  5
BA84
  8
0
 10
123.4290272505564
 20
359.74813536592319
 30
0.0
  0
VERTEX
  5
BA85
  8
0
 10
122.98142617061561
 20
358.97287265249088
 30
0.0
  0
VERTEX
  5
BA86
  8
0
 10
122.6374030621332
 20
358.377001293381
 30
0.0
  0
VERTEX
  5
BA87
  8
0
 10
122.40684484556139
 20
357.97766879983737
 30
0.0
  0
VERTEX
  5
BA88
  8
0
 10
122.2963974387926
 20
357.7863602418501
 30
0.0
  0
VERTEX
  5
BA89
  8
0
 10
122.2866744311136
 20
357.76951820441082
 30
0.0
  0
SEQEND
  5
BA8A
  8
0
  0
POINT
  5
A1E0
  8
0
 10
84.060278620104782
 20
389.75847236104818
 30
0.0
  0
LINE
  5
A1E1
  8
1
 10
79.73015160118257
 20
392.25847236104818
 30
0.0
 11
198.37563191965009
 21
323.75847236104789
 31
0.0
  0
POLYLINE
  5
A1ED
  8
0
 66
     1
 10
0.0
 20
0.0
 30
0.0
 70
   128
  0
VERTEX
  5
BA8B
  8
0
 10
424.04596654665892
 20
599.04570617880131
 30
0.0
  0
VERTEX
  5
BA8C
  8
0
 10
424.04215929997389
 20
598.90434631313576
 30
0.0
  0
VERTEX
  5
BA8D
  8
0
 10
423.8759890009207
 20
598.10488411392475
 30
0.0
  0
VERTEX
  5
BA8E
  8
0
 10
423.46769718420933
 20
597.32747563328053
 30
0.0
  0
VERTEX
  5
BA8F
  8
0
 10
422.82684294474552
 20
596.59033754076256
 30
0.0
  0
VERTEX
  5
BA90
  8
0
 10
421.96845410359327
 20
595.91075518335595
 30
0.0
  0
VERTEX
  5
BA91
  8
0
 10
420.91265467894499
 20
595.30465045179631
 30
0.0
  0
VERTEX
  5
BA92
  8
0
 10
419.6841805983824
 20
594.78623905386235
 30
0.0
  0
VERTEX
  5
BA93
  8
0
 10
418.31182835591261
 20
594.36765798534645
 30
0.0
  0
VERTEX
  5
BA94
  8
0
 10
416.8277770091338
 20
594.05873456205632
 30
0.0
  0
VERTEX
  5
BA95
  8
0
 10
415.26679841769158
 20
593.8666958471706
 30
0.0
  0
VERTEX
  5
BA96
  8
0
 10
413.66548238289778
 20
593.79604944195046
 30
0.0
  0
VERTEX
  5
BA97
  8
0
 10
412.06137238038008
 20
593.84844937528874
 30
0.0
  0
VERTEX
  5
BA98
  8
0
 10
410.49205658925001
 20
594.02266630138661
 30
0.0
  0
VERTEX
  5
BA99
  8
0
 10
408.99431852591459
 20
594.31462475265755
 30
0.0
  0
VERTEX
  5
BA9A
  8
0
 10
407.60326905143683
 20
594.71747764553334
 30
0.0
  0
VERTEX
  5
BA9B
  8
0
 10
406.3515119065089
 20
595.22177764381672
 30
0.0
  0
VERTEX
  5
BA9C
  8
0
 10
405.2683874775214
 20
595.81570067610051
 30
0.0
  0
VERTEX
  5
BA9D
  8
0
 10
404.37928361785828
 20
596.48534395899082
 30
0.0
  0
VERTEX
  5
BA9E
  8
0
 10
403.70503587615912
 20
597.21499421800866
 30
0.0
  0
VERTEX
  5
BA9F
  8
0
 10
403.26145438445042
 20
597.98755237068428
 30
0.0
  0
VERTEX
  5
BAA0
  8
0
 10
403.05892897737448
 20
598.78491350616707
 30
0.0
  0
VERTEX
  5
BAA1
  8
0
 10
403.04596869242607
 20
599.04570617880131
 30
0.0
  0
SEQEND
  5
BAA2
  8
0
  0
LINE
  5
A1F3
  8
0
 10
420.04596589100782
 20
492.71111675705242
 30
0.0
 11
420.04596589100782
 21
528.71111520733155
 31
0.0
  0
LINE
  5
A1F4
  8
0
 10
421.0459679175658
 20
527.71111690606403
 30
0.0
 11
421.0459679175658
 21
493.71111505831999
 31
0.0
  0
LINE
  5
A1F6
  8
0
 10
407.04596562278692
 20
528.71111520733155
 30
0.0
 11
407.04596562278692
 21
492.71111675705242
 31
0.0
  0
LINE
  5
A1F7
  8
0
 10
406.0459673215193
 20
493.7111150583201
 30
0.0
 11
406.0459673215193
 21
527.71111690606403
 31
0.0
  0
POLYLINE
  5
A1F9
  8
0
 66
     1
 10
0.0
 20
0.0
 30
0.0
 70
   128
  0
VERTEX
  5
BAA3
  8
0
 10
413.54596761954252
 20
499.180027480977
 30
0.0
  0
VERTEX
  5
BAA4
  8
0
 10
414.49025420439671
 20
499.29242787118483
 30
0.0
  0
VERTEX
  5
BAA5
  8
0
 10
415.36451278222029
 20
499.6212946360879
 30
0.0
  0
VERTEX
  5
BAA6
  8
0
 10
416.10389349949781
 20
500.14223643745697
 30
0.0
  0
VERTEX
  5
BAA7
  8
0
 10
416.65356753361652
 20
500.81661828960688
 30
0.0
  0
VERTEX
  5
BAA8
  8
0
 10
416.97275785696928
 20
501.59442258234537
 30
0.0
  0
VERTEX
  5
BAA9
  8
0
 10
417.03780887616102
 20
502.41796505804581
 30
0.0
  0
VERTEX
  5
BAAA
  8
0
 10
416.84387771380369
 20
503.22616585697449
 30
0.0
  0
VERTEX
  5
BAAB
  8
0
 10
416.4053588916106
 20
503.95908552389062
 30
0.0
  0
VERTEX
  5
BAAC
  8
0
 10
415.75477419388722
 20
504.56236601974291
 30
0.0
  0
VERTEX
  5
BAAD
  8
0
 10
414.94037358057921
 20
504.9912652110628
 30
0.0
  0
VERTEX
  5
BAAE
  8
0
 10
414.02255145800541
 20
505.21397330965323
 30
0.0
  0
VERTEX
  5
BAAF
  8
0
 10
413.06938378107969
 20
505.21397330965323
 30
0.0
  0
VERTEX
  5
BAB0
  8
0
 10
412.1515616585059
 20
504.9912652110628
 30
0.0
  0
VERTEX
  5
BAB1
  8
0
 10
411.33716104519789
 20
504.56236601974291
 30
0.0
  0
VERTEX
  5
BAB2
  8
0
 10
410.6865688968939
 20
503.95908552389062
 30
0.0
  0
VERTEX
  5
BAB3
  8
0
 10
410.24805007470081
 20
503.22616585697449
 30
0.0
  0
VERTEX
  5
BAB4
  8
0
 10
410.05412636292402
 20
502.41796505804581
 30
0.0
  0
VERTEX
  5
BAB5
  8
0
 10
410.11916993153523
 20
501.59442258234537
 30
0.0
  0
VERTEX
  5
BAB6
  8
0
 10
410.43836770546858
 20
500.81661828960688
 30
0.0
  0
VERTEX
  5
BAB7
  8
0
 10
410.98804173958717
 20
500.14223643745697
 30
0.0
  0
VERTEX
  5
BAB8
  8
0
 10
411.72742245686482
 20
499.6212946360879
 30
0.0
  0
VERTEX
  5
BAB9
  8
0
 10
412.6016810346884
 20
499.29242787118483
 30
0.0
  0
VERTEX
  5
BABA
  8
0
 10
413.54596761954252
 20
499.180027480977
 30
0.0
  0
SEQEND
  5
BABB
  8
0
  0
POLYLINE
  5
A1FA
  8
0
 66
     1
 10
0.0
 20
0.0
 30
0.0
 70
   128
  0
VERTEX
  5
BABC
  8
0
 10
413.54596761954252
 20
500.54605231787491
 30
0.0
  0
VERTEX
  5
BABD
  8
0
 10
414.31851087105701
 20
500.6520182004146
 30
0.0
  0
VERTEX
  5
BABE
  8
0
 10
415.01543072951262
 20
500.95954277719778
 30
0.0
  0
VERTEX
  5
BABF
  8
0
 10
415.56850967896412
 20
501.43852383996767
 30
0.0
  0
VERTEX
  5
BAC0
  8
0
 10
415.92361180079411
 20
502.04207488502789
 30
0.0
  0
VERTEX
  5
BAC1
  8
0
 10
416.04596523535668
 20
502.71111560221237
 30
0.0
  0
VERTEX
  5
BAC2
  8
0
 10
415.92361180079411
 20
503.38015725071938
 30
0.0
  0
VERTEX
  5
BAC3
  8
0
 10
415.56850967896412
 20
503.98370829577959
 30
0.0
  0
VERTEX
  5
BAC4
  8
0
 10
415.01543072951262
 20
504.46268935854948
 30
0.0
  0
VERTEX
  5
BAC5
  8
0
 10
414.31851087105701
 20
504.77021393533272
 30
0.0
  0
VERTEX
  5
BAC6
  8
0
 10
413.54596761954252
 20
504.87617935221112
 30
0.0
  0
VERTEX
  5
BAC7
  8
0
 10
412.77342436802809
 20
504.77021393533272
 30
0.0
  0
VERTEX
  5
BAC8
  8
0
 10
412.07650450957237
 20
504.46268935854948
 30
0.0
  0
VERTEX
  5
BAC9
  8
0
 10
411.52342556012098
 20
503.98370829577959
 30
0.0
  0
VERTEX
  5
BACA
  8
0
 10
411.168323438291
 20
503.38015725071938
 30
0.0
  0
VERTEX
  5
BACB
  8
0
 10
411.04597000372831
 20
502.71111560221237
 30
0.0
  0
VERTEX
  5
BACC
  8
0
 10
411.168323438291
 20
502.04207488502789
 30
0.0
  0
VERTEX
  5
BACD
  8
0
 10
411.52342556012098
 20
501.43852383996767
 30
0.0
  0
VERTEX
  5
BACE
  8
0
 10
412.07650450957237
 20
500.95954277719778
 30
0.0
  0
VERTEX
  5
BACF
  8
0
 10
412.77342436802809
 20
500.6520182004146
 30
0.0
  0
VERTEX
  5
BAD0
  8
0
 10
413.54596761954252
 20
500.54605231787491
 30
0.0
  0
SEQEND
  5
BAD1
  8
0
  0
POLYLINE
  5
A1FB
  8
0
 66
     1
 10
0.0
 20
0.0
 30
0.0
 70
   128
  0
VERTEX
  5
BAD2
  8
0
 10
418.73126469397829
 20
525.84388240615556
 30
0.0
  0
VERTEX
  5
BAD3
  8
0
 10
418.72680334341948
 20
525.85822549815703
 30
0.0
  0
VERTEX
  5
BAD4
  8
0
 10
418.54597030175159
 20
526.23393871988583
 30
0.0
  0
SEQEND
  5
BAD5
  8
0
  0
POLYLINE
  5
A1FC
  8
0
 66
     1
 10
0.0
 20
0.0
 30
0.0
 70
   128
  0
VERTEX
  5
BAD6
  8
0
 10
408.54596866262381
 20
526.23393871988583
 30
0.0
  0
VERTEX
  5
BAD7
  8
0
 10
408.36512817037533
 20
525.85822549815703
 30
0.0
  0
VERTEX
  5
BAD8
  8
0
 10
408.36174137637431
 20
525.8460233032971
 30
0.0
  0
SEQEND
  5
BAD9
  8
0
  0
LINE
  5
A1FD
  8
0
 10
403.74596902025172
 20
530.71111553515721
 30
0.0
 11
336.74596735132172
 21
530.71111553515721
 31
0.0
  0
LINE
  5
A1FE
  8
0
 10
403.74596902025172
 20
490.71111642922688
 30
0.0
 11
403.74596902025172
 21
530.71111553515721
 31
0.0
  0
LINE
  5
A1FF
  8
0
 10
403.74596902025172
 20
490.71111642922688
 30
0.0
 11
336.74596735132172
 21
490.71111642922688
 31
0.0
  0
LINE
  5
A200
  8
0
 10
336.74596735132172
 20
530.71111553515721
 30
0.0
 11
336.74596735132172
 21
490.71111642922688
 31
0.0
  0
LINE
  5
A201
  8
0
 10
333.7459668595834
 20
493.71111505831999
 30
0.0
 11
333.7459668595834
 21
527.71111690606403
 31
0.0
  0
LINE
  5
A202
  8
0
 10
403.74596902025172
 20
530.71111553515721
 30
0.0
 11
404.74596732151929
 21
529.71111537124443
 31
0.0
  0
LINE
  5
A203
  8
0
 10
404.74596732151929
 20
529.71111537124443
 30
0.0
 11
404.74596732151929
 21
491.71111659313959
 31
0.0
  0
LINE
  5
A204
  8
0
 10
403.74596902025172
 20
490.71111642922688
 30
0.0
 11
404.74596732151929
 21
491.71111659313959
 31
0.0
  0
LINE
  5
A205
  8
0
 10
329.74596806657752
 20
501.71111636962218
 30
0.0
 11
329.74596806657752
 21
519.71111559476185
 31
0.0
  0
ARC
  5
A206
  8
0
 10
359.74596761954263
 20
540.71111598219204
 30
0.0
 40
10.0
 50
90.0
 51
180.0
  0
ARC
  5
A207
  8
0
 10
359.74596761954263
 20
540.71111598219204
 30
0.0
 40
10.0
 50
0.0
 51
90.0
  0
CIRCLE
  5
A208
  8
0
 10
359.74596761954263
 20
540.71111598219204
 30
0.0
 40
4.4999999999999432
  0
LINE
  5
A209
  8
0
 10
349.74596761954263
 20
530.71111553515721
 30
0.0
 11
349.74596761954263
 21
540.71111531163979
 31
0.0
  0
LINE
  5
A20A
  8
0
 10
369.74596717250779
 20
540.71111531163979
 30
0.0
 11
369.74596717250779
 21
538.78218420948315
 31
0.0
  0
ARC
  5
A20B
  8
0
 10
374.74596761954291
 20
538.78218379405757
 30
0.0
 40
5.000000000000056
 50
180.0
 51
225.0000000000046
  0
LINE
  5
A20C
  8
0
 10
371.2104328055425
 20
535.24664902295399
 30
0.0
 11
375.74596815598437
 21
530.71111553515721
 31
0.0
  0
LINE
  5
A20D
  8
0
 10
349.74596761954263
 20
480.71111665274429
 30
0.0
 11
349.74596761954263
 21
490.71111642922688
 31
0.0
  0
LINE
  5
A20E
  8
0
 10
375.74596815598437
 20
490.71111642922688
 30
0.0
 11
371.2104328055425
 21
486.17558294143009
 31
0.0
  0
ARC
  5
A20F
  8
0
 10
374.74596761954291
 20
482.64004817032662
 30
0.0
 40
5.000000000000056
 50
134.9999999999954
 51
180.0
  0
CIRCLE
  5
A210
  8
0
 10
359.74596761954263
 20
480.71111598219198
 30
0.0
 40
4.5
  0
LINE
  5
A211
  8
0
 10
369.74596717250779
 20
482.64004775490088
 30
0.0
 11
369.74596717250779
 21
480.71111665274429
 31
0.0
  0
ARC
  5
A212
  8
0
 10
359.74596761954263
 20
480.71111598219198
 30
0.0
 40
10.00000000000003
 50
180.0
 51
270.0
  0
ARC
  5
A213
  8
0
 10
359.74596761954263
 20
480.71111598219198
 30
0.0
 40
10.00000000000003
 50
270.0
 51
0.0
  0
POLYLINE
  5
A214
  8
0
 66
     1
 10
0.0
 20
0.0
 30
0.0
 70
   128
  0
VERTEX
  5
BADA
  8
0
 10
424.04595909607832
 20
622.81099447216286
 30
0.0
  0
VERTEX
  5
BADB
  8
0
 10
424.04215929997389
 20
622.67672010864521
 30
0.0
  0
VERTEX
  5
BADC
  8
0
 10
423.8759890009207
 20
621.87725790943398
 30
0.0
  0
VERTEX
  5
BADD
  8
0
 10
423.46769718420933
 20
621.09984942878975
 30
0.0
  0
VERTEX
  5
BADE
  8
0
 10
422.82684294474552
 20
620.36271133627201
 30
0.0
  0
VERTEX
  5
BADF
  8
0
 10
421.96845410359327
 20
619.68312897886528
 30
0.0
  0
VERTEX
  5
BAE0
  8
0
 10
420.91265467894499
 20
619.07702424730564
 30
0.0
  0
VERTEX
  5
BAE1
  8
0
 10
419.6841805983824
 20
618.55861284937157
 30
0.0
  0
VERTEX
  5
BAE2
  8
0
 10
418.31182835591261
 20
618.14003178085591
 30
0.0
  0
VERTEX
  5
BAE3
  8
0
 10
416.8277770091338
 20
617.83110835756565
 30
0.0
  0
VERTEX
  5
BAE4
  8
0
 10
415.26679841769158
 20
617.63906964267994
 30
0.0
  0
VERTEX
  5
BAE5
  8
0
 10
413.66548238289778
 20
617.56842323745991
 30
0.0
  0
VERTEX
  5
BAE6
  8
0
 10
412.06137238038008
 20
617.62082317079796
 30
0.0
  0
VERTEX
  5
BAE7
  8
0
 10
410.49205658925001
 20
617.79504754747654
 30
0.0
  0
VERTEX
  5
BAE8
  8
0
 10
408.99431852591459
 20
618.08699854816689
 30
0.0
  0
VERTEX
  5
BAE9
  8
0
 10
407.60326905143683
 20
618.48985144104256
 30
0.0
  0
VERTEX
  5
BAEA
  8
0
 10
406.3515119065089
 20
618.99415143932595
 30
0.0
  0
VERTEX
  5
BAEB
  8
0
 10
405.2683874775214
 20
619.58808192219044
 30
0.0
  0
VERTEX
  5
BAEC
  8
0
 10
404.37928361785828
 20
620.25771775450005
 30
0.0
  0
VERTEX
  5
BAED
  8
0
 10
403.70503587615912
 20
620.98736801351811
 30
0.0
  0
VERTEX
  5
BAEE
  8
0
 10
403.26145438445042
 20
621.75992616619374
 30
0.0
  0
VERTEX
  5
BAEF
  8
0
 10
403.05892897737448
 20
622.55728730167652
 30
0.0
  0
VERTEX
  5
BAF0
  8
0
 10
403.04597614300673
 20
622.81062939371373
 30
0.0
  0
SEQEND
  5
BAF1
  8
0
  0
POLYLINE
  5
A215
  8
0
 66
     1
 10
0.0
 20
0.0
 30
0.0
 70
   128
  0
VERTEX
  5
BAF2
  8
0
 10
422.26128427279423
 20
625.55952110494866
 30
0.0
  0
VERTEX
  5
BAF3
  8
0
 10
422.55424110186522
 20
624.82521423305775
 30
0.0
  0
VERTEX
  5
BAF4
  8
0
 10
422.60147778284971
 20
624.07681086267735
 30
0.0
  0
VERTEX
  5
BAF5
  8
0
 10
422.4016979147238
 20
623.33472558464314
 30
0.0
  0
VERTEX
  5
BAF6
  8
0
 10
421.96036277306501
 20
622.61920162643685
 30
0.0
  0
VERTEX
  5
BAF7
  8
0
 10
421.2895050455374
 20
621.94975950922264
 30
0.0
  0
VERTEX
  5
BAF8
  8
0
 10
420.40742335808699
 20
621.34466060604348
 30
0.0
  0
VERTEX
  5
BAF9
  8
0
 10
419.33817563546131
 20
620.82040050234104
 30
0.0
  0
VERTEX
  5
BAFA
  8
0
 10
418.11093835127781
 20
620.39129176344181
 30
0.0
  0
VERTEX
  5
BAFB
  8
0
 10
416.75917206299732
 20
620.06903180088295
 30
0.0
  0
VERTEX
  5
BAFC
  8
0
 10
415.31976459515522
 20
619.86241229976906
 30
0.0
  0
VERTEX
  5
BAFD
  8
0
 10
413.83197305691669
 20
619.77707334961201
 30
0.0
  0
VERTEX
  5
BAFE
  8
0
 10
412.33637331021259
 20
619.81533953155781
 30
0.0
  0
VERTEX
  5
BAFF
  8
0
 10
410.87377218497221
 20
619.97616776432301
 30
0.0
  0
VERTEX
  5
BB00
  8
0
 10
409.48406008971159
 20
620.25516965593602
 30
0.0
  0
VERTEX
  5
BB01
  8
0
 10
408.20514930379812
 20
620.64473816360726
 30
0.0
  0
VERTEX
  5
BB02
  8
0
 10
407.07191972029631
 20
621.13424130882515
 30
0.0
  0
VERTEX
  5
BB03
  8
0
 10
406.11528379810278
 20
621.71032765116001
 30
0.0
  0
VERTEX
  5
BB04
  8
0
 10
405.36134092104862
 20
622.35729136671318
 30
0.0
  0
VERTEX
  5
BB05
  8
0
 10
404.83065096629088
 20
623.05747457947041
 30
0.0
  0
VERTEX
  5
BB06
  8
0
 10
404.53769413721977
 20
623.79178145136143
 30
0.0
  0
VERTEX
  5
BB07
  8
0
 10
404.49045745623528
 20
624.54018482174183
 30
0.0
  0
VERTEX
  5
BB08
  8
0
 10
404.69023359907101
 20
625.28227009977604
 30
0.0
  0
VERTEX
  5
BB09
  8
0
 10
405.13156874072968
 20
625.99779405798222
 30
0.0
  0
VERTEX
  5
BB0A
  8
0
 10
405.80242646825741
 20
626.66723617519642
 30
0.0
  0
VERTEX
  5
BB0B
  8
0
 10
406.68451188099812
 20
627.27233507837548
 30
0.0
  0
VERTEX
  5
BB0C
  8
0
 10
407.75375587833349
 20
627.79659518207814
 30
0.0
  0
VERTEX
  5
BB0D
  8
0
 10
408.98099688780729
 20
628.22570392097725
 30
0.0
  0
VERTEX
  5
BB0E
  8
0
 10
410.33276317608778
 20
628.54796388353611
 30
0.0
  0
VERTEX
  5
BB0F
  8
0
 10
411.77217064392988
 20
628.75458338465
 30
0.0
  0
VERTEX
  5
BB10
  8
0
 10
413.25996218216841
 20
628.83992233480706
 30
0.0
  0
VERTEX
  5
BB11
  8
0
 10
414.75556192887251
 20
628.80165615286126
 30
0.0
  0
VERTEX
  5
BB12
  8
0
 10
416.21816305411278
 20
628.64082792009606
 30
0.0
  0
VERTEX
  5
BB13
  8
0
 10
417.60787514937351
 20
628.36182602848305
 30
0.0
  0
VERTEX
  5
BB14
  8
0
 10
418.88678966057722
 20
627.97225752081181
 30
0.0
  0
VERTEX
  5
BB15
  8
0
 10
420.0200155187888
 20
627.48275437559391
 30
0.0
  0
VERTEX
  5
BB16
  8
0
 10
420.97664771569202
 20
626.90666803325905
 30
0.0
  0
VERTEX
  5
BB17
  8
0
 10
421.73059431803648
 20
626.25970431770577
 30
0.0
  0
VERTEX
  5
BB18
  8
0
 10
422.26128427279423
 20
625.55952110494866
 30
0.0
  0
SEQEND
  5
BB19
  8
0
  0
LINE
  5
A216
  8
1
 10
324.7459680665774
 20
510.71111598219198
 30
0.0
 11
426.04596791756569
 21
510.71111598219198
 31
0.0
  0
CIRCLE
  5
A217
  8
0
 10
533.64896932181398
 20
323.75847236104829
 30
0.0
 40
5.9999999999997442
  0
ARC
  5
A218
  8
0
 10
650.13093502754509
 20
380.90573690617271
 30
0.0
 40
1.750000000000052
 50
300.00000000001501
 51
19.551762668022182
  0
ARC
  5
A219
  8
0
 10
641.38093502754498
 20
396.06118147240022
 30
0.0
 40
1.75000000000002
 50
40.448237331980131
 51
120.0000000000005
  0
ARC
  5
A21A
  8
0
 10
604.66305243213719
 20
364.7584723610492
 30
0.0
 40
50.000000000000021
 50
19.551762668040599
 51
40.448237331961757
  0
ARC
  5
A21B
  8
0
 10
609.32658405486563
 20
358.68099864777957
 30
0.0
 40
1.0000000000000959
 50
209.9999999999973
 51
294.28940686249962
  0
ARC
  5
A21C
  8
0
 10
601.73157161697782
 20
371.83594607431883
 30
0.0
 40
0.9999999999999978
 50
125.7105931375025
 51
210.00000000000941
  0
CIRCLE
  5
A21D
  8
0
 10
533.64896932181432
 20
303.25847236104818
 30
0.0
 40
2.4999999999999849
  0
LINE
  5
A21E
  8
0
 10
532.2330715136859
 20
304.25608621266451
 30
0.0
 11
532.07706147908311
 21
302.53107581585431
 31
0.0
  0
LINE
  5
A21F
  8
0
 10
533.49295928721165
 20
301.53346196423797
 30
0.0
 11
535.06486712994274
 21
302.26085850943178
 31
0.0
  0
LINE
  5
A220
  8
0
 10
535.06486712994274
 20
302.26085850943178
 30
0.0
 11
535.22087716454553
 21
303.9858689062421
 31
0.0
  0
LINE
  5
A221
  8
0
 10
535.22087716454553
 20
303.9858689062421
 30
0.0
 11
533.80497935641677
 21
304.98348275785833
 31
0.0
  0
LINE
  5
A222
  8
0
 10
533.80497935641677
 20
304.98348275785833
 30
0.0
 11
532.2330715136859
 21
304.25608621266451
 31
0.0
  0
LINE
  5
A223
  8
0
 10
532.07706147908311
 20
302.53107581585431
 30
0.0
 11
533.49295928721165
 21
301.53346196423797
 31
0.0
  0
LINE
  5
A224
  8
0
 10
623.43224626523397
 20
372.24927502501743
 30
0.0
 11
616.73356050782559
 21
383.85173910078601
 31
0.0
  0
LINE
  5
A225
  8
0
 10
627.23356050782604
 20
365.66520562131291
 30
0.0
 11
623.43224626523397
 21
372.24927502501743
 31
0.0
  0
LINE
  5
A226
  8
0
 10
605.71093684605194
 20
362.94348331568932
 30
0.0
 11
600.86554621319317
 21
371.33594607431883
 31
0.0
  0
LINE
  5
A227
  8
0
 10
608.4605586510811
 20
358.18099864777952
 30
0.0
 11
605.71093684605194
 21
362.94348331568932
 31
0.0
  0
LINE
  5
A230
  8
0
 10
606.73003973024515
 20
360.17834534212699
 30
0.0
 11
601.73003973024515
 21
368.8385993799713
 31
0.0
  0
CIRCLE
  5
A231
  8
0
 10
533.64896932181398
 20
323.75847236104818
 30
0.0
 40
16.999999620020638
  0
CIRCLE
  5
A232
  8
0
 10
533.64896932181398
 20
323.75847236104818
 30
0.0
 40
18.0
  0
LINE
  5
A233
  8
0
 10
553.35607610300065
 20
310.46557914223501
 30
0.0
 11
541.79541593122121
 21
298.90491897045501
 31
0.0
  0
LINE
  5
A234
  8
0
 10
541.79541593122121
 20
298.90491897045501
 30
0.0
 11
541.44186254062788
 21
298.75847236104829
 31
0.0
  0
LINE
  5
A235
  8
0
 10
525.85607610300076
 20
298.75847236104812
 30
0.0
 11
525.50252271240765
 21
298.90491897045479
 31
0.0
  0
LINE
  5
A236
  8
0
 10
525.50252271240765
 20
298.90491897045479
 30
0.0
 11
513.94186254062777
 21
310.4655791422345
 31
0.0
  0
ARC
  5
A237
  8
0
 10
533.64896932181432
 20
303.25847236104818
 30
0.0
 40
2.9000000000000341
 50
0.0
 51
61.670783738550057
  0
ARC
  5
A238
  8
0
 10
533.64896932181432
 20
303.25847236104818
 30
0.0
 40
2.9000000000000341
 50
118.3292162614499
 51
0.0
  0
ARC
  5
A239
  8
0
 10
514.64896932181409
 20
311.172685923421
 30
0.0
 40
1.0
 50
180.0
 51
225.0000000000046
  0
LINE
  5
A23A
  8
0
 10
553.64896932181409
 20
323.7584723610484
 30
0.0
 11
553.64896932181409
 21
310.7584723610484
 31
0.0
  0
ARC
  5
A23B
  8
0
 10
552.64896932181409
 20
311.17268592342151
 30
0.0
 40
1.0
 50
314.9999999999954
 51
0.0
  0
LINE
  5
A23C
  8
0
 10
513.64896932181398
 20
310.75847236104778
 30
0.0
 11
513.64896932181398
 21
323.75847236104778
 31
0.0
  0
ARC
  5
A23D
  8
0
 10
533.64896932181398
 20
323.75847236104818
 30
0.0
 40
20.00000000000006
 50
44.477512185925747
 51
180.0
  0
ARC
  5
A23E
  8
0
 10
533.64896932181398
 20
323.75847236104818
 30
0.0
 40
19.99999999999994
 50
0.0
 51
15.522487814069221
  0
LINE
  5
A23F
  8
0
 10
494.64896932181409
 20
310.7584723610475
 30
0.0
 11
513.64896932181398
 21
310.75847236104778
 31
0.0
  0
LINE
  5
A240
  8
0
 10
493.64896932181449
 20
299.2584723610475
 30
0.0
 11
494.14896932181449
 21
298.7584723610475
 31
0.0
  0
LINE
  5
A241
  8
0
 10
573.14896932181455
 20
298.75847236104852
 30
0.0
 11
573.64896932181455
 21
299.25847236104852
 31
0.0
  0
LINE
  5
A242
  8
0
 10
573.14896932181455
 20
298.75847236104852
 30
0.0
 11
494.14896932181449
 21
298.7584723610475
 31
0.0
  0
LINE
  5
A243
  8
0
 10
493.64896932181449
 20
299.2584723610475
 30
0.0
 11
493.64896932181409
 21
309.7584723610475
 31
0.0
  0
LINE
  5
A244
  8
0
 10
573.64896932181455
 20
299.25847236104852
 30
0.0
 11
573.64896932181409
 21
309.75847236104852
 31
0.0
  0
ARC
  5
A245
  8
0
 10
494.64896932181409
 20
309.7584723610475
 30
0.0
 40
1.0
 50
90.0
 51
180.0
  0
ARC
  5
A246
  8
0
 10
572.64896932181398
 20
309.75847236104852
 30
0.0
 40
1.0
 50
0.0
 51
90.0
  0
LINE
  5
A247
  8
0
 10
553.64896932181409
 20
310.75847236104829
 30
0.0
 11
572.64896932181398
 21
310.75847236104852
 31
0.0
  0
LINE
  5
A248
  8
0
 10
606.62807485430255
 20
363.1559462498048
 30
0.0
 11
601.14788027342945
 21
372.64792169924038
 31
0.0
  0
LINE
  5
A249
  8
0
 10
609.73792990152731
 20
357.769519303837
 30
0.0
 11
606.62807485430255
 21
363.1559462498048
 31
0.0
  0
LINE
  5
A24A
  8
0
 10
647.20462078495302
 20
385.9742618532544
 30
0.0
 11
640.50593502754498
 21
397.57672592902298
 31
0.0
  0
LINE
  5
A24B
  8
0
 10
651.00593502754509
 20
379.39019244954989
 30
0.0
 11
647.20462078495302
 21
385.9742618532544
 31
0.0
  0
LINE
  5
A24C
  8
0
 10
648.49737442859441
 20
387.1771138617853
 30
0.0
 11
642.71267170198905
 21
397.19651289094719
 31
0.0
  0
LINE
  5
A24D
  8
0
 10
651.78002921494362
 20
381.4913889881193
 30
0.0
 11
648.49737442859441
 21
387.1771138617853
 31
0.0
  0
LINE
  5
A24E
  8
0
 10
376.2239601541803
 20
172.05054384426541
 30
0.0
 11
374.49696213794209
 21
172.1827488090224
 31
0.0
  0
LINE
  5
A24F
  8
0
 10
374.49696213794209
 20
172.1827488090224
 30
0.0
 11
373.51896912646748
 21
170.75322715568689
 31
0.0
  0
LINE
  5
A250
  8
0
 10
373.51896912646748
 20
170.75322715568689
 30
0.0
 11
374.26797599387618
 21
169.1915006540097
 31
0.0
  0
LINE
  5
A251
  8
0
 10
374.26797599387618
 20
169.1915006540097
 30
0.0
 11
375.9949740101145
 21
169.05929568925271
 31
0.0
  0
LINE
  5
A252
  8
0
 10
375.9949740101145
 20
169.05929568925271
 30
0.0
 11
376.97296515894391
 21
170.48881734258819
 31
0.0
  0
LINE
  5
A253
  8
0
 10
376.97296515894391
 20
170.48881734258819
 30
0.0
 11
376.2239601541803
 21
172.05054384426541
 31
0.0
  0
LINE
  5
A254
  8
0
 10
405.14596664202662
 20
168.12102230501691
 30
0.0
 11
405.14596664202662
 21
173.1210221932582
 31
0.0
  0
ARC
  5
A255
  8
0
 10
421.25543193608098
 20
82.287789562221519
 30
0.0
 40
2.7893873387962631
 50
328.67834004333503
 51
6.2102270110108453
  0
POLYLINE
  5
A256
  8
0
 66
     1
 10
0.0
 20
0.0
 30
0.0
 70
   128
  0
VERTEX
  5
BB1A
  8
0
 10
403.0634812821192
 20
82.589536572371898
 30
0.0
  0
VERTEX
  5
BB1B
  8
0
 10
403.05892897737448
 20
82.547224725161968
 30
0.0
  0
VERTEX
  5
BB1C
  8
0
 10
403.10221312535231
 20
81.743746663009105
 30
0.0
  0
VERTEX
  5
BB1D
  8
0
 10
403.39028982413242
 20
80.952994192515789
 30
0.0
  0
VERTEX
  5
BB1E
  8
0
 10
403.9164088476939
 20
80.193489457045985
 30
0.0
  0
VERTEX
  5
BB1F
  8
0
 10
404.66823575985848
 20
79.48304679480691
 30
0.0
  0
VERTEX
  5
BB20
  8
0
 10
405.62814621222441
 20
78.838310802852106
 30
0.0
  0
VERTEX
  5
BB21
  8
0
 10
406.77364690196941
 20
78.274398709212733
 30
0.0
  0
VERTEX
  5
BB22
  8
0
 10
408.07788593662212
 20
77.804520393287135
 30
0.0
  0
VERTEX
  5
BB23
  8
0
 10
409.51028985870312
 20
77.439695263778162
 30
0.0
  0
VERTEX
  5
BB24
  8
0
 10
411.0372826267523
 20
77.188476587211085
 30
0.0
  0
VERTEX
  5
BB25
  8
0
 10
412.62308655274342
 20
77.056750322257471
 30
0.0
  0
VERTEX
  5
BB26
  8
0
 10
414.23051206362669
 20
77.047601009284449
 30
0.0
  0
VERTEX
  5
BB27
  8
0
 10
415.8218964744849
 20
77.161244715129328
 30
0.0
  0
VERTEX
  5
BB28
  8
0
 10
417.35993472826902
 20
77.395021582519007
 30
0.0
  0
VERTEX
  5
BB29
  8
0
 10
418.80858091605131
 20
77.74344798413415
 30
0.0
  0
VERTEX
  5
BB2A
  8
0
 10
420.13387529147087
 20
78.198350633059931
 30
0.0
  0
VERTEX
  5
BB2B
  8
0
 10
421.3047489334387
 20
78.749082649623347
 30
0.0
  0
VERTEX
  5
BB2C
  8
0
 10
422.29376880419682
 20
79.382724727069331
 30
0.0
  0
VERTEX
  5
BB2D
  8
0
 10
423.07774124634687
 20
80.084427858268214
 30
0.0
  0
VERTEX
  5
BB2E
  8
0
 10
423.63830057871758
 20
80.837748611842585
 30
0.0
  0
SEQEND
  5
BB2F
  8
0
  0
POLYLINE
  5
A25B
  8
0
 66
     1
 10
0.0
 20
0.0
 30
0.0
 70
   128
  0
VERTEX
  5
BB30
  8
0
 10
408.54644549978201
 20
100.00532832232609
 30
0.0
  0
VERTEX
  5
BB31
  8
0
 10
408.68720559370939
 20
99.449947143470254
 30
0.0
  0
VERTEX
  5
BB32
  8
0
 10
409.07159967315619
 20
98.924152220164743
 30
0.0
  0
VERTEX
  5
BB33
  8
0
 10
409.6803605366988
 20
98.454303706561532
 30
0.0
  0
VERTEX
  5
BB34
  8
0
 10
410.48295943034123
 20
98.063975239669276
 30
0.0
  0
VERTEX
  5
BB35
  8
0
 10
411.43914459240858
 20
97.77272459355494
 30
0.0
  0
VERTEX
  5
BB36
  8
0
 10
412.50097898734037
 20
97.595162356769052
 30
0.0
  0
VERTEX
  5
BB37
  8
0
 10
413.61521331561028
 20
97.540191973124934
 30
0.0
  0
VERTEX
  5
BB38
  8
0
 10
414.72597567332213
 20
97.61057015744349
 30
0.0
  0
VERTEX
  5
BB39
  8
0
 10
415.7775655199332
 20
97.802765334521723
 30
0.0
  0
VERTEX
  5
BB3A
  8
0
 10
416.71725509655897
 20
98.107151354228463
 30
0.0
  0
VERTEX
  5
BB3B
  8
0
 10
417.49792693150471
 20
98.508447075759364
 30
0.0
  0
VERTEX
  5
BB3C
  8
0
 10
418.08042077315281
 20
98.986543382083383
 30
0.0
  0
VERTEX
  5
BB3D
  8
0
 10
418.43554524672447
 20
99.517456854258981
 30
0.0
  0
VERTEX
  5
BB3E
  8
0
 10
418.54597030175159
 20
100.03995117036
 30
0.0
  0
SEQEND
  5
BB3F
  8
0
  0
CIRCLE
  5
A25D
  8
0
 10
391.9459676195429
 20
170.6210222491375
 30
0.0
 40
3.7999999999999541
  0
LINE
  5
A25E
  8
0
 10
420.04596589100782
 20
152.62102302399771
 30
0.0
 11
420.04596589100782
 21
188.62102147427689
 31
0.0
  0
LINE
  5
A261
  8
0
 10
421.0459679175658
 20
187.62102317300929
 30
0.0
 11
421.0459679175658
 21
153.62102132526519
 31
0.0
  0
LINE
  5
A262
  8
0
 10
407.04596562278692
 20
188.62102147427689
 30
0.0
 11
407.04596562278692
 21
152.62102302399771
 31
0.0
  0
LINE
  5
A263
  8
0
 10
406.0459673215193
 20
153.6210213252653
 30
0.0
 11
406.0459673215193
 21
187.62102317300929
 31
0.0
  0
POLYLINE
  5
A264
  8
0
 66
     1
 10
0.0
 20
0.0
 30
0.0
 70
   128
  0
VERTEX
  5
BB40
  8
0
 10
413.54596761954252
 20
159.0899337479226
 30
0.0
  0
VERTEX
  5
BB41
  8
0
 10
414.49025420439671
 20
159.20233413813031
 30
0.0
  0
VERTEX
  5
BB42
  8
0
 10
415.36451278222029
 20
159.53120090303341
 30
0.0
  0
VERTEX
  5
BB43
  8
0
 10
416.10389349949781
 20
160.0521427044026
 30
0.0
  0
VERTEX
  5
BB44
  8
0
 10
416.65356753361652
 20
160.72652455655259
 30
0.0
  0
VERTEX
  5
BB45
  8
0
 10
416.97275785696928
 20
161.504328849291
 30
0.0
  0
VERTEX
  5
BB46
  8
0
 10
417.03780887616102
 20
162.32787132499141
 30
0.0
  0
VERTEX
  5
BB47
  8
0
 10
416.84387771380369
 20
163.13607212392009
 30
0.0
  0
VERTEX
  5
BB48
  8
0
 10
416.4053588916106
 20
163.86899179083619
 30
0.0
  0
VERTEX
  5
BB49
  8
0
 10
415.75477419388722
 20
164.47227228668851
 30
0.0
  0
VERTEX
  5
BB4A
  8
0
 10
414.94037358057921
 20
164.90117147800839
 30
0.0
  0
VERTEX
  5
BB4B
  8
0
 10
414.02255145800541
 20
165.1238795765988
 30
0.0
  0
VERTEX
  5
BB4C
  8
0
 10
413.06938378107969
 20
165.1238795765988
 30
0.0
  0
VERTEX
  5
BB4D
  8
0
 10
412.1515616585059
 20
164.90117147800839
 30
0.0
  0
VERTEX
  5
BB4E
  8
0
 10
411.33716104519789
 20
164.47227228668851
 30
0.0
  0
VERTEX
  5
BB4F
  8
0
 10
410.6865688968939
 20
163.86899179083619
 30
0.0
  0
VERTEX
  5
BB50
  8
0
 10
410.24805007470081
 20
163.13607212392009
 30
0.0
  0
VERTEX
  5
BB51
  8
0
 10
410.05412636292402
 20
162.32787132499141
 30
0.0
  0
VERTEX
  5
BB52
  8
0
 10
410.11916993153523
 20
161.504328849291
 30
0.0
  0
VERTEX
  5
BB53
  8
0
 10
410.43836770546858
 20
160.72652455655259
 30
0.0
  0
VERTEX
  5
BB54
  8
0
 10
410.98804173958717
 20
160.0521427044026
 30
0.0
  0
VERTEX
  5
BB55
  8
0
 10
411.72742245686482
 20
159.53120090303341
 30
0.0
  0
VERTEX
  5
BB56
  8
0
 10
412.6016810346884
 20
159.20233413813031
 30
0.0
  0
VERTEX
  5
BB57
  8
0
 10
413.54596761954252
 20
159.0899337479226
 30
0.0
  0
SEQEND
  5
BB58
  8
0
  0
POLYLINE
  5
A265
  8
0
 66
     1
 10
0.0
 20
0.0
 30
0.0
 70
   128
  0
VERTEX
  5
BB59
  8
0
 10
413.54596761954252
 20
160.45595858482039
 30
0.0
  0
VERTEX
  5
BB5A
  8
0
 10
414.31851087105701
 20
160.5619244673602
 30
0.0
  0
VERTEX
  5
BB5B
  8
0
 10
415.01543072951262
 20
160.86944904414329
 30
0.0
  0
VERTEX
  5
BB5C
  8
0
 10
415.56850967896412
 20
161.34843010691321
 30
0.0
  0
VERTEX
  5
BB5D
  8
0
 10
415.92361180079411
 20
161.9519811519734
 30
0.0
  0
VERTEX
  5
BB5E
  8
0
 10
416.04596523535668
 20
162.62102186915789
 30
0.0
  0
VERTEX
  5
BB5F
  8
0
 10
415.92361180079411
 20
163.29006351766509
 30
0.0
  0
VERTEX
  5
BB60
  8
0
 10
415.56850967896412
 20
163.89361456272519
 30
0.0
  0
VERTEX
  5
BB61
  8
0
 10
415.01543072951262
 20
164.37259562549511
 30
0.0
  0
VERTEX
  5
BB62
  8
0
 10
414.31851087105701
 20
164.68012020227829
 30
0.0
  0
VERTEX
  5
BB63
  8
0
 10
413.54596761954252
 20
164.78608561915669
 30
0.0
  0
VERTEX
  5
BB64
  8
0
 10
412.77342436802809
 20
164.68012020227829
 30
0.0
  0
VERTEX
  5
BB65
  8
0
 10
412.07650450957237
 20
164.37259562549511
 30
0.0
  0
VERTEX
  5
BB66
  8
0
 10
411.52342556012098
 20
163.89361456272519
 30
0.0
  0
VERTEX
  5
BB67
  8
0
 10
411.168323438291
 20
163.29006351766509
 30
0.0
  0
VERTEX
  5
BB68
  8
0
 10
411.04597000372831
 20
162.62102186915789
 30
0.0
  0
VERTEX
  5
BB69
  8
0
 10
411.168323438291
 20
161.9519811519734
 30
0.0
  0
VERTEX
  5
BB6A
  8
0
 10
411.52342556012098
 20
161.34843010691321
 30
0.0
  0
VERTEX
  5
BB6B
  8
0
 10
412.07650450957237
 20
160.86944904414329
 30
0.0
  0
VERTEX
  5
BB6C
  8
0
 10
412.77342436802809
 20
160.5619244673602
 30
0.0
  0
VERTEX
  5
BB6D
  8
0
 10
413.54596761954252
 20
160.45595858482039
 30
0.0
  0
SEQEND
  5
BB6E
  8
0
  0
POLYLINE
  5
A266
  8
0
 66
     1
 10
0.0
 20
0.0
 30
0.0
 70
   128
  0
VERTEX
  5
BB6F
  8
0
 10
413.54596761954252
 20
183.59345443782729
 30
0.0
  0
VERTEX
  5
BB70
  8
0
 10
414.49025420439671
 20
183.6583489948265
 30
0.0
  0
VERTEX
  5
BB71
  8
0
 10
415.36451278222029
 20
183.84822052208099
 30
0.0
  0
VERTEX
  5
BB72
  8
0
 10
416.10389349949781
 20
184.14898649094019
 30
0.0
  0
VERTEX
  5
BB73
  8
0
 10
416.65356753361652
 20
184.53833986309689
 30
0.0
  0
VERTEX
  5
BB74
  8
0
 10
416.97275785696928
 20
184.9874059134473
 30
0.0
  0
VERTEX
  5
BB75
  8
0
 10
417.03780887616102
 20
185.46287868407859
 30
0.0
  0
VERTEX
  5
BB76
  8
0
 10
416.84387771380369
 20
185.92949364570279
 30
0.0
  0
VERTEX
  5
BB77
  8
0
 10
416.4053588916106
 20
186.3526437827696
 30
0.0
  0
VERTEX
  5
BB78
  8
0
 10
415.75477419388722
 20
186.70094911244999
 30
0.0
  0
VERTEX
  5
BB79
  8
0
 10
414.94037358057921
 20
186.94857474652429
 30
0.0
  0
VERTEX
  5
BB7A
  8
0
 10
414.02255145800541
 20
187.07715500382079
 30
0.0
  0
VERTEX
  5
BB7B
  8
0
 10
413.06938378107969
 20
187.07715500382079
 30
0.0
  0
VERTEX
  5
BB7C
  8
0
 10
412.1515616585059
 20
186.94857474652429
 30
0.0
  0
VERTEX
  5
BB7D
  8
0
 10
411.33716104519789
 20
186.70094911244999
 30
0.0
  0
VERTEX
  5
BB7E
  8
0
 10
410.6865688968939
 20
186.3526437827696
 30
0.0
  0
VERTEX
  5
BB7F
  8
0
 10
410.24805007470081
 20
185.92949364570279
 30
0.0
  0
VERTEX
  5
BB80
  8
0
 10
410.05412636292402
 20
185.46287868407859
 30
0.0
  0
VERTEX
  5
BB81
  8
0
 10
410.11916993153523
 20
184.9874059134473
 30
0.0
  0
VERTEX
  5
BB82
  8
0
 10
410.43836770546858
 20
184.53833986309689
 30
0.0
  0
VERTEX
  5
BB83
  8
0
 10
410.98804173958717
 20
184.14898649094019
 30
0.0
  0
VERTEX
  5
BB84
  8
0
 10
411.72742245686482
 20
183.84822052208099
 30
0.0
  0
VERTEX
  5
BB85
  8
0
 10
412.6016810346884
 20
183.6583489948265
 30
0.0
  0
VERTEX
  5
BB86
  8
0
 10
413.54596761954252
 20
183.59345443782729
 30
0.0
  0
SEQEND
  5
BB87
  8
0
  0
POLYLINE
  5
A267
  8
0
 66
     1
 10
0.0
 20
0.0
 30
0.0
 70
   128
  0
VERTEX
  5
BB88
  8
0
 10
415.8911719728751
 20
184.04441572961699
 30
0.0
  0
VERTEX
  5
BB89
  8
0
 10
415.92361180079411
 20
184.09115787831439
 30
0.0
  0
VERTEX
  5
BB8A
  8
0
 10
416.04596523535668
 20
184.47742857274909
 30
0.0
  0
VERTEX
  5
BB8B
  8
0
 10
415.92361180079411
 20
184.86370019850631
 30
0.0
  0
VERTEX
  5
BB8C
  8
0
 10
415.56850967896412
 20
185.21216012773411
 30
0.0
  0
VERTEX
  5
BB8D
  8
0
 10
415.01543072951262
 20
185.4886996024598
 30
0.0
  0
VERTEX
  5
BB8E
  8
0
 10
414.31851087105701
 20
185.66624973205219
 30
0.0
  0
VERTEX
  5
BB8F
  8
0
 10
413.54596761954252
 20
185.72742831197871
 30
0.0
  0
VERTEX
  5
BB90
  8
0
 10
412.77342436802809
 20
185.66624973205219
 30
0.0
  0
VERTEX
  5
BB91
  8
0
 10
412.07650450957237
 20
185.4886996024598
 30
0.0
  0
VERTEX
  5
BB92
  8
0
 10
411.52342556012098
 20
185.21216012773411
 30
0.0
  0
VERTEX
  5
BB93
  8
0
 10
411.168323438291
 20
184.86370019850631
 30
0.0
  0
VERTEX
  5
BB94
  8
0
 10
411.04597000372831
 20
184.47742857274909
 30
0.0
  0
VERTEX
  5
BB95
  8
0
 10
411.168323438291
 20
184.09115787831439
 30
0.0
  0
VERTEX
  5
BB96
  8
0
 10
411.20075581562941
 20
184.04441572961699
 30
0.0
  0
SEQEND
  5
BB97
  8
0
  0
CIRCLE
  5
A268
  8
0
 10
375.2459676195428
 20
170.6210222491375
 30
0.0
 40
2.8999999999999768
  0
CIRCLE
  5
A269
  8
0
 10
391.9459676195429
 20
170.6210222491375
 30
0.0
 40
4.5
  0
LINE
  5
A26A
  8
0
 10
404.24596630824061
 20
177.9139154986791
 30
0.0
 11
403.89241390717478
 21
178.41391558063549
 31
0.0
  0
LINE
  5
A26B
  8
0
 10
403.89241390717478
 20
162.82812891763959
 30
0.0
 11
404.24596630824061
 21
163.328128999596
 31
0.0
  0
LINE
  5
A26C
  8
0
 10
386.53886058223702
 20
161.41391512242481
 30
0.0
 11
371.21043280554272
 21
146.08548920837561
 31
0.0
  0
LINE
  5
A26D
  8
0
 10
403.74596902025201
 20
162.4745760509125
 30
0.0
 11
403.89241390717478
 21
162.82812891763959
 31
0.0
  0
LINE
  5
A26E
  8
0
 10
403.74596902025201
 20
162.4745760509125
 30
0.0
 11
388.30662631285651
 21
162.4745760509125
 31
0.0
  0
LINE
  5
A26F
  8
0
 10
388.30662631285651
 20
178.7674684473626
 30
0.0
 11
403.74596902025201
 21
178.7674684473626
 31
0.0
  0
LINE
  5
A270
  8
0
 10
403.89241390717478
 20
178.41391558063549
 30
0.0
 11
403.74596902025201
 21
178.7674684473626
 31
0.0
  0
LINE
  5
A271
  8
0
 10
371.21043280554272
 20
195.1565552898995
 30
0.0
 11
386.53886058223702
 21
179.8281293758503
 31
0.0
  0
ARC
  5
A272
  8
0
 10
359.74596761954263
 20
140.62102224913761
 30
0.0
 40
10.0
 50
270.0
 51
0.0
  0
ARC
  5
A273
  8
0
 10
359.74596761954263
 20
140.62102224913761
 30
0.0
 40
10.0
 50
180.0
 51
270.0
  0
CIRCLE
  5
A274
  8
0
 10
359.74596761954263
 20
140.62102224913761
 30
0.0
 40
4.5
  0
LINE
  5
A275
  8
0
 10
369.74596717250802
 20
142.54995402184639
 30
0.0
 11
369.74596717250802
 21
140.62102291968981
 31
0.0
  0
LINE
  5
A276
  8
0
 10
349.74596761954291
 20
140.62102291968981
 30
0.0
 11
349.74596761954291
 21
200.6210215785853
 31
0.0
  0
ARC
  5
A277
  8
0
 10
374.74596761954291
 20
142.54995443727199
 30
0.0
 40
5.000000000000056
 50
134.9999999999954
 51
180.0
  0
LINE
  5
A278
  8
0
 10
404.24596630824061
 20
163.328128999596
 30
0.0
 11
404.74596732151957
 21
163.53523558241639
 31
0.0
  0
LINE
  5
A279
  8
0
 10
404.74596732151957
 20
163.53523558241639
 30
0.0
 11
404.74596732151957
 21
151.62102286008519
 31
0.0
  0
LINE
  5
A27A
  8
0
 10
403.74596902025201
 20
150.91391619530839
 30
0.0
 11
403.74596902025201
 21
162.4745760509125
 31
0.0
  0
LINE
  5
A27B
  8
0
 10
404.74596732151957
 20
177.70680891585869
 30
0.0
 11
404.24596630824061
 21
177.9139154986791
 31
0.0
  0
LINE
  5
A27C
  8
0
 10
404.74596732151957
 20
177.70680891585869
 30
0.0
 11
404.74596732151957
 21
163.53523558241639
 31
0.0
  0
CIRCLE
  5
A27D
  8
0
 10
391.9459676195429
 20
170.6210222491375
 30
0.0
 40
4.0
  0
CIRCLE
  5
A27E
  8
0
 10
375.2459676195428
 20
170.6210222491375
 30
0.0
 40
2.1000000000000218
  0
LINE
  5
A27F
  8
0
 10
404.74596732151957
 20
189.62102163818989
 30
0.0
 11
404.74596732151957
 21
177.70680891585869
 31
0.0
  0
LINE
  5
A280
  8
0
 10
403.74596902025201
 20
178.7674684473626
 30
0.0
 11
403.74596902025201
 21
190.32812830296669
 31
0.0
  0
ARC
  5
A281
  8
0
 10
374.74596761954291
 20
198.69209006100311
 30
0.0
 40
5.000000000000056
 50
180.0
 51
225.0000000000046
  0
CIRCLE
  5
A282
  8
0
 10
359.74596761954263
 20
200.62102224913761
 30
0.0
 40
4.5
  0
LINE
  5
A283
  8
0
 10
369.74596717250802
 20
200.6210215785853
 30
0.0
 11
369.74596717250802
 21
198.69209047642869
 31
0.0
  0
ARC
  5
A284
  8
0
 10
359.74596761954263
 20
200.62102224913761
 30
0.0
 40
10.00000000000011
 50
90.0
 51
180.0
  0
ARC
  5
A285
  8
0
 10
359.74596761954263
 20
200.62102224913761
 30
0.0
 40
10.00000000000011
 50
0.0
 51
90.0
  0
LINE
  5
A286
  8
0
 10
333.74596685958358
 20
153.6210213252653
 30
0.0
 11
333.74596685958358
 21
187.62102317300929
 31
0.0
  0
LINE
  5
A287
  8
0
 10
336.74596735132201
 20
190.62102180210249
 30
0.0
 11
336.74596735132201
 21
150.62102269617219
 31
0.0
  0
LINE
  5
A288
  8
0
 10
376.74596831989737
 20
150.62102269617239
 30
0.0
 11
375.74596815598471
 21
150.62102269617239
 31
0.0
  0
LINE
  5
A289
  8
0
 10
375.74596815598471
 20
190.62102180210269
 30
0.0
 11
376.74596831989737
 21
190.62102180210269
 31
0.0
  0
LINE
  5
A28A
  8
0
 10
403.74596902025201
 20
150.62102269617239
 30
0.0
 11
403.74596902025201
 21
150.91391619530839
 31
0.0
  0
LINE
  5
A28B
  8
0
 10
403.74596902025201
 20
150.62102269617239
 30
0.0
 11
376.74596831989737
 21
150.62102269617239
 31
0.0
  0
LINE
  5
A28C
  8
0
 10
403.74596902025201
 20
150.62102269617239
 30
0.0
 11
404.74596732151957
 21
151.62102286008519
 31
0.0
  0
LINE
  5
A28D
  8
0
 10
403.74596902025201
 20
190.32812830296669
 30
0.0
 11
403.74596902025201
 21
190.62102180210269
 31
0.0
  0
LINE
  5
A28E
  8
0
 10
376.74596831989737
 20
190.62102180210269
 30
0.0
 11
403.74596902025201
 21
190.62102180210269
 31
0.0
  0
LINE
  5
A28F
  8
0
 10
403.74596902025201
 20
190.62102180210269
 30
0.0
 11
404.74596732151957
 21
189.62102163818989
 31
0.0
  0
LINE
  5
A290
  8
0
 10
329.74596806657769
 20
161.62102263656749
 30
0.0
 11
329.74596806657769
 21
179.62102186170711
 31
0.0
  0
POLYLINE
  5
A291
  8
0
 66
     1
 10
0.0
 20
0.0
 30
0.0
 70
   128
  0
VERTEX
  5
BB98
  8
0
 10
421.80250732195799
 20
97.641914750014735
 30
0.0
  0
VERTEX
  5
BB99
  8
0
 10
422.08433298361717
 20
98.356648946677652
 30
0.0
  0
VERTEX
  5
BB9A
  8
0
 10
422.12169019473021
 20
99.075056279574824
 30
0.0
  0
SEQEND
  5
BB9B
  8
0
  0
POLYLINE
  5
A292
  8
0
 66
     1
 10
0.0
 20
0.0
 30
0.0
 70
   128
  0
VERTEX
  5
BB9C
  8
0
 10
404.9702450443549
 20
99.075056279574824
 30
0.0
  0
VERTEX
  5
BB9D
  8
0
 10
404.95856998455952
 20
98.933778370295954
 30
0.0
  0
VERTEX
  5
BB9E
  8
0
 10
405.04602862489651
 20
98.206609154616785
 30
0.0
  0
VERTEX
  5
BB9F
  8
0
 10
405.37801532042448
 20
97.497284079467263
 30
0.0
  0
VERTEX
  5
BBA0
  8
0
 10
405.9449784268183
 20
96.826217735682931
 30
0.0
  0
VERTEX
  5
BBA1
  8
0
 10
406.73060862315123
 20
96.212707127009836
 30
0.0
  0
VERTEX
  5
BBA2
  8
0
 10
407.71230457318251
 20
95.674417580043254
 30
0.0
  0
VERTEX
  5
BBA3
  8
0
 10
408.8618248511595
 20
95.226816500102458
 30
0.0
  0
VERTEX
  5
BBA4
  8
0
 10
410.14609632981251
 20
94.882793391620098
 30
0.0
  0
VERTEX
  5
BBA5
  8
0
 10
411.52817903054182
 20
94.652235175048304
 30
0.0
  0
VERTEX
  5
BBA6
  8
0
 10
412.96830920470182
 20
94.541787768279505
 30
0.0
  0
VERTEX
  5
BBA7
  8
0
 10
414.42506162417362
 20
94.554610217486797
 30
0.0
  0
VERTEX
  5
BBA8
  8
0
 10
415.85651932251881
 20
94.690352345382166
 30
0.0
  0
VERTEX
  5
BBA9
  8
0
 10
417.22150294077818
 20
94.945095146571575
 30
0.0
  0
VERTEX
  5
BBAA
  8
0
 10
418.48075536978672
 20
95.311522150908885
 30
0.0
  0
VERTEX
  5
BBAB
  8
0
 10
419.59803698552082
 20
95.779083336268855
 30
0.0
  0
VERTEX
  5
BBAC
  8
0
 10
420.5412208844466
 20
96.334322954093423
 30
0.0
  0
VERTEX
  5
BBAD
  8
0
 10
421.28315715086882
 20
96.961281860743966
 30
0.0
  0
VERTEX
  5
BBAE
  8
0
 10
421.80250732195799
 20
97.641914750014735
 30
0.0
  0
SEQEND
  5
BBAF
  8
0
  0
POLYLINE
  5
A293
  8
0
 66
     1
 10
0.0
 20
0.0
 30
0.0
 70
   128
  0
VERTEX
  5
BBB0
  8
0
 10
420.84609864247273
 20
98.559051419173684
 30
0.0
  0
VERTEX
  5
BBB1
  8
0
 10
421.1030021120352
 20
99.227636719619241
 30
0.0
  0
VERTEX
  5
BBB2
  8
0
 10
421.11700920355742
 20
99.908418620501962
 30
0.0
  0
VERTEX
  5
BBB3
  8
0
 10
420.8876803327841
 20
100.5794998654474
 30
0.0
  0
VERTEX
  5
BBB4
  8
0
 10
420.42237667334501
 20
101.2193259247889
 30
0.0
  0
VERTEX
  5
BBB5
  8
0
 10
419.73606644165937
 20
101.8073331960787
 30
0.0
  0
VERTEX
  5
BBB6
  8
0
 10
418.85079590571348
 20
102.3246121057619
 30
0.0
  0
VERTEX
  5
BBB7
  8
0
 10
418.54597030175159
 20
102.465442980205
 30
0.0
  0
SEQEND
  5
BBB8
  8
0
  0
POLYLINE
  5
A294
  8
0
 66
     1
 10
0.0
 20
0.0
 30
0.0
 70
   128
  0
VERTEX
  5
BBB9
  8
0
 10
408.54596866262381
 20
102.465442980205
 30
0.0
  0
VERTEX
  5
BBBA
  8
0
 10
407.87809116733501
 20
102.1347564109911
 30
0.0
  0
VERTEX
  5
BBBB
  8
0
 10
407.06645844471882
 20
101.5881147631754
 30
0.0
  0
VERTEX
  5
BBBC
  8
0
 10
406.46308435094778
 20
100.9777930029978
 30
0.0
  0
VERTEX
  5
BBBD
  8
0
 10
406.08735902202551
 20
100.3234159597506
 30
0.0
  0
VERTEX
  5
BBBE
  8
0
 10
405.95135612380932
 20
99.646009171878305
 30
0.0
  0
VERTEX
  5
BBBF
  8
0
 10
406.05945287239967
 20
98.96734323588511
 30
0.0
  0
VERTEX
  5
BBC0
  8
0
 10
406.40817357194851
 20
98.309240902339425
 30
0.0
  0
VERTEX
  5
BBC1
  8
0
 10
406.98630509865711
 20
97.692839468394723
 30
0.0
  0
VERTEX
  5
BBC2
  8
0
 10
407.77527315509741
 20
97.137964929019404
 30
0.0
  0
VERTEX
  5
BBC3
  8
0
 10
408.74971223962729
 20
96.662446523581934
 30
0.0
  0
VERTEX
  5
BBC4
  8
0
 10
409.87830756199781
 20
96.281565392886606
 30
0.0
  0
VERTEX
  5
BBC5
  8
0
 10
411.12478969586323
 20
96.007562840854135
 30
0.0
  0
VERTEX
  5
BBC6
  8
0
 10
412.4490856934828
 20
95.849245453750086
 30
0.0
  0
VERTEX
  5
BBC7
  8
0
 10
413.80863783848707
 20
95.811701978122187
 30
0.0
  0
VERTEX
  5
BBC8
  8
0
 10
415.15974847567497
 20
95.896146858607707
 30
0.0
  0
VERTEX
  5
BBC9
  8
0
 10
416.4589881707472
 20
96.09985318270823
 30
0.0
  0
VERTEX
  5
BBCA
  8
0
 10
417.66460387003838
 20
96.416286791240182
 30
0.0
  0
VERTEX
  5
BBCB
  8
0
 10
418.73783765328352
 20
96.835270191108194
 30
0.0
  0
VERTEX
  5
BBCC
  8
0
 10
419.6442082334799
 20
97.343332732593026
 30
0.0
  0
VERTEX
  5
BBCD
  8
0
 10
420.35456893933241
 20
97.92415019360682
 30
0.0
  0
VERTEX
  5
BBCE
  8
0
 10
420.84609864247273
 20
98.559051419173684
 30
0.0
  0
VERTEX
  5
BBCF
  8
0
 10
420.84609864247273
 20
98.559051419173684
 30
0.0
  0
SEQEND
  5
BBD0
  8
0
  0
LINE
  5
A295
  8
1
 10
173.37563191965069
 20
323.75847236104801
 30
0.0
 11
223.37563191965069
 21
323.75847236104801
 31
0.0
  0
LINE
  5
A296
  8
1
 10
198.3756319196504
 20
348.75847236104801
 30
0.0
 11
198.37563191965069
 21
293.75847236104801
 31
0.0
  0
LINE
  5
A297
  8
1
 10
352.24596761954263
 20
480.71111598219198
 30
0.0
 11
367.24596761954263
 21
480.7111159821921
 31
0.0
  0
LINE
  5
A298
  8
1
 10
359.74596761954291
 20
488.2111159821921
 30
0.0
 11
359.74596761954291
 21
473.21111598219198
 31
0.0
  0
LINE
  5
A299
  8
0
 10
329.74596806657752
 20
332.75847420879199
 30
0.0
 11
333.7459668595834
 21
336.75847113915279
 31
0.0
  0
LINE
  5
A29A
  8
0
 10
333.7459668595834
 20
340.75847179480388
 30
0.0
 11
336.74596735132172
 21
343.75847414918729
 31
0.0
  0
LINE
  5
A29B
  8
0
 10
336.74596735132172
 20
343.75847414918729
 30
0.0
 11
389.24596943748429
 21
343.75847414918729
 31
0.0
  0
LINE
  5
A2A1
  8
0
 10
399.74596836460069
 20
343.75847414918729
 30
0.0
 11
403.74596902025172
 21
343.75847414918729
 31
0.0
  0
LINE
  5
A2A2
  8
0
 10
403.74596902025172
 20
343.75847414918729
 30
0.0
 11
404.74596732151929
 21
342.75847212262943
 31
0.0
  0
LINE
  5
A2A3
  8
0
 10
404.74596732151929
 20
339.7584734935362
 30
0.0
 11
406.0459673215193
 21
339.7584734935362
 31
0.0
  0
LINE
  5
A2A4
  8
0
 10
406.0459673215193
 20
340.75847179480388
 30
0.0
 11
407.04596562278692
 21
341.7584738213618
 31
0.0
  0
LINE
  5
A2A5
  8
0
 10
407.04596562278692
 20
341.7584738213618
 30
0.0
 11
420.04596589100782
 21
341.7584738213618
 31
0.0
  0
LINE
  5
A2A6
  8
0
 10
420.04596589100782
 20
341.7584738213618
 30
0.0
 11
421.0459679175658
 21
340.75847179480388
 31
0.0
  0
LINE
  5
A2A7
  8
0
 10
329.74596806657752
 20
314.75847312100723
 30
0.0
 11
333.7459668595834
 21
310.75847246535608
 31
0.0
  0
LINE
  5
A2A8
  8
0
 10
333.7459668595834
 20
306.75847274102762
 30
0.0
 11
336.74596735132172
 21
303.7584722492893
 31
0.0
  0
LINE
  5
A2A9
  8
0
 10
336.74596735132172
 20
303.7584722492893
 30
0.0
 11
349.74596761954263
 21
303.7584722492893
 31
0.0
  0
LINE
  5
A2AA
  8
0
 10
386.53886058223679
 20
299.25847238479668
 30
0.0
 11
386.18530818117102
 21
298.75847236104801
 31
0.0
  0
LINE
  5
A2AB
  8
0
 10
405.14596664202639
 20
300.75847245604291
 30
0.0
 11
404.74596732151957
 21
300.75847245604302
 31
0.0
  0
LINE
  5
A2AC
  8
0
 10
405.14596664202639
 20
305.75847257711479
 30
0.0
 11
404.74596732151957
 21
305.75847257711479
 31
0.0
  0
LINE
  5
A2AD
  8
0
 10
404.74596732151957
 20
307.75847197361782
 30
0.0
 11
406.0459673215193
 21
307.75847197361782
 31
0.0
  0
LINE
  5
A2AE
  8
0
 10
406.0459673215193
 20
306.75847274102762
 30
0.0
 11
407.04596562278692
 21
305.75847257711479
 31
0.0
  0
LINE
  5
A2AF
  8
0
 10
407.04596562278692
 20
305.75847257711479
 30
0.0
 11
420.04596589100782
 21
305.75847257711479
 31
0.0
  0
LINE
  5
A2B0
  8
0
 10
420.04596589100782
 20
305.75847257711479
 30
0.0
 11
421.0459679175658
 21
306.75847274102762
 31
0.0
  0
LINE
  5
A2B1
  8
0
 10
408.54596866262381
 20
341.7584738213618
 30
0.0
 11
408.54596866262381
 21
347.74423767130281
 31
0.0
  0
LINE
  5
A2B2
  8
0
 10
418.54597030175159
 20
364.5084752220709
 30
0.0
 11
418.54597030175159
 21
352.74029202384241
 31
0.0
  0
LINE
  5
A2B3
  8
0
 10
403.04596869242607
 20
388.48346010633298
 30
0.0
 11
403.05892897737448
 21
375.21017626710727
 31
0.0
  0
LINE
  5
A2B4
  8
0
 10
424.04596654665892
 20
388.48346010633298
 30
0.0
 11
424.04215929997389
 21
375.00331834741428
 31
0.0
  0
LINE
  5
A2B5
  8
0
 10
423.8872691799445
 20
373.183469333132
 30
0.0
 11
422.0061838437361
 21
363.92021463104078
 31
0.0
  0
LINE
  5
A2B6
  8
0
 10
405.08574767005871
 20
363.92021463104078
 30
0.0
 11
403.20466605914061
 21
373.183469333132
 31
0.0
  0
POLYLINE
  5
A2B7
  8
0
 66
     1
 10
0.0
 20
0.0
 30
0.0
 70
     2
  0
VERTEX
  5
A2B8
  8
0
 10
405.2074491788191
 20
363.42166648097827
 30
0.0
 42
0.0335100575377262
  0
VERTEX
  5
A2B9
  8
0
 10
405.62534275045499
 20
362.27608934561692
 30
0.0
 42
0.0536527384187781
 70
     1
  0
VERTEX
  5
A2BA
  8
0
 10
406.00707454344342
 20
361.61550150923358
 30
0.0
 42
0.0121996519135789
  0
VERTEX
  5
A2BB
  8
0
 10
406.61908222953588
 20
360.81971247419079
 30
0.0
 42
0.0135794961037344
 70
     1
  0
VERTEX
  5
A2BC
  8
0
 10
407.20503472813601
 20
360.13404459432121
 30
0.0
 42
0.0464486174254901
  0
VERTEX
  5
A2BD
  8
0
 10
407.67486968288421
 20
359.70187398192439
 30
0.0
 42
0.0281599704006309
 70
     1
  0
VERTEX
  5
A2BE
  8
0
 10
408.54596866262409
 20
359.11289141364892
 30
0.0
  0
SEQEND
  5
A2BF
  8
0
  0
POLYLINE
  5
A2C0
  8
0
 66
     1
 10
0.0
 20
0.0
 30
0.0
 70
     2
  0
VERTEX
  5
A2C1
  8
0
 10
421.80250732195799
 20
363.15594897456958
 30
0.0
 42
-0.0214504267894886
  0
VERTEX
  5
A2C2
  8
0
 10
421.46659621392081
 20
362.28587940852123
 30
0.0
 42
-0.0536527384187781
 70
     1
  0
VERTEX
  5
A2C3
  8
0
 10
421.08486442093221
 20
361.625291572138
 30
0.0
 42
-0.0121996519135789
  0
VERTEX
  5
A2C4
  8
0
 10
420.47285673483992
 20
360.82950253709521
 30
0.0
 42
-0.0135794961037344
 70
     1
  0
VERTEX
  5
A2C5
  8
0
 10
419.88690423623962
 20
360.14383465722563
 30
0.0
 42
-0.0464486174254901
  0
VERTEX
  5
A2C6
  8
0
 10
419.41706928149159
 20
359.71166404482869
 30
0.0
 42
-0.0281599704006309
 70
     1
  0
VERTEX
  5
A2C7
  8
0
 10
418.54597030175159
 20
359.12268147655323
 30
0.0
  0
SEQEND
  5
A2C8
  8
0
  0
POLYLINE
  5
A2C9
  8
0
 66
     1
 10
0.0
 20
0.0
 30
0.0
 70
     2
  0
VERTEX
  5
A2CA
  8
0
 10
413.54626475747023
 20
341.29424526545199
 30
0.0
 42
-0.0106704166106401
  0
VERTEX
  5
A2CB
  8
0
 10
414.45842738790702
 20
341.28182092688718
 30
0.0
 42
-0.0169601804891748
 70
     1
  0
VERTEX
  5
A2CC
  8
0
 10
415.03110203077563
 20
341.24231429928727
 30
0.0
 42
-0.0013558770517924
  0
VERTEX
  5
A2CD
  8
0
 10
415.94630264243477
 20
341.14539534917481
 30
0.0
 42
-0.0086475091978975
 70
     1
  0
VERTEX
  5
A2CE
  8
0
 10
416.08947827728042
 20
341.12733009200468
 30
0.0
 42
-0.019329793676274
  0
VERTEX
  5
A2CF
  8
0
 10
416.74261212847449
 20
341.00749313771098
 30
0.0
 42
-0.0230226384904393
 70
     1
  0
VERTEX
  5
A2D0
  8
0
 10
417.28059044254331
 20
340.8608287272362
 30
0.0
 42
-0.0127474676580495
  0
VERTEX
  5
A2D1
  8
0
 10
417.4865872934954
 20
340.78849634204317
 30
0.0
 42
-0.0115556422343464
 70
     1
  0
VERTEX
  5
A2D2
  8
0
 10
417.70967872316368
 20
340.69776007436622
 30
0.0
 42
-0.0297875057154061
  0
VERTEX
  5
A2D3
  8
0
 10
417.95431196929547
 20
340.57381595171478
 30
0.0
 42
-0.0235866568256767
 70
     1
  0
VERTEX
  5
A2D4
  8
0
 10
418.2447313045929
 20
340.38533143286332
 30
0.0
 42
-0.0452292040274157
  0
VERTEX
  5
A2D5
  8
0
 10
418.40418811620629
 20
340.24737316446351
 30
0.0
 42
-0.0346338516614326
 70
     1
  0
VERTEX
  5
A2D6
  8
0
 10
418.58099087975017
 20
340.03657742712022
 30
0.0
 42
-0.0688682718301605
  0
VERTEX
  5
A2D7
  8
0
 10
418.7245788993871
 20
339.76812860885121
 30
0.0
 42
-0.0687701923471198
 70
     1
  0
VERTEX
  5
A2D8
  8
0
 10
418.79001399651878
 20
339.4703659654329
 30
0.0
 42
-0.042214239744052
  0
VERTEX
  5
A2D9
  8
0
 10
418.78860607509
 20
339.20892060423449
 30
0.0
 42
-0.0454563650784592
 70
     1
  0
VERTEX
  5
A2DA
  8
0
 10
418.74497845342029
 20
338.97000075264492
 30
0.0
 42
-0.030486884676102
  0
VERTEX
  5
A2DB
  8
0
 10
418.65561616219901
 20
338.7111519102844
 30
0.0
 42
-0.0308544974890808
 70
     1
  0
VERTEX
  5
A2DC
  8
0
 10
418.5366896064499
 20
338.46810484056277
 30
0.0
 42
-0.0367226538398057
  0
VERTEX
  5
A2DD
  8
0
 10
418.27868976862209
 20
338.08291222767713
 30
0.0
 42
-0.0356395109125988
 70
     1
  0
VERTEX
  5
A2DE
  8
0
 10
417.95843485455538
 20
337.72850928066038
 30
0.0
 42
-0.0161749210122946
  0
VERTEX
  5
A2DF
  8
0
 10
417.65677600402449
 20
337.45725681541518
 30
0.0
 42
-0.0194281343775294
 70
     1
  0
VERTEX
  5
A2E0
  8
0
 10
417.39016964817688
 20
337.24983945236812
 30
0.0
 42
-0.0191130343368989
  0
VERTEX
  5
A2E1
  8
0
 10
417.00120830909083
 20
336.99271700700712
 30
0.0
 42
-0.0176658828911912
 70
     1
  0
VERTEX
  5
A2E2
  8
0
 10
416.56110326697689
 20
336.74622035760041
 30
0.0
 42
-0.0212497880845394
  0
VERTEX
  5
A2E3
  8
0
 10
416.07542062587208
 20
336.52186781518071
 30
0.0
 42
-0.023940045334056
 70
     1
  0
VERTEX
  5
A2E4
  8
0
 10
415.6280503173827
 20
336.36242332963712
 30
0.0
 42
-0.0206778212282339
  0
VERTEX
  5
A2E5
  8
0
 10
415.17781722836088
 20
336.24594915201737
 30
0.0
 42
-0.0153692141144456
 70
     1
  0
VERTEX
  5
A2E6
  8
0
 10
414.56247573285299
 20
336.13330055476217
 30
0.0
 42
-0.0157113261754214
  0
VERTEX
  5
A2E7
  8
0
 10
414.04273455883867
 20
336.07120739214201
 30
0.0
 42
-0.0165307513609489
 70
     1
  0
VERTEX
  5
A2E8
  8
0
 10
413.54596761954252
 20
336.04414299913242
 30
0.0
 42
-0.0322410633530098
  0
VERTEX
  5
A2E9
  8
0
 10
412.9606829976637
 20
336.06937913799311
 30
0.0
 42
-0.0232339083694692
 70
     1
  0
VERTEX
  5
A2EA
  8
0
 10
412.15776784556351
 20
336.19402337784209
 30
0.0
 42
-0.0210868965185192
  0
VERTEX
  5
A2EB
  8
0
 10
411.5035323204645
 20
336.3559556591099
 30
0.0
 42
-0.0256175375377403
 70
     1
  0
VERTEX
  5
A2EC
  8
0
 10
410.97966933699649
 20
336.53892784942809
 30
0.0
 42
-0.0247647554099155
  0
VERTEX
  5
A2ED
  8
0
 10
410.41546613184732
 20
336.80232217642219
 30
0.0
 42
-0.0268575241010515
 70
     1
  0
VERTEX
  5
A2EE
  8
0
 10
409.9229671006043
 20
337.0975363280113
 30
0.0
 42
-0.0171483201932031
  0
VERTEX
  5
A2EF
  8
0
 10
409.51727918238169
 20
337.39208159131692
 30
0.0
 42
-0.0218963165100524
 70
     1
  0
VERTEX
  5
A2F0
  8
0
 10
409.21846585445439
 20
337.64688402957432
 30
0.0
 42
-0.0211168855248305
  0
VERTEX
  5
A2F1
  8
0
 10
409.02328372986921
 20
337.84469246764991
 30
0.0
 42
-0.0151269344160102
 70
     1
  0
VERTEX
  5
A2F2
  8
0
 10
408.77158012992339
 20
338.13977099407998
 30
0.0
 42
-0.042084376427974
  0
VERTEX
  5
A2F3
  8
0
 10
408.58954312915398
 20
338.41055420178219
 30
0.0
 42
-0.0302451144190995
 70
     1
  0
VERTEX
  5
A2F4
  8
0
 10
408.39334914875411
 20
338.81954874524178
 30
0.0
 42
-0.0742598031923276
  0
VERTEX
  5
A2F5
  8
0
 10
408.29726812718241
 20
339.21464121046603
 30
0.0
 42
-0.0775740165562256
 70
     1
  0
VERTEX
  5
A2F6
  8
0
 10
408.32238065348878
 20
339.6032613290734
 30
0.0
 42
-0.066128927605885
  0
VERTEX
  5
A2F7
  8
0
 10
408.44242766100751
 20
339.93067368185058
 30
0.0
 42
-0.0740868682973815
 70
     1
  0
VERTEX
  5
A2F8
  8
0
 10
408.62636656462041
 20
340.1822088408336
 30
0.0
 42
-0.033861562949908
  0
VERTEX
  5
A2F9
  8
0
 10
408.90161405568409
 20
340.4254728397384
 30
0.0
 42
-0.0447007821974542
 70
     1
  0
VERTEX
  5
A2FA
  8
0
 10
409.13657227360659
 20
340.57499974874122
 30
0.0
 42
-0.0198609443877095
  0
VERTEX
  5
A2FB
  8
0
 10
409.5305990520489
 20
340.75939147316512
 30
0.0
 42
-0.0269351412969548
 70
     1
  0
VERTEX
  5
A2FC
  8
0
 10
409.8326722785975
 20
340.86764854188613
 30
0.0
 42
-0.013020510192638
  0
VERTEX
  5
A2FD
  8
0
 10
410.31441796886821
 20
340.99798468094201
 30
0.0
 42
-0.0172016865232702
 70
     1
  0
VERTEX
  5
A2FE
  8
0
 10
410.68440677991811
 20
341.07444403458823
 30
0.0
 42
-0.0094721232178881
  0
VERTEX
  5
A2FF
  8
0
 10
411.3139420573554
 20
341.16987290627742
 30
0.0
 42
-0.0127888247110268
 70
     1
  0
VERTEX
  5
A300
  8
0
 10
411.78292955635811
 20
341.21973512600931
 30
0.0
 42
-0.0045623326079984
  0
VERTEX
  5
A301
  8
0
 10
411.93240144027931
 20
341.23039856502947
 30
0.0
 42
-0.0008403950440249
 70
     1
  0
VERTEX
  5
A302
  8
0
 10
412.74441549977593
 20
341.27951593608287
 30
0.0
 42
-0.0100920403750907
  0
VERTEX
  5
A303
  8
0
 10
413.00875999671672
 20
341.28971160774807
 30
0.0
 42
-0.0049663893421496
 70
     1
  0
VERTEX
  5
A304
  8
0
 10
413.54626475747023
 20
341.29424526545199
 30
0.0
  0
SEQEND
  5
A305
  8
0
  0
POLYLINE
  5
A306
  8
0
 66
     1
 10
0.0
 20
0.0
 30
0.0
 70
     2
  0
VERTEX
  5
A307
  8
0
 10
413.6173776641574
 20
319.6955230659471
 30
0.0
 42
-0.0364595811606817
  0
VERTEX
  5
A308
  8
0
 10
414.5233001055787
 20
319.61477229067208
 30
0.0
 42
-0.0531264067798646
 70
     1
  0
VERTEX
  5
A309
  8
0
 10
415.12610682710141
 20
319.44927581290329
 30
0.0
 42
-0.0059520588565487
  0
VERTEX
  5
A30A
  8
0
 10
415.83802302627851
 20
319.15996381349419
 30
0.0
 42
-0.0252470649642184
 70
     1
  0
VERTEX
  5
A30B
  8
0
 10
416.00137837573283
 20
319.08137914029629
 30
0.0
 42
-0.0204910984712666
  0
VERTEX
  5
A30C
  8
0
 10
416.48387034814567
 20
318.7922603410305
 30
0.0
 42
-0.0246904525285883
 70
     1
  0
VERTEX
  5
A30D
  8
0
 10
416.86108945340328
 20
318.51711278540301
 30
0.0
 42
-0.0193967816795794
  0
VERTEX
  5
A30E
  8
0
 10
417.20797724212872
 20
318.21387822947668
 30
0.0
 42
-0.019989826371573
 70
     1
  0
VERTEX
  5
A30F
  8
0
 10
417.52038642109142
 20
317.89406060225252
 30
0.0
 42
-0.0207235319434888
  0
VERTEX
  5
A310
  8
0
 10
417.7626192953278
 20
317.60191510149139
 30
0.0
 42
-0.0164315857375223
 70
     1
  0
VERTEX
  5
A311
  8
0
 10
418.03988506014753
 20
317.2118611850903
 30
0.0
 42
-0.0319710246309475
  0
VERTEX
  5
A312
  8
0
 10
418.29728908774882
 20
316.76352694662802
 30
0.0
 42
-0.0265765931070641
 70
     1
  0
VERTEX
  5
A313
  8
0
 10
418.54175275436131
 20
316.19189746736828
 30
0.0
 42
-0.0333631786978987
  0
VERTEX
  5
A314
  8
0
 10
418.69416518252427
 20
315.6702838437248
 30
0.0
 42
-0.032195553766596
 70
     1
  0
VERTEX
  5
A315
  8
0
 10
418.78009884988728
 20
315.11378992864661
 30
0.0
 42
-0.030556948017315
  0
VERTEX
  5
A316
  8
0
 10
418.7929710140333
 20
314.64997839492833
 30
0.0
 42
-0.0284988193505899
 70
     1
  0
VERTEX
  5
A317
  8
0
 10
418.74809790292687
 20
314.15456833369461
 30
0.0
 42
-0.037097589610234
  0
VERTEX
  5
A318
  8
0
 10
418.6436239789038
 20
313.69058678953547
 30
0.0
 42
-0.0336136180106591
 70
     1
  0
VERTEX
  5
A319
  8
0
 10
418.4573703193746
 20
313.19998864768678
 30
0.0
 42
-0.0453203309388013
  0
VERTEX
  5
A31A
  8
0
 10
418.11485045216813
 20
312.60262217671772
 30
0.0
 42
-0.050266218366492
 70
     1
  0
VERTEX
  5
A31B
  8
0
 10
417.70919832005592
 20
312.13224242734992
 30
0.0
 42
-0.0173025295399158
  0
VERTEX
  5
A31C
  8
0
 10
417.3262533952049
 20
311.79358451833542
 30
0.0
 42
-0.0258398868868118
 70
     1
  0
VERTEX
  5
A31D
  8
0
 10
417.05114481539272
 20
311.58967967910968
 30
0.0
 42
-0.0154544352050318
  0
VERTEX
  5
A31E
  8
0
 10
416.75414305706289
 20
311.40543099609778
 30
0.0
 42
-0.0138665484058784
 70
     1
  0
VERTEX
  5
A31F
  8
0
 10
416.4116816670728
 20
311.21984386228178
 30
0.0
 42
-0.0325333412474141
  0
VERTEX
  5
A320
  8
0
 10
415.9376533475704
 20
311.01727619234219
 30
0.0
 42
-0.0218804398976539
 70
     1
  0
VERTEX
  5
A321
  8
0
 10
415.20472313354139
 20
310.79452588530847
 30
0.0
 42
-0.0341214411553124
  0
VERTEX
  5
A322
  8
0
 10
414.42061094819718
 20
310.64934766210069
 30
0.0
 42
-0.0310600702847757
 70
     1
  0
VERTEX
  5
A323
  8
0
 10
413.54596761954252
 20
310.60315859355518
 30
0.0
 42
-0.0244185542973683
  0
VERTEX
  5
A324
  8
0
 10
412.76906073221062
 20
310.6484004056025
 30
0.0
 42
-0.0260567786086736
 70
     1
  0
VERTEX
  5
A325
  8
0
 10
412.04891650412623
 20
310.76394956473149
 30
0.0
 42
-0.0227191457641054
  0
VERTEX
  5
A326
  8
0
 10
411.4406315647372
 20
310.92357276509188
 30
0.0
 42
-0.0233864246349453
 70
     1
  0
VERTEX
  5
A327
  8
0
 10
410.86647092830481
 20
311.13239275781308
 30
0.0
 42
-0.035513287955244
  0
VERTEX
  5
A328
  8
0
 10
410.35163142806698
 20
311.39170554638559
 30
0.0
 42
-0.0295919852961445
 70
     1
  0
VERTEX
  5
A329
  8
0
 10
409.77961313519808
 20
311.78031974550038
 30
0.0
 42
-0.0433436612273844
  0
VERTEX
  5
A32A
  8
0
 10
409.26355216580509
 20
312.25394654156418
 30
0.0
 42
-0.0460480063540943
 70
     1
  0
VERTEX
  5
A32B
  8
0
 10
408.86466224331679
 20
312.77911374808838
 30
0.0
 42
-0.0349899274923717
  0
VERTEX
  5
A32C
  8
0
 10
408.59864890178841
 20
313.28073078860672
 30
0.0
 42
-0.0390018840328413
 70
     1
  0
VERTEX
  5
A32D
  8
0
 10
408.42887702834668
 20
313.76114845130252
 30
0.0
 42
-0.0309733978571737
  0
VERTEX
  5
A32E
  8
0
 10
408.33169101708347
 20
314.24108736902582
 30
0.0
 42
-0.0318679713813958
 70
     1
  0
VERTEX
  5
A32F
  8
0
 10
408.2964291351343
 20
314.71574015862558
 30
0.0
 42
-0.0397112603341366
  0
VERTEX
  5
A330
  8
0
 10
408.34289264266562
 20
315.38862700919242
 30
0.0
 42
-0.0419880700828323
 70
     1
  0
VERTEX
  5
A331
  8
0
 10
408.48974681268749
 20
316.00952986951222
 30
0.0
 42
-0.0220072504134888
  0
VERTEX
  5
A332
  8
0
 10
408.68423827832947
 20
316.52595341263702
 30
0.0
 42
-0.0270734338418957
 70
     1
  0
VERTEX
  5
A333
  8
0
 10
408.88275579742248
 20
316.92832901256469
 30
0.0
 42
-0.0218562496807341
  0
VERTEX
  5
A334
  8
0
 10
409.12636066089749
 20
317.32021732396589
 30
0.0
 42
-0.0195225047333779
 70
     1
  0
VERTEX
  5
A335
  8
0
 10
409.43438548867272
 20
317.73487021158547
 30
0.0
 42
-0.0331591360285045
  0
VERTEX
  5
A336
  8
0
 10
409.79367335461728
 20
318.12501843819553
 30
0.0
 42
-0.0229976516587993
 70
     1
  0
VERTEX
  5
A337
  8
0
 10
410.37115016016219
 20
318.62568154225141
 30
0.0
 42
-0.039963200323309
  0
VERTEX
  5
A338
  8
0
 10
410.6582748949902
 20
318.81726320272429
 30
0.0
 42
-0.0123924533439285
 70
     1
  0
VERTEX
  5
A339
  8
0
 10
411.64225468650898
 20
319.33421190863157
 30
0.0
 42
-0.069616920424774
  0
VERTEX
  5
A33A
  8
0
 10
412.4223602238128
 20
319.59267869452788
 30
0.0
 42
-0.0475763559957516
 70
     1
  0
VERTEX
  5
A33B
  8
0
 10
413.6173776641574
 20
319.6955230659471
 30
0.0
  0
SEQEND
  5
A33C
  8
0
  0
POLYLINE
  5
A371
  8
0
 66
     1
 10
0.0
 20
0.0
 30
0.0
 70
     2
  0
VERTEX
  5
A372
  8
0
 10
349.74596761954263
 20
317.51347436264962
 30
0.0
 42
-0.0100039131339355
  0
VERTEX
  5
A373
  8
0
 10
349.79501412150421
 20
318.5815591368335
 30
0.0
 42
-0.0223017170767198
 70
     1
  0
VERTEX
  5
A374
  8
0
 10
349.84792075788459
 20
319.05844102236807
 30
0.0
 42
-0.0013824795323017
  0
VERTEX
  5
A375
  8
0
 10
350.14125929680768
 20
320.90129424524258
 30
0.0
 42
-0.0103040220612866
 70
     1
  0
VERTEX
  5
A376
  8
0
 10
350.18638852099502
 20
321.14758624515088
 30
0.0
 42
-0.0010549005705656
  0
VERTEX
  5
A377
  8
0
 10
350.23930889261061
 20
321.4034668080165
 30
0.0
 42
-0.0002048428274682
 70
     1
  0
VERTEX
  5
A378
  8
0
 10
350.51515732584448
 20
322.72050952571971
 30
0.0
 42
-0.0029844741189079
  0
VERTEX
  5
A379
  8
0
 10
350.58220710209162
 20
323.03076321147438
 30
0.0
 42
-0.0012700144581591
 70
     1
  0
VERTEX
  5
A37A
  8
0
 10
350.74596766704008
 20
323.75847236104801
 30
0.0
  0
SEQEND
  5
A37B
  8
0
  0
LINE
  5
A37E
  8
0
 10
179.1051227904498
 20
329.11080623529273
 30
0.0
 11
125.2945597540927
 21
360.17834077885942
 31
0.0
  0
LINE
  5
A37F
  8
0
 10
125.2945597540927
 20
360.17834077885942
 30
0.0
 11
125.1115471632761
 21
360.86135641523202
 31
0.0
  0
LINE
  5
A380
  8
0
 10
129.6115488322061
 20
368.65558759160831
 30
0.0
 11
130.2945584566873
 21
368.83859620281049
 31
0.0
  0
LINE
  5
A381
  8
0
 10
130.2945584566873
 20
368.83859620281049
 30
0.0
 11
184.1056594254118
 21
337.7716049520738
 31
0.0
  0
LINE
  5
A382
  8
0
 10
122.2866713399364
 20
357.76951930383569
 30
0.0
 11
104.79104225948269
 21
365.66520766206582
 31
0.0
  0
LINE
  5
A383
  8
0
 10
104.79104225948269
 20
365.66520766206582
 30
0.0
 11
81.018668463973427
 21
379.39019040056058
 31
0.0
  0
LINE
  5
A384
  8
0
 10
91.518667391089821
 20
397.57672236152479
 30
0.0
 11
115.2910411865991
 21
383.85173962302991
 31
0.0
  0
LINE
  5
A385
  8
0
 10
115.2910411865991
 20
383.85173962302991
 30
0.0
 11
130.87672447278919
 21
372.64792159982522
 31
0.0
  0
LINE
  5
A388
  8
0
 10
546.12394845368544
 20
336.73440761286628
 30
0.0
 11
601.73003973024515
 21
368.83859937997107
 31
0.0
  0
LINE
  5
A389
  8
0
 10
601.73003973024515
 20
368.83859937997107
 30
0.0
 11
602.41305243213708
 21
368.65558667807949
 31
0.0
  0
LINE
  5
A38A
  8
0
 10
606.91305243213719
 20
360.86135804401943
 30
0.0
 11
606.73003973024515
 21
360.17834534212722
 31
0.0
  0
LINE
  5
A38B
  8
0
 10
606.73003973024515
 20
360.17834534212722
 30
0.0
 11
551.1239484536859
 21
328.07415357502168
 31
0.0
  0
LINE
  5
A38E
  8
0
 10
601.14788027342945
 20
372.64792169924038
 30
0.0
 11
616.73356050782559
 21
383.85173910078601
 31
0.0
  0
LINE
  5
A38F
  8
0
 10
616.73356050782559
 20
383.85173910078601
 30
0.0
 11
640.50593502754498
 21
397.57672592902259
 31
0.0
  0
LINE
  5
A390
  8
0
 10
651.00593502754509
 20
379.39019244954977
 30
0.0
 11
627.23356050782638
 21
365.66520562131319
 31
0.0
  0
LINE
  5
A391
  8
0
 10
627.23356050782638
 20
365.66520562131319
 30
0.0
 11
609.73792990152731
 21
357.76951930383677
 31
0.0
  0
LINE
  5
A392
  8
0
 10
329.74596806657752
 20
519.71111559476185
 30
0.0
 11
333.7459668595834
 21
523.71111625041294
 31
0.0
  0
LINE
  5
A393
  8
0
 10
333.7459668595834
 20
527.71111690606403
 30
0.0
 11
336.74596735132172
 21
530.71111553515721
 31
0.0
  0
LINE
  5
A394
  8
0
 10
329.74596806657752
 20
501.71111636962218
 30
0.0
 11
333.7459668595834
 21
497.71111571397108
 31
0.0
  0
LINE
  5
A395
  8
0
 10
333.7459668595834
 20
493.71111505831999
 30
0.0
 11
336.74596735132172
 21
490.71111642922688
 31
0.0
  0
LINE
  5
A398
  8
0
 10
404.74596732151929
 20
494.71111522223282
 30
0.0
 11
406.0459673215193
 21
494.71111522223282
 31
0.0
  0
LINE
  5
A399
  8
0
 10
406.0459673215193
 20
493.71111505831999
 30
0.0
 11
407.04596562278692
 21
492.71111675705242
 31
0.0
  0
LINE
  5
A39A
  8
0
 10
407.04596562278692
 20
492.71111675705242
 30
0.0
 11
420.04596589100811
 21
492.71111675705242
 31
0.0
  0
LINE
  5
A39B
  8
0
 10
420.04596589100811
 20
492.71111675705242
 30
0.0
 11
421.0459679175658
 21
493.71111505831999
 31
0.0
  0
LINE
  5
A39C
  8
0
 10
404.74596732151929
 20
526.71111674215115
 30
0.0
 11
406.0459673215193
 21
526.71111674215115
 31
0.0
  0
LINE
  5
A39D
  8
0
 10
406.0459673215193
 20
527.71111690606403
 30
0.0
 11
407.04596562278692
 21
528.71111520733155
 31
0.0
  0
LINE
  5
A39E
  8
0
 10
407.04596562278692
 20
528.71111520733155
 30
0.0
 11
408.54596866262381
 21
528.71111520733155
 31
0.0
  0
LINE
  5
A39F
  8
0
 10
418.54597030175159
 20
528.71111520733155
 30
0.0
 11
420.04596589100782
 21
528.71111520733155
 31
0.0
  0
LINE
  5
A3A0
  8
0
 10
420.04596589100782
 20
528.71111520733155
 30
0.0
 11
421.0459679175658
 21
527.71111690606403
 31
0.0
  0
LINE
  5
A3A1
  8
0
 10
418.54597030175159
 20
525.86656083519983
 30
0.0
 11
418.54597030175159
 21
547.63096515869086
 31
0.0
  0
LINE
  5
A3A2
  8
0
 10
408.54596866262381
 20
578.65184139230621
 30
0.0
 11
408.54596866262381
 21
556.29121827349866
 31
0.0
  0
POLYLINE
  5
A3A3
  8
0
 66
     1
 10
0.0
 20
0.0
 30
0.0
 70
     2
  0
VERTEX
  5
A3A4
  8
0
 10
408.54596866262381
 20
526.91840679551888
 30
0.0
 42
0.0196544428778654
  0
VERTEX
  5
A3A5
  8
0
 10
408.46403513088728
 20
526.81214826843984
 30
0.0
 42
0.0313699046351764
 70
     1
  0
VERTEX
  5
A3A6
  8
0
 10
408.41972152414422
 20
526.74064850458853
 30
0.0
 42
0.0118933322121131
  0
VERTEX
  5
A3A7
  8
0
 10
408.3349062636841
 20
526.57298393008091
 30
0.0
 42
0.0302187478431327
 70
     1
  0
VERTEX
  5
A3A8
  8
0
 10
408.30717199585411
 20
526.50436878416394
 30
0.0
 42
0.0503800706672934
  0
VERTEX
  5
A3A9
  8
0
 10
408.28548800001602
 20
526.40876076258496
 30
0.0
 42
0.0348479273329291
 70
     1
  0
VERTEX
  5
A3AA
  8
0
 10
408.27803410970699
 20
526.26741223952615
 30
0.0
 42
0.0448077132575572
  0
VERTEX
  5
A3AB
  8
0
 10
408.29689526308789
 20
526.09104546914364
 30
0.0
 42
0.03132478036278
 70
     1
  0
VERTEX
  5
A3AC
  8
0
 10
408.36174137637431
 20
525.8460233032971
 30
0.0
 42
0.0256093113311774
  0
VERTEX
  5
A3AD
  8
0
 10
408.4141886746695
 20
525.71182179236871
 30
0.0
 42
0.0136667204667977
 70
     1
  0
VERTEX
  5
A3AE
  8
0
 10
408.53183880242631
 20
525.46894884688118
 30
0.0
 42
0.0537217664180155
  0
VERTEX
  5
A3AF
  8
0
 10
408.84926045563242
 20
524.99050567514564
 30
0.0
 42
0.0423480121440991
 70
     1
  0
VERTEX
  5
A3B0
  8
0
 10
409.35978944214202
 20
524.47211339175431
 30
0.0
 42
0.0288802844464929
  0
VERTEX
  5
A3B1
  8
0
 10
409.89031429515688
 20
524.06826139848977
 30
0.0
 42
0.0306541123027015
 70
     1
  0
VERTEX
  5
A3B2
  8
0
 10
410.43184348490189
 20
523.74979302123359
 30
0.0
 42
0.0152231350785447
  0
VERTEX
  5
A3B3
  8
0
 10
410.98799794085897
 20
523.48804526399886
 30
0.0
 42
0.0250955744598888
 70
     1
  0
VERTEX
  5
A3B4
  8
0
 10
411.33719530420478
 20
523.35690160041668
 30
0.0
 42
0.0209562105441075
  0
VERTEX
  5
A3B5
  8
0
 10
411.82653378647251
 20
523.22296167792376
 30
0.0
 42
0.016459857810978
 70
     1
  0
VERTEX
  5
A3B6
  8
0
 10
412.46044304458809
 20
523.0995032926586
 30
0.0
 42
0.0162739430210662
  0
VERTEX
  5
A3B7
  8
0
 10
413.0582762859932
 20
523.02323591755896
 30
0.0
 42
0.0200842593919416
 70
     1
  0
VERTEX
  5
A3B8
  8
0
 10
413.54596761954252
 20
522.99678717907
 30
0.0
 42
0.0280635057116415
  0
VERTEX
  5
A3B9
  8
0
 10
414.08421225944147
 20
523.0194584869289
 30
0.0
 42
0.0206606090338904
 70
     1
  0
VERTEX
  5
A3BA
  8
0
 10
414.80859137582843
 20
523.12118741499535
 30
0.0
 42
0.0186539013976912
  0
VERTEX
  5
A3BB
  8
0
 10
415.36830874214462
 20
523.24525980643102
 30
0.0
 42
0.0201400555817948
 70
     1
  0
VERTEX
  5
A3BC
  8
0
 10
415.87628796739421
 20
523.40001742783647
 30
0.0
 42
0.0298779077750457
  0
VERTEX
  5
A3BD
  8
0
 10
416.45260523267928
 20
523.64078709248633
 30
0.0
 42
0.0269168344172761
 70
     1
  0
VERTEX
  5
A3BE
  8
0
 10
417.05781600708991
 20
523.97875464237723
 30
0.0
 42
0.0220453804986492
  0
VERTEX
  5
A3BF
  8
0
 10
417.55307620155548
 20
524.32283847500776
 30
0.0
 42
0.0307958571775296
 70
     1
  0
VERTEX
  5
A3C0
  8
0
 10
417.87980863565213
 20
524.60529869800985
 30
0.0
 42
0.0214206624413735
  0
VERTEX
  5
A3C1
  8
0
 10
418.21379317458673
 20
524.9612734618978
 30
0.0
 42
0.0325244205326536
 70
     1
  0
VERTEX
  5
A3C2
  8
0
 10
418.40735525905251
 20
525.21818998227479
 30
0.0
 42
0.0110116313114392
  0
VERTEX
  5
A3C3
  8
0
 10
418.52984868482622
 20
525.41416687088497
 30
0.0
 42
0.0162549167839285
 70
     1
  0
VERTEX
  5
A3C4
  8
0
 10
418.60548154780213
 20
525.55127318825225
 30
0.0
 42
0.0205972078435655
  0
VERTEX
  5
A3C5
  8
0
 10
418.69125020309701
 20
525.73808854784386
 30
0.0
 42
0.0227399085931591
 70
     1
  0
VERTEX
  5
A3C6
  8
0
 10
418.75400577634872
 20
525.91340620632775
 30
0.0
 42
0.0320180168452427
  0
VERTEX
  5
A3C7
  8
0
 10
418.79336305039919
 20
526.07833093474869
 30
0.0
 42
0.0354215696917359
 70
     1
  0
VERTEX
  5
A3C8
  8
0
 10
418.80858027625641
 20
526.23087260586703
 30
0.0
 42
0.0279952902224829
  0
VERTEX
  5
A3C9
  8
0
 10
418.80568921513861
 20
526.33651128109591
 30
0.0
 42
0.0344933839569185
 70
     1
  0
VERTEX
  5
A3CA
  8
0
 10
418.7926719651511
 20
526.42132278214387
 30
0.0
 42
0.0390403463514459
  0
VERTEX
  5
A3CB
  8
0
 10
418.77324076947679
 20
526.4842954401845
 30
0.0
 42
0.0114245302233322
 70
     1
  0
VERTEX
  5
A3CC
  8
0
 10
418.6856256904145
 20
526.69141739219879
 30
0.0
 42
0.0355130888940585
  0
VERTEX
  5
A3CD
  8
0
 10
418.63795841270962
 20
526.77992353729383
 30
0.0
 42
0.0221968523275412
 70
     1
  0
VERTEX
  5
A3CE
  8
0
 10
418.54597030175159
 20
526.91170313562679
 30
0.0
  0
SEQEND
  5
A3CF
  8
0
  0
POLYLINE
  5
A3D0
  8
0
 66
     1
 10
0.0
 20
0.0
 30
0.0
 70
     2
  0
VERTEX
  5
A3D1
  8
0
 10
404.9702450443549
 20
582.25708195175434
 30
0.0
 42
0.0502287150906824
  0
VERTEX
  5
A3D2
  8
0
 10
405.18512277338527
 20
581.42294268359285
 30
0.0
 42
0.0726364186757405
 70
     1
  0
VERTEX
  5
A3D3
  8
0
 10
405.47017078094558
 20
580.89806846595002
 30
0.0
 42
0.0082882026089231
  0
VERTEX
  5
A3D4
  8
0
 10
405.8900061897404
 20
580.35611922604562
 30
0.0
 42
0.0281729909669663
 70
     1
  0
VERTEX
  5
A3D5
  8
0
 10
406.02490074877528
 20
580.205995026972
 30
0.0
 42
0.0194286604457815
  0
VERTEX
  5
A3D6
  8
0
 10
406.29744654070072
 20
579.95533233955007
 30
0.0
 42
0.0135869479525543
 70
     1
  0
VERTEX
  5
A3D7
  8
0
 10
406.70989316646609
 20
579.62345501627635
 30
0.0
 42
0.0409435994279178
  0
VERTEX
  5
A3D8
  8
0
 10
407.42178191804408
 20
579.16860233304328
 30
0.0
 42
0.0279308017160628
 70
     1
  0
VERTEX
  5
A3D9
  8
0
 10
408.54596866262381
 20
578.65184139230621
 30
0.0
 42
0.0341558253429707
  0
VERTEX
  5
A3DA
  8
0
 10
410.00299839708731
 20
578.19034884200619
 30
0.0
 42
0.0326889552546515
 70
     1
  0
VERTEX
  5
A3DB
  8
0
 10
411.5759312150264
 20
577.91532363222041
 30
0.0
 42
0.0115564509779968
  0
VERTEX
  5
A3DC
  8
0
 10
412.6980546700799
 20
577.82012833286069
 30
0.0
 42
0.0152693068655095
 70
     1
  0
VERTEX
  5
A3DD
  8
0
 10
413.55005105599338
 20
577.79372145285026
 30
0.0
 42
0.0191777345197327
  0
VERTEX
  5
A3DE
  8
0
 10
414.78513856029281
 20
577.84055716479145
 30
0.0
 42
0.020003801780177
 70
     1
  0
VERTEX
  5
A3DF
  8
0
 10
415.96211318917619
 20
577.97800713107563
 30
0.0
 42
0.0254213140301325
  0
VERTEX
  5
A3E0
  8
0
 10
417.36246590172971
 20
578.27222389970916
 30
0.0
 42
0.0292168352264582
 70
     1
  0
VERTEX
  5
A3E1
  8
0
 10
418.54597030175159
 20
578.65962126459385
 30
0.0
 42
0.0104282131457748
  0
VERTEX
  5
A3E2
  8
0
 10
419.08104112088489
 20
578.88308262547105
 30
0.0
 42
0.0129013849884909
 70
     1
  0
VERTEX
  5
A3E3
  8
0
 10
419.50466929200019
 20
579.08369363993586
 30
0.0
 42
0.0284829793508132
  0
VERTEX
  5
A3E4
  8
0
 10
420.02379830252789
 20
579.38439756062621
 30
0.0
 42
0.0204868078063749
 70
     1
  0
VERTEX
  5
A3E5
  8
0
 10
420.70095383875559
 20
579.87083538859679
 30
0.0
 42
0.0439210890764668
  0
VERTEX
  5
A3E6
  8
0
 10
420.99298930291269
 20
580.14381914461876
 30
0.0
 42
0.018016390476048
 70
     1
  0
VERTEX
  5
A3E7
  8
0
 10
421.61628829118052
 20
580.89094024505755
 30
0.0
 42
0.0761779679455792
  0
VERTEX
  5
A3E8
  8
0
 10
421.89297867318032
 20
581.38886586272349
 30
0.0
 42
0.0484303721557612
 70
     1
  0
VERTEX
  5
A3E9
  8
0
 10
422.1211090494437
 20
582.25215711797966
 30
0.0
  0
SEQEND
  5
A3EA
  8
0
  0
LINE
  5
A3EB
  8
0
 10
404.9702450443549
 20
582.25708195175434
 30
0.0
 11
403.05892897737448
 21
598.78491350616707
 31
0.0
  0
LINE
  5
A3EC
  8
0
 10
403.04596869242607
 20
599.04570617880131
 30
0.0
 11
403.04597614300673
 21
622.81062939371373
 31
0.0
  0
LINE
  5
A3ED
  8
0
 10
424.04596654665892
 20
622.81807997431065
 30
0.0
 11
424.04596654665892
 21
599.04570617880131
 31
0.0
  0
LINE
  5
A3EE
  8
0
 10
424.04215929997389
 20
598.90434631313576
 30
0.0
 11
422.1211090494437
 21
582.25215711797966
 31
0.0
  0
POLYLINE
  5
A3EF
  8
0
 66
     1
 10
0.0
 20
0.0
 30
0.0
 70
     2
  0
VERTEX
  5
A3F0
  8
0
 10
403.04597614300673
 20
622.81062939371373
 30
0.0
 42
-0.0361263659221492
  0
VERTEX
  5
A3F1
  8
0
 10
403.0986175409509
 20
623.53908621386222
 30
0.0
 42
-0.0576071294660727
 70
     1
  0
VERTEX
  5
A3F2
  8
0
 10
403.21635675374148
 20
623.98266574905551
 30
0.0
 42
-0.0168607602296792
  0
VERTEX
  5
A3F3
  8
0
 10
403.55037867470469
 20
624.75487196356676
 30
0.0
 42
-0.0341757283461287
 70
     1
  0
VERTEX
  5
A3F4
  8
0
 10
403.75330001450732
 20
625.11739516920443
 30
0.0
 42
-0.0364520931494533
  0
VERTEX
  5
A3F5
  8
0
 10
404.25906090992038
 20
625.78063396088965
 30
0.0
 42
-0.0380899327126473
 70
     1
  0
VERTEX
  5
A3F6
  8
0
 10
404.8320134988395
 20
626.33652900462096
 30
0.0
 42
-0.0228026309416527
  0
VERTEX
  5
A3F7
  8
0
 10
405.57384555353929
 20
626.89877560582931
 30
0.0
 42
-0.028806716744028
 70
     1
  0
VERTEX
  5
A3F8
  8
0
 10
406.2039776518763
 20
627.28109574834684
 30
0.0
 42
-0.0122574261858558
  0
VERTEX
  5
A3F9
  8
0
 10
406.96536788372208
 20
627.66140521374882
 30
0.0
 42
-0.0190354721843851
 70
     1
  0
VERTEX
  5
A3FA
  8
0
 10
407.47010905297338
 20
627.87520054238689
 30
0.0
 42
-0.0116497080021198
  0
VERTEX
  5
A3FB
  8
0
 10
408.36848015125111
 20
628.192277771259
 30
0.0
 42
-0.0169298286916818
 70
     1
  0
VERTEX
  5
A3FC
  8
0
 10
408.99821402376301
 20
628.37482238214602
 30
0.0
 42
-0.0048739123151346
  0
VERTEX
  5
A3FD
  8
0
 10
409.58625767200851
 20
628.5178160307197
 30
0.0
 42
-0.0085968903180256
 70
     1
  0
VERTEX
  5
A3FE
  8
0
 10
409.92172220043147
 20
628.58987823002121
 30
0.0
 42
-0.0063631480751445
  0
VERTEX
  5
A3FF
  8
0
 10
410.44436395944848
 20
628.68588946787509
 30
0.0
 42
-0.0067392062447804
 70
     1
  0
VERTEX
  5
A400
  8
0
 10
410.94004976847032
 20
628.76358261997359
 30
0.0
 42
-0.0080646838817248
  0
VERTEX
  5
A401
  8
0
 10
411.38402992026772
 20
628.81976184963673
 30
0.0
 42
-0.005748891773116
 70
     1
  0
VERTEX
  5
A402
  8
0
 10
412.00877529302369
 20
628.88133495947864
 30
0.0
 42
-0.011454106058064
  0
VERTEX
  5
A403
  8
0
 10
412.6771876873737
 20
628.92406111295486
 30
0.0
 42
-0.0091424739905198
 70
     1
  0
VERTEX
  5
A404
  8
0
 10
413.51605910384268
 20
628.94305921680177
 30
0.0
 42
-0.0118865770597172
  0
VERTEX
  5
A405
  8
0
 10
414.3428349529097
 20
628.9270068966191
 30
0.0
 42
-0.0110857583272314
 70
     1
  0
VERTEX
  5
A406
  8
0
 10
415.22759368925011
 20
628.86910033874733
 30
0.0
 42
-0.0086111106792632
  0
VERTEX
  5
A407
  8
0
 10
415.75812755050742
 20
628.81332373971213
 30
0.0
 42
-0.0065965800370567
 70
     1
  0
VERTEX
  5
A408
  8
0
 10
416.44812562935721
 20
628.71948945524673
 30
0.0
 42
-0.0161690706149613
  0
VERTEX
  5
A409
  8
0
 10
417.26840636340069
 20
628.56963750511716
 30
0.0
 42
-0.0127684774684688
 70
     1
  0
VERTEX
  5
A40A
  8
0
 10
418.2943347912705
 20
628.32013863752616
 30
0.0
 42
-0.0186929804193355
  0
VERTEX
  5
A40B
  8
0
 10
419.1341843348311
 20
628.05898083761235
 30
0.0
 42
-0.0179322710581314
 70
     1
  0
VERTEX
  5
A40C
  8
0
 10
419.98736901047789
 20
627.72341897378226
 30
0.0
 42
-0.0171865178190244
  0
VERTEX
  5
A40D
  8
0
 10
420.6566860471923
 20
627.40425903595838
 30
0.0
 42
-0.0178118997955687
 70
     1
  0
VERTEX
  5
A40E
  8
0
 10
421.2793995966864
 20
627.05188752126764
 30
0.0
 42
-0.0194039888801421
  0
VERTEX
  5
A40F
  8
0
 10
421.72440375686728
 20
626.75434170158655
 30
0.0
 42
-0.016182227232034
 70
     1
  0
VERTEX
  5
A410
  8
0
 10
422.23122715427621
 20
626.3605633751481
 30
0.0
 42
-0.0313003251532392
  0
VERTEX
  5
A411
  8
0
 10
422.74051637831792
 20
625.88087978110036
 30
0.0
 42
-0.0319880843842947
 70
     1
  0
VERTEX
  5
A412
  8
0
 10
423.17565722760418
 20
625.35235014996942
 30
0.0
 42
-0.0295858621683658
  0
VERTEX
  5
A413
  8
0
 10
423.48150653690459
 20
624.87061628587685
 30
0.0
 42
-0.0294596728697622
 70
     1
  0
VERTEX
  5
A414
  8
0
 10
423.7295431000577
 20
624.35401223120903
 30
0.0
 42
-0.0237861452041318
  0
VERTEX
  5
A415
  8
0
 10
423.85327943994588
 20
624.00550000084115
 30
0.0
 42
-0.0146706447949631
 70
     1
  0
VERTEX
  5
A416
  8
0
 10
424.00983911933298
 20
623.42690211718332
 30
0.0
 42
-0.0439400169164996
  0
VERTEX
  5
A417
  8
0
 10
424.04029718008189
 20
623.22133226428525
 30
0.0
 42
-0.0226099458819335
 70
     1
  0
VERTEX
  5
A418
  8
0
 10
424.04596654665892
 20
622.81807997431065
 30
0.0
  0
SEQEND
  5
A419
  8
0
  0
POLYLINE
  5
A41A
  8
0
 66
     1
 10
0.0
 20
0.0
 30
0.0
 70
     2
  0
VERTEX
  5
A41B
  8
0
 10
413.54625367407971
 20
506.6486729239748
 30
0.0
 42
-0.0343030907590799
  0
VERTEX
  5
A41C
  8
0
 10
414.43719193551817
 20
506.58539753861533
 30
0.0
 42
-0.0555681683832571
 70
     1
  0
VERTEX
  5
A41D
  8
0
 10
414.97237723192842
 20
506.4484552445287
 30
0.0
 42
-0.0132102747711773
  0
VERTEX
  5
A41E
  8
0
 10
415.963810335071
 20
506.04330185326012
 30
0.0
 42
-0.0376334343296897
 70
     1
  0
VERTEX
  5
A41F
  8
0
 10
416.29601185438139
 20
505.86628227554922
 30
0.0
 42
-0.0226806591902755
  0
VERTEX
  5
A420
  8
0
 10
416.82016821931052
 20
505.49979911050002
 30
0.0
 42
-0.0272995501780661
 70
     1
  0
VERTEX
  5
A421
  8
0
 10
417.22318259106902
 20
505.15331329985332
 30
0.0
 42
-0.0237639290564942
  0
VERTEX
  5
A422
  8
0
 10
417.5750744086501
 20
504.78201708902071
 30
0.0
 42
-0.0220437809220463
 70
     1
  0
VERTEX
  5
A423
  8
0
 10
417.9161950924406
 20
504.3487598552606
 30
0.0
 42
-0.0357692030368757
  0
VERTEX
  5
A424
  8
0
 10
418.26197639386339
 20
503.78652544744892
 30
0.0
 42
-0.0340778848281729
 70
     1
  0
VERTEX
  5
A425
  8
0
 10
418.53921590755181
 20
503.15168998706559
 30
0.0
 42
-0.0312639062575828
  0
VERTEX
  5
A426
  8
0
 10
418.70083342295197
 20
502.59199032930411
 30
0.0
 42
-0.0343774380294069
 70
     1
  0
VERTEX
  5
A427
  8
0
 10
418.77995742266069
 20
502.06801849869242
 30
0.0
 42
-0.0302822579312651
  0
VERTEX
  5
A428
  8
0
 10
418.79089458531018
 20
501.53721265744178
 30
0.0
 42
-0.0332156714616305
 70
     1
  0
VERTEX
  5
A429
  8
0
 10
418.739504823912
 20
501.05582694144368
 30
0.0
 42
-0.0298584526865203
  0
VERTEX
  5
A42A
  8
0
 10
418.64115195673048
 20
500.64037437299589
 30
0.0
 42
-0.0286512085655025
 70
     1
  0
VERTEX
  5
A42B
  8
0
 10
418.48883168738689
 20
500.22236851362157
 30
0.0
 42
-0.0391220468218934
  0
VERTEX
  5
A42C
  8
0
 10
418.2341534506881
 20
499.73901485428468
 30
0.0
 42
-0.0385737880915313
 70
     1
  0
VERTEX
  5
A42D
  8
0
 10
417.90314595460791
 20
499.2946669521221
 30
0.0
 42
-0.0297345005642682
  0
VERTEX
  5
A42E
  8
0
 10
417.52874300712142
 20
498.91377603905732
 30
0.0
 42
-0.031403532379708
 70
     1
  0
VERTEX
  5
A42F
  8
0
 10
417.13286858166612
 20
498.5990136740329
 30
0.0
 42
-0.02368131717928
  0
VERTEX
  5
A430
  8
0
 10
416.67432886557748
 20
498.31050306338602
 30
0.0
 42
-0.0252074390049535
 70
     1
  0
VERTEX
  5
A431
  8
0
 10
416.21911863289728
 20
498.0827817341098
 30
0.0
 42
-0.0255056585329201
  0
VERTEX
  5
A432
  8
0
 10
415.73738809609438
 20
497.90010973911518
 30
0.0
 42
-0.0204604032458302
 70
     1
  0
VERTEX
  5
A433
  8
0
 10
415.1186465974892
 20
497.72851355784979
 30
0.0
 42
-0.0300679928766166
  0
VERTEX
  5
A434
  8
0
 10
414.37280221024162
 20
497.60086890118271
 30
0.0
 42
-0.0274722235369957
 70
     1
  0
VERTEX
  5
A435
  8
0
 10
413.54596761954252
 20
497.55580277349281
 30
0.0
 42
-0.0269648903462047
  0
VERTEX
  5
A436
  8
0
 10
412.80159315069591
 20
497.59633436136312
 30
0.0
 42
-0.0255458666433374
 70
     1
  0
VERTEX
  5
A437
  8
0
 10
412.02473891943163
 20
497.72121981611292
 30
0.0
 42
-0.0257468642144409
  0
VERTEX
  5
A438
  8
0
 10
411.3812473593681
 20
497.89375166145368
 30
0.0
 42
-0.0265265252785818
 70
     1
  0
VERTEX
  5
A439
  8
0
 10
410.7775248747389
 20
498.12547196753451
 30
0.0
 42
-0.0377134460477701
  0
VERTEX
  5
A43A
  8
0
 10
410.13831890803863
 20
498.4704604343745
 30
0.0
 42
-0.0407349157631095
 70
     1
  0
VERTEX
  5
A43B
  8
0
 10
409.60354228263282
 20
498.87845991065029
 30
0.0
 42
-0.0280699593081044
  0
VERTEX
  5
A43C
  8
0
 10
409.19042824181741
 20
499.29479195733973
 30
0.0
 42
-0.0361775860529344
 70
     1
  0
VERTEX
  5
A43D
  8
0
 10
408.91377111155629
 20
499.65640718448009
 30
0.0
 42
-0.0232630933929003
  0
VERTEX
  5
A43E
  8
0
 10
408.71328571220209
 20
499.99528766329217
 30
0.0
 42
-0.025741668121728
 70
     1
  0
VERTEX
  5
A43F
  8
0
 10
408.56291669941692
 20
500.3178340709083
 30
0.0
 42
-0.0356737438680616
  0
VERTEX
  5
A440
  8
0
 10
408.40201893895409
 20
500.81422539813212
 30
0.0
 42
-0.0365998405621535
 70
     1
  0
VERTEX
  5
A441
  8
0
 10
408.3164837884521
 20
501.31562873539269
 30
0.0
 42
-0.0233090497882666
  0
VERTEX
  5
A442
  8
0
 10
408.2969732024618
 20
501.71195965236421
 30
0.0
 42
-0.0241157585975492
 70
     1
  0
VERTEX
  5
A443
  8
0
 10
408.31447376927798
 20
502.09511178790831
 30
0.0
 42
-0.0274195637839804
  0
VERTEX
  5
A444
  8
0
 10
408.37588037558379
 20
502.50504485655779
 30
0.0
 42
-0.0224064042737064
 70
     1
  0
VERTEX
  5
A445
  8
0
 10
408.50051934959419
 20
502.99661059214992
 30
0.0
 42
-0.0352025973510605
  0
VERTEX
  5
A446
  8
0
 10
408.69168733412528
 20
503.49914505506132
 30
0.0
 42
-0.0276705713944058
 70
     1
  0
VERTEX
  5
A447
  8
0
 10
409.01297476444341
 20
504.10264999705782
 30
0.0
 42
-0.0335186156379597
  0
VERTEX
  5
A448
  8
0
 10
409.35571937625542
 20
504.5914319598225
 30
0.0
 42
-0.0282860412774104
 70
     1
  0
VERTEX
  5
A449
  8
0
 10
409.8300067907623
 20
505.11598700677678
 30
0.0
 42
-0.0371672931041473
  0
VERTEX
  5
A44A
  8
0
 10
410.4196760505248
 20
505.61754133296103
 30
0.0
 42
-0.036973091475696
 70
     1
  0
VERTEX
  5
A44B
  8
0
 10
411.08038828260737
 20
506.02866218345468
 30
0.0
 42
-0.0306706661339791
  0
VERTEX
  5
A44C
  8
0
 10
411.48024273741311
 20
506.20788687915729
 30
0.0
 42
-0.0143644209435139
 70
     1
  0
VERTEX
  5
A44D
  8
0
 10
412.364310054165
 20
506.51201404370528
 30
0.0
 42
-0.0469068183165869
  0
VERTEX
  5
A44E
  8
0
 10
412.80519351721068
 20
506.60545784410658
 30
0.0
 42
-0.0284385553216353
 70
     1
  0
VERTEX
  5
A44F
  8
0
 10
413.54625367407988
 20
506.6486729239748
 30
0.0
  0
SEQEND
  5
A450
  8
0
  0
LINE
  5
A451
  8
0
 10
329.74596806657769
 20
179.62102186170711
 30
0.0
 11
333.74596685958358
 21
183.6210225173582
 31
0.0
  0
LINE
  5
A452
  8
0
 10
333.74596685958358
 20
187.62102317300929
 30
0.0
 11
336.74596735132201
 21
190.62102180210249
 31
0.0
  0
LINE
  5
A453
  8
0
 10
336.74596735132201
 20
190.62102180210249
 30
0.0
 11
349.74596761954291
 21
190.62102180210249
 31
0.0
  0
LINE
  5
A454
  8
0
 10
329.74596806657769
 20
161.62102263656749
 30
0.0
 11
333.74596685958358
 21
157.6210219809164
 31
0.0
  0
LINE
  5
A455
  8
0
 10
333.74596685958358
 20
153.6210213252653
 30
0.0
 11
336.74596735132201
 21
150.62102269617219
 31
0.0
  0
LINE
  5
A456
  8
0
 10
336.74596735132201
 20
150.62102269617219
 30
0.0
 11
349.74596761954291
 21
150.62102269617219
 31
0.0
  0
LINE
  5
A457
  8
0
 10
404.74596732151957
 20
173.1210221932582
 30
0.0
 11
405.14596664202662
 21
173.1210221932582
 31
0.0
  0
LINE
  5
A458
  8
0
 10
404.74596732151957
 20
168.12102230501691
 30
0.0
 11
405.14596664202662
 21
168.12102230501691
 31
0.0
  0
LINE
  5
A459
  8
0
 10
404.74596732151929
 20
186.62102300909649
 30
0.0
 11
406.0459673215193
 21
186.62102300909649
 31
0.0
  0
LINE
  5
A45A
  8
0
 10
406.0459673215193
 20
187.62102317300929
 30
0.0
 11
407.04596562278692
 21
188.62102147427689
 31
0.0
  0
LINE
  5
A45B
  8
0
 10
407.04596562278692
 20
188.62102147427689
 30
0.0
 11
420.04596589100782
 21
188.62102147427689
 31
0.0
  0
LINE
  5
A45C
  8
0
 10
420.04596589100782
 20
188.62102147427689
 30
0.0
 11
421.0459679175658
 21
187.62102317300929
 31
0.0
  0
LINE
  5
A45D
  8
0
 10
404.74596732151929
 20
154.6210214891781
 30
0.0
 11
406.0459673215193
 21
154.6210214891781
 31
0.0
  0
LINE
  5
A45E
  8
0
 10
406.0459673215193
 20
153.6210213252653
 30
0.0
 11
407.04596562278692
 21
152.62102302399771
 31
0.0
  0
LINE
  5
A45F
  8
0
 10
407.04596562278692
 20
152.62102302399771
 30
0.0
 11
420.04596589100782
 21
152.62102302399771
 31
0.0
  0
LINE
  5
A460
  8
0
 10
420.04596589100782
 20
152.62102302399771
 30
0.0
 11
421.0459679175658
 21
153.6210213252653
 31
0.0
  0
POLYLINE
  5
A461
  8
0
 66
     1
 10
0.0
 20
0.0
 30
0.0
 70
     2
  0
VERTEX
  5
A462
  8
0
 10
413.54626475747023
 20
188.15679524667379
 30
0.0
 42
-0.0106704166106401
  0
VERTEX
  5
A463
  8
0
 10
414.45842738790668
 20
188.1443709081089
 30
0.0
 42
-0.0169601804891748
 70
     1
  0
VERTEX
  5
A464
  8
0
 10
415.0311020307754
 20
188.1048642805091
 30
0.0
 42
-0.0013558770517924
  0
VERTEX
  5
A465
  8
0
 10
415.94630264243449
 20
188.00794533039661
 30
0.0
 42
-0.0086475091978975
 70
     1
  0
VERTEX
  5
A466
  8
0
 10
416.08947827728019
 20
187.98988007322649
 30
0.0
 42
-0.019329793676274
  0
VERTEX
  5
A467
  8
0
 10
416.74261212847421
 20
187.87004311893281
 30
0.0
 42
-0.0230226384904393
 70
     1
  0
VERTEX
  5
A468
  8
0
 10
417.28059044254309
 20
187.72337870845789
 30
0.0
 42
-0.0127474676580495
  0
VERTEX
  5
A469
  8
0
 10
417.48658729349512
 20
187.65104632326489
 30
0.0
 42
-0.0115556422343464
 70
     1
  0
VERTEX
  5
A46A
  8
0
 10
417.70967872316351
 20
187.56031005558791
 30
0.0
 42
-0.0297875057154061
  0
VERTEX
  5
A46B
  8
0
 10
417.9543119692953
 20
187.43636593293661
 30
0.0
 42
-0.0235866568256767
 70
     1
  0
VERTEX
  5
A46C
  8
0
 10
418.24473130459268
 20
187.2478814140851
 30
0.0
 42
-0.0452292040274157
  0
VERTEX
  5
A46D
  8
0
 10
418.40418811620611
 20
187.1099231456852
 30
0.0
 42
-0.0346338516614326
 70
     1
  0
VERTEX
  5
A46E
  8
0
 10
418.58099087975017
 20
186.899127408342
 30
0.0
 42
-0.0688682718301605
  0
VERTEX
  5
A46F
  8
0
 10
418.72457889938681
 20
186.63067859007299
 30
0.0
 42
-0.0687701923471198
 70
     1
  0
VERTEX
  5
A470
  8
0
 10
418.79001399651861
 20
186.33291594665471
 30
0.0
 42
-0.042214239744052
  0
VERTEX
  5
A471
  8
0
 10
418.78860607509
 20
186.0714705854563
 30
0.0
 42
-0.0454563650784592
 70
     1
  0
VERTEX
  5
A472
  8
0
 10
418.74497845342012
 20
185.8325507338667
 30
0.0
 42
-0.030486884676102
  0
VERTEX
  5
A473
  8
0
 10
418.65561616219878
 20
185.57370189150609
 30
0.0
 42
-0.0308544974890808
 70
     1
  0
VERTEX
  5
A474
  8
0
 10
418.5366896064499
 20
185.33065482178461
 30
0.0
 42
-0.0367226538398057
  0
VERTEX
  5
A475
  8
0
 10
418.2786897686218
 20
184.9454622088989
 30
0.0
 42
-0.0356395109125988
 70
     1
  0
VERTEX
  5
A476
  8
0
 10
417.95843485455538
 20
184.59105926188209
 30
0.0
 42
-0.0161749210122946
  0
VERTEX
  5
A477
  8
0
 10
417.65677600402432
 20
184.3198067966369
 30
0.0
 42
-0.0194281343775294
 70
     1
  0
VERTEX
  5
A478
  8
0
 10
417.3901696481766
 20
184.11238943358981
 30
0.0
 42
-0.0191130343368989
  0
VERTEX
  5
A479
  8
0
 10
417.00120830909049
 20
183.85526698822889
 30
0.0
 42
-0.0176658828911912
 70
     1
  0
VERTEX
  5
A47A
  8
0
 10
416.56110326697689
 20
183.60877033882221
 30
0.0
 42
-0.0212497880845394
  0
VERTEX
  5
A47B
  8
0
 10
416.07542062587208
 20
183.3844177964024
 30
0.0
 42
-0.023940045334056
 70
     1
  0
VERTEX
  5
A47C
  8
0
 10
415.6280503173827
 20
183.2249733108589
 30
0.0
 42
-0.0206778212282339
  0
VERTEX
  5
A47D
  8
0
 10
415.17781722836071
 20
183.10849913323921
 30
0.0
 42
-0.0153692141144456
 70
     1
  0
VERTEX
  5
A47E
  8
0
 10
414.56247573285299
 20
182.995850535984
 30
0.0
 42
-0.0157113261754214
  0
VERTEX
  5
A47F
  8
0
 10
414.04273455883867
 20
182.93375737336379
 30
0.0
 42
-0.0165307513609489
 70
     1
  0
VERTEX
  5
A480
  8
0
 10
413.54596761954252
 20
182.90669298035419
 30
0.0
 42
-0.0322410633530098
  0
VERTEX
  5
A481
  8
0
 10
412.9606829976637
 20
182.93192911921491
 30
0.0
 42
-0.0232339083694692
 70
     1
  0
VERTEX
  5
A482
  8
0
 10
412.15776784556351
 20
183.05657335906389
 30
0.0
 42
-0.0210868965185192
  0
VERTEX
  5
A483
  8
0
 10
411.50353232046422
 20
183.2185056403317
 30
0.0
 42
-0.0256175375377403
 70
     1
  0
VERTEX
  5
A484
  8
0
 10
410.97966933699649
 20
183.4014778306499
 30
0.0
 42
-0.0247647554099155
  0
VERTEX
  5
A485
  8
0
 10
410.4154661318471
 20
183.664872157644
 30
0.0
 42
-0.0268575241010515
 70
     1
  0
VERTEX
  5
A486
  8
0
 10
409.9229671006043
 20
183.96008630923299
 30
0.0
 42
-0.0171483201932031
  0
VERTEX
  5
A487
  8
0
 10
409.51727918238163
 20
184.25463157253861
 30
0.0
 42
-0.0218963165100524
 70
     1
  0
VERTEX
  5
A488
  8
0
 10
409.21846585445422
 20
184.5094340107961
 30
0.0
 42
-0.0211168855248305
  0
VERTEX
  5
A489
  8
0
 10
409.02328372986898
 20
184.7072424488716
 30
0.0
 42
-0.0151269344160102
 70
     1
  0
VERTEX
  5
A48A
  8
0
 10
408.77158012992322
 20
185.00232097530181
 30
0.0
 42
-0.042084376427974
  0
VERTEX
  5
A48B
  8
0
 10
408.5895431291537
 20
185.27310418300399
 30
0.0
 42
-0.0302451144190995
 70
     1
  0
VERTEX
  5
A48C
  8
0
 10
408.39334914875411
 20
185.68209872646349
 30
0.0
 42
-0.0742598031923276
  0
VERTEX
  5
A48D
  8
0
 10
408.29726812718212
 20
186.0771911916878
 30
0.0
 42
-0.0775740165562256
 70
     1
  0
VERTEX
  5
A48E
  8
0
 10
408.32238065348878
 20
186.46581131029521
 30
0.0
 42
-0.066128927605885
  0
VERTEX
  5
A48F
  8
0
 10
408.44242766100751
 20
186.7932236630723
 30
0.0
 42
-0.0740868682973815
 70
     1
  0
VERTEX
  5
A490
  8
0
 10
408.62636656462013
 20
187.04475882205529
 30
0.0
 42
-0.033861562949908
  0
VERTEX
  5
A491
  8
0
 10
408.90161405568409
 20
187.28802282096021
 30
0.0
 42
-0.0447007821974542
 70
     1
  0
VERTEX
  5
A492
  8
0
 10
409.1365722736063
 20
187.43754972996291
 30
0.0
 42
-0.0198609443877095
  0
VERTEX
  5
A493
  8
0
 10
409.53059905204867
 20
187.62194145438681
 30
0.0
 42
-0.0269351412969548
 70
     1
  0
VERTEX
  5
A494
  8
0
 10
409.83267227859727
 20
187.7301985231079
 30
0.0
 42
-0.013020510192638
  0
VERTEX
  5
A495
  8
0
 10
410.31441796886787
 20
187.86053466216379
 30
0.0
 42
-0.0172016865232702
 70
     1
  0
VERTEX
  5
A496
  8
0
 10
410.68440677991811
 20
187.93699401581
 30
0.0
 42
-0.0094721232178881
  0
VERTEX
  5
A497
  8
0
 10
411.31394205735518
 20
188.03242288749911
 30
0.0
 42
-0.0127888247110268
 70
     1
  0
VERTEX
  5
A498
  8
0
 10
411.78292955635811
 20
188.08228510723109
 30
0.0
 42
-0.0045623326079984
  0
VERTEX
  5
A499
  8
0
 10
411.93240144027908
 20
188.09294854625119
 30
0.0
 42
-0.0008403950440249
 70
     1
  0
VERTEX
  5
A49A
  8
0
 10
412.74441549977558
 20
188.14206591730459
 30
0.0
 42
-0.0100920403750907
  0
VERTEX
  5
A49B
  8
0
 10
413.00875999671638
 20
188.15226158896979
 30
0.0
 42
-0.0049663893421496
 70
     1
  0
VERTEX
  5
A49C
  8
0
 10
413.54626475747023
 20
188.15679524667379
 30
0.0
  0
SEQEND
  5
A49D
  8
0
  0
POLYLINE
  5
A49E
  8
0
 66
     1
 10
0.0
 20
0.0
 30
0.0
 70
     2
  0
VERTEX
  5
A49F
  8
0
 10
413.61737766415712
 20
166.55807304716879
 30
0.0
 42
-0.0364595811606817
  0
VERTEX
  5
A4A0
  8
0
 10
414.52330010557841
 20
166.4773222718938
 30
0.0
 42
-0.0531264067798646
 70
     1
  0
VERTEX
  5
A4A1
  8
0
 10
415.12610682710141
 20
166.31182579412501
 30
0.0
 42
-0.0059520588565487
  0
VERTEX
  5
A4A2
  8
0
 10
415.83802302627828
 20
166.02251379471599
 30
0.0
 42
-0.0252470649642184
 70
     1
  0
VERTEX
  5
A4A3
  8
0
 10
416.0013783757326
 20
165.94392912151801
 30
0.0
 42
-0.0204910984712666
  0
VERTEX
  5
A4A4
  8
0
 10
416.48387034814539
 20
165.6548103222523
 30
0.0
 42
-0.0246904525285883
 70
     1
  0
VERTEX
  5
A4A5
  8
0
 10
416.861089453403
 20
165.3796627666247
 30
0.0
 42
-0.0193967816795794
  0
VERTEX
  5
A4A6
  8
0
 10
417.20797724212838
 20
165.07642821069851
 30
0.0
 42
-0.019989826371573
 70
     1
  0
VERTEX
  5
A4A7
  8
0
 10
417.52038642109119
 20
164.7566105834743
 30
0.0
 42
-0.0207235319434888
  0
VERTEX
  5
A4A8
  8
0
 10
417.76261929532751
 20
164.46446508271319
 30
0.0
 42
-0.0164315857375223
 70
     1
  0
VERTEX
  5
A4A9
  8
0
 10
418.0398850601473
 20
164.07441116631199
 30
0.0
 42
-0.0319710246309475
  0
VERTEX
  5
A4AA
  8
0
 10
418.29728908774848
 20
163.62607692784979
 30
0.0
 42
-0.0265765931070641
 70
     1
  0
VERTEX
  5
A4AB
  8
0
 10
418.54175275436131
 20
163.05444744859
 30
0.0
 42
-0.0333631786978987
  0
VERTEX
  5
A4AC
  8
0
 10
418.69416518252399
 20
162.53283382494661
 30
0.0
 42
-0.032195553766596
 70
     1
  0
VERTEX
  5
A4AD
  8
0
 10
418.780098849887
 20
161.9763399098683
 30
0.0
 42
-0.030556948017315
  0
VERTEX
  5
A4AE
  8
0
 10
418.7929710140333
 20
161.51252837614999
 30
0.0
 42
-0.0284988193505899
 70
     1
  0
VERTEX
  5
A4AF
  8
0
 10
418.74809790292687
 20
161.01711831491639
 30
0.0
 42
-0.037097589610234
  0
VERTEX
  5
A4B0
  8
0
 10
418.64362397890358
 20
160.55313677075731
 30
0.0
 42
-0.0336136180106591
 70
     1
  0
VERTEX
  5
A4B1
  8
0
 10
418.4573703193746
 20
160.0625386289085
 30
0.0
 42
-0.0453203309388013
  0
VERTEX
  5
A4B2
  8
0
 10
418.1148504521679
 20
159.46517215793949
 30
0.0
 42
-0.050266218366492
 70
     1
  0
VERTEX
  5
A4B3
  8
0
 10
417.70919832005569
 20
158.9947924085717
 30
0.0
 42
-0.0173025295399158
  0
VERTEX
  5
A4B4
  8
0
 10
417.32625339520467
 20
158.6561344995572
 30
0.0
 42
-0.0258398868868118
 70
     1
  0
VERTEX
  5
A4B5
  8
0
 10
417.05114481539272
 20
158.4522296603314
 30
0.0
 42
-0.0154544352050318
  0
VERTEX
  5
A4B6
  8
0
 10
416.75414305706272
 20
158.2679809773195
 30
0.0
 42
-0.0138665484058784
 70
     1
  0
VERTEX
  5
A4B7
  8
0
 10
416.41168166707251
 20
158.08239384350361
 30
0.0
 42
-0.0325333412474141
  0
VERTEX
  5
A4B8
  8
0
 10
415.93765334757012
 20
157.8798261735638
 30
0.0
 42
-0.0218804398976539
 70
     1
  0
VERTEX
  5
A4B9
  8
0
 10
415.20472313354139
 20
157.65707586653019
 30
0.0
 42
-0.0341214411553124
  0
VERTEX
  5
A4BA
  8
0
 10
414.42061094819718
 20
157.5118976433225
 30
0.0
 42
-0.0310600702847757
 70
     1
  0
VERTEX
  5
A4BB
  8
0
 10
413.54596761954252
 20
157.46570857477701
 30
0.0
 42
-0.0244185542973683
  0
VERTEX
  5
A4BC
  8
0
 10
412.76906073221062
 20
157.51095038682419
 30
0.0
 42
-0.0260567786086736
 70
     1
  0
VERTEX
  5
A4BD
  8
0
 10
412.04891650412623
 20
157.62649954595341
 30
0.0
 42
-0.0227191457641054
  0
VERTEX
  5
A4BE
  8
0
 10
411.44063156473698
 20
157.78612274631371
 30
0.0
 42
-0.0233864246349453
 70
     1
  0
VERTEX
  5
A4BF
  8
0
 10
410.86647092830481
 20
157.9949427390348
 30
0.0
 42
-0.035513287955244
  0
VERTEX
  5
A4C0
  8
0
 10
410.35163142806681
 20
158.25425552760731
 30
0.0
 42
-0.0295919852961445
 70
     1
  0
VERTEX
  5
A4C1
  8
0
 10
409.77961313519779
 20
158.64286972672221
 30
0.0
 42
-0.0433436612273844
  0
VERTEX
  5
A4C2
  8
0
 10
409.26355216580481
 20
159.11649652278589
 30
0.0
 42
-0.0460480063540943
 70
     1
  0
VERTEX
  5
A4C3
  8
0
 10
408.86466224331662
 20
159.6416637293101
 30
0.0
 42
-0.0349899274923717
  0
VERTEX
  5
A4C4
  8
0
 10
408.59864890178818
 20
160.14328076982849
 30
0.0
 42
-0.0390018840328413
 70
     1
  0
VERTEX
  5
A4C5
  8
0
 10
408.42887702834668
 20
160.62369843252429
 30
0.0
 42
-0.0309733978571737
  0
VERTEX
  5
A4C6
  8
0
 10
408.3316910170833
 20
161.1036373502476
 30
0.0
 42
-0.0318679713813958
 70
     1
  0
VERTEX
  5
A4C7
  8
0
 10
408.29642913513402
 20
161.5782901398473
 30
0.0
 42
-0.0397112603341366
  0
VERTEX
  5
A4C8
  8
0
 10
408.34289264266539
 20
162.25117699041411
 30
0.0
 42
-0.0419880700828323
 70
     1
  0
VERTEX
  5
A4C9
  8
0
 10
408.48974681268749
 20
162.87207985073391
 30
0.0
 42
-0.0220072504134888
  0
VERTEX
  5
A4CA
  8
0
 10
408.68423827832919
 20
163.38850339385871
 30
0.0
 42
-0.0270734338418957
 70
     1
  0
VERTEX
  5
A4CB
  8
0
 10
408.88275579742231
 20
163.79087899378641
 30
0.0
 42
-0.0218562496807341
  0
VERTEX
  5
A4CC
  8
0
 10
409.12636066089721
 20
164.18276730518761
 30
0.0
 42
-0.0195225047333779
 70
     1
  0
VERTEX
  5
A4CD
  8
0
 10
409.43438548867238
 20
164.59742019280719
 30
0.0
 42
-0.0331591360285045
  0
VERTEX
  5
A4CE
  8
0
 10
409.79367335461711
 20
164.98756841941719
 30
0.0
 42
-0.0229976516587993
 70
     1
  0
VERTEX
  5
A4CF
  8
0
 10
410.3711501601619
 20
165.4882315234731
 30
0.0
 42
-0.039963200323309
  0
VERTEX
  5
A4D0
  8
0
 10
410.65827489498992
 20
165.67981318394601
 30
0.0
 42
-0.0123924533439285
 70
     1
  0
VERTEX
  5
A4D1
  8
0
 10
411.64225468650869
 20
166.19676188985341
 30
0.0
 42
-0.069616920424774
  0
VERTEX
  5
A4D2
  8
0
 10
412.42236022381252
 20
166.45522867574971
 30
0.0
 42
-0.0475763559957516
 70
     1
  0
VERTEX
  5
A4D3
  8
0
 10
413.61737766415712
 20
166.55807304716879
 30
0.0
  0
SEQEND
  5
A4D4
  8
0
  0
LINE
  5
A4D5
  8
0
 10
408.54596866262381
 20
152.62102302399771
 30
0.0
 11
408.54616606971331
 21
130.83851096646021
 31
0.0
  0
LINE
  5
A4D6
  8
0
 10
418.54597030175159
 20
100.03995117036
 30
0.0
 11
418.54597030175159
 21
122.1782578516524
 31
0.0
  0
LINE
  5
A4D7
  8
0
 10
404.9702450443549
 20
99.075056279574824
 30
0.0
 11
403.0634812821192
 21
82.589536572371898
 31
0.0
  0
LINE
  5
A4D8
  8
0
 10
403.05892897737448
 20
82.547224725161968
 30
0.0
 11
403.04596869242607
 21
58.514058257018398
 31
0.0
  0
LINE
  5
A4D9
  8
0
 10
424.04596654665892
 20
58.514058257018398
 30
0.0
 11
424.0446945552369
 21
82.314166961948317
 31
0.0
  0
LINE
  5
A4DA
  8
0
 10
424.02845023167561
 20
82.589536572371898
 30
0.0
 11
422.12169019473021
 21
99.075056279574824
 31
0.0
  0
POLYLINE
  5
A4DB
  8
0
 66
     1
 10
0.0
 20
0.0
 30
0.0
 70
     2
  0
VERTEX
  5
A4DC
  8
0
 10
403.04596869242607
 20
58.514058257018398
 30
0.0
 42
0.0066940332219761
  0
VERTEX
  5
A4DD
  8
0
 10
403.05694125067788
 20
57.79320452687795
 30
0.0
 42
0.0576071294660727
 70
     1
  0
VERTEX
  5
A4DE
  8
0
 10
403.17468046346858
 20
57.349624991684777
 30
0.0
 42
0.0168607602296792
  0
VERTEX
  5
A4DF
  8
0
 10
403.50870238443161
 20
56.57741877717342
 30
0.0
 42
0.0341757283461287
 70
     1
  0
VERTEX
  5
A4E0
  8
0
 10
403.71162372423441
 20
56.214895571535749
 30
0.0
 42
0.0364520931494533
  0
VERTEX
  5
A4E1
  8
0
 10
404.21738461964742
 20
55.551656779850532
 30
0.0
 42
0.0380899327126473
 70
     1
  0
VERTEX
  5
A4E2
  8
0
 10
404.7903372085666
 20
54.9957617361191
 30
0.0
 42
0.0228026309416527
  0
VERTEX
  5
A4E3
  8
0
 10
405.53216926326621
 20
54.433515134910863
 30
0.0
 42
0.028806716744028
 70
     1
  0
VERTEX
  5
A4E4
  8
0
 10
406.16230136160328
 20
54.051194992393441
 30
0.0
 42
0.0122574261858558
  0
VERTEX
  5
A4E5
  8
0
 10
406.92369159344901
 20
53.670885526991469
 30
0.0
 42
0.0190354721843851
 70
     1
  0
VERTEX
  5
A4E6
  8
0
 10
407.42843276270031
 20
53.457090198353391
 30
0.0
 42
0.0116497080021198
  0
VERTEX
  5
A4E7
  8
0
 10
408.32680386097798
 20
53.14001296948117
 30
0.0
 42
0.0169298286916818
 70
     1
  0
VERTEX
  5
A4E8
  8
0
 10
408.95653773348988
 20
52.957468358594149
 30
0.0
 42
0.0048739123151346
  0
VERTEX
  5
A4E9
  8
0
 10
409.54458138173538
 20
52.814474710020363
 30
0.0
 42
0.0085968903180256
 70
     1
  0
VERTEX
  5
A4EA
  8
0
 10
409.8800459101584
 20
52.742412510719078
 30
0.0
 42
0.0063631480751445
  0
VERTEX
  5
A4EB
  8
0
 10
410.40268766917541
 20
52.646401272865091
 30
0.0
 42
0.0067392062447804
 70
     1
  0
VERTEX
  5
A4EC
  8
0
 10
410.8983734781973
 20
52.568708120766473
 30
0.0
 42
0.0080646838817248
  0
VERTEX
  5
A4ED
  8
0
 10
411.34235362999459
 20
52.512528891103443
 30
0.0
 42
0.005748891773116
 70
     1
  0
VERTEX
  5
A4EE
  8
0
 10
411.96709900275067
 20
52.450955781261541
 30
0.0
 42
0.011454106058064
  0
VERTEX
  5
A4EF
  8
0
 10
412.63551139710069
 20
52.408229627785317
 30
0.0
 42
0.0091424739905198
 70
     1
  0
VERTEX
  5
A4F0
  8
0
 10
413.47438281356972
 20
52.389231523938292
 30
0.0
 42
0.0118865770597172
  0
VERTEX
  5
A4F1
  8
0
 10
414.30115866263662
 20
52.405283844121072
 30
0.0
 42
0.0110857583272314
 70
     1
  0
VERTEX
  5
A4F2
  8
0
 10
415.1859173989771
 20
52.463190401992961
 30
0.0
 42
0.0086111106792632
  0
VERTEX
  5
A4F3
  8
0
 10
415.71645126023441
 20
52.518967001028038
 30
0.0
 42
0.0065965800370567
 70
     1
  0
VERTEX
  5
A4F4
  8
0
 10
416.40644933908419
 20
52.61280128549344
 30
0.0
 42
0.0161690706149613
  0
VERTEX
  5
A4F5
  8
0
 10
417.22673007312773
 20
52.762653235622913
 30
0.0
 42
0.0127684774684688
 70
     1
  0
VERTEX
  5
A4F6
  8
0
 10
418.25265850099748
 20
53.012152103213907
 30
0.0
 42
0.0186929804193355
  0
VERTEX
  5
A4F7
  8
0
 10
419.09250804455809
 20
53.273309903127817
 30
0.0
 42
0.0179322710581314
 70
     1
  0
VERTEX
  5
A4F8
  8
0
 10
419.94569272020487
 20
53.608871766957797
 30
0.0
 42
0.0171865178190244
  0
VERTEX
  5
A4F9
  8
0
 10
420.61500975691928
 20
53.928031704781802
 30
0.0
 42
0.0178118997955687
 70
     1
  0
VERTEX
  5
A4FA
  8
0
 10
421.2377233064135
 20
54.280403219472532
 30
0.0
 42
0.0194039888801421
  0
VERTEX
  5
A4FB
  8
0
 10
421.68272746659432
 20
54.577949039153623
 30
0.0
 42
0.016182227232034
 70
     1
  0
VERTEX
  5
A4FC
  8
0
 10
422.18955086400319
 20
54.971727365592074
 30
0.0
 42
0.0313003251532392
  0
VERTEX
  5
A4FD
  8
0
 10
422.69884008804502
 20
55.451410959639702
 30
0.0
 42
0.0319880843842947
 70
     1
  0
VERTEX
  5
A4FE
  8
0
 10
423.13398093733122
 20
55.979940590770752
 30
0.0
 42
0.0295858621683658
  0
VERTEX
  5
A4FF
  8
0
 10
423.43983024663152
 20
56.461674454863328
 30
0.0
 42
0.0294596728697622
 70
     1
  0
VERTEX
  5
A500
  8
0
 10
423.68786680978468
 20
56.978278509531151
 30
0.0
 42
0.0237861452041318
  0
VERTEX
  5
A501
  8
0
 10
423.81160314967292
 20
57.326790739898911
 30
0.0
 42
0.0146706447949631
 70
     1
  0
VERTEX
  5
A502
  8
0
 10
423.96816282906002
 20
57.90538862355686
 30
0.0
 42
0.0439400169164996
  0
VERTEX
  5
A503
  8
0
 10
423.99862088980888
 20
58.110958476454812
 30
0.0
 42
0.0226099458819335
 70
     1
  0
VERTEX
  5
A504
  8
0
 10
424.04596654665892
 20
58.514058257018398
 30
0.0
  0
SEQEND
  5
A505
  8
0
  0
POLYLINE
  5
A506
  8
0
 66
     1
 10
0.0
 20
0.0
 30
0.0
 70
     2
  0
VERTEX
  5
A507
  8
0
 10
404.9702450443549
 20
99.075056279574824
 30
0.0
 42
-0.0247820149864499
  0
VERTEX
  5
A508
  8
0
 10
405.03324816709522
 20
99.462943241980497
 30
0.0
 42
-0.0461786312400018
 70
     1
  0
VERTEX
  5
A509
  8
0
 10
405.0962429062842
 20
99.664539852292705
 30
0.0
 42
-0.0156511080522718
  0
VERTEX
  5
A50A
  8
0
 10
405.3496941604302
 20
100.22238470908439
 30
0.0
 42
-0.033439337681879
 70
     1
  0
VERTEX
  5
A50B
  8
0
 10
405.49346150693759
 20
100.47081616983139
 30
0.0
 42
-0.0242362459247172
  0
VERTEX
  5
A50C
  8
0
 10
405.78145740912157
 20
100.8576833065089
 30
0.0
 42
-0.0278900565393397
 70
     1
  0
VERTEX
  5
A50D
  8
0
 10
406.06539617566273
 20
101.16606443104941
 30
0.0
 42
-0.0166870770810489
  0
VERTEX
  5
A50E
  8
0
 10
406.37148267614151
 20
101.4441507683985
 30
0.0
 42
-0.0181382829970787
 70
     1
  0
VERTEX
  5
A50F
  8
0
 10
406.67021533876277
 20
101.679784118493
 30
0.0
 42
-0.0208743860883798
  0
VERTEX
  5
A510
  8
0
 10
406.87485940081928
 20
101.8167586446751
 30
0.0
 42
-0.0055445025931275
 70
     1
  0
VERTEX
  5
A511
  8
0
 10
407.67115441737349
 20
102.2908540297902
 30
0.0
 42
-0.0290869160852126
  0
VERTEX
  5
A512
  8
0
 10
407.96780237145907
 20
102.4407085483714
 30
0.0
 42
-0.015526954744012
 70
     1
  0
VERTEX
  5
A513
  8
0
 10
408.54596866262381
 20
102.67066922274731
 30
0.0
  0
SEQEND
  5
A514
  8
0
  0
POLYLINE
  5
A515
  8
0
 66
     1
 10
0.0
 20
0.0
 30
0.0
 70
     2
  0
VERTEX
  5
A516
  8
0
 10
422.12169019473021
 20
99.075056279574824
 30
0.0
 42
0.0247820149864499
  0
VERTEX
  5
A517
  8
0
 10
422.05868707198982
 20
99.462943241980497
 30
0.0
 42
0.0461786312400018
 70
     1
  0
VERTEX
  5
A518
  8
0
 10
421.9956923328009
 20
99.664539852292705
 30
0.0
 42
0.0156511080522718
  0
VERTEX
  5
A519
  8
0
 10
421.74224107865479
 20
100.22238470908439
 30
0.0
 42
0.033439337681879
 70
     1
  0
VERTEX
  5
A51A
  8
0
 10
421.59847373214751
 20
100.47081616983139
 30
0.0
 42
0.0242362459247172
  0
VERTEX
  5
A51B
  8
0
 10
421.31047782996342
 20
100.8576833065089
 30
0.0
 42
0.0278900565393397
 70
     1
  0
VERTEX
  5
A51C
  8
0
 10
421.02653906342238
 20
101.16606443104941
 30
0.0
 42
0.0166870770810489
  0
VERTEX
  5
A51D
  8
0
 10
420.72045256294348
 20
101.4441507683985
 30
0.0
 42
0.0181382829970787
 70
     1
  0
VERTEX
  5
A51E
  8
0
 10
420.42171990032227
 20
101.679784118493
 30
0.0
 42
0.0208743860883798
  0
VERTEX
  5
A51F
  8
0
 10
420.21707583826583
 20
101.8167586446751
 30
0.0
 42
0.0055445025931275
 70
     1
  0
VERTEX
  5
A520
  8
0
 10
419.4207808217115
 20
102.2908540297902
 30
0.0
 42
0.0290869160852126
  0
VERTEX
  5
A521
  8
0
 10
419.12413286762597
 20
102.4407085483714
 30
0.0
 42
0.015526954744012
 70
     1
  0
VERTEX
  5
A522
  8
0
 10
418.5459665764613
 20
102.67066922274731
 30
0.0
  0
SEQEND
  5
A523
  8
0
  0
POLYLINE
  5
A524
  8
0
 66
     1
 10
0.0
 20
0.0
 30
0.0
 70
     2
  0
VERTEX
  5
A525
  8
0
 10
386.53886058223702
 20
179.8281293758503
 30
0.0
 42
0.0215468704648998
  0
VERTEX
  5
A526
  8
0
 10
386.88630967547812
 20
179.50322100346219
 30
0.0
 42
0.0323107785168142
 70
     1
  0
VERTEX
  5
A527
  8
0
 10
387.14010277011948
 20
179.31259902881339
 30
0.0
 42
0.0053107817679367
  0
VERTEX
  5
A528
  8
0
 10
387.40796903897308
 20
179.14129073544601
 30
0.0
 42
0.0061841076846084
 70
     1
  0
VERTEX
  5
A529
  8
0
 10
387.64133034683709
 20
178.9995002194529
 30
0.0
 42
0.0495523949487561
  0
VERTEX
  5
A52A
  8
0
 10
387.88484412778303
 20
178.88646170444491
 30
0.0
 42
0.0303094244890081
 70
     1
  0
VERTEX
  5
A52B
  8
0
 10
388.30662631285651
 20
178.7674684473626
 30
0.0
  0
SEQEND
  5
A52C
  8
0
  0
POLYLINE
  5
A52D
  8
0
 66
     1
 10
0.0
 20
0.0
 30
0.0
 70
     2
  0
VERTEX
  5
A52E
  8
0
 10
386.53886058223702
 20
161.41391512242481
 30
0.0
 42
-0.0215468704648998
  0
VERTEX
  5
A52F
  8
0
 10
386.88630967547812
 20
161.73882349481289
 30
0.0
 42
-0.0323107785168142
 70
     1
  0
VERTEX
  5
A530
  8
0
 10
387.14010277011948
 20
161.9294454694616
 30
0.0
 42
-0.0053107817679367
  0
VERTEX
  5
A531
  8
0
 10
387.40796903897308
 20
162.10075376282921
 30
0.0
 42
-0.0061841076846084
 70
     1
  0
VERTEX
  5
A532
  8
0
 10
387.64133034683709
 20
162.24254427882221
 30
0.0
 42
-0.0495523949487561
  0
VERTEX
  5
A533
  8
0
 10
387.88484412778303
 20
162.35558279383019
 30
0.0
 42
-0.0303094244890081
 70
     1
  0
VERTEX
  5
A534
  8
0
 10
388.30662631285651
 20
162.4745760509125
 30
0.0
  0
SEQEND
  5
A535
  8
0
  0
LINE
  5
A536
  8
1
 10
533.64896932181387
 20
348.75847236104818
 30
0.0
 11
533.64896932181364
 21
293.75847236104818
 31
0.0
  0
LINE
  5
A537
  8
1
 10
558.64896932181364
 20
323.75847236104818
 30
0.0
 11
508.64896932181358
 21
323.75847236104818
 31
0.0
  0
LINE
  5
A538
  8
1
 10
652.29444964028198
 20
392.25847236104829
 30
0.0
 11
533.64896932181375
 21
323.75847236104789
 31
0.0
  0
LINE
  5
A539
  8
1
 10
413.54596948218801
 20
633.94322446588171
 30
0.0
 11
413.54596948218801
 21
505.7111159821921
 31
0.0
  0
LINE
  5
A53A
  8
1
 10
359.74596761954291
 20
548.21111598219204
 30
0.0
 11
359.74596761954291
 21
533.21111598219204
 31
0.0
  0
LINE
  5
A53B
  8
1
 10
352.24596761954263
 20
540.7111159821917
 30
0.0
 11
367.24596761954263
 21
540.71111598219204
 31
0.0
  0
LINE
  5
A53C
  8
1
 10
413.54596948218813
 20
402.81164676155129
 30
0.0
 11
413.54596948218813
 21
318.75847236104812
 31
0.0
  0
LINE
  5
A53D
  8
1
 10
352.2459676195428
 20
200.62102224913721
 30
0.0
 11
367.2459676195428
 21
200.6210222491375
 31
0.0
  0
LINE
  5
A53E
  8
1
 10
359.74596761954308
 20
208.12102224913741
 30
0.0
 11
359.74596761954308
 21
193.1210222491373
 31
0.0
  0
LINE
  5
A53F
  8
1
 10
324.7459680665774
 20
170.6210222491373
 30
0.0
 11
426.04596791756569
 21
170.62102224913741
 31
0.0
  0
LINE
  5
A540
  8
1
 10
359.74596761954308
 20
148.1210222491373
 30
0.0
 11
359.74596761954308
 21
133.1210222491373
 31
0.0
  0
LINE
  5
A541
  8
1
 10
352.2459676195428
 20
140.6210222491373
 30
0.0
 11
367.2459676195428
 21
140.62102224913761
 31
0.0
  0
LINE
  5
A542
  8
1
 10
413.54596948218801
 20
47.388913765447789
 30
0.0
 11
413.54596948218801
 21
175.6210222491373
 31
0.0
  0
CIRCLE
  5
A543
  8
0
 10
198.37563191965091
 20
323.75847236104801
 30
0.0
 40
6.0
  0
ARC
  5
A544
  8
0
 10
533.64896932181364
 20
323.75847236104818
 30
0.0
 40
18.99999976158125
 50
0.0
 51
14.742476513427469
  0
LINE
  5
A545
  8
0
 10
514.64896956023244
 20
323.75847236104818
 30
0.0
 11
514.64896956023222
 21
309.75847212262971
 31
0.0
  0
LINE
  5
A546
  8
0
 10
552.64896908339483
 20
323.75847236104818
 30
0.0
 11
552.64896908339483
 21
309.75847212262909
 31
0.0
  0
ARC
  5
A547
  8
0
 10
533.64896932181364
 20
323.75847236104818
 30
0.0
 40
18.99999976158125
 50
45.257523486576801
 51
180.0
  0
LINE
  5
A9EE
  8
0
 10
389.49596621883347
 20
343.55847076364353
 30
0.0
 11
389.49596621883347
 21
341.1508209464368
 31
0.0
  0
LINE
  5
A9EF
  8
0
 10
399.4959678579612
 20
343.55847076364353
 30
0.0
 11
399.4959678579612
 21
341.15081998893112
 31
0.0
  0
LINE
  5
A9F0
  8
0
 10
392.495968573217
 20
343.5684731680949
 30
0.0
 11
392.495968573217
 21
343.41077417918041
 31
0.0
  0
LINE
  5
A9F1
  8
0
 10
396.49596922886798
 20
343.5684731680949
 30
0.0
 11
396.49596922886798
 21
343.41077417918041
 31
0.0
  0
LINE
  5
AA57
  8
0
 10
389.24596943748429
 20
341.3578710038264
 30
0.0
 11
389.24596943748429
 21
343.75847414918729
 31
0.0
  0
LINE
  5
AA58
  8
0
 10
389.74596672547301
 20
341.11485541649648
 30
0.0
 11
399.24596735132172
 21
341.11485541649648
 31
0.0
  0
LINE
  5
AA59
  8
0
 10
399.74596836460069
 20
341.3578710038264
 30
0.0
 11
399.74596836460069
 21
343.75847414918729
 31
0.0
  0
LINE
  5
AA8F
  8
0
 10
390.24596773875192
 20
513.20573800410557
 30
0.0
 11
392.495968573217
 21
513.20573800410557
 31
0.0
  0
LINE
  5
AA90
  8
0
 10
392.49596857321649
 20
502.01345720495522
 30
0.0
 11
392.495968573217
 21
513.20573800410557
 31
0.0
  0
LINE
  5
AA91
  8
0
 10
392.49596857321649
 20
502.01345720495522
 30
0.0
 11
396.49596922886758
 21
502.01345720495522
 31
0.0
  0
LINE
  5
AA92
  8
0
 10
396.49596922886758
 20
502.01345720495522
 30
0.0
 11
396.49596922886798
 21
513.20573800410557
 31
0.0
  0
LINE
  5
AA93
  8
0
 10
396.49596922886798
 20
513.20573800410557
 30
0.0
 11
398.74596633804282
 21
513.20573800410557
 31
0.0
  0
LINE
  5
AA94
  8
0
 10
389.49596621883347
 20
520.35984696056175
 30
0.0
 11
399.4959678579612
 21
520.35984696056175
 31
0.0
  0
LINE
  5
AA95
  8
0
 10
389.49596621883302
 20
501.0623850038225
 30
0.0
 11
389.49596621883347
 21
520.35984696056175
 31
0.0
  0
LINE
  5
AA96
  8
0
 10
389.49596621883302
 20
501.0623850038225
 30
0.0
 11
399.49596785796081
 21
501.06238500382238
 31
0.0
  0
LINE
  5
AA97
  8
0
 10
399.49596785796081
 20
501.06238500382238
 30
0.0
 11
399.4959678579612
 21
520.35984696056175
 31
0.0
  0
LINE
  5
AA98
  8
0
 10
396.49596922886798
 20
513.20447862315405
 30
0.0
 11
398.74596633804282
 21
513.20447862315405
 31
0.0
  0
LINE
  5
AA99
  8
0
 10
390.24596773875192
 20
513.20447862315405
 30
0.0
 11
392.495968573217
 21
513.20447862315405
 31
0.0
  0
LINE
  5
AB49
  8
0
 10
389.24596943748429
 20
343.45847279616191
 30
0.0
 11
389.49596621883347
 21
343.45847279616203
 31
0.0
  0
LINE
  5
AB4A
  8
0
 10
389.49596621883347
 20
343.55847076364353
 30
0.0
 11
392.495968573217
 21
343.55847076364353
 31
0.0
  0
LINE
  5
AB4B
  8
0
 10
399.4959678579612
 20
343.45847279616191
 30
0.0
 11
399.74596836460069
 21
343.45847279616191
 31
0.0
  0
LINE
  5
AB4C
  8
0
 10
396.49596922886758
 20
343.55847076364353
 30
0.0
 11
399.4959678579612
 21
343.55847076364353
 31
0.0
  0
LINE
  5
AB4D
  8
0
 10
396.49596922886798
 20
343.5684731680949
 30
0.0
 11
392.495968573217
 21
343.5684731680949
 31
0.0
  0
POLYLINE
  5
AB58
  8
0
 66
     1
 10
0.0
 20
0.0
 30
0.0
 70
     2
  0
VERTEX
  5
AB59
  8
0
 10
389.24596761954263
 20
341.35787130590529
 30
0.0
 42
0.0706708197567096
  0
VERTEX
  5
AB5A
  8
0
 10
389.27904682243161
 20
341.2763515555564
 30
0.0
 42
0.1082010224203544
 70
     1
  0
VERTEX
  5
AB5B
  8
0
 10
389.31814247345659
 20
341.2337191854362
 30
0.0
 42
0.0235774632857346
  0
VERTEX
  5
AB5C
  8
0
 10
389.38567745583168
 20
341.1908176210228
 30
0.0
 42
0.0425189110177925
 70
     1
  0
VERTEX
  5
AB5D
  8
0
 10
389.42598494591579
 20
341.17214590251291
 30
0.0
 42
0.0234074040307269
  0
VERTEX
  5
AB5E
  8
0
 10
389.48689406773161
 20
341.15317027032899
 30
0.0
 42
0.012007883688412
 70
     1
  0
VERTEX
  5
AB5F
  8
0
 10
389.60789742279582
 20
341.12468630563632
 30
0.0
 42
0.0340361366129953
  0
VERTEX
  5
AB60
  8
0
 10
389.65793853789268
 20
341.11767888261329
 30
0.0
 42
0.0195119909766773
 70
     1
  0
VERTEX
  5
AB61
  8
0
 10
389.74596672547301
 20
341.11485541649648
 30
0.0
  0
SEQEND
  5
AB62
  8
0
  0
POLYLINE
  5
AB63
  8
0
 66
     1
 10
0.0
 20
0.0
 30
0.0
 70
     2
  0
VERTEX
  5
AB64
  8
0
 10
399.74597018254241
 20
341.35787130590529
 30
0.0
 42
-0.0706708197567096
  0
VERTEX
  5
AB65
  8
0
 10
399.71289097965291
 20
341.2763515555564
 30
0.0
 42
-0.1082010224203544
 70
     1
  0
VERTEX
  5
AB66
  8
0
 10
399.67379532862827
 20
341.2337191854362
 30
0.0
 42
-0.0235774632857346
  0
VERTEX
  5
AB67
  8
0
 10
399.60626034625329
 20
341.1908176210228
 30
0.0
 42
-0.0425189110177925
 70
     1
  0
VERTEX
  5
AB68
  8
0
 10
399.56595285616868
 20
341.17214590251291
 30
0.0
 42
-0.0234074040307269
  0
VERTEX
  5
AB69
  8
0
 10
399.50504373435302
 20
341.15317027032899
 30
0.0
 42
-0.012007883688412
 70
     1
  0
VERTEX
  5
AB6A
  8
0
 10
399.38404037928922
 20
341.12468630563632
 30
0.0
 42
-0.0340361366129953
  0
VERTEX
  5
AB6B
  8
0
 10
399.3339992641923
 20
341.11767888261329
 30
0.0
 42
-0.0195119909766773
 70
     1
  0
VERTEX
  5
AB6C
  8
0
 10
399.24597107661202
 20
341.11485541649648
 30
0.0
  0
SEQEND
  5
AB6D
  8
0
  0
LINE
  5
AB93
  8
0
 10
390.24596773875192
 20
513.20573800410557
 30
0.0
 11
394.49596890104249
 21
519.40877475942909
 31
0.0
  0
LINE
  5
AB94
  8
0
 10
394.49596890104249
 20
519.40877475942909
 30
0.0
 11
398.74596633804282
 21
513.20573800410557
 31
0.0
  0
LINE
  5
AD41
  8
0
 10
396.49596922886798
 20
341.5569803196986
 30
0.0
 11
392.495968573217
 21
341.5569803196986
 31
0.0
  0
LINE
  5
AD42
  8
0
 10
396.49596922886798
 20
341.5569803196986
 30
0.0
 11
396.49596922886798
 21
343.5684731680949
 31
0.0
  0
LINE
  5
AD43
  8
0
 10
392.495968573217
 20
341.5569803196986
 30
0.0
 11
392.495968573217
 21
343.5684731680949
 31
0.0
  0
ARC
  5
B70F
  8
0
 10
417.01376097231997
 20
547.63096515869086
 30
0.0
 40
1.507701106668643
 50
306.60648530331252
 51
53.393514696687483
  0
ARC
  5
B710
  8
0
 10
416.87573844473451
 20
556.38299097053641
 30
0.0
 40
1.664621294018884
 50
308.53683503296122
 51
356.83960816976099
  0
LINE
  5
B711
  8
0
 10
417.91282687641569
 20
546.4206581203149
 30
0.0
 11
417.91282687641569
 21
555.0809112351227
 31
0.0
  0
ARC
  5
B712
  8
0
 10
410.07003573087229
 20
547.63096515869086
 30
0.0
 40
1.507701106668643
 50
126.6064853033125
 51
233.3935146966875
  0
ARC
  5
B713
  8
0
 10
410.2080582584577
 20
556.38299097053641
 30
0.0
 40
1.664621294018884
 50
183.16039183023901
 51
231.4631649670541
  0
LINE
  5
B714
  8
0
 10
409.17096982677663
 20
546.4206581203149
 30
0.0
 11
409.17096982677663
 21
555.0809112351227
 31
0.0
  0
LINE
  5
B717
  8
0
 10
418.54597030175159
 20
556.29121827349866
 30
0.0
 11
418.54597030175159
 21
578.65184161734123
 31
0.0
  0
LINE
  5
B718
  8
0
 10
408.54596866262381
 20
547.63096515869086
 30
0.0
 11
408.54596866262381
 21
525.86656083519983
 31
0.0
  0
ARC
  5
B719
  8
0
 10
412.38732363941881
 20
352.74423301468602
 30
0.0
 40
3.8391994190974801
 50
146.9050003600619
 51
213.09499963994219
  0
ARC
  5
B71A
  8
0
 10
412.43333466806939
 20
347.7265740028584
 30
0.0
 40
3.8874044967946828
 50
147.0571836597058
 51
179.73965736374981
  0
LINE
  5
B71B
  8
0
 10
409.17097146590459
 20
349.84055131088741
 30
0.0
 11
409.17097146590459
 21
354.84054665427522
 31
0.0
  0
ARC
  5
B71C
  8
0
 10
414.70461696408421
 20
352.74423301468602
 30
0.0
 40
3.8391994190975112
 50
326.90500036006188
 51
33.094999639938059
  0
LINE
  5
B71D
  8
0
 10
417.9209691375986
 20
354.84054665427522
 30
0.0
 11
417.9209691375986
 21
349.84055131088741
 31
0.0
  0
ARC
  5
B71E
  8
0
 10
414.6586059354338
 20
347.7265740028584
 30
0.0
 40
3.887404496794713
 50
0.2603426362501957
 51
32.942816340294151
  0
LINE
  5
B721
  8
0
 10
418.54597030175159
 20
347.74423767130281
 30
0.0
 11
418.54597030175159
 21
341.7584738213618
 31
0.0
  0
LINE
  5
B722
  8
0
 10
408.54596866262381
 20
352.74029202384241
 30
0.0
 11
408.54596866262381
 21
364.5084752220709
 31
0.0
  0
ARC
  5
B762
  8
0
 10
417.021903233503
 20
122.1782578516524
 30
0.0
 40
1.507701106668643
 50
306.60648530331258
 51
53.393514696687383
  0
ARC
  5
B763
  8
0
 10
416.88388070591759
 20
130.93028366349779
 30
0.0
 40
1.664621294018884
 50
308.53683503296111
 51
356.83960816976088
  0
LINE
  5
B764
  8
0
 10
417.92096913759877
 20
120.9679508132763
 30
0.0
 11
417.92096913759877
 21
129.62820392808419
 31
0.0
  0
ARC
  5
B765
  8
0
 10
410.07817799205537
 20
122.1782578516524
 30
0.0
 40
1.507701106668643
 50
126.6064853033126
 51
233.39351469668739
  0
ARC
  5
B766
  8
0
 10
410.21620051964089
 20
130.93028366349779
 30
0.0
 40
1.664621294018884
 50
183.16039183023909
 51
231.4631649670543
  0
LINE
  5
B767
  8
0
 10
409.1791120879596
 20
120.9679508132763
 30
0.0
 11
409.1791120879596
 21
129.62820392808419
 31
0.0
  0
LINE
  5
B76B
  8
0
 10
418.54597030175159
 20
130.83851096646021
 30
0.0
 11
418.54597030175159
 21
152.62102302399771
 31
0.0
  0
LINE
  5
B76C
  8
0
 10
408.54624455447919
 20
122.17825785164371
 30
0.0
 11
408.54644549978201
 21
100.00532832232609
 31
0.0
  0
LINE
  5
B76D
  8
0
 10
578.42219781744609
 20
353.12239395090432
 30
0.0
 11
571.49399393690192
 21
349.12239507720301
 31
0.0
  0
LINE
  5
B76E
  8
0
 10
571.49399393690214
 20
349.1223950772025
 30
0.0
 11
574.49399599420406
 21
343.92624197963482
 31
0.0
  0
LINE
  5
B76F
  8
0
 10
578.42219781744643
 20
353.12239395090381
 30
0.0
 11
581.42219987474823
 21
347.92624085333608
 31
0.0
  0
LINE
  5
B770
  8
0
 10
581.42219987474834
 20
347.92624085333608
 30
0.0
 11
574.49399599420406
 21
343.92624197963482
 31
0.0
  0
LINE
  5
B773
  8
0
 10
153.60240342401809
 20
353.12239395090432
 30
0.0
 11
160.53060730456241
 21
349.12239507720301
 31
0.0
  0
LINE
  5
B774
  8
0
 10
160.53060730456221
 20
349.1223950772025
 30
0.0
 11
157.5306052472601
 21
343.92624197963482
 31
0.0
  0
LINE
  5
B775
  8
0
 10
153.60240342401789
 20
353.12239395090381
 30
0.0
 11
150.60240136671609
 21
347.92624085333608
 31
0.0
  0
LINE
  5
B776
  8
0
 10
150.60240136671581
 20
347.92624085333608
 30
0.0
 11
157.5306052472601
 21
343.92624197963482
 31
0.0
  0
TEXT
  5
B8DA
  8
0
 62
     3
 10
0.0
 20
0.0
 30
0.0
 40
10.0
  1
QLRC-12R
  7
STANDARD1
  0
ENDSEC
  0
EOF
