  0
SECTION
  2
HEADER
  9
$ACADVER
  1
AC1009
  9
$INSBASE
 10
0.0
 20
0.0
 30
0.0
  9
$EXTMIN
 10
0.0
 20
-2.960436562073669
 30
0.0
  9
$EXTMAX
 10
495.68256232899279
 20
403.92891306950651
 30
0.0
  9
$LIMMIN
 10
0.0
 20
0.0
  9
$LIMMAX
 10
375.0
 20
270.0
  9
$ORTHOMODE
 70
     1
  9
$REGENMODE
 70
     1
  9
$FILLMODE
 70
     1
  9
$QTEXTMODE
 70
     0
  9
$MIRRTEXT
 70
     0
  9
$DRAGMODE
 70
     2
  9
$LTSCALE
 40
10.0
  9
$OSMODE
 70
  3071
  9
$ATTMODE
 70
     1
  9
$TEXTSIZE
 40
6.0
  9
$TRACEWID
 40
0.05
  9
$TEXTSTYLE
  7
STANDARD
  9
$CLAYER
  8
0
  9
$CELTYPE
  6
BYLAYER
  9
$CECOLOR
 62
   256
  9
$DIMSCALE
 40
1.0
  9
$DIMASZ
 40
3.0
  9
$DIMEXO
 40
2.0
  9
$DIMDLI
 40
0.3799999999999999
  9
$DIMRND
 40
0.0
  9
$DIMDLE
 40
0.0
  9
$DIMEXE
 40
2.0
  9
$DIMTP
 40
0.0
  9
$DIMTM
 40
0.0
  9
$DIMTXT
 40
3.2000000000000002
  9
$DIMCEN
 40
0.09
  9
$DIMTSZ
 40
0.0
  9
$DIMTOL
 70
     0
  9
$DIMLIM
 70
     0
  9
$DIMTIH
 70
     0
  9
$DIMTOH
 70
     0
  9
$DIMSE1
 70
     0
  9
$DIMSE2
 70
     0
  9
$DIMTAD
 70
     1
  9
$DIMZIN
 70
     9
  9
$DIMBLK
  1

  9
$DIMASO
 70
     0
  9
$DIMSHO
 70
     0
  9
$DIMPOST
  1

  9
$DIMAPOST
  1

  9
$DIMALT
 70
     0
  9
$DIMALTD
 70
     2
  9
$DIMALTF
 40
25.399999999999999
  9
$DIMLFAC
 40
1.0
  9
$DIMTOFL
 70
     0
  9
$DIMTVP
 40
0.0
  9
$DIMTIX
 70
     0
  9
$DIMSOXD
 70
     0
  9
$DIMSAH
 70
     0
  9
$DIMBLK1
  1

  9
$DIMBLK2
  1

  9
$DIMSTYLE
  2
STANDARD
  9
$DIMCLRD
 70
     0
  9
$DIMCLRE
 70
     0
  9
$DIMCLRT
 70
     0
  9
$DIMTFAC
 40
1.0
  9
$DIMGAP
 40
0.09
  9
$LUNITS
 70
     2
  9
$LUPREC
 70
     4
  9
$SKETCHINC
 40
0.1
  9
$FILLETRAD
 40
20.0
  9
$AUNITS
 70
     0
  9
$AUPREC
 70
     0
  9
$MENU
  1
E:\r13\win\SUPPORT\ACAD
  9
$ELEVATION
 40
0.0
  9
$PELEVATION
 40
0.0
  9
$THICKNESS
 40
0.0
  9
$LIMCHECK
 70
     0
  9
$BLIPMODE
 70
     0
  9
$CHAMFERA
 40
0.0
  9
$CHAMFERB
 40
0.0
  9
$SKPOLY
 70
     0
  9
$TDCREATE
 40
2449840.6320370371
  9
$TDUPDATE
 40
2456598.4294879399
  9
$TDINDWG
 40
0.6525285764
  9
$TDUSRTIMER
 40
0.6525285764
  9
$USRTIMER
 70
     1
  9
$ANGBASE
 50
0.0
  9
$ANGDIR
 70
     0
  9
$PDMODE
 70
     0
  9
$PDSIZE
 40
0.0
  9
$PLINEWID
 40
0.0
  9
$COORDS
 70
     1
  9
$SPLFRAME
 70
     0
  9
$SPLINETYPE
 70
     6
  9
$SPLINESEGS
 70
     8
  9
$ATTDIA
 70
     0
  9
$ATTREQ
 70
     1
  9
$HANDLING
 70
     1
  9
$HANDSEED
  5
1105B
  9
$SURFTAB1
 70
     6
  9
$SURFTAB2
 70
     6
  9
$SURFTYPE
 70
     6
  9
$SURFU
 70
     6
  9
$SURFV
 70
     6
  9
$UCSNAME
  2

  9
$UCSORG
 10
0.0
 20
0.0
 30
0.0
  9
$UCSXDIR
 10
1.0
 20
0.0
 30
0.0
  9
$UCSYDIR
 10
0.0
 20
1.0
 30
0.0
  9
$PUCSNAME
  2

  9
$PUCSORG
 10
0.0
 20
0.0
 30
0.0
  9
$PUCSXDIR
 10
1.0
 20
0.0
 30
0.0
  9
$PUCSYDIR
 10
0.0
 20
1.0
 30
0.0
  9
$USERI1
 70
     0
  9
$USERI2
 70
     1
  9
$USERI3
 70
     0
  9
$USERI4
 70
     0
  9
$USERI5
 70
     0
  9
$USERR1
 40
0.0
  9
$USERR2
 40
0.0
  9
$USERR3
 40
0.0
  9
$USERR4
 40
0.0
  9
$USERR5
 40
0.0
  9
$WORLDVIEW
 70
     1
  9
$SHADEDGE
 70
     3
  9
$SHADEDIF
 70
    70
  9
$TILEMODE
 70
     1
  9
$MAXACTVP
 70
    16
  9
$PLIMCHECK
 70
     0
  9
$PEXTMIN
 10
1.0000000000000000E+020
 20
1.0000000000000000E+020
 30
1.0000000000000000E+020
  9
$PEXTMAX
 10
-1.0000000000000000E+020
 20
-1.0000000000000000E+020
 30
-1.0000000000000000E+020
  9
$PLIMMIN
 10
0.0
 20
0.0
  9
$PLIMMAX
 10
12.0
 20
9.0
  9
$UNITMODE
 70
     0
  9
$VISRETAIN
 70
     0
  9
$PLINEGEN
 70
     0
  9
$PSLTSCALE
 70
     0
  0
ENDSEC
  0
SECTION
  2
TABLES
  0
TABLE
  2
VPORT
 70
     1
  0
VPORT
  2
*ACTIVE
 70
     0
 10
0.0
 20
0.0
 11
1.0
 21
1.0
 12
247.84128231859731
 22
224.13085705271851
 13
0.0
 23
0.0
 14
10.0
 24
10.0
 15
10.0
 25
10.0
 16
0.0
 26
0.0
 36
1.0
 17
0.0
 27
0.0
 37
0.0
 40
459.9076677948118
 41
2.304913294797688
 42
50.0
 43
0.0
 44
0.0
 50
0.0
 51
0.0
 71
     0
 72
   500
 73
     1
 74
     0
 75
     0
 76
     0
 77
     0
 78
     0
  0
ENDTAB
  0
TABLE
  2
LTYPE
 70
     3
  0
LTYPE
  2
CONTINUOUS
 70
     0
  3
Solid Line
 72
    65
 73
     0
 40
0.0
  0
LTYPE
  2
CENTER
 70
     0
  3
____ _ ____ _ ____ _ ____ _ ____ _ ____ _ ____
 72
    65
 73
     4
 40
2.0
 49
1.25
 49
-0.25
 49
0.25
 49
-0.25
  0
LTYPE
  2
PHANTOM2
 70
     0
  3
___ _ _ ___ _ _ ___ _ _ ___ _ _
 72
    65
 73
     6
 40
1.25
 49
0.625
 49
-0.125
 49
0.125
 49
-0.125
 49
0.125
 49
-0.125
  0
ENDTAB
  0
TABLE
  2
LAYER
 70
     3
  0
LAYER
  2
0
 70
     0
 62
     7
  6
CONTINUOUS
  0
LAYER
  2
1
 70
     0
 62
     1
  6
CENTER
  0
LAYER
  2
DEFPOINTS
 70
     0
 62
     7
  6
CONTINUOUS
  0
ENDTAB
  0
TABLE
  2
STYLE
 70
     2
  0
STYLE
  2
STANDARD
 70
     0
 40
0.0
 41
1.0
 50
0.0
 71
     0
 42
6.0
  3
TXT
  4
BIGFONT
  0
STYLE
  2
STANDARD1
 70
     0
 40
0.0
 41
1.0
 50
0.0
 71
     0
 42
3.0
  3
txt
  4

  0
ENDTAB
  0
TABLE
  2
VIEW
 70
     1
  0
VIEW
  2
ALL
 70
     0
 40
270.0
 10
213.25689075630251
 20
135.0
 41
0.0
 11
0.0
 21
0.0
 31
1.0
 12
0.0
 22
0.0
 32
0.0
 42
0.0
 43
0.0
 44
0.0
 50
0.0
 71
     0
  0
ENDTAB
  0
TABLE
  2
UCS
 70
     0
  0
ENDTAB
  0
TABLE
  2
APPID
 70
     6
  0
APPID
  2
ACAD
 70
     0
  0
APPID
  2
ACAD_EXEMPT_FROM_CAD_STANDARDS
 70
     0
  0
APPID
  2
ACAD_MLEADERVER
 70
     0
  0
APPID
  2
ACAD_DSTYLE_DIMJAG
 70
     0
  0
APPID
  2
ACAD_DSTYLE_DIMTALN
 70
     0
  0
APPID
  2
ACAD_NAV_VCDISPLAY
 70
     0
  0
ENDTAB
  0
TABLE
  2
DIMSTYLE
 70
     1
  0
DIMSTYLE
  2
STANDARD
 70
     0
  3

  4

  5

  6

  7

 40
1.0
 41
0.18
 42
0.0625
 43
0.38
 44
0.18
 45
0.0
 46
0.0
 47
0.0
 48
0.0
140
0.18
141
0.09
142
0.0
143
25.399999999999999
144
1.0
145
0.0
146
1.0
147
0.09
 71
     0
 72
     0
 73
     1
 74
     1
 75
     0
 76
     0
 77
     0
 78
     0
170
     0
171
     2
172
     0
173
     0
174
     0
175
     0
176
     0
177
     0
178
     0
  0
ENDTAB
  0
ENDSEC
  0
SECTION
  2
BLOCKS
  0
BLOCK
  8
0
  2
$MODEL_SPACE
 70
     0
 10
0.0
 20
0.0
 30
0.0
  3
$MODEL_SPACE
  1

  0
ENDBLK
  5
126
  8
0
  0
BLOCK
 67
     1
  8
0
  2
$PAPER_SPACE
 70
     0
 10
0.0
 20
0.0
 30
0.0
  3
$PAPER_SPACE
  1

  0
ENDBLK
  5
124
 67
     1
  8
0
  0
ENDSEC
  0
SECTION
  2
ENTITIES
  0
LINE
  5
B772
  8
0
 10
311.74162396420621
 20
246.2948641077497
 30
0.0
 11
304.24162366618287
 21
246.2948641077497
 31
0.0
  0
LINE
  5
B773
  8
0
 10
311.74162396420621
 20
231.89048341371799
 30
0.0
 11
311.74162396420621
 21
246.2948641077497
 31
0.0
  0
LINE
  5
B774
  8
0
 10
311.74162396420621
 20
231.89048341371799
 30
0.0
 11
304.24162366618287
 21
231.89048341371799
 31
0.0
  0
LINE
  5
B775
  8
0
 10
304.24162366618287
 20
231.89048341371799
 30
0.0
 11
304.24162366618287
 21
246.2948641077497
 31
0.0
  0
LINE
  5
B7CC
  8
0
 10
304.49162417282241
 20
230.9582034394958
 30
0.0
 11
311.49162345756667
 21
230.9582034394958
 31
0.0
  0
LINE
  5
B7CD
  8
0
 10
303.99162315954351
 20
246.80365494348811
 30
0.0
 11
303.9916250221886
 21
231.3816916466572
 31
0.0
  0
LINE
  5
B7CE
  8
0
 10
311.99162447084558
 20
246.80365494348811
 30
0.0
 11
311.99162447084558
 21
231.3816916466572
 31
0.0
  0
LINE
  5
B7D0
  8
0
 10
304.49162417282241
 20
247.22714408197189
 30
0.0
 11
311.49162345756667
 21
247.22714408197189
 31
0.0
  0
LINE
  5
B7EE
  8
0
 10
304.24162366618287
 20
375.91891259475528
 30
0.0
 11
306.49162450064802
 21
375.91891259475551
 31
0.0
  0
LINE
  5
B7EF
  8
0
 10
306.49162450064802
 20
403.91891345902258
 30
0.0
 11
304.24162366618287
 21
403.91891345902258
 31
0.0
  0
LINE
  5
B7F0
  8
0
 10
311.74162396420621
 20
403.91891345902258
 30
0.0
 11
309.49162312974107
 21
403.91891345902258
 31
0.0
  0
LINE
  5
B7F1
  8
0
 10
309.49162312974107
 20
403.92891306950622
 30
0.0
 11
306.49162450064802
 21
403.92891306950622
 31
0.0
  0
LINE
  5
B808
  8
0
 10
311.99162447084558
 20
403.61891303731971
 30
0.0
 11
311.74162396420621
 21
403.61891303731971
 31
0.0
  0
LINE
  5
B809
  8
0
 10
304.24162366618287
 20
403.61891303731971
 30
0.0
 11
303.9916250221886
 21
403.61891303731971
 31
0.0
  0
LINE
  5
B80A
  8
0
 10
303.9916250221886
 20
376.2189130164582
 30
0.0
 11
304.24162366618287
 21
376.2189130164582
 31
0.0
  0
LINE
  5
B80B
  8
0
 10
311.74162396420621
 20
376.2189130164582
 30
0.0
 11
311.99162447084558
 21
376.2189130164582
 31
0.0
  0
LINE
  5
B80C
  8
0
 10
311.74162396420621
 20
375.91891259475528
 30
0.0
 11
311.74162396420621
 21
378.03270284606992
 31
0.0
  0
LINE
  5
B80D
  8
0
 10
304.24162366618287
 20
375.91891259475528
 30
0.0
 11
304.24162366618287
 21
378.03270284606992
 31
0.0
  0
LINE
  5
B80E
  8
0
 10
311.74162396420621
 20
378.03270284606992
 30
0.0
 11
304.24162366618287
 21
378.03270284606992
 31
0.0
  0
LINE
  5
B80F
  8
0
 10
310.99162388651303
 20
375.99041528775501
 30
0.0
 11
309.4916208466762
 21
375.99041553362531
 31
0.0
  0
LINE
  5
B810
  8
0
 10
309.49162083331697
 20
375.90891456379819
 30
0.0
 11
309.4916208466762
 21
375.99041553362531
 31
0.0
  0
LINE
  5
B811
  8
0
 10
306.49162220422392
 20
375.90891505553759
 30
0.0
 11
306.49162221758297
 21
375.99041602536482
 31
0.0
  0
LINE
  5
B812
  8
0
 10
306.49162221758297
 20
375.99041602536482
 30
0.0
 11
304.99162290303639
 21
375.99041627123461
 31
0.0
  0
LINE
  5
B813
  8
0
 10
304.24162366618287
 20
401.8904239736396
 30
0.0
 11
304.24162366618287
 21
403.91891345902258
 31
0.0
  0
LINE
  5
B814
  8
0
 10
311.74162396420621
 20
401.80512320770799
 30
0.0
 11
311.74162396420621
 21
403.91891345902258
 31
0.0
  0
LINE
  5
B815
  8
0
 10
311.74162396420621
 20
401.80512320770799
 30
0.0
 11
304.24162366618287
 21
401.80512320770799
 31
0.0
  0
LINE
  5
B816
  8
0
 10
304.24162366618287
 20
401.8904239736396
 30
0.0
 11
304.24162366618287
 21
401.80512320770799
 31
0.0
  0
LINE
  5
B81F
  8
0
 10
304.49162417282241
 20
401.5361404843527
 30
0.0
 11
311.49162345756667
 21
401.5361404843527
 31
0.0
  0
LINE
  5
B820
  8
0
 10
304.49162417282241
 20
378.30168556942522
 30
0.0
 11
311.49162345756667
 21
378.30168556942522
 31
0.0
  0
LINE
  5
B825
  8
0
 10
303.99457733953818
 20
401.77967626829621
 30
0.0
 11
303.9916250221886
 21
403.91891345902258
 31
0.0
  0
LINE
  5
B826
  8
0
 10
311.99162447084592
 20
401.8030593968835
 30
0.0
 11
311.99162447084558
 21
403.91891345902258
 31
0.0
  0
LINE
  5
B82A
  8
0
 10
303.99162315954351
 20
378.03476665689527
 30
0.0
 11
303.9916250221886
 21
375.91891259475528
 31
0.0
  0
LINE
  5
B82C
  8
0
 10
311.99162447084558
 20
378.03476665689527
 30
0.0
 11
311.99162447084558
 21
375.91891259475528
 31
0.0
  0
ARC
  5
B873
  8
0
 10
311.52705826414513
 20
246.76206818095221
 30
0.0
 40
0.4664238621966723
 50
5.1153350465459599
 51
94.357030395543291
  0
ARC
  5
B874
  8
0
 10
304.45618936624402
 20
246.76206818095221
 30
0.0
 40
0.4664238621966723
 50
85.642969604456724
 51
174.88466495345401
  0
ARC
  5
B875
  8
0
 10
311.52705826414513
 20
231.42327902759109
 30
0.0
 40
0.4664238621966723
 50
265.64296960445671
 51
354.88466495345398
  0
ARC
  5
B876
  8
0
 10
304.45618936624402
 20
231.42327902759109
 30
0.0
 40
0.4664238621966723
 50
185.11533504654591
 51
274.35703039554329
  0
POLYLINE
  5
B877
  8
0
 66
     1
 10
0.0
 20
0.0
 30
0.0
  0
VERTEX
  5
10A6F
  8
0
 10
307.99162176526221
 20
377.41270833238332
 30
0.0
  0
VERTEX
  5
10A70
  8
0
 10
308.33849887203309
 20
377.17447129476727
 30
0.0
  0
VERTEX
  5
10A71
  8
0
 10
308.67382590147872
 20
376.95172000662018
 30
0.0
  0
VERTEX
  5
10A72
  8
0
 10
308.95389808538039
 20
376.77230047556827
 30
0.0
  0
VERTEX
  5
10A73
  8
0
 10
309.4090600089749
 20
376.5251023841945
 30
0.0
  0
VERTEX
  5
10A74
  8
0
 10
309.76069842703919
 20
376.3672537635689
 30
0.0
  0
VERTEX
  5
10A75
  8
0
 10
310.23779554136132
 20
376.19829205831229
 30
0.0
  0
VERTEX
  5
10A76
  8
0
 10
310.64731721100452
 20
376.08039395959099
 30
0.0
  0
VERTEX
  5
10A77
  8
0
 10
310.99162388651303
 20
375.99041528775501
 30
0.0
  0
SEQEND
  5
10A78
  8
0
  0
POLYLINE
  5
B878
  8
0
 66
     1
 10
0.0
 20
0.0
 30
0.0
  0
VERTEX
  5
10A79
  8
0
 10
307.99162176526221
 20
377.41270833238332
 30
0.0
  0
VERTEX
  5
10A7A
  8
0
 10
307.64474458039109
 20
377.17447140848282
 30
0.0
  0
VERTEX
  5
10A7B
  8
0
 10
307.30941747792139
 20
376.95172023026498
 30
0.0
  0
VERTEX
  5
10A7C
  8
0
 10
307.02934523520122
 20
376.77230079102787
 30
0.0
  0
VERTEX
  5
10A7D
  8
0
 10
306.57418323056868
 20
376.5251028488683
 30
0.0
  0
VERTEX
  5
10A7E
  8
0
 10
306.22254476075773
 20
376.36725434351911
 30
0.0
  0
VERTEX
  5
10A7F
  8
0
 10
305.74544759104538
 20
376.1982927946674
 30
0.0
  0
VERTEX
  5
10A80
  8
0
 10
305.33592588275218
 20
376.08039483019797
 30
0.0
  0
VERTEX
  5
10A81
  8
0
 10
304.99161917774609
 20
375.99041627123489
 30
0.0
  0
SEQEND
  5
10A82
  8
0
  0
POLYLINE
  5
B879
  8
0
 66
     1
 10
0.0
 20
0.0
 30
0.0
  0
VERTEX
  5
10A83
  8
0
 10
311.49162345756667
 20
378.30168556942522
 30
0.0
  0
VERTEX
  5
10A84
  8
0
 10
311.61409481388893
 20
378.29275395019272
 30
0.0
  0
VERTEX
  5
10A85
  8
0
 10
311.71246334478178
 20
378.27636585604552
 30
0.0
  0
VERTEX
  5
10A86
  8
0
 10
311.79626204080682
 20
378.24541116499881
 30
0.0
  0
VERTEX
  5
10A87
  8
0
 10
311.86183977760243
 20
378.2089946727508
 30
0.0
  0
VERTEX
  5
10A88
  8
0
 10
311.92924307657881
 20
378.16529219151039
 30
0.0
  0
VERTEX
  5
10A89
  8
0
 10
311.9638555814588
 20
378.12159240081218
 30
0.0
  0
VERTEX
  5
10A8A
  8
0
 10
311.9857161108564
 20
378.08153291406802
 30
0.0
  0
VERTEX
  5
10A8B
  8
0
 10
311.99162447084558
 20
378.03476665689527
 30
0.0
  0
SEQEND
  5
10A8C
  8
0
  0
POLYLINE
  5
B87A
  8
0
 66
     1
 10
0.0
 20
0.0
 30
0.0
  0
VERTEX
  5
10A8D
  8
0
 10
304.49162417282241
 20
378.30168556942522
 30
0.0
  0
VERTEX
  5
10A8E
  8
0
 10
304.36915281649999
 20
378.29275395019272
 30
0.0
  0
VERTEX
  5
10A8F
  8
0
 10
304.27078428560708
 20
378.27636585604552
 30
0.0
  0
VERTEX
  5
10A90
  8
0
 10
304.18698558958209
 20
378.24541116499881
 30
0.0
  0
VERTEX
  5
10A91
  8
0
 10
304.12140785278638
 20
378.2089946727508
 30
0.0
  0
VERTEX
  5
10A92
  8
0
 10
304.05400455380999
 20
378.16529219151039
 30
0.0
  0
VERTEX
  5
10A93
  8
0
 10
304.01939204893011
 20
378.12159240081218
 30
0.0
  0
VERTEX
  5
10A94
  8
0
 10
303.99753151953252
 20
378.08153291406802
 30
0.0
  0
VERTEX
  5
10A95
  8
0
 10
303.99162315954351
 20
378.03476665689527
 30
0.0
  0
SEQEND
  5
10A96
  8
0
  0
POLYLINE
  5
B87F
  8
0
 66
     1
 10
0.0
 20
0.0
 30
0.0
  0
VERTEX
  5
10A97
  8
0
 10
311.4916234575669
 20
401.5361404843535
 30
0.0
  0
VERTEX
  5
10A98
  8
0
 10
311.6140948138891
 20
401.54507210358599
 30
0.0
  0
VERTEX
  5
10A99
  8
0
 10
311.71246334478201
 20
401.56146019773331
 30
0.0
  0
VERTEX
  5
10A9A
  8
0
 10
311.79626204080711
 20
401.5924148887799
 30
0.0
  0
VERTEX
  5
10A9B
  8
0
 10
311.8618397776026
 20
401.62883138102802
 30
0.0
  0
VERTEX
  5
10A9C
  8
0
 10
311.92924307657898
 20
401.67253386226838
 30
0.0
  0
VERTEX
  5
10A9D
  8
0
 10
311.96385558145897
 20
401.71623365296659
 30
0.0
  0
VERTEX
  5
10A9E
  8
0
 10
311.98571611085657
 20
401.75629313971069
 30
0.0
  0
VERTEX
  5
10A9F
  8
0
 10
311.99162447084592
 20
401.8030593968835
 30
0.0
  0
SEQEND
  5
10AA0
  8
0
  0
POLYLINE
  5
B880
  8
0
 66
     1
 10
0.0
 20
0.0
 30
0.0
  0
VERTEX
  5
10AA1
  8
0
 10
304.49162417282241
 20
401.5361404843527
 30
0.0
  0
VERTEX
  5
10AA2
  8
0
 10
304.36915281650022
 20
401.54507210358543
 30
0.0
  0
VERTEX
  5
10AA3
  8
0
 10
304.27078428560731
 20
401.56146019773257
 30
0.0
  0
VERTEX
  5
10AA4
  8
0
 10
304.18698558958232
 20
401.59241488877927
 30
0.0
  0
VERTEX
  5
10AA5
  8
0
 10
304.1214078527866
 20
401.62883138102728
 30
0.0
  0
VERTEX
  5
10AA6
  8
0
 10
304.05400455381027
 20
401.67253386226753
 30
0.0
  0
VERTEX
  5
10AA7
  8
0
 10
304.01939204893029
 20
401.71623365296563
 30
0.0
  0
VERTEX
  5
10AA8
  8
0
 10
303.99753151953269
 20
401.75629313970978
 30
0.0
  0
VERTEX
  5
10AA9
  8
0
 10
303.99162315954351
 20
401.80305939688259
 30
0.0
  0
SEQEND
  5
10AAA
  8
0
  0
LINE
  5
B890
  8
0
 10
306.49162450064802
 20
375.90891298427158
 30
0.0
 11
309.49162312974107
 21
375.90891298427192
 31
0.0
  0
LINE
  5
B891
  8
0
 10
309.49162312974107
 20
375.91891259475551
 30
0.0
 11
311.74162396420621
 21
375.91891259475528
 31
0.0
  0
LINE
  5
B895
  8
0
 10
309.49162312974141
 20
139.79510597539681
 30
0.0
 11
311.74162396420621
 21
139.79510597539689
 31
0.0
  0
POLYLINE
  5
B8A5
  8
0
 66
     1
 10
0.0
 20
0.0
 30
0.0
  0
VERTEX
  5
10AAB
  8
0
 10
304.49162417282241
 20
114.17787808579961
 30
0.0
  0
VERTEX
  5
10AAC
  8
0
 10
304.36915281650039
 20
114.16894646656689
 30
0.0
  0
VERTEX
  5
10AAD
  8
0
 10
304.27078428560748
 20
114.15255837241961
 30
0.0
  0
VERTEX
  5
10AAE
  8
0
 10
304.18698558958249
 20
114.121603681373
 30
0.0
  0
VERTEX
  5
10AAF
  8
0
 10
304.12140785278689
 20
114.08518718912499
 30
0.0
  0
VERTEX
  5
10AB0
  8
0
 10
304.0540045538105
 20
114.04148470788471
 30
0.0
  0
VERTEX
  5
10AB1
  8
0
 10
304.01939204893051
 20
113.99778491718649
 30
0.0
  0
VERTEX
  5
10AB2
  8
0
 10
303.99753151953291
 20
113.9577254304423
 30
0.0
  0
VERTEX
  5
10AB3
  8
0
 10
303.99162315954351
 20
113.9109591732697
 30
0.0
  0
SEQEND
  5
10AB4
  8
0
  0
POLYLINE
  5
B8A6
  8
0
 66
     1
 10
0.0
 20
0.0
 30
0.0
  0
VERTEX
  5
10AB5
  8
0
 10
311.4916234575669
 20
114.1778780857987
 30
0.0
  0
VERTEX
  5
10AB6
  8
0
 10
311.6140948138891
 20
114.1689464665662
 30
0.0
  0
VERTEX
  5
10AB7
  8
0
 10
311.71246334478201
 20
114.15255837241889
 30
0.0
  0
VERTEX
  5
10AB8
  8
0
 10
311.79626204080711
 20
114.12160368137231
 30
0.0
  0
VERTEX
  5
10AB9
  8
0
 10
311.8618397776026
 20
114.0851871891243
 30
0.0
  0
VERTEX
  5
10ABA
  8
0
 10
311.92924307657898
 20
114.0414847078838
 30
0.0
  0
VERTEX
  5
10ABB
  8
0
 10
311.96385558145897
 20
113.9977849171856
 30
0.0
  0
VERTEX
  5
10ABC
  8
0
 10
311.98571611085657
 20
113.9577254304414
 30
0.0
  0
VERTEX
  5
10ABD
  8
0
 10
311.99162447084592
 20
113.91095917326879
 30
0.0
  0
SEQEND
  5
10ABE
  8
0
  0
POLYLINE
  5
B8AB
  8
0
 66
     1
 10
0.0
 20
0.0
 30
0.0
  0
VERTEX
  5
10ABF
  8
0
 10
304.49162417282241
 20
137.4123330007271
 30
0.0
  0
VERTEX
  5
10AC0
  8
0
 10
304.36915281650022
 20
137.4212646199596
 30
0.0
  0
VERTEX
  5
10AC1
  8
0
 10
304.27078428560731
 20
137.43765271410689
 30
0.0
  0
VERTEX
  5
10AC2
  8
0
 10
304.18698558958232
 20
137.46860740515351
 30
0.0
  0
VERTEX
  5
10AC3
  8
0
 10
304.1214078527866
 20
137.50502389740149
 30
0.0
  0
VERTEX
  5
10AC4
  8
0
 10
304.05400455381027
 20
137.5487263786419
 30
0.0
  0
VERTEX
  5
10AC5
  8
0
 10
304.01939204893029
 20
137.59242616934009
 30
0.0
  0
VERTEX
  5
10AC6
  8
0
 10
303.99753151953269
 20
137.6324856560843
 30
0.0
  0
VERTEX
  5
10AC7
  8
0
 10
303.99162315954351
 20
137.67925191325699
 30
0.0
  0
SEQEND
  5
10AC8
  8
0
  0
POLYLINE
  5
B8AC
  8
0
 66
     1
 10
0.0
 20
0.0
 30
0.0
  0
VERTEX
  5
10AC9
  8
0
 10
311.49162345756667
 20
137.4123330007271
 30
0.0
  0
VERTEX
  5
10ACA
  8
0
 10
311.6140948138891
 20
137.4212646199596
 30
0.0
  0
VERTEX
  5
10ACB
  8
0
 10
311.71246334478201
 20
137.43765271410689
 30
0.0
  0
VERTEX
  5
10ACC
  8
0
 10
311.79626204080711
 20
137.46860740515351
 30
0.0
  0
VERTEX
  5
10ACD
  8
0
 10
311.8618397776026
 20
137.50502389740149
 30
0.0
  0
VERTEX
  5
10ACE
  8
0
 10
311.92924307657898
 20
137.5487263786419
 30
0.0
  0
VERTEX
  5
10ACF
  8
0
 10
311.96385558145897
 20
137.59242616934009
 30
0.0
  0
VERTEX
  5
10AD0
  8
0
 10
311.98571611085657
 20
137.6324856560843
 30
0.0
  0
VERTEX
  5
10AD1
  8
0
 10
311.99162447084558
 20
137.67925191325699
 30
0.0
  0
SEQEND
  5
10AD2
  8
0
  0
LINE
  5
B8BD
  8
0
 10
311.99162447084558
 20
137.67925191325699
 30
0.0
 11
311.99162447084558
 21
139.79510597539689
 31
0.0
  0
LINE
  5
B8BF
  8
0
 10
303.99162315954351
 20
137.67925191325699
 30
0.0
 11
303.9916250221886
 21
139.79510597539689
 31
0.0
  0
LINE
  5
B8C3
  8
0
 10
311.99162447084592
 20
113.91095917326879
 30
0.0
 11
311.99162447084558
 21
111.7951051111296
 31
0.0
  0
LINE
  5
B8C4
  8
0
 10
303.99457733953818
 20
113.93434230185611
 30
0.0
 11
303.9916250221886
 21
111.7951051111296
 31
0.0
  0
LINE
  5
B8C9
  8
0
 10
304.49162417282241
 20
137.4123330007271
 30
0.0
 11
311.49162345756667
 21
137.4123330007271
 31
0.0
  0
LINE
  5
B8CA
  8
0
 10
304.49162417282241
 20
114.17787808579961
 30
0.0
 11
311.49162345756667
 21
114.17787808579961
 31
0.0
  0
LINE
  5
B8D3
  8
0
 10
304.24162366618287
 20
113.82359459651271
 30
0.0
 11
304.24162366618287
 21
113.9088953624443
 31
0.0
  0
LINE
  5
B8D4
  8
0
 10
311.74162396420621
 20
113.9088953624443
 30
0.0
 11
304.24162366618287
 21
113.9088953624443
 31
0.0
  0
LINE
  5
B8D5
  8
0
 10
311.74162396420638
 20
113.9088953624443
 30
0.0
 11
311.74162396420621
 21
111.7951051111296
 31
0.0
  0
LINE
  5
B8D6
  8
0
 10
304.24162366618287
 20
113.82359459651271
 30
0.0
 11
304.24162366618287
 21
111.7951051111296
 31
0.0
  0
LINE
  5
B8D7
  8
0
 10
311.74162396420621
 20
137.6813157240824
 30
0.0
 11
304.24162366618287
 21
137.6813157240824
 31
0.0
  0
LINE
  5
B8D8
  8
0
 10
304.24162366618287
 20
139.79510597539689
 30
0.0
 11
304.24162366618287
 21
137.6813157240824
 31
0.0
  0
LINE
  5
B8D9
  8
0
 10
311.74162396420621
 20
139.79510597539689
 30
0.0
 11
311.74162396420621
 21
137.6813157240824
 31
0.0
  0
LINE
  5
B8DA
  8
0
 10
311.74162396420621
 20
139.49510555369409
 30
0.0
 11
311.99162447084558
 21
139.49510555369409
 31
0.0
  0
LINE
  5
B8DB
  8
0
 10
303.9916250221886
 20
139.49510555369409
 30
0.0
 11
304.24162366618287
 21
139.49510555369409
 31
0.0
  0
LINE
  5
B8DC
  8
0
 10
304.24162366618287
 20
112.09510553283241
 30
0.0
 11
303.9916250221886
 21
112.09510553283241
 31
0.0
  0
LINE
  5
B8DD
  8
0
 10
311.99162447084558
 20
112.09510553283241
 30
0.0
 11
311.74162396420621
 21
112.09510553283241
 31
0.0
  0
LINE
  5
B8F2
  8
0
 10
311.74162396420621
 20
111.7951051111296
 30
0.0
 11
309.49162312974107
 21
111.7951051111296
 31
0.0
  0
LINE
  5
B8F3
  8
0
 10
306.49162450064802
 20
111.7951051111296
 30
0.0
 11
304.24162366618287
 21
111.7951051111296
 31
0.0
  0
LINE
  5
B8F4
  8
0
 10
304.24162366618287
 20
139.79510597539689
 30
0.0
 11
306.49162450064802
 21
139.79510597539681
 31
0.0
  0
LINE
  5
B8FA
  8
0
 10
310.99163592449207
 20
111.86660261851711
 30
0.0
 11
309.4916328846557
 21
111.8666015679805
 31
0.0
  0
LINE
  5
B8FB
  8
0
 10
309.49163294173542
 20
111.78510059815331
 30
0.0
 11
309.4916328846557
 21
111.8666015679805
 31
0.0
  0
LINE
  5
B8FC
  8
0
 10
306.49163431264287
 20
111.7850984970853
 30
0.0
 11
306.49163425556321
 21
111.8665994669125
 31
0.0
  0
LINE
  5
B8FD
  8
0
 10
306.49163425556321
 20
111.8665994669125
 30
0.0
 11
304.9916349410168
 21
111.86659841637849
 31
0.0
  0
POLYLINE
  5
B8FE
  8
0
 66
     1
 10
0.0
 20
0.0
 30
0.0
  0
VERTEX
  5
10AD3
  8
0
 10
307.99163257399778
 20
113.2888930703345
 30
0.0
  0
VERTEX
  5
10AD4
  8
0
 10
308.3385098866695
 20
113.0506563325137
 30
0.0
  0
VERTEX
  5
10AD5
  8
0
 10
308.6738371086322
 20
112.8279053341798
 30
0.0
  0
VERTEX
  5
10AD6
  8
0
 10
308.95390944760089
 20
112.64848604518581
 30
0.0
  0
VERTEX
  5
10AD7
  8
0
 10
309.40907158484089
 20
112.40128834719479
 30
0.0
  0
VERTEX
  5
10AD8
  8
0
 10
309.76071013932869
 20
112.2434400304796
 30
0.0
  0
VERTEX
  5
10AD9
  8
0
 10
310.23780739967918
 20
112.0744787375633
 30
0.0
  0
VERTEX
  5
10ADA
  8
0
 10
310.64732917121768
 20
111.95658099277929
 30
0.0
  0
VERTEX
  5
10ADB
  8
0
 10
310.99163592449207
 20
111.86660261851711
 30
0.0
  0
SEQEND
  5
10ADC
  8
0
  0
POLYLINE
  5
B8FF
  8
0
 66
     1
 10
0.0
 20
0.0
 30
0.0
  0
VERTEX
  5
10ADD
  8
0
 10
307.99163257399778
 20
113.2888930703345
 30
0.0
  0
VERTEX
  5
10ADE
  8
0
 10
307.64475559502762
 20
113.05065584663861
 30
0.0
  0
VERTEX
  5
10ADF
  8
0
 10
307.30942868507509
 20
112.8279043786078
 30
0.0
  0
VERTEX
  5
10AE0
  8
0
 10
307.02935659742212
 20
112.6484846973128
 30
0.0
  0
VERTEX
  5
10AE1
  8
0
 10
306.57419480643512
 20
112.4012863617707
 30
0.0
  0
VERTEX
  5
10AE2
  8
0
 10
306.22255647304792
 20
112.2434375525112
 30
0.0
  0
VERTEX
  5
10AE3
  8
0
 10
305.74545944936398
 20
112.074475591319
 30
0.0
  0
VERTEX
  5
10AE4
  8
0
 10
305.33593784296681
 20
111.9565772729124
 30
0.0
  0
VERTEX
  5
10AE5
  8
0
 10
304.9916312157265
 20
111.8665984163756
 30
0.0
  0
SEQEND
  5
10AE6
  8
0
  0
LINE
  5
B900
  8
0
 10
306.49162220422431
 20
139.8051035146147
 30
0.0
 11
309.49162083331748
 21
139.8051040063541
 31
0.0
  0
LINE
  5
B901
  8
0
 10
306.49161369191847
 20
138.30130298833069
 30
0.0
 11
306.49161239223548
 21
139.8050965110456
 31
0.0
  0
LINE
  5
B902
  8
0
 10
309.49161232101051
 20
138.30130558113819
 30
0.0
 11
309.49161102132763
 21
139.80509910385311
 31
0.0
  0
LINE
  5
B903
  8
0
 10
309.49161232101051
 20
138.30130558113819
 30
0.0
 11
309.49161232871211
 21
138.2923946867443
 31
0.0
  0
LINE
  5
B904
  8
0
 10
306.49161369191847
 20
138.30130298833069
 30
0.0
 11
306.4916136996199
 21
138.2923920939368
 31
0.0
  0
LINE
  5
B905
  8
0
 10
309.49161232871211
 20
138.2923946867443
 30
0.0
 11
306.4916136996199
 21
138.2923920939368
 31
0.0
  0
LINE
  5
B906
  8
0
 10
309.49162312974107
 20
111.7851055006459
 30
0.0
 11
306.49162450064802
 21
111.7851055006459
 31
0.0
  0
LINE
  5
B914
  8
0
 10
309.49162312974107
 20
232.82582619496361
 30
0.0
 11
306.49162450064802
 21
232.82582619496361
 31
0.0
  0
LINE
  5
B915
  8
0
 10
310.99162616957801
 20
240.5908054605938
 30
0.0
 11
309.49162312974107
 21
240.5908054605938
 31
0.0
  0
LINE
  5
B916
  8
0
 10
309.49162312974107
 20
232.82582619496361
 30
0.0
 11
309.49162312974107
 21
240.5908054605938
 31
0.0
  0
LINE
  5
B917
  8
0
 10
306.49162450064802
 20
232.82582619496361
 30
0.0
 11
306.49162450064802
 21
240.5908054605938
 31
0.0
  0
LINE
  5
B918
  8
0
 10
306.49162450064802
 20
240.5908054605938
 30
0.0
 11
304.99162518610137
 21
240.5908054605938
 31
0.0
  0
LINE
  5
B919
  8
0
 10
306.49162450064802
 20
240.589721401117
 30
0.0
 11
304.99162518610137
 21
240.589721401117
 31
0.0
  0
LINE
  5
B91A
  8
0
 10
310.99162616957801
 20
240.589721401117
 30
0.0
 11
309.49162312974107
 21
240.589721401117
 31
0.0
  0
LINE
  5
B91B
  8
0
 10
304.99162518610137
 20
240.5908054605938
 30
0.0
 11
304.99162518610137
 21
240.589721401117
 31
0.0
  0
LINE
  5
B91C
  8
0
 10
310.99162616957801
 20
240.5908054605938
 30
0.0
 11
310.99162616957801
 21
240.589721401117
 31
0.0
  0
LINE
  5
B91D
  8
0
 10
307.9916238151946
 20
245.35951976933251
 30
0.0
 11
304.99162518610137
 21
240.5908054605938
 31
0.0
  0
LINE
  5
B91E
  8
0
 10
307.9916238151946
 20
245.35951976933251
 30
0.0
 11
310.99162616957801
 21
240.5908054605938
 31
0.0
  0
LINE
  5
BA5A
  8
0
 10
306.49162450064802
 20
402.42511954679088
 30
0.0
 11
306.49162450064802
 21
402.41620865239702
 31
0.0
  0
LINE
  5
BA5B
  8
0
 10
309.49162312974107
 20
402.42511954679071
 30
0.0
 11
309.49162312974107
 21
402.41620865239679
 31
0.0
  0
LINE
  5
BA5C
  8
0
 10
306.49162450064802
 20
402.42511954679088
 30
0.0
 11
306.49162450064802
 21
403.92891306950651
 31
0.0
  0
LINE
  5
BA5D
  8
0
 10
309.49162312974107
 20
402.42511954679071
 30
0.0
 11
309.49162312974107
 21
403.92891306950651
 31
0.0
  0
LINE
  5
BA5E
  8
0
 10
309.49162312974107
 20
402.41620865239679
 30
0.0
 11
306.49162450064802
 21
402.41620865239702
 31
0.0
  0
LINE
  5
BA5F
  8
0
 10
309.49162312974107
 20
375.90891298427158
 30
0.0
 11
306.49162450064802
 21
375.90891298427158
 31
0.0
  0
LINE
  5
BB72
  8
1
 10
126.1133304292407
 20
270.3197999636422
 30
0.0
 11
126.1133304292407
 21
207.865546626503
 31
0.0
  0
LINE
  5
BB73
  8
1
 10
102.0842639467655
 20
239.0926732950727
 30
0.0
 11
150.37891788587919
 21
239.0926732950727
 31
0.0
  0
LINE
  5
BB74
  8
0
 10
316.99162342776441
 20
222.59267330811119
 30
0.0
 11
317.09162512053632
 21
222.59267330811119
 31
0.0
  0
LINE
  5
BB75
  8
0
 10
317.09162512053632
 20
226.59267326527041
 30
0.0
 11
316.99162342776441
 21
226.59267326527041
 31
0.0
  0
LINE
  5
BB85
  8
0
 10
316.99162342776441
 20
228.09267351113951
 30
0.0
 11
318.39162423904992
 21
228.09267351113951
 31
0.0
  0
LINE
  5
BB86
  8
0
 10
318.39162423904992
 20
250.0926724606077
 30
0.0
 11
316.99162342776441
 21
250.0926724606077
 31
0.0
  0
LINE
  5
BB87
  8
0
 10
263.89162422348642
 20
229.5926737570087
 30
0.0
 11
263.99162405361312
 21
229.58428160928881
 31
0.0
  0
LINE
  5
BB88
  8
0
 10
263.99162405361312
 20
248.60106622510349
 30
0.0
 11
263.89162422348642
 21
248.59267314606109
 31
0.0
  0
LINE
  5
BB89
  8
0
 10
262.49162473906648
 20
249.09267415933999
 30
0.0
 11
257.99162493278158
 21
249.09267415933999
 31
0.0
  0
LINE
  5
BB8A
  8
0
 10
257.99162493278158
 20
229.09267367505231
 30
0.0
 11
262.49162473906648
 21
229.09267367505231
 31
0.0
  0
LINE
  5
BB8B
  8
0
 10
257.99162493278158
 20
249.09267415933999
 30
0.0
 11
255.99162460495609
 21
247.9379720025579
 31
0.0
  0
LINE
  5
BB8C
  8
0
 10
255.99162460495609
 20
230.24737396918931
 30
0.0
 11
257.99162493278158
 21
229.09267367505231
 31
0.0
  0
LINE
  5
BB8D
  8
0
 10
262.49162473906648
 20
229.09267367505231
 30
0.0
 11
262.99162388970041
 21
229.5926737570087
 31
0.0
  0
LINE
  5
BB8E
  8
0
 10
262.99162388970041
 20
248.59267314606109
 30
0.0
 11
262.49162473906648
 21
249.09267415933999
 31
0.0
  0
LINE
  5
BB8F
  8
0
 10
262.99162388970041
 20
229.5926737570087
 30
0.0
 11
263.89162422348642
 21
229.5926737570087
 31
0.0
  0
LINE
  5
BB90
  8
0
 10
263.89162422348642
 20
248.59267314606109
 30
0.0
 11
262.99162388970041
 21
248.59267314606109
 31
0.0
  0
LINE
  5
BB91
  8
0
 10
263.99162405361312
 20
211.5926736005465
 30
0.0
 11
264.9916242175259
 21
210.5926734366337
 31
0.0
  0
ARC
  5
BB92
  8
0
 10
271.49162432183402
 20
211.09267329507259
 30
0.0
 40
0.5
 50
270.0
 51
0.0
  0
LINE
  5
BB93
  8
0
 10
264.9916242175259
 20
210.5926734366337
 30
0.0
 11
271.4916243516364
 21
210.5926734366337
 31
0.0
  0
ARC
  5
BB94
  8
0
 10
271.49162432183402
 20
267.09267329507259
 30
0.0
 40
0.5
 50
0.0
 51
90.0
  0
LINE
  5
BB95
  8
0
 10
271.4916243516364
 20
267.59267439775863
 30
0.0
 11
264.9916242175259
 21
267.59267439775863
 31
0.0
  0
LINE
  5
BB96
  8
0
 10
264.9916242175259
 20
267.59267439775863
 30
0.0
 11
263.99162405361312
 21
266.59267237120071
 31
0.0
  0
LINE
  5
BB97
  8
0
 10
272.49162451554912
 20
223.57739652217131
 30
0.0
 11
291.9916239865579
 21
223.57739652217131
 31
0.0
  0
LINE
  5
BB98
  8
0
 10
291.9916239865579
 20
254.60795154505169
 30
0.0
 11
272.49162451554912
 21
254.60795154505169
 31
0.0
  0
LINE
  5
BB99
  8
0
 10
317.09162512053632
 20
222.59267330811119
 30
0.0
 11
317.09162512053632
 21
226.59267326527041
 31
0.0
  0
LINE
  5
BBAB
  8
0
 10
284.45622318615102
 20
237.33993274801171
 30
0.0
 11
285.53123579551362
 21
237.3407485865871
 31
0.0
  0
LINE
  5
BBAC
  8
0
 10
284.45329883326667
 20
241.18937765889561
 30
0.0
 11
284.45622318615102
 21
237.33993274801171
 31
0.0
  0
LINE
  5
BBAD
  8
0
 10
285.52831144262927
 20
241.190193497471
 30
0.0
 11
284.45329883326667
 21
241.18937765889561
 31
0.0
  0
LINE
  5
BBAE
  8
0
 10
285.53123579551362
 20
237.3407485865871
 30
0.0
 11
285.52831144262927
 21
241.190193497471
 31
0.0
  0
LINE
  5
BBAF
  8
0
 10
285.95950355012792
 20
239.62668357127109
 30
0.0
 11
285.96124046672958
 21
237.34107641213339
 31
0.0
  0
ARC
  5
BBB0
  8
0
 10
287.38895466481108
 20
239.693318705965
 30
0.0
 40
1.431003044279834
 50
54.689097446449928
 51
182.668969891307
  0
ARC
  5
BBB1
  8
0
 10
289.04500435195609
 20
239.69457673978101
 30
0.0
 40
1.4310030442798229
 50
357.41808065414182
 51
125.3979530989991
  0
LINE
  5
BBB2
  8
0
 10
289.39954278250121
 20
239.6292968624154
 30
0.0
 11
289.4012787677803
 21
237.3436897032777
 31
0.0
  0
ARC
  5
BBB3
  8
0
 10
289.0770389754428
 20
239.62905164524889
 30
0.0
 40
0.3225037199967565
 50
0.0435252727264264
 51
180.0435252727199
  0
LINE
  5
BBB4
  8
0
 10
288.75627176095622
 20
237.34319982760351
 30
0.0
 11
288.7545357756772
 21
239.62880698674121
 31
0.0
  0
LINE
  5
BBB5
  8
0
 10
287.68125915159362
 20
237.342382126383
 30
0.0
 11
288.75627176095622
 21
237.34319982760351
 31
0.0
  0
LINE
  5
BBB6
  8
0
 10
287.67952316631448
 20
239.6279892855207
 30
0.0
 11
287.68125915159362
 21
237.342382126383
 31
0.0
  0
ARC
  5
BBB7
  8
0
 10
287.35701963175637
 20
239.627745016278
 30
0.0
 40
0.3225037199967564
 50
0.0435252727133989
 51
180.04352527273289
  0
LINE
  5
BBB8
  8
0
 10
287.03625214476961
 20
237.3418922507087
 30
0.0
 11
287.03451615949052
 21
239.62749940984639
 31
0.0
  0
LINE
  5
BBB9
  8
0
 10
285.96124046672958
 20
237.34107641213339
 30
0.0
 11
287.03625214476961
 21
237.3418922507087
 31
0.0
  0
LINE
  5
BBBA
  8
0
 10
289.4012787677803
 20
237.3436897032777
 30
0.0
 11
290.4762913771429
 21
237.3445055418531
 31
0.0
  0
LINE
  5
BBBB
  8
0
 10
290.4762913771429
 20
237.3445055418531
 30
0.0
 11
290.47455446054119
 21
239.63011270099079
 31
0.0
  0
CIRCLE
  5
BBBC
  8
0
 10
295.939177464171
 20
239.15056600634679
 30
0.0
 40
0.6450074399935489
  0
CIRCLE
  5
BBBD
  8
0
 10
295.939177464171
 20
239.15056600634679
 30
0.0
 40
1.8346020000000181
  0
ARC
  5
BBBE
  8
0
 10
281.51297732501831
 20
239.06802968013241
 30
0.0
 40
1.8354474660024169
 50
279.33601857369138
 51
307.58381908558482
  0
LINE
  5
BBBF
  8
0
 10
281.81019046534681
 20
237.96887164645591
 30
0.0
 11
281.81073109810131
 21
237.2568941646139
 31
0.0
  0
LINE
  5
BBC0
  8
0
 10
281.80901979287052
 20
239.5101099246065
 30
0.0
 11
283.38030393426197
 21
239.511302017502
 31
0.0
  0
ARC
  5
BBC1
  8
0
 10
281.40092179502358
 20
239.346788484222
 30
0.0
 40
1.9862070722350169
 50
4.7511618222695207
 51
39.2768480987488
  0
ARC
  5
BBC2
  8
0
 10
281.49215885878948
 20
242.32682916414569
 30
0.0
 40
2.2492656475153199
 50
278.08683598285648
 51
310.01589528229488
  0
ARC
  5
BBC3
  8
0
 10
278.93939887848182
 20
239.1912973588484
 30
0.0
 40
2.457249347033811
 50
341.49648327665352
 51
351.12959798181828
  0
ARC
  5
BBC4
  8
0
 10
279.19232100418412
 20
239.26065736164841
 30
0.0
 40
0.5897210879941293
 50
180.04356074218799
 51
0.04344519302532
  0
LINE
  5
BBC5
  8
0
 10
278.60241214004242
 20
239.5076735847513
 30
0.0
 11
278.60260003437179
 21
239.2602081381599
 31
0.0
  0
LINE
  5
BBC6
  8
0
 10
278.19697901797372
 20
239.5073643856565
 30
0.0
 11
278.60241214004242
 21
239.5076735847513
 31
0.0
  0
LINE
  5
BBC7
  8
0
 10
278.1971669123032
 20
239.2599008017103
 30
0.0
 11
278.19697901797372
 21
239.5073643856565
 31
0.0
  0
ARC
  5
BBC8
  8
0
 10
279.26474196199769
 20
239.20297502855479
 30
0.0
 40
1.0690916530270189
 50
176.9477245724284
 51
254.10813616549351
  0
LINE
  5
BBC9
  8
0
 10
278.97235139463919
 20
237.712875285081
 30
0.0
 11
278.9720005188592
 21
238.1747442268649
 31
0.0
  0
ARC
  5
BBCA
  8
0
 10
279.28888631896422
 20
239.17843244475739
 30
0.0
 40
1.499350736661704
 50
176.89703507056299
 51
257.81231478316391
  0
LINE
  5
BBCB
  8
0
 10
277.79154583769741
 20
239.50705704920691
 30
0.0
 11
277.79173384844222
 21
239.25959346526059
 31
0.0
  0
LINE
  5
BBCC
  8
0
 10
277.38611271562883
 20
239.5067497127572
 30
0.0
 11
277.79154583769741
 21
239.50705704920691
 31
0.0
  0
LINE
  5
BBCD
  8
0
 10
277.38630069726969
 20
239.25928426616591
 30
0.0
 11
277.38611271562883
 21
239.5067497127572
 31
0.0
  0
ARC
  5
BBCE
  8
0
 10
279.31303052515892
 20
239.1540883350406
 30
0.0
 40
1.9295994894743109
 50
176.8748350594031
 51
259.84137374400672
  0
LINE
  5
BBCF
  8
0
 10
278.97304616127991
 20
236.7982513242284
 30
0.0
 11
278.97269924362081
 21
237.25473908417621
 31
0.0
  0
ARC
  5
BBD0
  8
0
 10
279.13421543657068
 20
239.2402954007315
 30
0.0
 40
2.4473576041129639
 50
59.166089308433982
 51
266.22408712698348
  0
ARC
  5
BBD1
  8
0
 10
281.73062318203068
 20
239.26258524184561
 30
0.0
 40
2.474643599975241
 50
237.2463569769061
 51
122.8406935685442
  0
ARC
  5
BBD2
  8
0
 10
279.10806455565648
 20
239.01904010423249
 30
0.0
 40
2.2416134484652752
 50
277.87870404673578
 51
304.93670186527601
  0
ARC
  5
BBD3
  8
0
 10
279.07177353477351
 20
239.1539050618849
 30
0.0
 40
1.9295994894743611
 50
280.24567680143991
 51
3.2122154860578669
  0
LINE
  5
BBD4
  8
0
 10
280.99815354873323
 20
239.5094933890621
 30
0.0
 11
280.99834121023201
 21
239.26202980511579
 31
0.0
  0
LINE
  5
BBD5
  8
0
 10
281.36672911425012
 20
239.5097727858344
 30
0.0
 11
280.99815354873323
 21
239.5094933890621
 31
0.0
  0
LINE
  5
BBD6
  8
0
 10
281.3662806824305
 20
240.0995942734996
 30
0.0
 11
281.36672911425012
 21
239.5097727858344
 31
0.0
  0
ARC
  5
BBD7
  8
0
 10
281.67930977121893
 20
242.32697133510749
 30
0.0
 40
2.2492656475154211
 50
230.07115526314601
 51
262.00021456259122
  0
ARC
  5
BBD8
  8
0
 10
281.77589308088682
 20
239.33391383049411
 30
0.0
 40
1.9951801012092409
 50
140.53217560829711
 51
182.0913362175398
  0
LINE
  5
BBD9
  8
0
 10
283.38067972292077
 20
239.01637484960949
 30
0.0
 11
281.80939558152932
 21
239.01518089406889
 31
0.0
  0
LINE
  5
BBDA
  8
0
 10
281.80939558152932
 20
239.01518089406889
 30
0.0
 11
281.80984354768771
 21
238.42535940640369
 31
0.0
  0
ARC
  5
BBDB
  8
0
 10
281.6524265747621
 20
239.06129648794411
 30
0.0
 40
1.826944599897715
 50
239.72905831653651
 51
261.05750239331491
  0
LINE
  5
BBDC
  8
0
 10
281.36844041948098
 20
237.25655888848701
 30
0.0
 11
281.36789978672641
 21
237.9685345076839
 31
0.0
  0
ARC
  5
BBDD
  8
0
 10
281.63681527602438
 20
236.17184606913131
 30
0.0
 40
1.816702504598452
 50
98.512431410818834
 51
109.4991308438222
  0
ARC
  5
BBDE
  8
0
 10
278.99162432183402
 20
239.09267329507259
 30
0.0
 40
2.3699569172246582
 50
317.23381982692422
 51
329.3462641676312
  0
ARC
  5
BBDF
  8
0
 10
281.5104708105037
 20
242.36755352805039
 30
0.0
 40
1.8354474660023841
 50
279.33601857369138
 51
307.58381908558482
  0
LINE
  5
BBE0
  8
0
 10
281.36593423043269
 20
240.55608203344741
 30
0.0
 11
281.36539313201678
 21
241.26805951528939
 31
0.0
  0
ARC
  5
BBE1
  8
0
 10
281.66093596737869
 20
242.36766783033059
 30
0.0
 40
1.8354474660024109
 50
232.50323145985541
 51
260.75103197174809
  0
LINE
  5
BBE2
  8
0
 10
279.4149899222412
 20
237.2550743603031
 30
0.0
 11
279.41533683990019
 21
236.79858660035529
 31
0.0
  0
LINE
  5
BBE3
  8
0
 10
281.36755286906742
 20
238.4250241302768
 30
0.0
 11
281.36725857113379
 21
238.81238912873661
 31
0.0
  0
LINE
  5
BBE4
  8
0
 10
281.80857136105078
 20
240.09992954962649
 30
0.0
 11
281.80901979287052
 21
239.5101099246065
 31
0.0
  0
ARC
  5
BBE5
  8
0
 10
281.40105010705901
 20
239.17788117538541
 30
0.0
 40
1.986207072235056
 50
320.81020244669821
 51
355.33588872317841
  0
ARC
  5
BBE6
  8
0
 10
281.49681469511512
 20
236.1979825530361
 30
0.0
 40
2.249265647515299
 50
50.071155263146032
 51
82.000214562591196
  0
ARC
  5
BBE7
  8
0
 10
281.51518849895518
 20
236.1572860578128
 30
0.0
 40
1.8354474660024229
 50
52.503231459855478
 51
80.751031971748105
  0
LINE
  5
BBE8
  8
0
 10
281.80768381063717
 20
241.26839479141631
 30
0.0
 11
281.80822490905302
 21
240.55641917221939
 31
0.0
  0
ARC
  5
BBE9
  8
0
 10
281.66314714131562
 20
239.45692420801109
 30
0.0
 40
1.8354474660023929
 50
99.336018573691348
 51
127.58381908558481
  0
ARC
  5
BBEA
  8
0
 10
281.62251758855842
 20
236.22413026085931
 30
0.0
 40
2.2156125182392068
 50
96.608030022928759
 51
99.165005866589425
  0
ARC
  5
BBEB
  8
0
 10
281.5126819844408
 20
239.45680990573081
 30
0.0
 40
1.8354474660024109
 50
52.503231459855478
 51
80.751031971748105
  0
LINE
  5
BBEC
  8
0
 10
280.59272019383388
 20
239.50918605261239
 30
0.0
 11
280.1872870717653
 21
239.50887685351771
 31
0.0
  0
LINE
  5
BBED
  8
0
 10
279.4142911974796
 20
238.17507950299179
 30
0.0
 11
279.41464207325947
 21
237.71321056120789
 31
0.0
  0
ARC
  5
BBEE
  8
0
 10
279.11998776776591
 20
239.2028650646613
 30
0.0
 40
1.0690916530269869
 50
285.97891437994508
 51
3.139325973014623
  0
LINE
  5
BBEF
  8
0
 10
280.1872870717653
 20
239.50887685351771
 30
0.0
 11
280.18747496609473
 21
239.26141326957139
 31
0.0
  0
LINE
  5
BBF0
  8
0
 10
280.59290808816331
 20
239.2617206060211
 30
0.0
 11
280.59272019383388
 21
239.50918605261239
 31
0.0
  0
ARC
  5
BBF1
  8
0
 10
279.09588072665662
 20
239.17828582623281
 30
0.0
 40
1.4993507366617369
 50
282.27473576227698
 51
3.1900154748808012
  0
LINE
  5
BBF2
  8
0
 10
291.9795717411198
 20
239.63125636511239
 30
0.0
 11
291.9799368195691
 21
239.15007551842129
 31
0.0
  0
ARC
  5
BBF3
  8
0
 10
292.30207524462548
 20
239.63150187634409
 30
0.0
 40
1.397516119986056
 50
0.0435129004762914
 51
180.04353764497651
  0
LINE
  5
BBF4
  8
0
 10
290.9045591317572
 20
239.63044052653709
 30
0.0
 11
290.90629604835891
 21
237.34483150475421
 31
0.0
  0
LINE
  5
BBF5
  8
0
 10
293.70132641126293
 20
237.34695492022431
 30
0.0
 11
293.6995904259839
 21
239.63256394200721
 31
0.0
  0
LINE
  5
BBF6
  8
0
 10
292.62631566454547
 20
237.346139081649
 30
0.0
 11
293.70132641126293
 21
237.34695492022431
 31
0.0
  0
ARC
  5
BBF7
  8
0
 10
292.30207524462548
 20
239.63150187634409
 30
0.0
 40
0.3225037199969012
 50
0.0434716596511961
 51
180.0435788857952
  0
LINE
  5
BBF8
  8
0
 10
290.90629604835891
 20
237.34483150475421
 30
0.0
 11
291.98130772639888
 21
237.34564920597469
 31
0.0
  0
LINE
  5
BBF9
  8
0
 10
291.98066790779012
 20
238.1877156876842
 30
0.0
 11
292.62567491461408
 21
238.18820556335839
 31
0.0
  0
LINE
  5
BBFA
  8
0
 10
292.62494475771558
 20
239.15056539409559
 30
0.0
 11
292.62457967926639
 21
239.6317462407867
 31
0.0
  0
LINE
  5
BBFB
  8
0
 10
291.9799368195691
 20
239.15007551842129
 30
0.0
 11
292.62494475771558
 21
239.15056539409559
 31
0.0
  0
LINE
  5
BBFC
  8
0
 10
292.62567491461408
 20
238.18820556335839
 30
0.0
 11
292.62631566454547
 21
237.346139081649
 31
0.0
  0
LINE
  5
BBFD
  8
0
 10
291.98130772639888
 20
237.34564920597469
 30
0.0
 11
291.98066790779012
 21
238.1877156876842
 31
0.0
  0
LINE
  5
BC0D
  8
0
 10
277.99162436933148
 20
242.8426726692239
 30
0.0
 11
296.99162387479919
 21
242.8426726692239
 31
0.0
  0
LINE
  5
BC0E
  8
0
 10
296.99162387479919
 20
235.34267330252331
 30
0.0
 11
277.99162436933148
 21
235.34267330252331
 31
0.0
  0
LINE
  5
BC12
  8
0
 10
271.99162443359268
 20
228.94269441895881
 30
0.0
 11
272.00848370049971
 21
229.15128459864059
 31
0.0
  0
LINE
  5
BC14
  8
0
 10
271.99162443359268
 20
228.94269441895881
 30
0.0
 11
271.99162432183402
 21
211.09267329507259
 31
0.0
  0
LINE
  5
BC15
  8
0
 10
271.99162432183402
 20
267.09267331083788
 30
0.0
 11
271.99162443359268
 21
249.3310905822693
 31
0.0
  0
LINE
  5
BC16
  8
0
 10
262.49162473906648
 20
229.09267367505231
 30
0.0
 11
262.49162473906648
 21
249.09267415933999
 31
0.0
  0
LINE
  5
BC17
  8
0
 10
257.99162493278158
 20
249.09267415933999
 30
0.0
 11
257.99162493278158
 21
229.09267367505231
 31
0.0
  0
LINE
  5
BC18
  8
0
 10
255.99162460495609
 20
230.24737396918931
 30
0.0
 11
255.99162460495609
 21
247.9379720025579
 31
0.0
  0
LINE
  5
BC19
  8
0
 10
262.99162388970041
 20
229.5926737570087
 30
0.0
 11
262.99162388970041
 21
248.59267314606109
 31
0.0
  0
LINE
  5
BC1A
  8
0
 10
263.99162405361312
 20
211.5926736005465
 30
0.0
 11
263.99162405361312
 21
266.59267237120071
 31
0.0
  0
LINE
  5
BC1B
  8
0
 10
291.9916239865579
 20
254.60795154505169
 30
0.0
 11
291.99162432183402
 21
256.5926733908658
 31
0.0
  0
LINE
  5
BC1C
  8
0
 10
291.9916239865579
 20
221.5926733188214
 30
0.0
 11
291.9916239865579
 21
223.57739652217131
 31
0.0
  0
ARC
  5
BC1D
  8
0
 10
292.49162432183402
 20
221.59267329507259
 30
0.0
 40
0.5
 50
180.0
 51
270.0
  0
ARC
  5
BC1E
  8
0
 10
316.49162432183402
 20
221.59267329507259
 30
0.0
 40
0.5
 50
270.0
 51
0.0
  0
LINE
  5
BC1F
  8
0
 10
316.99162432183402
 20
256.59267329507259
 30
0.0
 11
316.99162342776441
 21
221.5926733188214
 31
0.0
  0
ARC
  5
BC20
  8
0
 10
292.49162432183402
 20
256.59267329507259
 30
0.0
 40
0.5
 50
90.0
 51
180.0
  0
LINE
  5
BC21
  8
0
 10
304.65186753501081
 20
221.09267329507259
 30
0.0
 11
296.54883773256921
 21
221.09267329507259
 31
0.0
  0
LINE
  5
BC22
  8
0
 10
293.43441122402328
 20
221.09267329507259
 30
0.0
 11
292.49162406851428
 21
221.09267329507259
 31
0.0
  0
LINE
  5
BC23
  8
0
 10
316.49162613977569
 20
221.09267329507259
 30
0.0
 11
309.53137942780631
 21
221.09267329507259
 31
0.0
  0
ARC
  5
BC24
  8
0
 10
316.49162432183402
 20
256.59267329507259
 30
0.0
 40
0.5
 50
0.0
 51
90.0
  0
LINE
  5
BC25
  8
0
 10
292.49162406851428
 20
257.09267174535188
 30
0.0
 11
316.49162613977569
 21
257.09267174535188
 31
0.0
  0
LINE
  5
BC29
  8
0
 10
303.9916250221886
 20
234.1148958512465
 30
0.0
 11
263.99162405361312
 21
234.1148958512465
 31
0.0
  0
LINE
  5
BC2A
  8
0
 10
303.9916250221886
 20
244.0704519831458
 30
0.0
 11
263.99162405361312
 21
244.0704519831458
 31
0.0
  0
LINE
  5
BC2B
  8
0
 10
316.99162374764279
 20
234.1148958512465
 30
0.0
 11
311.99162447084558
 21
234.1148958512465
 31
0.0
  0
LINE
  5
BC2C
  8
0
 10
316.99162400195593
 20
244.0704519831458
 30
0.0
 11
311.99162447084558
 21
244.0704519831458
 31
0.0
  0
LINE
  5
BC2D
  8
0
 10
272.49162451554912
 20
232.94482221537029
 30
0.0
 11
303.9916250221886
 21
232.94482221537029
 31
0.0
  0
LINE
  5
BC2E
  8
0
 10
311.99162447084558
 20
232.94482221537029
 30
0.0
 11
316.9916237177531
 21
232.94482221537029
 31
0.0
  0
LINE
  5
BC2F
  8
0
 10
316.99162403184511
 20
245.24052468769949
 30
0.0
 11
311.99162447084558
 21
245.24052468769949
 31
0.0
  0
LINE
  5
BC30
  8
0
 10
303.9916250221886
 20
245.24052468769949
 30
0.0
 11
272.49162451554912
 21
245.24052468769949
 31
0.0
  0
LINE
  5
BC31
  8
0
 10
316.99162359494579
 20
228.13729596965709
 30
0.0
 11
271.99162443359268
 21
228.13729596965709
 31
0.0
  0
LINE
  5
BC32
  8
0
 10
271.99162443359268
 20
250.0480509334127
 30
0.0
 11
316.99162415465253
 21
250.0480509334127
 31
0.0
  0
LINE
  5
BC33
  8
1
 10
247.88166046161061
 20
239.0926732950727
 30
0.0
 11
339.44967407236749
 21
239.0926732950727
 31
0.0
  0
LINE
  5
BC34
  8
0
 10
151.55114079584541
 20
297.15225598552928
 30
0.0
 11
147.68049615896479
 21
287.6839851958722
 31
0.0
  0
LINE
  5
BC35
  8
0
 10
157.4110585042913
 20
282.06604214964409
 30
0.0
 11
163.67549594411
 21
290.15225542921439
 31
0.0
  0
LINE
  5
BC36
  8
0
 10
163.67549594411
 20
290.15225542921439
 30
0.0
 11
171.19721191856479
 21
303.18025285098389
 31
0.0
  0
LINE
  5
BC37
  8
0
 10
159.07285677030021
 20
310.18025340729889
 30
0.0
 11
151.55114079584541
 21
297.15225598552928
 31
0.0
  0
ARC
  5
BC38
  8
0
 10
170.1147038481142
 20
303.80528765811601
 30
0.0
 40
1.2500006828506049
 50
329.99818339807138
 51
45.989058785699292
  0
ARC
  5
BC39
  8
0
 10
160.155411703505
 20
309.55528765874419
 30
0.0
 40
1.2500006828506069
 50
74.010941214305063
 51
150.00181660191981
  0
ARC
  5
BC3A
  8
0
 10
153.61346500179289
 20
286.72396404018741
 30
0.0
 40
25.00000136570722
 50
45.989561020224528
 51
59.999999999999147
  0
ARC
  5
BC3B
  8
0
 10
153.6131709432764
 20
286.72413381495107
 30
0.0
 40
25.00000136570722
 50
59.999999999999147
 51
74.010438979765794
  0
ARC
  5
BC3C
  8
0
 10
166.1145100815379
 20
308.37676584400992
 30
0.0
 40
0.0024015206803624
 50
236.1454270779515
 51
244.27721769263471
  0
ARC
  5
BC3D
  8
0
 10
156.6205308657081
 20
282.67846878377912
 30
0.0
 40
0.9999999999999674
 50
240.0001963882255
 51
322.23483398157703
  0
ARC
  5
BC3E
  8
0
 10
148.60613634837981
 20
287.30558161575033
 30
0.0
 40
1.000000000000022
 50
157.7651660184292
 51
239.99980361177469
  0
LINE
  5
BC3F
  8
0
 10
148.106130895577
 20
286.43955848187721
 30
0.0
 11
148.90903528200261
 21
285.97599283696599
 31
0.0
  0
LINE
  5
BC40
  8
0
 10
155.31762544731779
 20
282.27599512158548
 30
0.0
 11
156.12053578704121
 21
281.81244151700179
 31
0.0
  0
LINE
  5
BC41
  8
0
 10
148.49923103256421
 20
285.86618604900559
 30
0.0
 11
133.308163710748
 21
259.55448811391949
 31
0.0
  0
LINE
  5
BC42
  8
0
 10
136.97724135606219
 20
249.90952054803509
 30
0.0
 11
155.42743087172741
 21
281.86618578330598
 31
0.0
  0
LINE
  5
BC43
  8
0
 10
155.42743087172741
 20
281.86618578330598
 30
0.0
 11
155.31762544731779
 21
282.27599512158548
 31
0.0
  0
LINE
  5
BC44
  8
0
 10
148.90903528200261
 20
285.97599283696599
 30
0.0
 11
148.49923103256421
 21
285.86618604900559
 31
0.0
  0
LINE
  5
BC45
  8
0
 10
140.04182950203079
 20
240.5908054643194
 30
0.0
 11
140.0318885648694
 21
240.58972140484249
 31
0.0
  0
LINE
  5
BC46
  8
0
 10
112.1848313564505
 20
237.59453957610529
 30
0.0
 11
112.194772293612
 21
237.59562549822729
 31
0.0
  0
POLYLINE
  5
BC47
  8
0
 66
     1
 10
0.0
 20
0.0
 30
0.0
 70
   128
  0
VERTEX
  5
10AE7
  8
0
 10
163.67549594411
 20
290.15225542921439
 30
0.0
  0
VERTEX
  5
10AE8
  8
0
 10
163.66018470935569
 20
290.16109503797878
 30
0.0
  0
VERTEX
  5
10AE9
  8
0
 10
163.51838101149039
 20
290.24296483760418
 30
0.0
  0
VERTEX
  5
10AEA
  8
0
 10
163.23117222051289
 20
290.40878481242731
 30
0.0
  0
VERTEX
  5
10AEB
  8
0
 10
162.80563463661201
 20
290.65447173790682
 30
0.0
  0
VERTEX
  5
10AEC
  8
0
 10
162.25224585940211
 20
290.97397017147728
 30
0.0
  0
VERTEX
  5
10AED
  8
0
 10
161.58462944557499
 20
291.35941904699018
 30
0.0
  0
VERTEX
  5
10AEE
  8
0
 10
160.81922745831611
 20
291.80132395498782
 30
0.0
  0
VERTEX
  5
10AEF
  8
0
 10
159.97488164921259
 20
292.28880571976077
 30
0.0
  0
VERTEX
  5
10AF0
  8
0
 10
159.0723905595039
 20
292.80986088300358
 30
0.0
  0
VERTEX
  5
10AF1
  8
0
 10
158.1339694342573
 20
293.3516564099711
 30
0.0
  0
VERTEX
  5
10AF2
  8
0
 10
157.18273172172661
 20
293.90085406422872
 30
0.0
  0
VERTEX
  5
10AF3
  8
0
 10
156.2420957373763
 20
294.4439302905509
 30
0.0
  0
VERTEX
  5
10AF4
  8
0
 10
155.3352235898644
 20
294.96751472427451
 30
0.0
  0
VERTEX
  5
10AF5
  8
0
 10
154.48444447514109
 20
295.45871107238611
 30
0.0
  0
VERTEX
  5
10AF6
  8
0
 10
153.71070750540639
 20
295.90542644338097
 30
0.0
  0
VERTEX
  5
10AF7
  8
0
 10
153.03306843104039
 20
296.29666432450722
 30
0.0
  0
VERTEX
  5
10AF8
  8
0
 10
152.46820839286599
 20
296.62278443259402
 30
0.0
  0
VERTEX
  5
10AF9
  8
0
 10
152.03003955007279
 20
296.87576110342962
 30
0.0
  0
VERTEX
  5
10AFA
  8
0
 10
151.7293503227834
 20
297.04936561598652
 30
0.0
  0
VERTEX
  5
10AFB
  8
0
 10
151.5735390075649
 20
297.13932211008421
 30
0.0
  0
VERTEX
  5
10AFC
  8
0
 10
151.55114079584541
 20
297.15225598552928
 30
0.0
  0
SEQEND
  5
10AFD
  8
0
  0
POLYLINE
  5
BC48
  8
0
 66
     1
 10
0.0
 20
0.0
 30
0.0
 70
   128
  0
VERTEX
  5
10AFE
  8
0
 10
156.12053764968641
 20
281.81243829080591
 30
0.0
  0
VERTEX
  5
10AFF
  8
0
 10
156.09615993120971
 20
281.82651344428473
 30
0.0
  0
VERTEX
  5
10B00
  8
0
 10
155.93353311235541
 20
281.9204069238487
 30
0.0
  0
VERTEX
  5
10B01
  8
0
 10
155.62409567243199
 20
282.09906079787328
 30
0.0
  0
VERTEX
  5
10B02
  8
0
 10
155.17974091669359
 20
282.3556066774288
 30
0.0
  0
VERTEX
  5
10B03
  8
0
 10
154.61754831495949
 20
282.68019119044249
 30
0.0
  0
VERTEX
  5
10B04
  8
0
 10
153.9591211498693
 20
283.06033344702962
 30
0.0
  0
VERTEX
  5
10B05
  8
0
 10
153.22975669663921
 20
283.48143100774359
 30
0.0
  0
VERTEX
  5
10B06
  8
0
 10
152.45749427063041
 20
283.92729857704393
 30
0.0
  0
VERTEX
  5
10B07
  8
0
 10
151.67200066362901
 20
284.38080208326312
 30
0.0
  0
VERTEX
  5
10B08
  8
0
 10
150.90347257556391
 20
284.8245154756778
 30
0.0
  0
VERTEX
  5
10B09
  8
0
 10
150.18143367784231
 20
285.24138121103539
 30
0.0
  0
VERTEX
  5
10B0A
  8
0
 10
149.5336392730735
 20
285.61538554334493
 30
0.0
  0
VERTEX
  5
10B0B
  8
0
 10
148.98498408309291
 20
285.93215388949062
 30
0.0
  0
VERTEX
  5
10B0C
  8
0
 10
148.55654557305019
 20
286.17951260516787
 30
0.0
  0
VERTEX
  5
10B0D
  8
0
 10
148.26479311298201
 20
286.3479572369688
 30
0.0
  0
VERTEX
  5
10B0E
  8
0
 10
148.1209371673003
 20
286.43101234945192
 30
0.0
  0
VERTEX
  5
10B0F
  8
0
 10
148.106130895577
 20
286.43955848187721
 30
0.0
  0
SEQEND
  5
10B10
  8
0
  0
POLYLINE
  5
BC49
  8
0
 66
     1
 10
0.0
 20
0.0
 30
0.0
 70
   128
  0
VERTEX
  5
10B11
  8
0
 10
145.79038298946921
 20
269.30134088092979
 30
0.0
  0
VERTEX
  5
10B12
  8
0
 10
145.39508431350939
 20
269.52956590216689
 30
0.0
  0
VERTEX
  5
10B13
  8
0
 10
144.9793567549047
 20
269.76958624791712
 30
0.0
  0
VERTEX
  5
10B14
  8
0
 10
144.54982031121699
 20
270.0175800417494
 30
0.0
  0
VERTEX
  5
10B15
  8
0
 10
144.11333194545321
 20
270.26958691723468
 30
0.0
  0
VERTEX
  5
10B16
  8
0
 10
143.67683849084821
 20
270.52159515627079
 30
0.0
  0
VERTEX
  5
10B17
  8
0
 10
143.24730552290359
 20
270.76958665522972
 30
0.0
  0
VERTEX
  5
10B18
  8
0
 10
142.83157610165381
 20
271.00961022717593
 30
0.0
  0
VERTEX
  5
10B19
  8
0
 10
142.4362809014371
 20
271.23783295353951
 30
0.0
  0
SEQEND
  5
10B1A
  8
0
  0
LINE
  5
BC4A
  8
0
 10
142.4362809014371
 20
271.23783295353951
 30
0.0
 11
138.43627902263961
 21
264.30963218305368
 31
0.0
  0
POLYLINE
  5
BC4B
  8
0
 66
     1
 10
0.0
 20
0.0
 30
0.0
 70
   128
  0
VERTEX
  5
10B1B
  8
0
 10
138.43627902263961
 20
264.30963218305368
 30
0.0
  0
VERTEX
  5
10B1C
  8
0
 10
138.83157608550121
 20
264.08140623049422
 30
0.0
  0
VERTEX
  5
10B1D
  8
0
 10
139.24730364410601
 20
263.84138588474389
 30
0.0
  0
VERTEX
  5
10B1E
  8
0
 10
139.67684008779381
 20
263.59339209091161
 30
0.0
  0
VERTEX
  5
10B1F
  8
0
 10
140.11333006665561
 20
263.34138614674879
 30
0.0
  0
VERTEX
  5
10B20
  8
0
 10
140.54982190816261
 20
263.08937697639021
 30
0.0
  0
VERTEX
  5
10B21
  8
0
 10
140.97935580742981
 20
262.84138386433318
 30
0.0
  0
VERTEX
  5
10B22
  8
0
 10
141.39508497913241
 20
262.6013644499057
 30
0.0
  0
VERTEX
  5
10B23
  8
0
 10
141.79038204199421
 20
262.37313849734608
 30
0.0
  0
SEQEND
  5
10B24
  8
0
  0
LINE
  5
BC4C
  8
0
 10
141.79038204199421
 20
262.37313849734608
 30
0.0
 11
145.79038298946921
 21
269.30134088092979
 31
0.0
  0
POLYLINE
  5
BC4D
  8
0
 66
     1
 10
0.0
 20
0.0
 30
0.0
 70
   128
  0
VERTEX
  5
10B25
  8
0
 10
155.42743087172741
 20
281.86618578330598
 30
0.0
  0
VERTEX
  5
10B26
  8
0
 10
155.40845431479849
 20
281.87714198652412
 30
0.0
  0
VERTEX
  5
10B27
  8
0
 10
155.25788663868161
 20
281.964073553307
 30
0.0
  0
VERTEX
  5
10B28
  8
0
 10
154.9633300741859
 20
282.13413403388608
 30
0.0
  0
VERTEX
  5
10B29
  8
0
 10
154.53765768494301
 20
282.37989798687448
 30
0.0
  0
VERTEX
  5
10B2A
  8
0
 10
153.99947823193199
 20
282.6906141166512
 30
0.0
  0
VERTEX
  5
10B2B
  8
0
 10
153.37230957943299
 20
283.05271310425343
 30
0.0
  0
VERTEX
  5
10B2C
  8
0
 10
152.6835573614639
 20
283.4503621643637
 30
0.0
  0
VERTEX
  5
10B2D
  8
0
 10
151.9633284077251
 20
283.86618659793118
 30
0.0
  0
VERTEX
  5
10B2E
  8
0
 10
151.24310454282769
 20
284.28200966794788
 30
0.0
  0
VERTEX
  5
10B2F
  8
0
 10
150.5543523248586
 20
284.67965872805831
 30
0.0
  0
VERTEX
  5
10B30
  8
0
 10
149.9271836723596
 20
285.04175771566048
 30
0.0
  0
VERTEX
  5
10B31
  8
0
 10
149.38900235670349
 20
285.35247707163307
 30
0.0
  0
VERTEX
  5
10B32
  8
0
 10
148.96333183010569
 20
285.5982377984256
 30
0.0
  0
VERTEX
  5
10B33
  8
0
 10
148.66877526561001
 20
285.76829827900463
 30
0.0
  0
VERTEX
  5
10B34
  8
0
 10
148.5182075894931
 20
285.85522984578762
 30
0.0
  0
VERTEX
  5
10B35
  8
0
 10
148.49923103256421
 20
285.86618604900559
 30
0.0
  0
SEQEND
  5
10B36
  8
0
  0
CIRCLE
  5
BC4E
  8
0
 10
126.1133304292407
 20
239.09267329507259
 30
0.0
 40
8.8452994616207548
  0
CIRCLE
  5
BC4F
  8
0
 10
126.1133304292407
 20
239.09267329507259
 30
0.0
 40
10.0
  0
CIRCLE
  5
BC50
  8
0
 10
126.1133304292407
 20
239.09267329507259
 30
0.0
 40
11.49999999999997
  0
CIRCLE
  5
BC51
  8
0
 10
126.1133304292407
 20
216.59267329507259
 30
0.0
 40
3.5
  0
CIRCLE
  5
BC52
  8
0
 10
126.1133304292407
 20
261.59267329507259
 30
0.0
 40
3.4999999999999711
  0
LINE
  5
BC53
  8
0
 10
120.5053994858708
 20
214.45933989890611
 30
0.0
 11
113.02815791760349
 21
234.1148958512465
 31
0.0
  0
ARC
  5
BC54
  8
0
 10
126.1133304292407
 20
239.09267329507259
 30
0.0
 40
13.999999999999989
 50
159.17250306798809
 51
200.82749693201191
  0
CIRCLE
  5
BC55
  8
0
 10
126.1133304292407
 20
239.09267329507259
 30
0.0
 40
11.0
  0
LINE
  5
BC56
  8
0
 10
113.02815791760349
 20
244.0704519831458
 30
0.0
 11
120.5053994858708
 21
263.72600560717979
 31
0.0
  0
ARC
  5
BC57
  8
0
 10
126.1133304292407
 20
216.59267329507259
 30
0.0
 40
6.0000000000000142
 50
200.82749693201191
 51
339.17250306798809
  0
CIRCLE
  5
BC58
  8
0
 10
126.1133304292407
 20
216.59267329507259
 30
0.0
 40
2.5
  0
ARC
  5
BC59
  8
0
 10
126.1133304292407
 20
261.59267329507259
 30
0.0
 40
6.0000000000000231
 50
20.827496932011918
 51
159.17250306798809
  0
CIRCLE
  5
BC5A
  8
0
 10
126.1133304292407
 20
261.59267329507259
 30
0.0
 40
2.4999999999999711
  0
LINE
  5
BC5B
  8
0
 10
139.19850294087789
 20
234.1148958512465
 30
0.0
 11
131.72126137261051
 21
214.45933989890611
 31
0.0
  0
LINE
  5
BC5C
  8
0
 10
131.72126137261051
 20
263.72600560717979
 30
0.0
 11
139.19850294087789
 21
244.0704519831458
 31
0.0
  0
ARC
  5
BC5D
  8
0
 10
126.1133304292407
 20
239.09267329507259
 30
0.0
 40
14.000000000000011
 50
339.17250306798809
 51
20.827496932011918
  0
POLYLINE
  5
BC5E
  8
0
 66
     1
 10
0.0
 20
0.0
 30
0.0
 70
   128
  0
VERTEX
  5
10B37
  8
0
 10
157.4110585042913
 20
282.06604214964409
 30
0.0
  0
VERTEX
  5
10B38
  8
0
 10
157.41105341545011
 20
282.06604351319493
 30
0.0
  0
VERTEX
  5
10B39
  8
0
 10
157.33606165563279
 20
282.10934240364998
 30
0.0
  0
VERTEX
  5
10B3A
  8
0
 10
157.11551981967881
 20
282.23667122391367
 30
0.0
  0
VERTEX
  5
10B3B
  8
0
 10
156.75612896124699
 20
282.44416456182552
 30
0.0
  0
VERTEX
  5
10B3C
  8
0
 10
156.26880535431559
 20
282.72552125859528
 30
0.0
  0
VERTEX
  5
10B3D
  8
0
 10
155.6683640847391
 20
283.07218736585492
 30
0.0
  0
VERTEX
  5
10B3E
  8
0
 10
154.9730418931631
 20
283.47363126300888
 30
0.0
  0
VERTEX
  5
10B3F
  8
0
 10
154.2039694948885
 20
283.917654129011
 30
0.0
  0
VERTEX
  5
10B40
  8
0
 10
153.38451468232961
 20
284.3907677630603
 30
0.0
  0
VERTEX
  5
10B41
  8
0
 10
152.53957217732179
 20
284.87859758204138
 30
0.0
  0
VERTEX
  5
10B42
  8
0
 10
151.69482008954671
 20
285.36631365553791
 30
0.0
  0
VERTEX
  5
10B43
  8
0
 10
150.87592212661929
 20
285.83910354766488
 30
0.0
  0
VERTEX
  5
10B44
  8
0
 10
150.1077641962431
 20
286.28260049124953
 30
0.0
  0
VERTEX
  5
10B45
  8
0
 10
149.4136849213366
 20
286.68332955563773
 30
0.0
  0
VERTEX
  5
10B46
  8
0
 10
148.8147687185355
 20
287.02911250677818
 30
0.0
  0
VERTEX
  5
10B47
  8
0
 10
148.32922079724989
 20
287.3094425354555
 30
0.0
  0
VERTEX
  5
10B48
  8
0
 10
147.971790453761
 20
287.51580513837808
 30
0.0
  0
VERTEX
  5
10B49
  8
0
 10
147.7533369866062
 20
287.64193078589062
 30
0.0
  0
VERTEX
  5
10B4A
  8
0
 10
147.68049615896479
 20
287.6839851958722
 30
0.0
  0
SEQEND
  5
10B4B
  8
0
  0
POLYLINE
  5
BC5F
  8
0
 66
     1
 10
0.0
 20
0.0
 30
0.0
 70
   128
  0
VERTEX
  5
10B4C
  8
0
 10
171.19721191856479
 20
303.18025285098389
 30
0.0
  0
VERTEX
  5
10B4D
  8
0
 10
171.18190391000641
 20
303.1890943223936
 30
0.0
  0
VERTEX
  5
10B4E
  8
0
 10
171.04009698594521
 20
303.27096225937379
 30
0.0
  0
VERTEX
  5
10B4F
  8
0
 10
170.7528881949676
 20
303.43678223419693
 30
0.0
  0
VERTEX
  5
10B50
  8
0
 10
170.32735061106681
 20
303.68246915967632
 30
0.0
  0
VERTEX
  5
10B51
  8
0
 10
169.77396506005289
 20
304.00196945589198
 30
0.0
  0
VERTEX
  5
10B52
  8
0
 10
169.1063486462258
 20
304.38741833140489
 30
0.0
  0
VERTEX
  5
10B53
  8
0
 10
168.3409434327709
 20
304.82932137675732
 30
0.0
  0
VERTEX
  5
10B54
  8
0
 10
167.49660407605941
 20
305.31680686682068
 30
0.0
  0
VERTEX
  5
10B55
  8
0
 10
166.59410976015459
 20
305.83786016741828
 30
0.0
  0
VERTEX
  5
10B56
  8
0
 10
165.65568863490799
 20
306.37965569438597
 30
0.0
  0
VERTEX
  5
10B57
  8
0
 10
164.70445092237759
 20
306.92885334864337
 30
0.0
  0
VERTEX
  5
10B58
  8
0
 10
163.76381171183101
 20
307.47192771232062
 30
0.0
  0
VERTEX
  5
10B59
  8
0
 10
162.85693956431919
 20
307.99551214604412
 30
0.0
  0
VERTEX
  5
10B5A
  8
0
 10
162.0061636757919
 20
308.48671035680081
 30
0.0
  0
VERTEX
  5
10B5B
  8
0
 10
161.2324299322531
 20
308.933427590441
 30
0.0
  0
VERTEX
  5
10B5C
  8
0
 10
160.55478763169111
 20
309.32466360892209
 30
0.0
  0
VERTEX
  5
10B5D
  8
0
 10
159.98992436732081
 20
309.65078185436357
 30
0.0
  0
VERTEX
  5
10B5E
  8
0
 10
159.55175552452761
 20
309.90375852519918
 30
0.0
  0
VERTEX
  5
10B5F
  8
0
 10
159.2510695234341
 20
310.07736490040122
 30
0.0
  0
VERTEX
  5
10B60
  8
0
 10
159.0952600708608
 20
310.16731816830293
 30
0.0
  0
VERTEX
  5
10B61
  8
0
 10
159.07285677030021
 20
310.18025340729889
 30
0.0
  0
SEQEND
  5
10B62
  8
0
  0
POLYLINE
  5
BC60
  8
0
 66
     1
 10
0.0
 20
0.0
 30
0.0
 70
   128
  0
VERTEX
  5
10B63
  8
0
 10
170.9831994468168
 20
304.70429810307002
 30
0.0
  0
VERTEX
  5
10B64
  8
0
 10
170.95430586519481
 20
304.72097955453859
 30
0.0
  0
VERTEX
  5
10B65
  8
0
 10
170.78643031839781
 20
304.81789932496849
 30
0.0
  0
VERTEX
  5
10B66
  8
0
 10
170.47342437801441
 20
304.99861385202689
 30
0.0
  0
VERTEX
  5
10B67
  8
0
 10
170.0242873746424
 20
305.25792194723579
 30
0.0
  0
VERTEX
  5
10B68
  8
0
 10
169.45194425851349
 20
305.58836790362483
 30
0.0
  0
VERTEX
  5
10B69
  8
0
 10
168.7728565837219
 20
305.98043845365402
 30
0.0
  0
VERTEX
  5
10B6A
  8
0
 10
168.00655912037831
 20
306.42285874102407
 30
0.0
  0
VERTEX
  5
10B6B
  8
0
 10
167.1751002778785
 20
306.90290588491649
 30
0.0
  0
VERTEX
  5
10B6C
  8
0
 10
166.3024001085214
 20
307.40676099112193
 30
0.0
  0
VERTEX
  5
10B6D
  8
0
 10
165.41355901789851
 20
307.91993164038718
 30
0.0
  0
VERTEX
  5
10B6E
  8
0
 10
164.53415084339639
 20
308.42765674850028
 30
0.0
  0
VERTEX
  5
10B6F
  8
0
 10
163.689479811718
 20
308.91532928626702
 30
0.0
  0
VERTEX
  5
10B70
  8
0
 10
162.90383749640179
 20
309.36891899948921
 30
0.0
  0
VERTEX
  5
10B71
  8
0
 10
162.19982915647481
 20
309.7753792654259
 30
0.0
  0
VERTEX
  5
10B72
  8
0
 10
161.5977057967709
 20
310.12301423671329
 30
0.0
  0
VERTEX
  5
10B73
  8
0
 10
161.11479241713889
 20
310.4018283928558
 30
0.0
  0
VERTEX
  5
10B74
  8
0
 10
160.7649748681053
 20
310.60378948351809
 30
0.0
  0
VERTEX
  5
10B75
  8
0
 10
160.55832806217219
 20
310.72309995641899
 30
0.0
  0
VERTEX
  5
10B76
  8
0
 10
160.4997283415855
 20
310.75693147680317
 30
0.0
  0
SEQEND
  5
10B77
  8
0
  0
LINE
  5
BC61
  8
1
 10
126.1133304292407
 20
239.0926732950723
 30
0.0
 11
168.62023369605001
 21
312.71678942560209
 31
0.0
  0
LINE
  5
BC62
  8
0
 10
112.1848313564505
 20
237.59453957610529
 30
0.0
 11
112.194772293612
 21
237.59562549822729
 31
0.0
  0
LINE
  5
BC63
  8
0
 10
140.04182950203079
 20
240.5908054643194
 30
0.0
 11
140.0318885648694
 21
240.58972140484249
 31
0.0
  0
LINE
  5
BC77
  8
0
 10
316.99162342776441
 20
378.9189130864936
 30
0.0
 11
318.39162423904992
 21
378.9189130864936
 31
0.0
  0
LINE
  5
BC78
  8
0
 10
318.39162423904992
 20
400.91891296728431
 30
0.0
 11
316.99162342776441
 21
400.91891296728431
 31
0.0
  0
LINE
  5
BC79
  8
0
 10
263.89162422348642
 20
380.41891333236282
 30
0.0
 11
263.99162405361312
 21
380.4105211846429
 31
0.0
  0
LINE
  5
BC7A
  8
0
 10
263.99162405361312
 20
399.42730486913501
 30
0.0
 11
263.89162422348642
 21
399.41891272141521
 31
0.0
  0
LINE
  5
BC7B
  8
0
 10
257.99162493278158
 20
399.9189128033716
 30
0.0
 11
255.99162460495609
 21
398.7642125092346
 31
0.0
  0
LINE
  5
BC7C
  8
0
 10
255.99162460495609
 20
381.07361354454338
 30
0.0
 11
257.99162493278158
 21
379.91891325040638
 31
0.0
  0
LINE
  5
BC7D
  8
0
 10
262.49162473906648
 20
399.9189128033716
 30
0.0
 11
257.99162493278158
 21
399.9189128033716
 31
0.0
  0
LINE
  5
BC7E
  8
0
 10
257.99162493278158
 20
379.91891325040638
 30
0.0
 11
262.49162473906648
 21
379.91891325040638
 31
0.0
  0
LINE
  5
BC7F
  8
0
 10
262.49162473906648
 20
379.91891325040638
 30
0.0
 11
262.99162388970041
 21
380.41891333236282
 31
0.0
  0
LINE
  5
BC80
  8
0
 10
262.99162388970041
 20
399.41891272141521
 30
0.0
 11
262.49162473906648
 21
399.9189128033716
 31
0.0
  0
LINE
  5
BC81
  8
0
 10
262.99162388970041
 20
380.41891333236282
 30
0.0
 11
263.89162422348642
 21
380.41891333236282
 31
0.0
  0
LINE
  5
BC82
  8
0
 10
263.89162422348642
 20
399.41891272141521
 30
0.0
 11
262.99162388970041
 21
399.41891272141521
 31
0.0
  0
LINE
  5
BC83
  8
0
 10
264.9916242175259
 20
403.91891345902258
 30
0.0
 11
263.99162405361312
 21
402.9189132951098
 31
0.0
  0
LINE
  5
BC84
  8
0
 10
274.28541815099197
 20
403.91891345902258
 30
0.0
 11
264.9916242175259
 21
403.91891345902258
 31
0.0
  0
LINE
  5
BC85
  8
0
 10
303.9916250221886
 20
403.91891345902258
 30
0.0
 11
300.69783137370717
 21
403.91891345902258
 31
0.0
  0
LINE
  5
BC86
  8
0
 10
316.49162613977569
 20
403.91891345902258
 30
0.0
 11
311.99162447084558
 21
403.91891345902258
 31
0.0
  0
ARC
  5
BC87
  8
0
 10
316.49162432183402
 20
403.41891302688902
 30
0.0
 40
0.5
 50
0.0
 51
90.0
  0
LINE
  5
BC88
  8
0
 10
263.99162405361312
 20
376.91891275866811
 30
0.0
 11
264.9916242175259
 21
375.91891259475528
 31
0.0
  0
LINE
  5
BC89
  8
0
 10
300.69783137370717
 20
375.91891259475528
 30
0.0
 11
303.9916250221886
 21
375.91891259475528
 31
0.0
  0
LINE
  5
BC8A
  8
0
 10
264.9916242175259
 20
375.91891259475528
 30
0.0
 11
274.28541815099197
 21
375.91891259475528
 31
0.0
  0
ARC
  5
BC8B
  8
0
 10
316.49162432183402
 20
376.4189130268889
 30
0.0
 40
0.5
 50
270.0
 51
0.0
  0
LINE
  5
BC8C
  8
0
 10
311.99162447084558
 20
375.91891259475528
 30
0.0
 11
316.49162613977569
 21
375.91891259475528
 31
0.0
  0
LINE
  5
BCAF
  8
0
 10
263.99162405361312
 20
376.91891275866811
 30
0.0
 11
263.99162405361312
 21
402.9189132951098
 31
0.0
  0
LINE
  5
BCB0
  8
0
 10
271.99162443359268
 20
400.5015528626638
 30
0.0
 11
271.99162443359268
 21
379.33627319111429
 31
0.0
  0
LINE
  5
BCB1
  8
0
 10
291.9928272553243
 20
386.12737123443662
 30
0.0
 11
291.9916239865579
 21
386.1579814791578
 31
0.0
  0
LINE
  5
BCB2
  8
0
 10
291.9916239865579
 20
386.1579814791578
 30
0.0
 11
291.9916239865579
 21
393.71045481934129
 31
0.0
  0
LINE
  5
BCB5
  8
0
 10
262.49162473906648
 20
379.91891325040638
 30
0.0
 11
262.49162473906648
 21
399.9189128033716
 31
0.0
  0
LINE
  5
BCB6
  8
0
 10
262.99162388970041
 20
380.41891333236282
 30
0.0
 11
262.99162388970041
 21
399.41891272141521
 31
0.0
  0
LINE
  5
BCB7
  8
0
 10
277.99162436933148
 20
403.407334243496
 30
0.0
 11
296.99162387479919
 21
403.407334243496
 31
0.0
  0
LINE
  5
BCBA
  8
0
 10
316.99162342776441
 20
403.41891337706619
 30
0.0
 11
316.99162342776441
 21
402.53675718380981
 31
0.0
  0
LINE
  5
BCBB
  8
0
 10
277.99162436933148
 20
376.43049181028192
 30
0.0
 11
296.99162387479919
 21
376.43049181028192
 31
0.0
  0
LINE
  5
BCBD
  8
0
 10
316.99162432183402
 20
403.41891302688902
 30
0.0
 11
316.99162342776441
 21
376.41891267671173
 31
0.0
  0
LINE
  5
BCC2
  8
0
 10
271.99162443359268
 20
395.52684397025882
 30
0.0
 11
263.99162405361312
 21
395.52684397025882
 31
0.0
  0
LINE
  5
BCC3
  8
0
 10
271.99162443359268
 20
384.31098208351909
 30
0.0
 11
263.99162405361312
 21
384.31098208351909
 31
0.0
  0
LINE
  5
BCC4
  8
0
 10
272.49162451554912
 20
402.55897295250469
 30
0.0
 11
303.9916250221886
 21
402.55897295250469
 31
0.0
  0
LINE
  5
BCC5
  8
0
 10
303.9916250221886
 20
377.27885310127323
 30
0.0
 11
272.49162451554912
 21
377.27885310127323
 31
0.0
  0
ARC
  5
BCC6
  8
0
 10
292.4603741169542
 20
393.45943467042622
 30
0.0
 40
0.470136986079989
 50
86.188746074501864
 51
175.5980219336584
  0
LINE
  5
BCC7
  8
0
 10
292.49162406851428
 20
393.92853191642939
 30
0.0
 11
316.99162400757251
 21
393.92853191642939
 31
0.0
  0
LINE
  5
BCC8
  8
0
 10
316.99162389286312
 20
390.46443033552652
 30
0.0
 11
291.9916239865579
 21
390.46443033552652
 31
0.0
  0
LINE
  5
BCC9
  8
0
 10
291.9916239865579
 20
389.37339571825152
 30
0.0
 11
316.99162385673498
 21
389.37339571825152
 31
0.0
  0
LINE
  5
BCCA
  8
0
 10
316.99162374202592
 20
385.90929413734852
 30
0.0
 11
292.49162406851428
 21
385.90929413734852
 31
0.0
  0
ARC
  5
BCCB
  8
0
 10
292.4603741169542
 20
386.3783913833517
 30
0.0
 40
0.4701369860799323
 50
184.40197806632861
 51
273.81125392549819
  0
LINE
  5
BCCC
  8
0
 10
316.99162416540821
 20
398.69501803590828
 30
0.0
 11
271.99162443359268
 21
398.69501803590828
 31
0.0
  0
LINE
  5
BCCD
  8
0
 10
271.99162443359268
 20
381.14280801786958
 30
0.0
 11
316.99162358418988
 21
381.14280801786958
 31
0.0
  0
LINE
  5
BCCE
  8
0
 10
291.9928272553243
 20
393.71045481934129
 30
0.0
 11
271.99162443359268
 21
393.71045481934129
 31
0.0
  0
LINE
  5
BCCF
  8
0
 10
271.99162443359268
 20
386.12737123443662
 30
0.0
 11
291.9928272553243
 21
386.12737123443662
 31
0.0
  0
LINE
  5
BCD0
  8
0
 10
311.99162447084558
 20
402.55897295250469
 30
0.0
 11
316.9916242933582
 21
402.55897295250469
 31
0.0
  0
LINE
  5
BCD1
  8
0
 10
316.99162345624018
 20
377.27885310127323
 30
0.0
 11
311.99162447084558
 21
377.27885310127323
 31
0.0
  0
LINE
  5
BCEA
  8
0
 10
485.34547394514419
 20
237.59453988530541
 30
0.0
 11
485.3355330079828
 21
237.59562580742741
 31
0.0
  0
CIRCLE
  5
BCEE
  8
0
 10
471.41697487235399
 20
239.0926736042727
 30
0.0
 40
12.99999999999997
  0
CIRCLE
  5
BCEF
  8
0
 10
471.41697487235399
 20
239.0926736042727
 30
0.0
 40
11.999999999999931
  0
LINE
  5
BCF0
  8
0
 10
471.962492180992
 20
221.09267360427259
 30
0.0
 11
470.871457563717
 21
221.09267360427259
 31
0.0
  0
ARC
  5
BCF2
  8
0
 10
470.87145754425859
 20
225.09267360427259
 30
0.0
 40
4.0
 50
209.99999999999571
 51
270.0
  0
ARC
  5
BCF3
  8
0
 10
471.96249220044979
 20
225.09267360427259
 30
0.0
 40
4.0000000000000044
 50
270.0
 51
330.00000000000432
  0
ARC
  5
BCF4
  8
0
 10
488.4169748723545
 20
215.5926736042729
 30
0.0
 40
15.000000000000121
 50
123.24769966168439
 51
150.00000000000421
  0
ARC
  5
BCF5
  8
0
 10
454.4169748723545
 20
215.59267360427239
 30
0.0
 40
15.0
 50
29.999999999995719
 51
56.752300338315571
  0
ARC
  5
BCF6
  8
0
 10
474.71048353580062
 20
236.5003778120757
 30
0.0
 40
10.00000000000008
 50
303.24769966168338
 51
339.17250306798809
  0
ARC
  5
BCF7
  8
0
 10
468.12346620890798
 20
236.50037781207561
 30
0.0
 40
10.000000000000011
 50
200.8274969320166
 51
236.75230033831659
  0
LINE
  5
BCF8
  8
0
 10
460.36700761318542
 20
228.7649173558579
 30
0.0
 11
458.33180236071678
 21
234.11489616044639
 31
0.0
  0
LINE
  5
BCF9
  8
0
 10
484.50214738399131
 20
234.1148961604467
 30
0.0
 11
484.05703479796978
 21
232.9448225245705
 31
0.0
  0
ARC
  5
BCFA
  8
0
 10
471.41697487235399
 20
239.0926736042727
 30
0.0
 40
14.0
 50
339.17250306798809
 51
20.827496932011918
  0
ARC
  5
BCFB
  8
0
 10
474.71048353580022
 20
241.6849693964698
 30
0.0
 40
10.000000000000069
 50
20.827496932011918
 51
56.752300338315571
  0
LINE
  5
BCFC
  8
0
 10
482.46694213152273
 20
249.42042923428909
 30
0.0
 11
484.50214738399131
 21
244.070452292346
 31
0.0
  0
ARC
  5
BCFD
  8
0
 10
454.41697487235359
 20
262.59267360427242
 30
0.0
 40
15.000000000000011
 50
327.69913900908961
 51
330.00000000000432
  0
ARC
  5
BCFE
  8
0
 10
488.41697487235388
 20
262.59267360427287
 30
0.0
 40
15.00000000000008
 50
209.99999999999571
 51
236.75230033831659
  0
ARC
  5
BCFF
  8
0
 10
470.87145754425831
 20
253.09267360427259
 30
0.0
 40
4.0000000000000178
 50
90.0
 51
150.00000000000421
  0
ARC
  5
BD00
  8
0
 10
471.96249220044979
 20
253.09267360427259
 30
0.0
 40
4.0
 50
29.999999999995719
 51
90.0
  0
LINE
  5
BD01
  8
0
 10
470.87145756371638
 20
257.092672054552
 30
0.0
 11
471.96249218099138
 21
257.092672054552
 31
0.0
  0
ARC
  5
BD02
  8
0
 10
471.4169748723545
 20
216.59267360427251
 30
0.0
 40
5.9999999999999813
 50
200.8274969320166
 51
339.17250306798809
  0
CIRCLE
  5
BD03
  8
0
 10
471.4169748723545
 20
216.59267360427251
 30
0.0
 40
2.5
  0
LINE
  5
BD04
  8
0
 10
465.80904392898458
 20
214.459340208106
 30
0.0
 11
460.36700761318542
 21
228.7649173558579
 31
0.0
  0
LINE
  5
BD05
  8
0
 10
482.46694213152273
 20
228.7649173558583
 30
0.0
 11
477.02490581572442
 21
214.45934020810611
 31
0.0
  0
LINE
  5
BD06
  8
0
 10
477.02490581572351
 20
263.72600591637968
 30
0.0
 11
482.46694213152273
 21
249.42042923428909
 31
0.0
  0
LINE
  5
BD07
  8
0
 10
464.22214163639882
 20
259.55448834422128
 30
0.0
 11
465.80904392898373
 21
263.72600591637962
 31
0.0
  0
ARC
  5
BD08
  8
0
 10
471.41697487235359
 20
261.59267360427248
 30
0.0
 40
6.0000000000000329
 50
20.827496932016551
 51
159.17250306798809
  0
CIRCLE
  5
BD0B
  8
0
 10
471.4169748723545
 20
216.59267360427251
 30
0.0
 40
3.0
  0
LINE
  5
BD0E
  8
0
 10
485.34547394514419
 20
237.59453988530541
 30
0.0
 11
485.3355330079828
 21
237.59562580742741
 31
0.0
  0
LINE
  5
BD0F
  8
0
 10
484.50214738399131
 20
234.1148961604467
 30
0.0
 11
482.46694213152273
 21
228.7649173558583
 31
0.0
  0
ARC
  5
BD10
  8
0
 10
471.4169795659156
 20
239.09267462514711
 30
0.0
 40
14.000004749839119
 50
159.17251094702939
 51
200.82749400724441
  0
LINE
  5
BD14
  8
1
 10
120.1133304292407
 20
261.59267329507259
 30
0.0
 11
132.1133304292407
 21
261.59267329507259
 31
0.0
  0
LINE
  5
BD15
  8
1
 10
120.1133304292407
 20
216.5926732950727
 30
0.0
 11
132.1133304292407
 21
216.5926732950727
 31
0.0
  0
ARC
  5
BD58
  8
0
 10
277.99176872528011
 20
239.09267298587361
 30
0.0
 40
3.7499996861288101
 50
89.997794403793094
 51
270.00220559620692
  0
ARC
  5
BD59
  8
0
 10
296.99147951885061
 20
239.09267298587361
 30
0.0
 40
3.7499996861288101
 50
269.99779440379308
 51
90.002205596193889
  0
ARC
  5
BD5A
  8
0
 10
307.09162348140848
 20
215.5117582163914
 30
0.0
 40
6.0908966657983648
 50
66.386948400277376
 51
113.6130515997226
  0
ARC
  5
BD5B
  8
0
 10
294.99162447829622
 20
213.36745791224661
 30
0.0
 40
7.8806006008637732
 50
78.60330269380114
 51
101.3966973061988
  0
POLYLINE
  5
BDC1
  8
0
 66
     1
 10
0.0
 20
0.0
 30
0.0
 70
     2
  0
VERTEX
  5
BDC2
  8
0
 10
272.49162451554912
 20
223.5773997818003
 30
0.0
 42
0.0270623643376851
  0
VERTEX
  5
BDC3
  8
0
 10
272.451484866795
 20
223.5756409514066
 30
0.0
 42
0.047345501178836
 70
     1
  0
VERTEX
  5
BDC4
  8
0
 10
272.42890959974147
 20
223.5712402187778
 30
0.0
 42
0.0209597343770059
  0
VERTEX
  5
BDC5
  8
0
 10
272.36617873817659
 20
223.5498195310484
 30
0.0
 42
0.04695676670836
 70
     1
  0
VERTEX
  5
BDC6
  8
0
 10
272.33968304692758
 20
223.5365330574769
 30
0.0
 42
0.0274170238628737
  0
VERTEX
  5
BDC7
  8
0
 10
272.30422196744797
 20
223.51156460301721
 30
0.0
 42
0.023801206748138
 70
     1
  0
VERTEX
  5
BDC8
  8
0
 10
272.26653517794631
 20
223.47878366464539
 30
0.0
 42
0.0170022860232065
  0
VERTEX
  5
BDC9
  8
0
 10
272.21914493369451
 20
223.4302335930374
 30
0.0
 42
0.0247313152647594
 70
     1
  0
VERTEX
  5
BDCA
  8
0
 10
272.18945112385308
 20
223.3942451880981
 30
0.0
 42
0.0181416254082958
  0
VERTEX
  5
BDCB
  8
0
 10
272.15653206214779
 20
223.3465507966107
 30
0.0
 42
0.0193140800056875
 70
     1
  0
VERTEX
  5
BDCC
  8
0
 10
272.1290492676917
 20
223.2995613475714
 30
0.0
 42
0.0111401098943156
  0
VERTEX
  5
BDCD
  8
0
 10
272.10227970441179
 20
223.2466416605121
 30
0.0
 42
0.0140010908780738
 70
     1
  0
VERTEX
  5
BDCE
  8
0
 10
272.0831219569734
 20
223.20351520644371
 30
0.0
 42
0.0120216091590689
  0
VERTEX
  5
BDCF
  8
0
 10
272.0622457423899
 20
223.14904576587099
 30
0.0
 42
0.013537074758771
 70
     1
  0
VERTEX
  5
BDD0
  8
0
 10
272.04620161442921
 20
223.09978820096489
 30
0.0
 42
0.011730487407525
  0
VERTEX
  5
BDD1
  8
0
 10
272.03064144010949
 20
223.042303664477
 30
0.0
 42
0.0129003387952545
 70
     1
  0
VERTEX
  5
BDD2
  8
0
 10
272.01908296503262
 20
222.98939723148069
 30
0.0
 42
0.0089320461797032
  0
VERTEX
  5
BDD3
  8
0
 10
272.01777852808323
 20
222.9818626637925
 30
0.0
 42
0.0008176782135701
 70
     1
  0
VERTEX
  5
BDD4
  8
0
 10
272.00513776310459
 20
222.8993018898839
 30
0.0
 42
0.0209940453422486
  0
VERTEX
  5
BDD5
  8
0
 10
271.99592008457398
 20
222.8145315085076
 30
0.0
 42
0.0150732859008798
 70
     1
  0
VERTEX
  5
BDD6
  8
0
 10
271.99162443359268
 20
222.69587060146799
 30
0.0
  0
SEQEND
  5
BDD7
  8
0
  0
POLYLINE
  5
BDD8
  8
0
 66
     1
 10
0.0
 20
0.0
 30
0.0
  0
VERTEX
  5
10B78
  8
0
 10
272.49162451554912
 20
232.94482221537029
 30
0.0
  0
VERTEX
  5
10B79
  8
0
 10
272.34135239428127
 20
232.056039089997
 30
0.0
  0
VERTEX
  5
10B7A
  8
0
 10
272.24956833390678
 20
231.5014329694809
 30
0.0
  0
VERTEX
  5
10B7B
  8
0
 10
272.13252315089841
 20
230.72746846101521
 30
0.0
  0
VERTEX
  5
10B7C
  8
0
 10
272.04739574703473
 20
229.83678501656911
 30
0.0
  0
VERTEX
  5
10B7D
  8
0
 10
272.00848370049971
 20
229.15128459864059
 30
0.0
  0
SEQEND
  5
10B7E
  8
0
  0
POLYLINE
  5
BDD9
  8
0
 66
     1
 10
0.0
 20
0.0
 30
0.0
 70
     2
  0
VERTEX
  5
BDDA
  8
0
 10
272.49162059865239
 20
254.60794574811499
 30
0.0
 42
-0.0270623643376851
  0
VERTEX
  5
BDDB
  8
0
 10
272.45148094945421
 20
254.60970456837521
 30
0.0
 42
-0.047345501178836
 70
     1
  0
VERTEX
  5
BDDC
  8
0
 10
272.42890568128951
 20
254.61410529530491
 30
0.0
 42
-0.0209597343770059
  0
VERTEX
  5
BDDD
  8
0
 10
272.36617481431699
 20
254.63552596719759
 30
0.0
 42
-0.04695676670836
 70
     1
  0
VERTEX
  5
BDDE
  8
0
 10
272.33967911971382
 20
254.6488124340801
 30
0.0
 42
-0.0274170238628737
  0
VERTEX
  5
BDDF
  8
0
 10
272.30421803393102
 20
254.6737808795875
 30
0.0
 42
-0.023801206748138
 70
     1
  0
VERTEX
  5
BDE0
  8
0
 10
272.26653123615341
 20
254.70656180844509
 30
0.0
 42
-0.0170022860232065
  0
VERTEX
  5
BDE1
  8
0
 10
272.21914097964509
 20
254.75511186808919
 30
0.0
 42
-0.0247313152647594
 70
     1
  0
VERTEX
  5
BDE2
  8
0
 10
272.18944716071837
 20
254.79110026553221
 30
0.0
 42
-0.0181416254082958
  0
VERTEX
  5
BDE3
  8
0
 10
272.15652808697217
 20
254.83879464870901
 30
0.0
 42
-0.0193140800056875
 70
     1
  0
VERTEX
  5
BDE4
  8
0
 10
272.12904528065337
 20
254.8857840908102
 30
0.0
 42
-0.0111401098943156
  0
VERTEX
  5
BDE5
  8
0
 10
272.10227570401372
 20
254.93870377111151
 30
0.0
 42
-0.0140010908780738
 70
     1
  0
VERTEX
  5
BDE6
  8
0
 10
272.083117945688
 20
254.98183022034331
 30
0.0
 42
-0.0120216091590689
  0
VERTEX
  5
BDE7
  8
0
 10
272.06224171735357
 20
255.03629965564579
 30
0.0
 42
-0.013537074758771
 70
     1
  0
VERTEX
  5
BDE8
  8
0
 10
272.04619757695758
 20
255.08555721650151
 30
0.0
 42
-0.011730487407525
  0
VERTEX
  5
BDE9
  8
0
 10
272.03063738812563
 20
255.1430417490611
 30
0.0
 42
-0.0129003387952545
 70
     1
  0
VERTEX
  5
BDEA
  8
0
 10
272.0190788996922
 20
255.19594817913949
 30
0.0
 42
-0.0089320461797032
  0
VERTEX
  5
BDEB
  8
0
 10
272.01777446084071
 20
255.20348274649831
 30
0.0
 42
-0.0008176782135701
 70
     1
  0
VERTEX
  5
BDEC
  8
0
 10
272.00513367501912
 20
255.2860435172156
 30
0.0
 42
-0.0209940453422486
  0
VERTEX
  5
BDED
  8
0
 10
271.99591597508788
 20
255.37081389626499
 30
0.0
 42
-0.0150732859008798
 70
     1
  0
VERTEX
  5
BDEE
  8
0
 10
271.99162029415038
 20
255.48947480222009
 30
0.0
  0
SEQEND
  5
BDEF
  8
0
  0
POLYLINE
  5
BDF0
  8
0
 66
     1
 10
0.0
 20
0.0
 30
0.0
  0
VERTEX
  5
10B7F
  8
0
 10
272.49162534250331
 20
245.2405246101888
 30
0.0
  0
VERTEX
  5
10B80
  8
0
 10
272.34135334078661
 20
246.1293077557755
 30
0.0
  0
VERTEX
  5
10B81
  8
0
 10
272.24956935501291
 20
246.68391388863739
 30
0.0
  0
VERTEX
  5
10B82
  8
0
 10
272.1325242761111
 20
247.45787841284701
 30
0.0
  0
VERTEX
  5
10B83
  8
0
 10
272.0473969920543
 20
248.34856186874359
 30
0.0
  0
VERTEX
  5
10B84
  8
0
 10
271.99162443359268
 20
249.3310905822693
 30
0.0
  0
SEQEND
  5
10B85
  8
0
  0
POLYLINE
  5
BDFE
  8
0
 66
     1
 10
0.0
 20
0.0
 30
0.0
  0
VERTEX
  5
10B86
  8
0
 10
296.99162387479919
 20
376.43049181028192
 30
0.0
  0
VERTEX
  5
10B87
  8
0
 10
297.79676129806722
 20
376.41613555870669
 30
0.0
  0
VERTEX
  5
10B88
  8
0
 10
298.70985049990281
 20
376.3459285436553
 30
0.0
  0
VERTEX
  5
10B89
  8
0
 10
299.45905120500339
 20
376.21721568272699
 30
0.0
  0
VERTEX
  5
10B8A
  8
0
 10
300.13801398293322
 20
376.0768016526232
 30
0.0
  0
VERTEX
  5
10B8B
  8
0
 10
300.69783137370717
 20
375.91891259475528
 30
0.0
  0
SEQEND
  5
10B8C
  8
0
  0
POLYLINE
  5
BDFF
  8
0
 66
     1
 10
0.0
 20
0.0
 30
0.0
  0
VERTEX
  5
10B8D
  8
0
 10
277.99162436933148
 20
376.43049181028192
 30
0.0
  0
VERTEX
  5
10B8E
  8
0
 10
277.1864869460635
 20
376.41613555870669
 30
0.0
  0
VERTEX
  5
10B8F
  8
0
 10
276.27339774422779
 20
376.3459285436553
 30
0.0
  0
VERTEX
  5
10B90
  8
0
 10
275.52419703912727
 20
376.21721568272699
 30
0.0
  0
VERTEX
  5
10B91
  8
0
 10
274.8452342611975
 20
376.0768016526232
 30
0.0
  0
VERTEX
  5
10B92
  8
0
 10
274.28541687042338
 20
375.91891259475528
 30
0.0
  0
SEQEND
  5
10B93
  8
0
  0
POLYLINE
  5
BE00
  8
0
 66
     1
 10
0.0
 20
0.0
 30
0.0
  0
VERTEX
  5
10B94
  8
0
 10
277.99162436933148
 20
403.407334243496
 30
0.0
  0
VERTEX
  5
10B95
  8
0
 10
277.1864869460635
 20
403.42169049507112
 30
0.0
  0
VERTEX
  5
10B96
  8
0
 10
276.27339774422779
 20
403.4918975101225
 30
0.0
  0
VERTEX
  5
10B97
  8
0
 10
275.52419703912727
 20
403.62061037105087
 30
0.0
  0
VERTEX
  5
10B98
  8
0
 10
274.8452342611975
 20
403.7610244011546
 30
0.0
  0
VERTEX
  5
10B99
  8
0
 10
274.28541687042338
 20
403.91891345902258
 30
0.0
  0
SEQEND
  5
10B9A
  8
0
  0
POLYLINE
  5
BE01
  8
0
 66
     1
 10
0.0
 20
0.0
 30
0.0
  0
VERTEX
  5
10B9B
  8
0
 10
296.99162387479919
 20
403.407334243496
 30
0.0
  0
VERTEX
  5
10B9C
  8
0
 10
297.79676129806722
 20
403.42169049507112
 30
0.0
  0
VERTEX
  5
10B9D
  8
0
 10
298.70985049990281
 20
403.4918975101225
 30
0.0
  0
VERTEX
  5
10B9E
  8
0
 10
299.45905120500339
 20
403.62061037105087
 30
0.0
  0
VERTEX
  5
10B9F
  8
0
 10
300.13801398293322
 20
403.7610244011546
 30
0.0
  0
VERTEX
  5
10BA0
  8
0
 10
300.69783137370717
 20
403.91891345902258
 30
0.0
  0
SEQEND
  5
10BA1
  8
0
  0
LINE
  5
BE04
  8
0
 10
255.99162460495609
 20
398.7642125092346
 30
0.0
 11
255.99162460495609
 21
381.07361354454338
 31
0.0
  0
POLYLINE
  5
BE05
  8
0
 66
     1
 10
0.0
 20
0.0
 30
0.0
 70
     2
  0
VERTEX
  5
BE06
  8
0
 10
271.99162443359268
 20
379.33627319111571
 30
0.0
 42
0.026198407464847
  0
VERTEX
  5
BE07
  8
0
 10
272.04443553425949
 20
378.77312386323331
 30
0.0
 42
0.0261984074649156
 70
     1
  0
VERTEX
  5
BE08
  8
0
 10
272.15585014081671
 20
378.21858534942629
 30
0.0
 42
0.0231320519554417
  0
VERTEX
  5
BE09
  8
0
 10
272.3019877549757
 20
377.7409479167037
 30
0.0
 42
0.0231320519553766
 70
     1
  0
VERTEX
  5
BE0A
  8
0
 10
272.49162451554912
 20
377.27885310127323
 30
0.0
  0
SEQEND
  5
BE0B
  8
0
  0
POLYLINE
  5
BE0C
  8
0
 66
     1
 10
0.0
 20
0.0
 30
0.0
 70
     2
  0
VERTEX
  5
BE0D
  8
0
 10
271.9916244335941
 20
400.50155286266198
 30
0.0
 42
-0.026198407464847
  0
VERTEX
  5
BE0E
  8
0
 10
272.04443553426057
 20
401.06470219054449
 30
0.0
 42
-0.0261984074649156
 70
     1
  0
VERTEX
  5
BE0F
  8
0
 10
272.15585014081807
 20
401.61924070435128
 30
0.0
 42
-0.0231320519554417
  0
VERTEX
  5
BE10
  8
0
 10
272.30198775497701
 20
402.09687813707387
 30
0.0
 42
-0.0231320519553766
 70
     1
  0
VERTEX
  5
BE11
  8
0
 10
272.49162451555048
 20
402.5589729525044
 30
0.0
  0
SEQEND
  5
BE12
  8
0
  0
LINE
  5
BE43
  8
1
 10
247.88166046161061
 20
389.91891302688902
 30
0.0
 11
339.44967407236749
 21
389.91891302688902
 31
0.0
  0
LINE
  5
BE46
  8
1
 10
471.41697487235399
 20
270.3198002728422
 30
0.0
 11
471.41697487235399
 21
207.86554693570301
 31
0.0
  0
LINE
  5
BE47
  8
1
 10
447.38790838987921
 20
239.09267360427259
 30
0.0
 11
495.68256232899279
 21
239.09267360427259
 31
0.0
  0
LINE
  5
BE48
  8
1
 10
465.4169748723541
 20
261.59267360427248
 30
0.0
 11
477.4169748723541
 21
261.59267360427248
 31
0.0
  0
LINE
  5
BE49
  8
1
 10
465.4169748723541
 20
216.5926736042727
 30
0.0
 11
477.4169748723541
 21
216.5926736042727
 31
0.0
  0
CIRCLE
  5
BE4A
  8
0
 10
471.4169748723545
 20
261.59267360427248
 30
0.0
 40
3.0
  0
CIRCLE
  5
BE4B
  8
0
 10
471.4169748723545
 20
261.59267360427248
 30
0.0
 40
2.5
  0
LINE
  5
BE51
  8
1
 10
247.88166046161061
 20
125.7951055432632
 30
0.0
 11
339.44967407236749
 21
125.7951055432632
 31
0.0
  0
POLYLINE
  5
BE53
  8
0
 66
     1
 10
0.0
 20
0.0
 30
0.0
 70
     2
  0
VERTEX
  5
BE54
  8
0
 10
271.9916244335941
 20
115.2124657074902
 30
0.0
 42
0.026198407464847
  0
VERTEX
  5
BE55
  8
0
 10
272.04443553426091
 20
114.6493163796078
 30
0.0
 42
0.0261984074649156
 70
     1
  0
VERTEX
  5
BE56
  8
0
 10
272.1558501408183
 20
114.09477786580091
 30
0.0
 42
0.0231320519554417
  0
VERTEX
  5
BE57
  8
0
 10
272.30198775497701
 20
113.6171404330783
 30
0.0
 42
0.0231320519553766
 70
     1
  0
VERTEX
  5
BE58
  8
0
 10
272.49162451555048
 20
113.1550456176477
 30
0.0
  0
SEQEND
  5
BE59
  8
0
  0
POLYLINE
  5
BE5A
  8
0
 66
     1
 10
0.0
 20
0.0
 30
0.0
 70
     2
  0
VERTEX
  5
BE5B
  8
0
 10
271.99162443359268
 20
136.37774537903661
 30
0.0
 42
-0.026198407464847
  0
VERTEX
  5
BE5C
  8
0
 10
272.04443553425949
 20
136.94089470691901
 30
0.0
 42
-0.0261984074649156
 70
     1
  0
VERTEX
  5
BE5D
  8
0
 10
272.15585014081699
 20
137.49543322072589
 30
0.0
 42
-0.0231320519554417
  0
VERTEX
  5
BE5E
  8
0
 10
272.3019877549757
 20
137.97307065344859
 30
0.0
 42
-0.0231320519553766
 70
     1
  0
VERTEX
  5
BE5F
  8
0
 10
272.49162451554912
 20
138.43516546887909
 30
0.0
  0
SEQEND
  5
BE60
  8
0
  0
LINE
  5
BE61
  8
0
 10
255.99162460495609
 20
116.94980606091769
 30
0.0
 11
255.99162460495609
 21
134.6404050256088
 31
0.0
  0
POLYLINE
  5
BE64
  8
0
 66
     1
 10
0.0
 20
0.0
 30
0.0
  0
VERTEX
  5
10BA2
  8
0
 10
296.99162387479919
 20
112.3066843266563
 30
0.0
  0
VERTEX
  5
10BA3
  8
0
 10
297.79676129806722
 20
112.2923280750811
 30
0.0
  0
VERTEX
  5
10BA4
  8
0
 10
298.70985049990281
 20
112.22212106002971
 30
0.0
  0
VERTEX
  5
10BA5
  8
0
 10
299.45905120500339
 20
112.0934081991013
 30
0.0
  0
VERTEX
  5
10BA6
  8
0
 10
300.13801398293322
 20
111.95299416899751
 30
0.0
  0
VERTEX
  5
10BA7
  8
0
 10
300.69783137370717
 20
111.7951051111297
 30
0.0
  0
SEQEND
  5
10BA8
  8
0
  0
POLYLINE
  5
BE65
  8
0
 66
     1
 10
0.0
 20
0.0
 30
0.0
  0
VERTEX
  5
10BA9
  8
0
 10
277.99162436933148
 20
112.3066843266563
 30
0.0
  0
VERTEX
  5
10BAA
  8
0
 10
277.1864869460635
 20
112.2923280750811
 30
0.0
  0
VERTEX
  5
10BAB
  8
0
 10
276.27339774422779
 20
112.22212106002971
 30
0.0
  0
VERTEX
  5
10BAC
  8
0
 10
275.52419703912727
 20
112.0934081991013
 30
0.0
  0
VERTEX
  5
10BAD
  8
0
 10
274.8452342611975
 20
111.95299416899751
 30
0.0
  0
VERTEX
  5
10BAE
  8
0
 10
274.28541687042338
 20
111.7951051111297
 30
0.0
  0
SEQEND
  5
10BAF
  8
0
  0
POLYLINE
  5
BE66
  8
0
 66
     1
 10
0.0
 20
0.0
 30
0.0
  0
VERTEX
  5
10BB0
  8
0
 10
277.99162436933148
 20
139.28352675987031
 30
0.0
  0
VERTEX
  5
10BB1
  8
0
 10
277.1864869460635
 20
139.29788301144549
 30
0.0
  0
VERTEX
  5
10BB2
  8
0
 10
276.27339774422779
 20
139.36809002649699
 30
0.0
  0
VERTEX
  5
10BB3
  8
0
 10
275.52419703912727
 20
139.4968028874253
 30
0.0
  0
VERTEX
  5
10BB4
  8
0
 10
274.8452342611975
 20
139.63721691752909
 30
0.0
  0
VERTEX
  5
10BB5
  8
0
 10
274.28541687042338
 20
139.79510597539689
 30
0.0
  0
SEQEND
  5
10BB6
  8
0
  0
POLYLINE
  5
BE67
  8
0
 66
     1
 10
0.0
 20
0.0
 30
0.0
  0
VERTEX
  5
10BB7
  8
0
 10
296.99162387479919
 20
139.28352675987031
 30
0.0
  0
VERTEX
  5
10BB8
  8
0
 10
297.79676129806722
 20
139.29788301144549
 30
0.0
  0
VERTEX
  5
10BB9
  8
0
 10
298.70985049990281
 20
139.36809002649699
 30
0.0
  0
VERTEX
  5
10BBA
  8
0
 10
299.45905120500339
 20
139.4968028874253
 30
0.0
  0
VERTEX
  5
10BBB
  8
0
 10
300.13801398293322
 20
139.63721691752909
 30
0.0
  0
VERTEX
  5
10BBC
  8
0
 10
300.69783137370717
 20
139.79510597539689
 30
0.0
  0
SEQEND
  5
10BBD
  8
0
  0
LINE
  5
BE6A
  8
0
 10
316.99162345624018
 20
138.43516546887909
 30
0.0
 11
311.99162447084558
 21
138.43516546887909
 31
0.0
  0
LINE
  5
BE6B
  8
0
 10
311.99162447084558
 20
113.1550456176475
 30
0.0
 11
316.9916242933582
 21
113.1550456176475
 31
0.0
  0
LINE
  5
BE6C
  8
0
 10
271.99162443359268
 20
129.58664733571561
 30
0.0
 11
291.9928272553243
 21
129.58664733571561
 31
0.0
  0
LINE
  5
BE6D
  8
0
 10
291.9928272553243
 20
122.003563750811
 30
0.0
 11
271.99162443359268
 21
122.003563750811
 31
0.0
  0
LINE
  5
BE6E
  8
0
 10
271.99162443359268
 20
134.57121055228271
 30
0.0
 11
316.99162358418988
 21
134.57121055228271
 31
0.0
  0
LINE
  5
BE6F
  8
0
 10
316.99162416540838
 20
117.0190005342439
 30
0.0
 11
271.99162443359268
 21
117.0190005342439
 31
0.0
  0
ARC
  5
BE70
  8
0
 10
292.4603741169542
 20
129.33562718680051
 30
0.0
 40
0.4701369860799323
 50
86.188746074501864
 51
175.5980219336713
  0
LINE
  5
BE71
  8
0
 10
316.99162374202592
 20
129.80472443280371
 30
0.0
 11
292.49162406851428
 21
129.80472443280371
 31
0.0
  0
LINE
  5
BE72
  8
0
 10
291.9916239865579
 20
126.3406228519008
 30
0.0
 11
293.4344595085895
 21
126.3406228519008
 31
0.0
  0
LINE
  5
BE73
  8
0
 10
316.99162389286329
 20
125.2495882346258
 30
0.0
 11
309.53133365643947
 21
125.2495882346258
 31
0.0
  0
LINE
  5
BE74
  8
0
 10
292.49162406851428
 20
121.7854866537229
 30
0.0
 11
316.99162400757251
 21
121.7854866537229
 31
0.0
  0
ARC
  5
BE75
  8
0
 10
292.4603741169542
 20
122.2545838997262
 30
0.0
 40
0.470136986079989
 50
184.4019780663416
 51
273.81125392549819
  0
LINE
  5
BE76
  8
0
 10
303.9916250221886
 20
138.43516546887909
 30
0.0
 11
272.49162451554912
 21
138.43516546887909
 31
0.0
  0
LINE
  5
BE77
  8
0
 10
272.49162451554912
 20
113.1550456176475
 30
0.0
 11
303.9916250221886
 21
113.1550456176475
 31
0.0
  0
LINE
  5
BE78
  8
0
 10
271.99162443359268
 20
131.4030364866332
 30
0.0
 11
263.99162405361312
 21
131.4030364866332
 31
0.0
  0
LINE
  5
BE79
  8
0
 10
271.99162443359268
 20
120.1871745998935
 30
0.0
 11
263.99162405361312
 21
120.1871745998935
 31
0.0
  0
LINE
  5
BE7B
  8
0
 10
316.99162432183402
 20
112.2951055432632
 30
0.0
 11
316.99162342776441
 21
139.29510589344051
 31
0.0
  0
LINE
  5
BE7D
  8
0
 10
277.99162436933148
 20
139.28352675987031
 30
0.0
 11
296.99162387479919
 21
139.28352675987031
 31
0.0
  0
LINE
  5
BE7E
  8
0
 10
316.99162342776441
 20
112.295105193086
 30
0.0
 11
316.99162342776441
 21
113.17726138634229
 31
0.0
  0
LINE
  5
BE80
  8
0
 10
277.99162436933148
 20
112.3066843266562
 30
0.0
 11
296.99162387479919
 21
112.3066843266562
 31
0.0
  0
LINE
  5
BE81
  8
0
 10
264.9916242175259
 20
111.7951051111296
 30
0.0
 11
264.9916242175259
 21
139.79510597539689
 31
0.0
  0
LINE
  5
BE82
  8
0
 10
262.99162388970041
 20
135.29510523778939
 30
0.0
 11
262.99162388970041
 21
116.29510584873709
 31
0.0
  0
LINE
  5
BE83
  8
0
 10
262.49162473906648
 20
135.7951053197458
 30
0.0
 11
262.49162473906648
 21
115.79510576678069
 31
0.0
  0
LINE
  5
BE86
  8
0
 10
291.9916239865579
 20
129.55603709099449
 30
0.0
 11
291.9916239865579
 21
122.003563750811
 31
0.0
  0
LINE
  5
BE87
  8
0
 10
291.9928272553243
 20
129.58664733571561
 30
0.0
 11
291.9916239865579
 21
129.55603709099449
 31
0.0
  0
LINE
  5
BE88
  8
0
 10
316.99162342776441
 20
122.2184992640243
 30
0.0
 11
316.99162342776441
 21
125.2495882346258
 31
0.0
  0
LINE
  5
BE89
  8
0
 10
271.99162443359268
 20
115.21246570748841
 30
0.0
 11
271.99162443359268
 21
136.377745379038
 31
0.0
  0
LINE
  5
BE8A
  8
0
 10
263.99162405361312
 20
138.79510581148409
 30
0.0
 11
263.99162405361312
 21
112.7951052750423
 31
0.0
  0
LINE
  5
BE96
  8
0
 10
311.99162447084558
 20
139.79510597539689
 30
0.0
 11
316.49162613977569
 21
139.79510597539689
 31
0.0
  0
ARC
  5
BE97
  8
0
 10
316.49162432183402
 20
139.29510554326319
 30
0.0
 40
0.5
 50
0.0
 51
90.0
  0
LINE
  5
BE98
  8
0
 10
264.9916242175259
 20
139.79510597539689
 30
0.0
 11
274.28541815099197
 21
139.79510597539689
 31
0.0
  0
LINE
  5
BE99
  8
0
 10
300.69783137370717
 20
139.79510597539689
 30
0.0
 11
303.9916250221886
 21
139.79510597539689
 31
0.0
  0
LINE
  5
BE9A
  8
0
 10
263.99162405361312
 20
138.79510581148409
 30
0.0
 11
264.9916242175259
 21
139.79510597539689
 31
0.0
  0
ARC
  5
BE9B
  8
0
 10
316.49162432183402
 20
112.2951055432632
 30
0.0
 40
0.5
 50
270.0
 51
0.0
  0
LINE
  5
BE9C
  8
0
 10
316.49162613977569
 20
111.7951051111296
 30
0.0
 11
311.99162447084558
 21
111.7951051111296
 31
0.0
  0
LINE
  5
BE9D
  8
0
 10
303.9916250221886
 20
111.7951051111296
 30
0.0
 11
300.69783137370717
 21
111.7951051111296
 31
0.0
  0
LINE
  5
BE9E
  8
0
 10
274.28541815099197
 20
111.7951051111296
 30
0.0
 11
264.9916242175259
 21
111.7951051111296
 31
0.0
  0
LINE
  5
BE9F
  8
0
 10
264.9916242175259
 20
111.7951051111296
 30
0.0
 11
263.99162405361312
 21
112.7951052750423
 31
0.0
  0
LINE
  5
BEA0
  8
0
 10
263.89162422348642
 20
116.29510584873709
 30
0.0
 11
262.99162388970041
 21
116.29510584873709
 31
0.0
  0
LINE
  5
BEA1
  8
0
 10
262.99162388970041
 20
135.29510523778939
 30
0.0
 11
263.89162422348642
 21
135.29510523778939
 31
0.0
  0
LINE
  5
BEA2
  8
0
 10
262.99162388970041
 20
116.29510584873709
 30
0.0
 11
262.49162473906648
 21
115.79510576678069
 31
0.0
  0
LINE
  5
BEA3
  8
0
 10
262.49162473906648
 20
135.7951053197458
 30
0.0
 11
262.99162388970041
 21
135.29510523778939
 31
0.0
  0
LINE
  5
BEA4
  8
0
 10
257.99162493278158
 20
135.7951053197458
 30
0.0
 11
262.49162473906648
 21
135.7951053197458
 31
0.0
  0
LINE
  5
BEA5
  8
0
 10
262.49162473906648
 20
115.79510576678069
 30
0.0
 11
257.99162493278158
 21
115.79510576678069
 31
0.0
  0
LINE
  5
BEA6
  8
0
 10
255.99162460495609
 20
134.6404050256088
 30
0.0
 11
257.99162493278158
 21
135.7951053197458
 31
0.0
  0
LINE
  5
BEA7
  8
0
 10
257.99162493278158
 20
115.79510576678069
 30
0.0
 11
255.99162460495609
 21
116.94980606091769
 31
0.0
  0
LINE
  5
BEA8
  8
0
 10
263.99162405361312
 20
116.28671370101721
 30
0.0
 11
263.89162422348642
 21
116.29510584873709
 31
0.0
  0
LINE
  5
BEA9
  8
0
 10
263.89162422348642
 20
135.29510523778939
 30
0.0
 11
263.99162405361312
 21
135.3034973855093
 31
0.0
  0
LINE
  5
BF68
  8
0
 10
318.39162423904992
 20
136.7951056587471
 30
0.0
 11
316.99162387479919
 21
136.7951056587471
 31
0.0
  0
LINE
  5
BF69
  8
0
 10
316.99162387479919
 20
114.79510577795639
 30
0.0
 11
318.39162423904992
 21
114.79510577795639
 31
0.0
  0
LINE
  5
BF6A
  8
0
 10
317.0916255675711
 20
123.795105623357
 30
0.0
 11
317.0916255675711
 21
127.79510581334679
 31
0.0
  0
LINE
  5
BF6B
  8
0
 10
317.0916255675711
 20
127.79510581334679
 30
0.0
 11
316.99162387479919
 21
127.79510581334679
 31
0.0
  0
LINE
  5
BF6C
  8
0
 10
316.99162387479919
 20
123.795105623357
 30
0.0
 11
317.0916255675711
 21
123.795105623357
 31
0.0
  0
CIRCLE
  5
BF7A
  8
0
 10
294.99162467258702
 20
125.7951055274426
 30
0.0
 40
1.6499553021981519
  0
LINE
  5
BF7B
  8
0
 10
295.59510425855302
 20
124.8106532276571
 30
0.0
 11
296.14592568208349
 21
125.8255074827749
 31
0.0
  0
LINE
  5
BF7C
  8
0
 10
294.4408025704779
 20
124.7802512499466
 30
0.0
 11
295.59510425855302
 21
124.8106532276571
 31
0.0
  0
LINE
  5
BF7D
  8
0
 10
293.83732416857862
 20
125.7647036037516
 30
0.0
 11
294.4408025704779
 21
124.7802512499466
 31
0.0
  0
LINE
  5
BF7E
  8
0
 10
294.38814559210908
 20
126.7795578588694
 30
0.0
 11
293.83732416857862
 21
125.7647036037516
 31
0.0
  0
LINE
  5
BF7F
  8
0
 10
295.542445417539
 20
126.80995983657979
 30
0.0
 11
294.38814559210908
 21
126.7795578588694
 31
0.0
  0
LINE
  5
BF80
  8
0
 10
296.14592568208349
 20
125.8255074827749
 30
0.0
 11
295.542445417539
 21
126.80995983657979
 31
0.0
  0
CIRCLE
  5
BF81
  8
0
 10
307.091624768869
 20
125.7951055432633
 30
0.0
 40
2.4999537175942739
  0
CIRCLE
  5
BF82
  8
0
 10
307.091624768869
 20
125.7951055432633
 30
0.0
 40
2.2999999999999998
  0
LINE
  5
BF83
  8
0
 10
309.53133365643947
 20
126.3406228519008
 30
0.0
 11
316.99162385673498
 21
126.3406228519008
 31
0.0
  0
LINE
  5
BF84
  8
0
 10
304.65191588129841
 20
125.2495882346258
 30
0.0
 11
296.54878984766952
 21
125.2495882346257
 31
0.0
  0
LINE
  5
BF85
  8
0
 10
296.54878983658477
 20
126.3406228519008
 30
0.0
 11
304.65191588129841
 21
126.3406228519008
 31
0.0
  0
LINE
  5
BF86
  8
0
 10
293.43445949750458
 20
125.2495882346257
 30
0.0
 11
291.9916239865579
 21
125.2495882346258
 31
0.0
  0
LINE
  5
BF88
  8
0
 10
264.9916242175259
 20
403.91891345902258
 30
0.0
 11
264.9916242175259
 21
375.91891259475528
 31
0.0
  0
LINE
  5
BF89
  8
0
 10
264.9916242175259
 20
267.59267439775863
 30
0.0
 11
264.9916242175259
 21
210.5926734366337
 31
0.0
  0
CIRCLE
  5
BF8A
  8
0
 10
126.1133304292407
 20
239.0926732950727
 30
0.0
 40
3.999999880790738
  0
CIRCLE
  5
BF8B
  8
0
 10
471.41697487235399
 20
239.0926736042727
 30
0.0
 40
3.999999880790738
  0
LINE
  5
BF8C
  8
0
 10
257.99162493278158
 20
399.9189128033716
 30
0.0
 11
257.99162493278158
 21
379.91891325040638
 31
0.0
  0
LINE
  5
FBA0
  8
1
 10
324.39683440464592
 20
233.74664466720449
 30
0.0
 11
324.39683440464592
 21
315.46400404088951
 31
0.0
  0
POLYLINE
  5
FBA1
  8
0
 66
     1
 10
0.0
 20
0.0
 30
0.0
 70
   130
  0
VERTEX
  5
FBA2
  8
0
 10
328.6351556961859
 20
232.85154114772169
 30
0.0
 42
-0.0122542547158862
  0
VERTEX
  5
FBA3
  8
0
 10
328.64425916658161
 20
232.66777609373361
 30
0.0
 42
-0.0300251108820151
 70
     1
  0
VERTEX
  5
FBA4
  8
0
 10
328.64162638481707
 20
232.59267316096231
 30
0.0
 42
-0.0047652579015361
  0
VERTEX
  5
FBA5
  8
0
 10
328.60679653653392
 20
232.26091964971781
 30
0.0
 42
-0.0111887452228918
 70
     1
  0
VERTEX
  5
FBA6
  8
0
 10
328.58746069247741
 20
232.12015739871271
 30
0.0
 42
-0.0104988450404194
  0
VERTEX
  5
FBA7
  8
0
 10
328.53837530496531
 20
231.85023516006629
 30
0.0
 42
-0.0179223965381954
 70
     1
  0
VERTEX
  5
FBA8
  8
0
 10
328.500677515691
 20
231.69397195299371
 30
0.0
 42
-0.0177783218052356
  0
VERTEX
  5
FBA9
  8
0
 10
328.45761535623819
 20
231.558663405076
 30
0.0
 42
-0.0129476083166114
 70
     1
  0
VERTEX
  5
FBAA
  8
0
 10
328.38719977400359
 20
231.37688022520379
 30
0.0
 42
-0.0148586459841528
  0
VERTEX
  5
FBAB
  8
0
 10
328.32149120310783
 20
231.23176092028999
 30
0.0
 42
-0.0121591903451474
 70
     1
  0
VERTEX
  5
FBAC
  8
0
 10
328.23174116343603
 20
231.05903164503701
 30
0.0
 42
-0.0268598501278955
  0
VERTEX
  5
FBAD
  8
0
 10
328.12252165777483
 20
230.8837460391118
 30
0.0
 42
-0.0230712169684585
 70
     1
  0
VERTEX
  5
FBAE
  8
0
 10
327.97568695816079
 20
230.69340241267031
 30
0.0
 42
-0.0257508511238402
  0
VERTEX
  5
FBAF
  8
0
 10
327.79300532570392
 20
230.4991433184918
 30
0.0
 42
-0.0203806512774659
 70
     1
  0
VERTEX
  5
FBB0
  8
0
 10
327.54062259158519
 20
230.27605850037659
 30
0.0
 42
-0.0118079086845454
  0
VERTEX
  5
FBB1
  8
0
 10
327.33796469029562
 20
230.1189414130549
 30
0.0
 42
-0.0141081400832882
 70
     1
  0
VERTEX
  5
FBB2
  8
0
 10
327.16175348073489
 20
229.99639753538659
 30
0.0
 42
-0.0220278826842408
  0
VERTEX
  5
FBB3
  8
0
 10
326.92966486820819
 20
229.85872578702529
 30
0.0
 42
-0.0154327828562308
 70
     1
  0
VERTEX
  5
FBB4
  8
0
 10
326.58470220499407
 20
229.6876071142369
 30
0.0
 42
-0.0207240720449826
  0
VERTEX
  5
FBB5
  8
0
 10
326.27411333627492
 20
229.5605993528479
 30
0.0
 42
-0.0184994963780008
 70
     1
  0
VERTEX
  5
FBB6
  8
0
 10
325.91612834742699
 20
229.44602946321351
 30
0.0
 42
-0.0262358566743977
  0
VERTEX
  5
FBB7
  8
0
 10
325.46532656756222
 20
229.3450861756296
 30
0.0
 42
-0.0229242911714714
 70
     1
  0
VERTEX
  5
FBB8
  8
0
 10
324.94064164487389
 20
229.28076285718399
 30
0.0
 42
-0.0138858963611788
  0
VERTEX
  5
FBB9
  8
0
 10
324.46623048996412
 20
229.2577953324016
 30
0.0
 42
-0.0201406187126542
 70
     1
  0
VERTEX
  5
FBBA
  8
0
 10
324.13875957864849
 20
229.2642378012151
 30
0.0
 42
-0.0132376637372535
  0
VERTEX
  5
FBBB
  8
0
 10
323.79828043726889
 20
229.29373563102789
 30
0.0
 42
-0.0132588724589247
 70
     1
  0
VERTEX
  5
FBBC
  8
0
 10
323.46038273645382
 20
229.3411496568169
 30
0.0
 42
-0.0151399914424939
  0
VERTEX
  5
FBBD
  8
0
 10
323.11346480035922
 20
229.4101035376336
 30
0.0
 42
-0.0121804169559156
 70
     1
  0
VERTEX
  5
FBBE
  8
0
 10
322.68761184006758
 20
229.5192234869686
 30
0.0
 42
-0.0206237771127015
  0
VERTEX
  5
FBBF
  8
0
 10
322.31141999533952
 20
229.6424061197321
 30
0.0
 42
-0.0240318347378954
 70
     1
  0
VERTEX
  5
FBC0
  8
0
 10
321.99924360630229
 20
229.77650918747159
 30
0.0
 42
-0.0280878131129802
  0
VERTEX
  5
FBC1
  8
0
 10
321.70732884986529
 20
229.93977674450869
 30
0.0
 42
-0.0240603253434206
 70
     1
  0
VERTEX
  5
FBC2
  8
0
 10
321.38830598959112
 20
230.16476082317709
 30
0.0
 42
-0.01488630090834
  0
VERTEX
  5
FBC3
  8
0
 10
321.18336452013381
 20
230.33463409259471
 30
0.0
 42
-0.0135714717028514
 70
     1
  0
VERTEX
  5
FBC4
  8
0
 10
320.96953857671519
 20
230.53344253006199
 30
0.0
 42
-0.0282006120815871
  0
VERTEX
  5
FBC5
  8
0
 10
320.7480597747433
 20
230.7768570265211
 30
0.0
 42
-0.0284965612251486
 70
     1
  0
VERTEX
  5
FBC6
  8
0
 10
320.55753420306633
 20
231.04099555870329
 30
0.0
 42
-0.0410828719033552
  0
VERTEX
  5
FBC7
  8
0
 10
320.40271649302872
 20
231.3342168594049
 30
0.0
 42
-0.0341909755900677
 70
     1
  0
VERTEX
  5
FBC8
  8
0
 10
320.271678441836
 20
231.71025331010389
 30
0.0
 42
-0.0199398065221257
  0
VERTEX
  5
FBC9
  8
0
 10
320.22613639830092
 20
231.9073465560804
 30
0.0
 42
-0.0091094985744887
 70
     1
  0
VERTEX
  5
FBCA
  8
0
 10
320.15168906941682
 20
232.34368732179061
 30
0.0
 42
-0.036459971594578
  0
VERTEX
  5
FBCB
  8
0
 10
320.13595007040573
 20
232.54536110227761
 30
0.0
 42
-0.0210129433912686
 70
     1
  0
VERTEX
  5
FBCC
  8
0
 10
320.14893048930162
 20
232.89580174556201
 30
0.0
  0
SEQEND
  5
FBCD
  8
0
  0
ARC
  5
FBCE
  8
0
 10
324.38938433143699
 20
232.36389868439269
 30
0.0
 40
4.2736833824889731
 50
6.5519221383349926
 51
172.85042168379749
  0
POLYLINE
  5
FBCF
  8
0
 66
     1
 10
0.0
 20
0.0
 30
0.0
  0
VERTEX
  5
10BBE
  8
0
 10
320.39162456687501
 20
249.55521203481959
 30
0.0
  0
VERTEX
  5
10BBF
  8
0
 10
320.21920467174567
 20
249.90647419511509
 30
0.0
  0
VERTEX
  5
10BC0
  8
0
 10
320.1584488839992
 20
250.1736827293702
 30
0.0
  0
VERTEX
  5
10BC1
  8
0
 10
320.1270291872363
 20
250.4404150376094
 30
0.0
  0
VERTEX
  5
10BC2
  8
0
 10
320.15652428412142
 20
250.63663605102559
 30
0.0
  0
VERTEX
  5
10BC3
  8
0
 10
320.20087972479843
 20
250.74248224002611
 30
0.0
  0
VERTEX
  5
10BC4
  8
0
 10
320.28912293296639
 20
250.8602284498719
 30
0.0
  0
VERTEX
  5
10BC5
  8
0
 10
320.39162456687541
 20
250.9471877747099
 30
0.0
  0
SEQEND
  5
10BC6
  8
0
  0
POLYLINE
  5
FBD0
  8
0
 66
     1
 10
0.0
 20
0.0
 30
0.0
  0
VERTEX
  5
10BC7
  8
0
 10
328.39162587817759
 20
249.55521203481959
 30
0.0
  0
VERTEX
  5
10BC8
  8
0
 10
328.56404577330682
 20
249.90647419511509
 30
0.0
  0
VERTEX
  5
10BC9
  8
0
 10
328.62480156105329
 20
250.1736827293702
 30
0.0
  0
VERTEX
  5
10BCA
  8
0
 10
328.6562212578163
 20
250.4404150376094
 30
0.0
  0
VERTEX
  5
10BCB
  8
0
 10
328.62672616093141
 20
250.63663605102559
 30
0.0
  0
VERTEX
  5
10BCC
  8
0
 10
328.58237072025418
 20
250.74248224002611
 30
0.0
  0
VERTEX
  5
10BCD
  8
0
 10
328.4941275120861
 20
250.8602284498719
 30
0.0
  0
VERTEX
  5
10BCE
  8
0
 10
328.39162587817759
 20
250.9471877747099
 30
0.0
  0
SEQEND
  5
10BCF
  8
0
  0
POLYLINE
  5
FBD1
  8
0
 10
328.39162587817759
 20
249.55521203481956
 30
0.0
 66
     1
 70
     8
  0
VERTEX
  8
0
  5
10E53
 10
328.392
 20
249.555
 30
0.000000
  70
    32
  0
VERTEX
  8
0
  5
10E54
 10
328.363
 20
249.502
 30
0.000000
  70
    32
  0
VERTEX
  8
0
  5
10E55
 10
328.332
 20
249.449
 30
0.000000
  70
    32
  0
VERTEX
  8
0
  5
10E56
 10
328.300
 20
249.397
 30
0.000000
  70
    32
  0
VERTEX
  8
0
  5
10E57
 10
328.267
 20
249.345
 30
0.000000
  70
    32
  0
VERTEX
  8
0
  5
10E58
 10
328.232
 20
249.294
 30
0.000000
  70
    32
  0
VERTEX
  8
0
  5
10E59
 10
328.196
 20
249.243
 30
0.000000
  70
    32
  0
VERTEX
  8
0
  5
10E5A
 10
328.159
 20
249.193
 30
0.000000
  70
    32
  0
VERTEX
  8
0
  5
10E5B
 10
328.120
 20
249.143
 30
0.000000
  70
    32
  0
VERTEX
  8
0
  5
10E5C
 10
328.080
 20
249.093
 30
0.000000
  70
    32
  0
VERTEX
  8
0
  5
10E5D
 10
328.038
 20
249.044
 30
0.000000
  70
    32
  0
VERTEX
  8
0
  5
10E5E
 10
327.995
 20
248.996
 30
0.000000
  70
    32
  0
VERTEX
  8
0
  5
10E5F
 10
327.951
 20
248.948
 30
0.000000
  70
    32
  0
VERTEX
  8
0
  5
10E60
 10
327.906
 20
248.901
 30
0.000000
  70
    32
  0
VERTEX
  8
0
  5
10E61
 10
327.859
 20
248.855
 30
0.000000
  70
    32
  0
VERTEX
  8
0
  5
10E62
 10
327.811
 20
248.809
 30
0.000000
  70
    32
  0
VERTEX
  8
0
  5
10E63
 10
327.762
 20
248.764
 30
0.000000
  70
    32
  0
VERTEX
  8
0
  5
10E64
 10
327.712
 20
248.719
 30
0.000000
  70
    32
  0
VERTEX
  8
0
  5
10E65
 10
327.660
 20
248.675
 30
0.000000
  70
    32
  0
VERTEX
  8
0
  5
10E66
 10
327.607
 20
248.632
 30
0.000000
  70
    32
  0
VERTEX
  8
0
  5
10E67
 10
327.554
 20
248.590
 30
0.000000
  70
    32
  0
VERTEX
  8
0
  5
10E68
 10
327.498
 20
248.548
 30
0.000000
  70
    32
  0
VERTEX
  8
0
  5
10E69
 10
327.442
 20
248.507
 30
0.000000
  70
    32
  0
VERTEX
  8
0
  5
10E6A
 10
327.385
 20
248.467
 30
0.000000
  70
    32
  0
VERTEX
  8
0
  5
10E6B
 10
327.327
 20
248.427
 30
0.000000
  70
    32
  0
VERTEX
  8
0
  5
10E6C
 10
327.267
 20
248.388
 30
0.000000
  70
    32
  0
VERTEX
  8
0
  5
10E6D
 10
327.207
 20
248.350
 30
0.000000
  70
    32
  0
VERTEX
  8
0
  5
10E6E
 10
327.145
 20
248.313
 30
0.000000
  70
    32
  0
VERTEX
  8
0
  5
10E6F
 10
327.083
 20
248.277
 30
0.000000
  70
    32
  0
VERTEX
  8
0
  5
10E70
 10
327.020
 20
248.242
 30
0.000000
  70
    32
  0
VERTEX
  8
0
  5
10E71
 10
326.955
 20
248.207
 30
0.000000
  70
    32
  0
VERTEX
  8
0
  5
10E72
 10
326.890
 20
248.173
 30
0.000000
  70
    32
  0
VERTEX
  8
0
  5
10E73
 10
326.824
 20
248.141
 30
0.000000
  70
    32
  0
VERTEX
  8
0
  5
10E74
 10
326.757
 20
248.109
 30
0.000000
  70
    32
  0
VERTEX
  8
0
  5
10E75
 10
326.689
 20
248.078
 30
0.000000
  70
    32
  0
VERTEX
  8
0
  5
10E76
 10
326.620
 20
248.047
 30
0.000000
  70
    32
  0
VERTEX
  8
0
  5
10E77
 10
326.551
 20
248.018
 30
0.000000
  70
    32
  0
VERTEX
  8
0
  5
10E78
 10
326.480
 20
247.990
 30
0.000000
  70
    32
  0
VERTEX
  8
0
  5
10E79
 10
326.409
 20
247.963
 30
0.000000
  70
    32
  0
VERTEX
  8
0
  5
10E7A
 10
326.338
 20
247.936
 30
0.000000
  70
    32
  0
VERTEX
  8
0
  5
10E7B
 10
326.265
 20
247.911
 30
0.000000
  70
    32
  0
VERTEX
  8
0
  5
10E7C
 10
326.192
 20
247.886
 30
0.000000
  70
    32
  0
VERTEX
  8
0
  5
10E7D
 10
326.118
 20
247.863
 30
0.000000
  70
    32
  0
VERTEX
  8
0
  5
10E7E
 10
326.044
 20
247.840
 30
0.000000
  70
    32
  0
VERTEX
  8
0
  5
10E7F
 10
325.969
 20
247.819
 30
0.000000
  70
    32
  0
VERTEX
  8
0
  5
10E80
 10
325.893
 20
247.798
 30
0.000000
  70
    32
  0
VERTEX
  8
0
  5
10E81
 10
325.817
 20
247.779
 30
0.000000
  70
    32
  0
VERTEX
  8
0
  5
10E82
 10
325.740
 20
247.761
 30
0.000000
  70
    32
  0
VERTEX
  8
0
  5
10E83
 10
325.663
 20
247.743
 30
0.000000
  70
    32
  0
VERTEX
  8
0
  5
10E84
 10
325.585
 20
247.727
 30
0.000000
  70
    32
  0
VERTEX
  8
0
  5
10E85
 10
325.507
 20
247.711
 30
0.000000
  70
    32
  0
VERTEX
  8
0
  5
10E86
 10
325.429
 20
247.697
 30
0.000000
  70
    32
  0
VERTEX
  8
0
  5
10E87
 10
325.350
 20
247.684
 30
0.000000
  70
    32
  0
VERTEX
  8
0
  5
10E88
 10
325.271
 20
247.672
 30
0.000000
  70
    32
  0
VERTEX
  8
0
  5
10E89
 10
325.192
 20
247.660
 30
0.000000
  70
    32
  0
VERTEX
  8
0
  5
10E8A
 10
325.112
 20
247.650
 30
0.000000
  70
    32
  0
VERTEX
  8
0
  5
10E8B
 10
325.032
 20
247.641
 30
0.000000
  70
    32
  0
VERTEX
  8
0
  5
10E8C
 10
324.952
 20
247.633
 30
0.000000
  70
    32
  0
VERTEX
  8
0
  5
10E8D
 10
324.871
 20
247.626
 30
0.000000
  70
    32
  0
VERTEX
  8
0
  5
10E8E
 10
324.791
 20
247.621
 30
0.000000
  70
    32
  0
VERTEX
  8
0
  5
10E8F
 10
324.710
 20
247.616
 30
0.000000
  70
    32
  0
VERTEX
  8
0
  5
10E90
 10
324.629
 20
247.612
 30
0.000000
  70
    32
  0
VERTEX
  8
0
  5
10E91
 10
324.548
 20
247.610
 30
0.000000
  70
    32
  0
VERTEX
  8
0
  5
10E92
 10
324.467
 20
247.608
 30
0.000000
  70
    32
  0
VERTEX
  8
0
  5
10E93
 10
324.386
 20
247.608
 30
0.000000
  70
    32
  0
VERTEX
  8
0
  5
10E94
 10
324.305
 20
247.608
 30
0.000000
  70
    32
  0
VERTEX
  8
0
  5
10E95
 10
324.224
 20
247.610
 30
0.000000
  70
    32
  0
VERTEX
  8
0
  5
10E96
 10
324.143
 20
247.613
 30
0.000000
  70
    32
  0
VERTEX
  8
0
  5
10E97
 10
324.062
 20
247.617
 30
0.000000
  70
    32
  0
VERTEX
  8
0
  5
10E98
 10
323.981
 20
247.622
 30
0.000000
  70
    32
  0
VERTEX
  8
0
  5
10E99
 10
323.901
 20
247.628
 30
0.000000
  70
    32
  0
VERTEX
  8
0
  5
10E9A
 10
323.821
 20
247.635
 30
0.000000
  70
    32
  0
VERTEX
  8
0
  5
10E9B
 10
323.740
 20
247.643
 30
0.000000
  70
    32
  0
VERTEX
  8
0
  5
10E9C
 10
323.660
 20
247.652
 30
0.000000
  70
    32
  0
VERTEX
  8
0
  5
10E9D
 10
323.581
 20
247.663
 30
0.000000
  70
    32
  0
VERTEX
  8
0
  5
10E9E
 10
323.501
 20
247.674
 30
0.000000
  70
    32
  0
VERTEX
  8
0
  5
10E9F
 10
323.422
 20
247.687
 30
0.000000
  70
    32
  0
VERTEX
  8
0
  5
10EA0
 10
323.344
 20
247.700
 30
0.000000
  70
    32
  0
VERTEX
  8
0
  5
10EA1
 10
323.265
 20
247.715
 30
0.000000
  70
    32
  0
VERTEX
  8
0
  5
10EA2
 10
323.187
 20
247.730
 30
0.000000
  70
    32
  0
VERTEX
  8
0
  5
10EA3
 10
323.110
 20
247.747
 30
0.000000
  70
    32
  0
VERTEX
  8
0
  5
10EA4
 10
323.033
 20
247.764
 30
0.000000
  70
    32
  0
VERTEX
  8
0
  5
10EA5
 10
322.956
 20
247.783
 30
0.000000
  70
    32
  0
VERTEX
  8
0
  5
10EA6
 10
322.880
 20
247.803
 30
0.000000
  70
    32
  0
VERTEX
  8
0
  5
10EA7
 10
322.805
 20
247.823
 30
0.000000
  70
    32
  0
VERTEX
  8
0
  5
10EA8
 10
322.730
 20
247.845
 30
0.000000
  70
    32
  0
VERTEX
  8
0
  5
10EA9
 10
322.655
 20
247.868
 30
0.000000
  70
    32
  0
VERTEX
  8
0
  5
10EAA
 10
322.582
 20
247.892
 30
0.000000
  70
    32
  0
VERTEX
  8
0
  5
10EAB
 10
322.509
 20
247.916
 30
0.000000
  70
    32
  0
VERTEX
  8
0
  5
10EAC
 10
322.436
 20
247.942
 30
0.000000
  70
    32
  0
VERTEX
  8
0
  5
10EAD
 10
322.365
 20
247.968
 30
0.000000
  70
    32
  0
VERTEX
  8
0
  5
10EAE
 10
322.294
 20
247.996
 30
0.000000
  70
    32
  0
VERTEX
  8
0
  5
10EAF
 10
322.224
 20
248.024
 30
0.000000
  70
    32
  0
VERTEX
  8
0
  5
10EB0
 10
322.154
 20
248.054
 30
0.000000
  70
    32
  0
VERTEX
  8
0
  5
10EB1
 10
322.086
 20
248.084
 30
0.000000
  70
    32
  0
VERTEX
  8
0
  5
10EB2
 10
322.018
 20
248.115
 30
0.000000
  70
    32
  0
VERTEX
  8
0
  5
10EB3
 10
321.951
 20
248.147
 30
0.000000
  70
    32
  0
VERTEX
  8
0
  5
10EB4
 10
321.885
 20
248.181
 30
0.000000
  70
    32
  0
VERTEX
  8
0
  5
10EB5
 10
321.820
 20
248.214
 30
0.000000
  70
    32
  0
VERTEX
  8
0
  5
10EB6
 10
321.756
 20
248.249
 30
0.000000
  70
    32
  0
VERTEX
  8
0
  5
10EB7
 10
321.693
 20
248.285
 30
0.000000
  70
    32
  0
VERTEX
  8
0
  5
10EB8
 10
321.631
 20
248.321
 30
0.000000
  70
    32
  0
VERTEX
  8
0
  5
10EB9
 10
321.569
 20
248.358
 30
0.000000
  70
    32
  0
VERTEX
  8
0
  5
10EBA
 10
321.509
 20
248.397
 30
0.000000
  70
    32
  0
VERTEX
  8
0
  5
10EBB
 10
321.450
 20
248.435
 30
0.000000
  70
    32
  0
VERTEX
  8
0
  5
10EBC
 10
321.392
 20
248.475
 30
0.000000
  70
    32
  0
VERTEX
  8
0
  5
10EBD
 10
321.335
 20
248.515
 30
0.000000
  70
    32
  0
VERTEX
  8
0
  5
10EBE
 10
321.279
 20
248.557
 30
0.000000
  70
    32
  0
VERTEX
  8
0
  5
10EBF
 10
321.224
 20
248.599
 30
0.000000
  70
    32
  0
VERTEX
  8
0
  5
10EC0
 10
321.171
 20
248.641
 30
0.000000
  70
    32
  0
VERTEX
  8
0
  5
10EC1
 10
321.118
 20
248.684
 30
0.000000
  70
    32
  0
VERTEX
  8
0
  5
10EC2
 10
321.067
 20
248.729
 30
0.000000
  70
    32
  0
VERTEX
  8
0
  5
10EC3
 10
321.017
 20
248.773
 30
0.000000
  70
    32
  0
VERTEX
  8
0
  5
10EC4
 10
320.968
 20
248.819
 30
0.000000
  70
    32
  0
VERTEX
  8
0
  5
10EC5
 10
320.920
 20
248.865
 30
0.000000
  70
    32
  0
VERTEX
  8
0
  5
10EC6
 10
320.874
 20
248.911
 30
0.000000
  70
    32
  0
VERTEX
  8
0
  5
10EC7
 10
320.829
 20
248.958
 30
0.000000
  70
    32
  0
VERTEX
  8
0
  5
10EC8
 10
320.785
 20
249.006
 30
0.000000
  70
    32
  0
VERTEX
  8
0
  5
10EC9
 10
320.742
 20
249.055
 30
0.000000
  70
    32
  0
VERTEX
  8
0
  5
10ECA
 10
320.701
 20
249.104
 30
0.000000
  70
    32
  0
VERTEX
  8
0
  5
10ECB
 10
320.661
 20
249.153
 30
0.000000
  70
    32
  0
VERTEX
  8
0
  5
10ECC
 10
320.623
 20
249.203
 30
0.000000
  70
    32
  0
VERTEX
  8
0
  5
10ECD
 10
320.585
 20
249.254
 30
0.000000
  70
    32
  0
VERTEX
  8
0
  5
10ECE
 10
320.550
 20
249.305
 30
0.000000
  70
    32
  0
VERTEX
  8
0
  5
10ECF
 10
320.515
 20
249.356
 30
0.000000
  70
    32
  0
VERTEX
  8
0
  5
10ED0
 10
320.482
 20
249.408
 30
0.000000
  70
    32
  0
VERTEX
  8
0
  5
10ED1
 10
320.451
 20
249.461
 30
0.000000
  70
    32
  0
VERTEX
  8
0
  5
10ED2
 10
320.420
 20
249.513
 30
0.000000
  70
    32
  0
VERTEX
  8
0
  5
10ED3
 10
320.392
 20
249.567
 30
0.000000
  70
    32
  0
SEQEND
  8
0
  5
10ED4
  0
POLYLINE
  5
FBD2
  8
0
 10
317.39164410194843
 20
306.67478290815347
 30
0.0
 66
     1
 70
     8
  0
VERTEX
  8
0
  5
10ED5
 10
317.392
 20
306.675
 30
0.000000
  70
    32
  0
VERTEX
  8
0
  5
10ED6
 10
317.392
 20
306.776
 30
0.000000
  70
    32
  0
VERTEX
  8
0
  5
10ED7
 10
317.397
 20
306.877
 30
0.000000
  70
    32
  0
VERTEX
  8
0
  5
10ED8
 10
317.406
 20
306.978
 30
0.000000
  70
    32
  0
VERTEX
  8
0
  5
10ED9
 10
317.419
 20
307.079
 30
0.000000
  70
    32
  0
VERTEX
  8
0
  5
10EDA
 10
317.437
 20
307.180
 30
0.000000
  70
    32
  0
VERTEX
  8
0
  5
10EDB
 10
317.459
 20
307.280
 30
0.000000
  70
    32
  0
VERTEX
  8
0
  5
10EDC
 10
317.484
 20
307.380
 30
0.000000
  70
    32
  0
VERTEX
  8
0
  5
10EDD
 10
317.515
 20
307.480
 30
0.000000
  70
    32
  0
VERTEX
  8
0
  5
10EDE
 10
317.549
 20
307.579
 30
0.000000
  70
    32
  0
VERTEX
  8
0
  5
10EDF
 10
317.587
 20
307.677
 30
0.000000
  70
    32
  0
VERTEX
  8
0
  5
10EE0
 10
317.630
 20
307.775
 30
0.000000
  70
    32
  0
VERTEX
  8
0
  5
10EE1
 10
317.676
 20
307.872
 30
0.000000
  70
    32
  0
VERTEX
  8
0
  5
10EE2
 10
317.727
 20
307.969
 30
0.000000
  70
    32
  0
VERTEX
  8
0
  5
10EE3
 10
317.782
 20
308.065
 30
0.000000
  70
    32
  0
VERTEX
  8
0
  5
10EE4
 10
317.841
 20
308.160
 30
0.000000
  70
    32
  0
VERTEX
  8
0
  5
10EE5
 10
317.903
 20
308.254
 30
0.000000
  70
    32
  0
VERTEX
  8
0
  5
10EE6
 10
317.970
 20
308.347
 30
0.000000
  70
    32
  0
VERTEX
  8
0
  5
10EE7
 10
318.041
 20
308.439
 30
0.000000
  70
    32
  0
VERTEX
  8
0
  5
10EE8
 10
318.115
 20
308.530
 30
0.000000
  70
    32
  0
VERTEX
  8
0
  5
10EE9
 10
318.193
 20
308.620
 30
0.000000
  70
    32
  0
VERTEX
  8
0
  5
10EEA
 10
318.275
 20
308.709
 30
0.000000
  70
    32
  0
VERTEX
  8
0
  5
10EEB
 10
318.361
 20
308.797
 30
0.000000
  70
    32
  0
VERTEX
  8
0
  5
10EEC
 10
318.450
 20
308.883
 30
0.000000
  70
    32
  0
VERTEX
  8
0
  5
10EED
 10
318.543
 20
308.968
 30
0.000000
  70
    32
  0
VERTEX
  8
0
  5
10EEE
 10
318.640
 20
309.052
 30
0.000000
  70
    32
  0
VERTEX
  8
0
  5
10EEF
 10
318.740
 20
309.134
 30
0.000000
  70
    32
  0
VERTEX
  8
0
  5
10EF0
 10
318.843
 20
309.215
 30
0.000000
  70
    32
  0
VERTEX
  8
0
  5
10EF1
 10
318.950
 20
309.294
 30
0.000000
  70
    32
  0
VERTEX
  8
0
  5
10EF2
 10
319.060
 20
309.371
 30
0.000000
  70
    32
  0
VERTEX
  8
0
  5
10EF3
 10
319.173
 20
309.447
 30
0.000000
  70
    32
  0
VERTEX
  8
0
  5
10EF4
 10
319.290
 20
309.522
 30
0.000000
  70
    32
  0
VERTEX
  8
0
  5
10EF5
 10
319.409
 20
309.594
 30
0.000000
  70
    32
  0
VERTEX
  8
0
  5
10EF6
 10
319.532
 20
309.665
 30
0.000000
  70
    32
  0
VERTEX
  8
0
  5
10EF7
 10
319.657
 20
309.734
 30
0.000000
  70
    32
  0
VERTEX
  8
0
  5
10EF8
 10
319.786
 20
309.801
 30
0.000000
  70
    32
  0
VERTEX
  8
0
  5
10EF9
 10
319.917
 20
309.867
 30
0.000000
  70
    32
  0
VERTEX
  8
0
  5
10EFA
 10
320.051
 20
309.930
 30
0.000000
  70
    32
  0
VERTEX
  8
0
  5
10EFB
 10
320.187
 20
309.992
 30
0.000000
  70
    32
  0
VERTEX
  8
0
  5
10EFC
 10
320.326
 20
310.051
 30
0.000000
  70
    32
  0
VERTEX
  8
0
  5
10EFD
 10
320.468
 20
310.108
 30
0.000000
  70
    32
  0
VERTEX
  8
0
  5
10EFE
 10
320.612
 20
310.164
 30
0.000000
  70
    32
  0
VERTEX
  8
0
  5
10EFF
 10
320.758
 20
310.217
 30
0.000000
  70
    32
  0
VERTEX
  8
0
  5
10F00
 10
320.906
 20
310.268
 30
0.000000
  70
    32
  0
VERTEX
  8
0
  5
10F01
 10
321.057
 20
310.317
 30
0.000000
  70
    32
  0
VERTEX
  8
0
  5
10F02
 10
321.210
 20
310.364
 30
0.000000
  70
    32
  0
VERTEX
  8
0
  5
10F03
 10
321.364
 20
310.408
 30
0.000000
  70
    32
  0
VERTEX
  8
0
  5
10F04
 10
321.520
 20
310.451
 30
0.000000
  70
    32
  0
VERTEX
  8
0
  5
10F05
 10
321.678
 20
310.491
 30
0.000000
  70
    32
  0
VERTEX
  8
0
  5
10F06
 10
321.838
 20
310.528
 30
0.000000
  70
    32
  0
VERTEX
  8
0
  5
10F07
 10
321.999
 20
310.564
 30
0.000000
  70
    32
  0
VERTEX
  8
0
  5
10F08
 10
322.162
 20
310.597
 30
0.000000
  70
    32
  0
VERTEX
  8
0
  5
10F09
 10
322.326
 20
310.627
 30
0.000000
  70
    32
  0
VERTEX
  8
0
  5
10F0A
 10
322.491
 20
310.656
 30
0.000000
  70
    32
  0
VERTEX
  8
0
  5
10F0B
 10
322.658
 20
310.681
 30
0.000000
  70
    32
  0
VERTEX
  8
0
  5
10F0C
 10
322.825
 20
310.705
 30
0.000000
  70
    32
  0
VERTEX
  8
0
  5
10F0D
 10
322.994
 20
310.726
 30
0.000000
  70
    32
  0
VERTEX
  8
0
  5
10F0E
 10
323.163
 20
310.744
 30
0.000000
  70
    32
  0
VERTEX
  8
0
  5
10F0F
 10
323.333
 20
310.761
 30
0.000000
  70
    32
  0
VERTEX
  8
0
  5
10F10
 10
323.504
 20
310.774
 30
0.000000
  70
    32
  0
VERTEX
  8
0
  5
10F11
 10
323.675
 20
310.785
 30
0.000000
  70
    32
  0
VERTEX
  8
0
  5
10F12
 10
323.847
 20
310.794
 30
0.000000
  70
    32
  0
VERTEX
  8
0
  5
10F13
 10
324.019
 20
310.800
 30
0.000000
  70
    32
  0
VERTEX
  8
0
  5
10F14
 10
324.191
 20
310.804
 30
0.000000
  70
    32
  0
VERTEX
  8
0
  5
10F15
 10
324.363
 20
310.805
 30
0.000000
  70
    32
  0
VERTEX
  8
0
  5
10F16
 10
324.536
 20
310.804
 30
0.000000
  70
    32
  0
VERTEX
  8
0
  5
10F17
 10
324.708
 20
310.800
 30
0.000000
  70
    32
  0
VERTEX
  8
0
  5
10F18
 10
324.880
 20
310.794
 30
0.000000
  70
    32
  0
VERTEX
  8
0
  5
10F19
 10
325.052
 20
310.785
 30
0.000000
  70
    32
  0
VERTEX
  8
0
  5
10F1A
 10
325.223
 20
310.774
 30
0.000000
  70
    32
  0
VERTEX
  8
0
  5
10F1B
 10
325.394
 20
310.761
 30
0.000000
  70
    32
  0
VERTEX
  8
0
  5
10F1C
 10
325.564
 20
310.744
 30
0.000000
  70
    32
  0
VERTEX
  8
0
  5
10F1D
 10
325.734
 20
310.726
 30
0.000000
  70
    32
  0
VERTEX
  8
0
  5
10F1E
 10
325.902
 20
310.705
 30
0.000000
  70
    32
  0
VERTEX
  8
0
  5
10F1F
 10
326.070
 20
310.681
 30
0.000000
  70
    32
  0
VERTEX
  8
0
  5
10F20
 10
326.237
 20
310.656
 30
0.000000
  70
    32
  0
VERTEX
  8
0
  5
10F21
 10
326.403
 20
310.627
 30
0.000000
  70
    32
  0
VERTEX
  8
0
  5
10F22
 10
326.567
 20
310.597
 30
0.000000
  70
    32
  0
VERTEX
  8
0
  5
10F23
 10
326.730
 20
310.564
 30
0.000000
  70
    32
  0
VERTEX
  8
0
  5
10F24
 10
326.892
 20
310.528
 30
0.000000
  70
    32
  0
VERTEX
  8
0
  5
10F25
 10
327.052
 20
310.491
 30
0.000000
  70
    32
  0
VERTEX
  8
0
  5
10F26
 10
327.211
 20
310.451
 30
0.000000
  70
    32
  0
VERTEX
  8
0
  5
10F27
 10
327.368
 20
310.408
 30
0.000000
  70
    32
  0
VERTEX
  8
0
  5
10F28
 10
327.523
 20
310.364
 30
0.000000
  70
    32
  0
VERTEX
  8
0
  5
10F29
 10
327.676
 20
310.317
 30
0.000000
  70
    32
  0
VERTEX
  8
0
  5
10F2A
 10
327.827
 20
310.268
 30
0.000000
  70
    32
  0
VERTEX
  8
0
  5
10F2B
 10
327.976
 20
310.217
 30
0.000000
  70
    32
  0
VERTEX
  8
0
  5
10F2C
 10
328.123
 20
310.164
 30
0.000000
  70
    32
  0
VERTEX
  8
0
  5
10F2D
 10
328.268
 20
310.108
 30
0.000000
  70
    32
  0
VERTEX
  8
0
  5
10F2E
 10
328.410
 20
310.051
 30
0.000000
  70
    32
  0
VERTEX
  8
0
  5
10F2F
 10
328.550
 20
309.992
 30
0.000000
  70
    32
  0
VERTEX
  8
0
  5
10F30
 10
328.688
 20
309.930
 30
0.000000
  70
    32
  0
VERTEX
  8
0
  5
10F31
 10
328.822
 20
309.867
 30
0.000000
  70
    32
  0
VERTEX
  8
0
  5
10F32
 10
328.955
 20
309.801
 30
0.000000
  70
    32
  0
VERTEX
  8
0
  5
10F33
 10
329.084
 20
309.734
 30
0.000000
  70
    32
  0
VERTEX
  8
0
  5
10F34
 10
329.210
 20
309.665
 30
0.000000
  70
    32
  0
VERTEX
  8
0
  5
10F35
 10
329.334
 20
309.594
 30
0.000000
  70
    32
  0
VERTEX
  8
0
  5
10F36
 10
329.454
 20
309.522
 30
0.000000
  70
    32
  0
VERTEX
  8
0
  5
10F37
 10
329.572
 20
309.447
 30
0.000000
  70
    32
  0
VERTEX
  8
0
  5
10F38
 10
329.686
 20
309.371
 30
0.000000
  70
    32
  0
VERTEX
  8
0
  5
10F39
 10
329.797
 20
309.294
 30
0.000000
  70
    32
  0
VERTEX
  8
0
  5
10F3A
 10
329.905
 20
309.215
 30
0.000000
  70
    32
  0
VERTEX
  8
0
  5
10F3B
 10
330.010
 20
309.134
 30
0.000000
  70
    32
  0
VERTEX
  8
0
  5
10F3C
 10
330.111
 20
309.052
 30
0.000000
  70
    32
  0
VERTEX
  8
0
  5
10F3D
 10
330.208
 20
308.968
 30
0.000000
  70
    32
  0
VERTEX
  8
0
  5
10F3E
 10
330.303
 20
308.883
 30
0.000000
  70
    32
  0
VERTEX
  8
0
  5
10F3F
 10
330.393
 20
308.797
 30
0.000000
  70
    32
  0
VERTEX
  8
0
  5
10F40
 10
330.480
 20
308.709
 30
0.000000
  70
    32
  0
VERTEX
  8
0
  5
10F41
 10
330.563
 20
308.620
 30
0.000000
  70
    32
  0
VERTEX
  8
0
  5
10F42
 10
330.643
 20
308.530
 30
0.000000
  70
    32
  0
VERTEX
  8
0
  5
10F43
 10
330.718
 20
308.439
 30
0.000000
  70
    32
  0
VERTEX
  8
0
  5
10F44
 10
330.790
 20
308.347
 30
0.000000
  70
    32
  0
VERTEX
  8
0
  5
10F45
 10
330.858
 20
308.254
 30
0.000000
  70
    32
  0
VERTEX
  8
0
  5
10F46
 10
330.922
 20
308.160
 30
0.000000
  70
    32
  0
VERTEX
  8
0
  5
10F47
 10
330.982
 20
308.065
 30
0.000000
  70
    32
  0
VERTEX
  8
0
  5
10F48
 10
331.038
 20
307.969
 30
0.000000
  70
    32
  0
VERTEX
  8
0
  5
10F49
 10
331.090
 20
307.872
 30
0.000000
  70
    32
  0
VERTEX
  8
0
  5
10F4A
 10
331.138
 20
307.775
 30
0.000000
  70
    32
  0
VERTEX
  8
0
  5
10F4B
 10
331.182
 20
307.677
 30
0.000000
  70
    32
  0
VERTEX
  8
0
  5
10F4C
 10
331.222
 20
307.579
 30
0.000000
  70
    32
  0
VERTEX
  8
0
  5
10F4D
 10
331.258
 20
307.480
 30
0.000000
  70
    32
  0
VERTEX
  8
0
  5
10F4E
 10
331.289
 20
307.380
 30
0.000000
  70
    32
  0
VERTEX
  8
0
  5
10F4F
 10
331.316
 20
307.280
 30
0.000000
  70
    32
  0
VERTEX
  8
0
  5
10F50
 10
331.340
 20
307.180
 30
0.000000
  70
    32
  0
VERTEX
  8
0
  5
10F51
 10
331.358
 20
307.079
 30
0.000000
  70
    32
  0
VERTEX
  8
0
  5
10F52
 10
331.373
 20
306.978
 30
0.000000
  70
    32
  0
VERTEX
  8
0
  5
10F53
 10
331.383
 20
306.877
 30
0.000000
  70
    32
  0
VERTEX
  8
0
  5
10F54
 10
331.390
 20
306.776
 30
0.000000
  70
    32
  0
VERTEX
  8
0
  5
10F55
 10
331.392
 20
306.675
 30
0.000000
  70
    32
  0
SEQEND
  8
0
  5
10F56
  0
POLYLINE
  5
FBD3
  8
0
 10
329.99212979968638
 20
284.65386398964341
 30
0.0
 66
     1
 70
     8
  0
VERTEX
  8
0
  5
10F57
 10
329.992
 20
284.654
 30
0.000000
  70
    32
  0
VERTEX
  8
0
  5
10F58
 10
329.990
 20
284.581
 30
0.000000
  70
    32
  0
VERTEX
  8
0
  5
10F59
 10
329.985
 20
284.508
 30
0.000000
  70
    32
  0
VERTEX
  8
0
  5
10F5A
 10
329.977
 20
284.435
 30
0.000000
  70
    32
  0
VERTEX
  8
0
  5
10F5B
 10
329.965
 20
284.362
 30
0.000000
  70
    32
  0
VERTEX
  8
0
  5
10F5C
 10
329.950
 20
284.290
 30
0.000000
  70
    32
  0
VERTEX
  8
0
  5
10F5D
 10
329.932
 20
284.217
 30
0.000000
  70
    32
  0
VERTEX
  8
0
  5
10F5E
 10
329.910
 20
284.145
 30
0.000000
  70
    32
  0
VERTEX
  8
0
  5
10F5F
 10
329.885
 20
284.073
 30
0.000000
  70
    32
  0
VERTEX
  8
0
  5
10F60
 10
329.856
 20
284.002
 30
0.000000
  70
    32
  0
VERTEX
  8
0
  5
10F61
 10
329.824
 20
283.931
 30
0.000000
  70
    32
  0
VERTEX
  8
0
  5
10F62
 10
329.789
 20
283.860
 30
0.000000
  70
    32
  0
VERTEX
  8
0
  5
10F63
 10
329.751
 20
283.790
 30
0.000000
  70
    32
  0
VERTEX
  8
0
  5
10F64
 10
329.709
 20
283.721
 30
0.000000
  70
    32
  0
VERTEX
  8
0
  5
10F65
 10
329.665
 20
283.651
 30
0.000000
  70
    32
  0
VERTEX
  8
0
  5
10F66
 10
329.617
 20
283.583
 30
0.000000
  70
    32
  0
VERTEX
  8
0
  5
10F67
 10
329.566
 20
283.515
 30
0.000000
  70
    32
  0
VERTEX
  8
0
  5
10F68
 10
329.512
 20
283.448
 30
0.000000
  70
    32
  0
VERTEX
  8
0
  5
10F69
 10
329.454
 20
283.382
 30
0.000000
  70
    32
  0
VERTEX
  8
0
  5
10F6A
 10
329.394
 20
283.316
 30
0.000000
  70
    32
  0
VERTEX
  8
0
  5
10F6B
 10
329.331
 20
283.251
 30
0.000000
  70
    32
  0
VERTEX
  8
0
  5
10F6C
 10
329.265
 20
283.187
 30
0.000000
  70
    32
  0
VERTEX
  8
0
  5
10F6D
 10
329.195
 20
283.124
 30
0.000000
  70
    32
  0
VERTEX
  8
0
  5
10F6E
 10
329.123
 20
283.062
 30
0.000000
  70
    32
  0
VERTEX
  8
0
  5
10F6F
 10
329.048
 20
283.001
 30
0.000000
  70
    32
  0
VERTEX
  8
0
  5
10F70
 10
328.971
 20
282.941
 30
0.000000
  70
    32
  0
VERTEX
  8
0
  5
10F71
 10
328.890
 20
282.881
 30
0.000000
  70
    32
  0
VERTEX
  8
0
  5
10F72
 10
328.807
 20
282.823
 30
0.000000
  70
    32
  0
VERTEX
  8
0
  5
10F73
 10
328.721
 20
282.766
 30
0.000000
  70
    32
  0
VERTEX
  8
0
  5
10F74
 10
328.632
 20
282.710
 30
0.000000
  70
    32
  0
VERTEX
  8
0
  5
10F75
 10
328.541
 20
282.656
 30
0.000000
  70
    32
  0
VERTEX
  8
0
  5
10F76
 10
328.448
 20
282.602
 30
0.000000
  70
    32
  0
VERTEX
  8
0
  5
10F77
 10
328.352
 20
282.550
 30
0.000000
  70
    32
  0
VERTEX
  8
0
  5
10F78
 10
328.253
 20
282.499
 30
0.000000
  70
    32
  0
VERTEX
  8
0
  5
10F79
 10
328.153
 20
282.449
 30
0.000000
  70
    32
  0
VERTEX
  8
0
  5
10F7A
 10
328.050
 20
282.401
 30
0.000000
  70
    32
  0
VERTEX
  8
0
  5
10F7B
 10
327.945
 20
282.354
 30
0.000000
  70
    32
  0
VERTEX
  8
0
  5
10F7C
 10
327.837
 20
282.308
 30
0.000000
  70
    32
  0
VERTEX
  8
0
  5
10F7D
 10
327.728
 20
282.264
 30
0.000000
  70
    32
  0
VERTEX
  8
0
  5
10F7E
 10
327.616
 20
282.221
 30
0.000000
  70
    32
  0
VERTEX
  8
0
  5
10F7F
 10
327.503
 20
282.180
 30
0.000000
  70
    32
  0
VERTEX
  8
0
  5
10F80
 10
327.388
 20
282.140
 30
0.000000
  70
    32
  0
VERTEX
  8
0
  5
10F81
 10
327.271
 20
282.102
 30
0.000000
  70
    32
  0
VERTEX
  8
0
  5
10F82
 10
327.152
 20
282.065
 30
0.000000
  70
    32
  0
VERTEX
  8
0
  5
10F83
 10
327.032
 20
282.030
 30
0.000000
  70
    32
  0
VERTEX
  8
0
  5
10F84
 10
326.910
 20
281.996
 30
0.000000
  70
    32
  0
VERTEX
  8
0
  5
10F85
 10
326.786
 20
281.964
 30
0.000000
  70
    32
  0
VERTEX
  8
0
  5
10F86
 10
326.661
 20
281.934
 30
0.000000
  70
    32
  0
VERTEX
  8
0
  5
10F87
 10
326.535
 20
281.905
 30
0.000000
  70
    32
  0
VERTEX
  8
0
  5
10F88
 10
326.407
 20
281.878
 30
0.000000
  70
    32
  0
VERTEX
  8
0
  5
10F89
 10
326.278
 20
281.852
 30
0.000000
  70
    32
  0
VERTEX
  8
0
  5
10F8A
 10
326.148
 20
281.829
 30
0.000000
  70
    32
  0
VERTEX
  8
0
  5
10F8B
 10
326.017
 20
281.807
 30
0.000000
  70
    32
  0
VERTEX
  8
0
  5
10F8C
 10
325.885
 20
281.786
 30
0.000000
  70
    32
  0
VERTEX
  8
0
  5
10F8D
 10
325.752
 20
281.768
 30
0.000000
  70
    32
  0
VERTEX
  8
0
  5
10F8E
 10
325.619
 20
281.751
 30
0.000000
  70
    32
  0
VERTEX
  8
0
  5
10F8F
 10
325.484
 20
281.736
 30
0.000000
  70
    32
  0
VERTEX
  8
0
  5
10F90
 10
325.349
 20
281.722
 30
0.000000
  70
    32
  0
VERTEX
  8
0
  5
10F91
 10
325.213
 20
281.711
 30
0.000000
  70
    32
  0
VERTEX
  8
0
  5
10F92
 10
325.077
 20
281.701
 30
0.000000
  70
    32
  0
VERTEX
  8
0
  5
10F93
 10
324.941
 20
281.693
 30
0.000000
  70
    32
  0
VERTEX
  8
0
  5
10F94
 10
324.804
 20
281.687
 30
0.000000
  70
    32
  0
VERTEX
  8
0
  5
10F95
 10
324.666
 20
281.682
 30
0.000000
  70
    32
  0
VERTEX
  8
0
  5
10F96
 10
324.529
 20
281.679
 30
0.000000
  70
    32
  0
VERTEX
  8
0
  5
10F97
 10
324.392
 20
281.678
 30
0.000000
  70
    32
  0
VERTEX
  8
0
  5
10F98
 10
324.254
 20
281.679
 30
0.000000
  70
    32
  0
VERTEX
  8
0
  5
10F99
 10
324.117
 20
281.682
 30
0.000000
  70
    32
  0
VERTEX
  8
0
  5
10F9A
 10
323.980
 20
281.687
 30
0.000000
  70
    32
  0
VERTEX
  8
0
  5
10F9B
 10
323.843
 20
281.693
 30
0.000000
  70
    32
  0
VERTEX
  8
0
  5
10F9C
 10
323.706
 20
281.701
 30
0.000000
  70
    32
  0
VERTEX
  8
0
  5
10F9D
 10
323.570
 20
281.711
 30
0.000000
  70
    32
  0
VERTEX
  8
0
  5
10F9E
 10
323.434
 20
281.722
 30
0.000000
  70
    32
  0
VERTEX
  8
0
  5
10F9F
 10
323.299
 20
281.736
 30
0.000000
  70
    32
  0
VERTEX
  8
0
  5
10FA0
 10
323.165
 20
281.751
 30
0.000000
  70
    32
  0
VERTEX
  8
0
  5
10FA1
 10
323.031
 20
281.768
 30
0.000000
  70
    32
  0
VERTEX
  8
0
  5
10FA2
 10
322.898
 20
281.786
 30
0.000000
  70
    32
  0
VERTEX
  8
0
  5
10FA3
 10
322.766
 20
281.807
 30
0.000000
  70
    32
  0
VERTEX
  8
0
  5
10FA4
 10
322.635
 20
281.829
 30
0.000000
  70
    32
  0
VERTEX
  8
0
  5
10FA5
 10
322.505
 20
281.852
 30
0.000000
  70
    32
  0
VERTEX
  8
0
  5
10FA6
 10
322.376
 20
281.878
 30
0.000000
  70
    32
  0
VERTEX
  8
0
  5
10FA7
 10
322.248
 20
281.905
 30
0.000000
  70
    32
  0
VERTEX
  8
0
  5
10FA8
 10
322.122
 20
281.934
 30
0.000000
  70
    32
  0
VERTEX
  8
0
  5
10FA9
 10
321.997
 20
281.964
 30
0.000000
  70
    32
  0
VERTEX
  8
0
  5
10FAA
 10
321.874
 20
281.996
 30
0.000000
  70
    32
  0
VERTEX
  8
0
  5
10FAB
 10
321.752
 20
282.030
 30
0.000000
  70
    32
  0
VERTEX
  8
0
  5
10FAC
 10
321.631
 20
282.065
 30
0.000000
  70
    32
  0
VERTEX
  8
0
  5
10FAD
 10
321.512
 20
282.102
 30
0.000000
  70
    32
  0
VERTEX
  8
0
  5
10FAE
 10
321.395
 20
282.140
 30
0.000000
  70
    32
  0
VERTEX
  8
0
  5
10FAF
 10
321.280
 20
282.180
 30
0.000000
  70
    32
  0
VERTEX
  8
0
  5
10FB0
 10
321.167
 20
282.221
 30
0.000000
  70
    32
  0
VERTEX
  8
0
  5
10FB1
 10
321.055
 20
282.264
 30
0.000000
  70
    32
  0
VERTEX
  8
0
  5
10FB2
 10
320.946
 20
282.308
 30
0.000000
  70
    32
  0
VERTEX
  8
0
  5
10FB3
 10
320.839
 20
282.354
 30
0.000000
  70
    32
  0
VERTEX
  8
0
  5
10FB4
 10
320.734
 20
282.401
 30
0.000000
  70
    32
  0
VERTEX
  8
0
  5
10FB5
 10
320.631
 20
282.449
 30
0.000000
  70
    32
  0
VERTEX
  8
0
  5
10FB6
 10
320.530
 20
282.499
 30
0.000000
  70
    32
  0
VERTEX
  8
0
  5
10FB7
 10
320.431
 20
282.550
 30
0.000000
  70
    32
  0
VERTEX
  8
0
  5
10FB8
 10
320.335
 20
282.602
 30
0.000000
  70
    32
  0
VERTEX
  8
0
  5
10FB9
 10
320.242
 20
282.656
 30
0.000000
  70
    32
  0
VERTEX
  8
0
  5
10FBA
 10
320.151
 20
282.710
 30
0.000000
  70
    32
  0
VERTEX
  8
0
  5
10FBB
 10
320.062
 20
282.766
 30
0.000000
  70
    32
  0
VERTEX
  8
0
  5
10FBC
 10
319.976
 20
282.823
 30
0.000000
  70
    32
  0
VERTEX
  8
0
  5
10FBD
 10
319.893
 20
282.881
 30
0.000000
  70
    32
  0
VERTEX
  8
0
  5
10FBE
 10
319.813
 20
282.941
 30
0.000000
  70
    32
  0
VERTEX
  8
0
  5
10FBF
 10
319.735
 20
283.001
 30
0.000000
  70
    32
  0
VERTEX
  8
0
  5
10FC0
 10
319.660
 20
283.062
 30
0.000000
  70
    32
  0
VERTEX
  8
0
  5
10FC1
 10
319.588
 20
283.124
 30
0.000000
  70
    32
  0
VERTEX
  8
0
  5
10FC2
 10
319.519
 20
283.187
 30
0.000000
  70
    32
  0
VERTEX
  8
0
  5
10FC3
 10
319.452
 20
283.251
 30
0.000000
  70
    32
  0
VERTEX
  8
0
  5
10FC4
 10
319.389
 20
283.316
 30
0.000000
  70
    32
  0
VERTEX
  8
0
  5
10FC5
 10
319.329
 20
283.382
 30
0.000000
  70
    32
  0
VERTEX
  8
0
  5
10FC6
 10
319.272
 20
283.448
 30
0.000000
  70
    32
  0
VERTEX
  8
0
  5
10FC7
 10
319.217
 20
283.515
 30
0.000000
  70
    32
  0
VERTEX
  8
0
  5
10FC8
 10
319.166
 20
283.583
 30
0.000000
  70
    32
  0
VERTEX
  8
0
  5
10FC9
 10
319.119
 20
283.651
 30
0.000000
  70
    32
  0
VERTEX
  8
0
  5
10FCA
 10
319.074
 20
283.721
 30
0.000000
  70
    32
  0
VERTEX
  8
0
  5
10FCB
 10
319.032
 20
283.790
 30
0.000000
  70
    32
  0
VERTEX
  8
0
  5
10FCC
 10
318.994
 20
283.860
 30
0.000000
  70
    32
  0
VERTEX
  8
0
  5
10FCD
 10
318.959
 20
283.931
 30
0.000000
  70
    32
  0
VERTEX
  8
0
  5
10FCE
 10
318.927
 20
284.002
 30
0.000000
  70
    32
  0
VERTEX
  8
0
  5
10FCF
 10
318.899
 20
284.073
 30
0.000000
  70
    32
  0
VERTEX
  8
0
  5
10FD0
 10
318.874
 20
284.145
 30
0.000000
  70
    32
  0
VERTEX
  8
0
  5
10FD1
 10
318.852
 20
284.217
 30
0.000000
  70
    32
  0
VERTEX
  8
0
  5
10FD2
 10
318.833
 20
284.290
 30
0.000000
  70
    32
  0
VERTEX
  8
0
  5
10FD3
 10
318.818
 20
284.362
 30
0.000000
  70
    32
  0
VERTEX
  8
0
  5
10FD4
 10
318.806
 20
284.435
 30
0.000000
  70
    32
  0
VERTEX
  8
0
  5
10FD5
 10
318.798
 20
284.508
 30
0.000000
  70
    32
  0
VERTEX
  8
0
  5
10FD6
 10
318.793
 20
284.581
 30
0.000000
  70
    32
  0
VERTEX
  8
0
  5
10FD7
 10
318.791
 20
284.654
 30
0.000000
  70
    32
  0
SEQEND
  8
0
  5
10FD8
  0
POLYLINE
  5
FBD4
  8
0
 66
     1
 10
0.0
 20
0.0
 30
0.0
 70
   128
  0
VERTEX
  5
10BD0
  8
0
 10
317.39163338836278
 20
306.67493038707192
 30
0.0
  0
VERTEX
  5
10BD1
  8
0
 10
317.40930616553868
 20
306.43165402942122
 30
0.0
  0
VERTEX
  5
10BD2
  8
0
 10
317.57304757531728
 20
305.88857375913079
 30
0.0
  0
VERTEX
  5
10BD3
  8
0
 10
317.90468781884761
 20
305.36499165826262
 30
0.0
  0
VERTEX
  5
10BD4
  8
0
 10
318.39605733450497
 20
304.87379723124923
 30
0.0
  0
VERTEX
  5
10BD5
  8
0
 10
319.0350563794002
 20
304.42708277039941
 30
0.0
  0
VERTEX
  5
10BD6
  8
0
 10
319.80595305260272
 20
304.0358453326744
 30
0.0
  0
VERTEX
  5
10BD7
  8
0
 10
320.68976327475161
 20
303.70971851878579
 30
0.0
  0
VERTEX
  5
10BD8
  8
0
 10
321.66472762521357
 20
303.4567415051979
 30
0.0
  0
VERTEX
  5
10BD9
  8
0
 10
322.70683660801501
 20
303.28314297728951
 30
0.0
  0
VERTEX
  5
10BDA
  8
0
 10
323.79042669828982
 20
303.19318466716231
 30
0.0
  0
VERTEX
  5
10BDB
  8
0
 10
324.88882481750102
 20
303.1890942984146
 30
0.0
  0
VERTEX
  5
10BDC
  8
0
 10
325.97497790750123
 20
303.2709612780136
 30
0.0
  0
VERTEX
  5
10BDD
  8
0
 10
327.02214583452792
 20
303.43678139977868
 30
0.0
  0
VERTEX
  5
10BDE
  8
0
 10
328.00454213913531
 20
303.6824717455429
 30
0.0
  0
VERTEX
  5
10BDF
  8
0
 10
328.89797478612508
 20
304.00196754270007
 30
0.0
  0
SEQEND
  5
10BE0
  8
0
  0
ARC
  5
FBD5
  8
0
 10
327.40423453735298
 20
307.89523325199679
 30
0.0
 40
4.1699853493730368
 50
290.99045079689972
 51
342.98182926865547
  0
POLYLINE
  5
FBD6
  8
0
 66
     1
 10
0.0
 20
0.0
 30
0.0
 70
   128
  0
VERTEX
  5
10BE1
  8
0
 10
328.28809633549298
 20
305.414798789553
 30
0.0
  0
VERTEX
  5
10BE2
  8
0
 10
329.0147961645946
 20
305.77736639314111
 30
0.0
  0
VERTEX
  5
10BE3
  8
0
 10
329.60849567946048
 20
306.19611882501061
 30
0.0
  0
VERTEX
  5
10BE4
  8
0
 10
330.05211814936251
 20
306.65902339749749
 30
0.0
  0
VERTEX
  5
10BE5
  8
0
 10
330.33289700444789
 20
307.1527510219139
 30
0.0
  0
VERTEX
  5
10BE6
  8
0
 10
330.44275581534953
 20
307.66310089164188
 30
0.0
  0
VERTEX
  5
10BE7
  8
0
 10
330.3785355358944
 20
308.17539536290582
 30
0.0
  0
VERTEX
  5
10BE8
  8
0
 10
330.14208018478013
 20
308.67489718728478
 30
0.0
  0
VERTEX
  5
10BE9
  8
0
 10
329.7401995926723
 20
309.14722674422683
 30
0.0
  0
VERTEX
  5
10BEA
  8
0
 10
329.18444588478661
 20
309.57880907588418
 30
0.0
  0
VERTEX
  5
10BEB
  8
0
 10
328.49081545766438
 20
309.9572166138214
 30
0.0
  0
VERTEX
  5
10BEC
  8
0
 10
327.67925351556391
 20
310.27157151036681
 30
0.0
  0
VERTEX
  5
10BED
  8
0
 10
326.77311762865628
 20
310.5128287606758
 30
0.0
  0
VERTEX
  5
10BEE
  8
0
 10
325.7984662025795
 20
310.67404442363198
 30
0.0
  0
VERTEX
  5
10BEF
  8
0
 10
324.78334694799042
 20
310.75059168868478
 30
0.0
  0
VERTEX
  5
10BF0
  8
0
 10
323.75695496495808
 20
310.74025028281631
 30
0.0
  0
VERTEX
  5
10BF1
  8
0
 10
322.74882435496897
 20
310.64332567983092
 30
0.0
  0
VERTEX
  5
10BF2
  8
0
 10
321.7879490524158
 20
310.46261184745248
 30
0.0
  0
VERTEX
  5
10BF3
  8
0
 10
320.90198188718409
 20
310.2033018403572
 30
0.0
  0
VERTEX
  5
10BF4
  8
0
 10
320.11640384491528
 20
309.87286114030297
 30
0.0
  0
VERTEX
  5
10BF5
  8
0
 10
319.45381626185031
 20
309.48078923755111
 30
0.0
  0
VERTEX
  5
10BF6
  8
0
 10
318.93327772315592
 20
309.03836631112512
 30
0.0
  0
VERTEX
  5
10BF7
  8
0
 10
318.56977134641261
 20
308.55832540326531
 30
0.0
  0
VERTEX
  5
10BF8
  8
0
 10
318.3737428456173
 20
308.0544724398178
 30
0.0
  0
VERTEX
  5
10BF9
  8
0
 10
318.3508434861526
 20
307.54129880004342
 30
0.0
  0
VERTEX
  5
10BFA
  8
0
 10
318.5017214685306
 20
307.03357153468551
 30
0.0
  0
VERTEX
  5
10BFB
  8
0
 10
318.82204428013421
 20
306.5459012322944
 30
0.0
  0
VERTEX
  5
10BFC
  8
0
 10
319.3025955527649
 20
306.09230988555368
 30
0.0
  0
VERTEX
  5
10BFD
  8
0
 10
319.92954700883479
 20
305.68585091166909
 30
0.0
  0
VERTEX
  5
10BFE
  8
0
 10
320.68486079271878
 20
305.33821427159722
 30
0.0
  0
VERTEX
  5
10BFF
  8
0
 10
321.54681473668671
 20
305.05940609507968
 30
0.0
  0
VERTEX
  5
10C00
  8
0
 10
322.49060958322139
 20
304.85743575625833
 30
0.0
  0
VERTEX
  5
10C01
  8
0
 10
323.48909169133748
 20
304.73812960915978
 30
0.0
  0
VERTEX
  5
10C02
  8
0
 10
324.51353907283402
 20
304.7049074702781
 30
0.0
  0
VERTEX
  5
10C03
  8
0
 10
325.5344772308693
 20
304.75873046451028
 30
0.0
  0
VERTEX
  5
10C04
  8
0
 10
326.52253970202059
 20
304.89805632167281
 30
0.0
  0
VERTEX
  5
10C05
  8
0
 10
327.44929879602051
 20
305.11886172824319
 30
0.0
  0
VERTEX
  5
10C06
  8
0
 10
328.28809633549298
 20
305.414798789553
 30
0.0
  0
SEQEND
  5
10C07
  8
0
  0
POLYLINE
  5
FBD7
  8
0
 66
     1
 10
0.0
 20
0.0
 30
0.0
 70
   128
  0
VERTEX
  5
10C08
  8
0
 10
324.3916252225265
 20
235.31132669084471
 30
0.0
  0
VERTEX
  5
10C09
  8
0
 10
324.98326465185733
 20
235.23765837670069
 30
0.0
  0
VERTEX
  5
10C0A
  8
0
 10
325.5269707709179
 20
235.0226218149881
 30
0.0
  0
VERTEX
  5
10C0B
  8
0
 10
325.97869947250928
 20
234.68363809295701
 30
0.0
  0
VERTEX
  5
10C0C
  8
0
 10
326.30185350473971
 20
234.2481693521957
 30
0.0
  0
VERTEX
  5
10C0D
  8
0
 10
326.47025152739138
 20
233.75149455749201
 30
0.0
  0
VERTEX
  5
10C0E
  8
0
 10
326.47025152739138
 20
233.23385196634339
 30
0.0
  0
VERTEX
  5
10C0F
  8
0
 10
326.30185350473971
 20
232.73717717163959
 30
0.0
  0
VERTEX
  5
10C10
  8
0
 10
325.97869947250928
 20
232.30170843087839
 30
0.0
  0
VERTEX
  5
10C11
  8
0
 10
325.5269707709179
 20
231.96272470884719
 30
0.0
  0
VERTEX
  5
10C12
  8
0
 10
324.98326465185733
 20
231.7476883799653
 30
0.0
  0
VERTEX
  5
10C13
  8
0
 10
324.3916252225265
 20
231.67401983299061
 30
0.0
  0
VERTEX
  5
10C14
  8
0
 10
323.79998579319567
 20
231.7476883799653
 30
0.0
  0
VERTEX
  5
10C15
  8
0
 10
323.25627967413521
 20
231.96272470884719
 30
0.0
  0
VERTEX
  5
10C16
  8
0
 10
322.80455097254372
 20
232.30170843087839
 30
0.0
  0
VERTEX
  5
10C17
  8
0
 10
322.48139694031329
 20
232.73717717163959
 30
0.0
  0
VERTEX
  5
10C18
  8
0
 10
322.31299891766162
 20
233.23385196634339
 30
0.0
  0
VERTEX
  5
10C19
  8
0
 10
322.31299891766162
 20
233.75149455749201
 30
0.0
  0
VERTEX
  5
10C1A
  8
0
 10
322.48139694031329
 20
234.2481693521957
 30
0.0
  0
VERTEX
  5
10C1B
  8
0
 10
322.80455097254372
 20
234.68363809295701
 30
0.0
  0
VERTEX
  5
10C1C
  8
0
 10
323.25627967413521
 20
235.0226218149881
 30
0.0
  0
VERTEX
  5
10C1D
  8
0
 10
323.79998579319567
 20
235.23765837670069
 30
0.0
  0
VERTEX
  5
10C1E
  8
0
 10
324.3916252225265
 20
235.31132669084471
 30
0.0
  0
SEQEND
  5
10C1F
  8
0
  0
POLYLINE
  5
FBD8
  8
0
 66
     1
 10
0.0
 20
0.0
 30
0.0
 70
   128
  0
VERTEX
  5
10C20
  8
0
 10
324.3916252225265
 20
235.6041470811586
 30
0.0
  0
VERTEX
  5
10C21
  8
0
 10
325.11282652314748
 20
235.5252445013146
 30
0.0
  0
VERTEX
  5
10C22
  8
0
 10
325.78870966728778
 20
235.2934944246779
 30
0.0
  0
VERTEX
  5
10C23
  8
0
 10
326.37681007083512
 20
234.9234587781946
 30
0.0
  0
VERTEX
  5
10C24
  8
0
 10
326.84017657931901
 20
234.43838826277059
 30
0.0
  0
VERTEX
  5
10C25
  8
0
 10
327.14968859847642
 20
233.86876110815211
 30
0.0
  0
VERTEX
  5
10C26
  8
0
 10
327.28590383823962
 20
233.25036990352669
 30
0.0
  0
VERTEX
  5
10C27
  8
0
 10
327.24025785621262
 20
232.6220698923687
 30
0.0
  0
VERTEX
  5
10C28
  8
0
 10
327.01562285121531
 20
232.0233398386161
 30
0.0
  0
VERTEX
  5
10C29
  8
0
 10
326.62611394818867
 20
231.49179958634781
 30
0.0
  0
VERTEX
  5
10C2A
  8
0
 10
326.09620257910342
 20
231.06084869139599
 30
0.0
  0
VERTEX
  5
10C2B
  8
0
 10
325.45918538864697
 20
230.757564426295
 30
0.0
  0
VERTEX
  5
10C2C
  8
0
 10
324.75509062107648
 20
230.6010035135667
 30
0.0
  0
VERTEX
  5
10C2D
  8
0
 10
324.02815982397652
 20
230.6010035135667
 30
0.0
  0
VERTEX
  5
10C2E
  8
0
 10
323.32406505640603
 20
230.757564426295
 30
0.0
  0
VERTEX
  5
10C2F
  8
0
 10
322.68704786594958
 20
231.06084869139599
 30
0.0
  0
VERTEX
  5
10C30
  8
0
 10
322.15713649686433
 20
231.49179958634781
 30
0.0
  0
VERTEX
  5
10C31
  8
0
 10
321.76762759383769
 20
232.0233398386161
 30
0.0
  0
VERTEX
  5
10C32
  8
0
 10
321.54299258884038
 20
232.6220698923687
 30
0.0
  0
VERTEX
  5
10C33
  8
0
 10
321.49734660681338
 20
233.25036990352669
 30
0.0
  0
VERTEX
  5
10C34
  8
0
 10
321.63356184657658
 20
233.86876110815211
 30
0.0
  0
VERTEX
  5
10C35
  8
0
 10
321.94307386573411
 20
234.43838826277059
 30
0.0
  0
VERTEX
  5
10C36
  8
0
 10
322.40644037421788
 20
234.9234587781946
 30
0.0
  0
VERTEX
  5
10C37
  8
0
 10
322.99454077776522
 20
235.2934944246779
 30
0.0
  0
VERTEX
  5
10C38
  8
0
 10
323.67042392190552
 20
235.5252445013146
 30
0.0
  0
VERTEX
  5
10C39
  8
0
 10
324.3916252225265
 20
235.6041470811586
 30
0.0
  0
SEQEND
  5
10C3A
  8
0
  0
LINE
  5
FBD9
  8
0
 10
330.39162620600308
 20
227.09267319076449
 30
0.0
 11
330.39162620600308
 21
251.0926733993808
 31
0.0
  0
LINE
  5
FBDA
  8
0
 10
329.39162417944522
 20
252.0926735632936
 30
0.0
 11
329.39162417944522
 21
226.0926730268518
 31
0.0
  0
LINE
  5
FBDB
  8
0
 10
319.39162626560778
 20
226.0926730268518
 30
0.0
 11
319.39162626560778
 21
252.0926735632936
 31
0.0
  0
LINE
  5
FBDC
  8
0
 10
318.39162423904992
 20
251.0926733993808
 30
0.0
 11
318.39162423904992
 21
227.09267319076449
 31
0.0
  0
ARC
  5
FBDD
  8
0
 10
327.17237202372729
 20
263.34138505988523
 30
0.0
 40
1.20616108304009
 50
306.60648530331162
 51
53.393514696688371
  0
ARC
  5
FBDE
  8
0
 10
327.06195398355999
 20
270.34300685701658
 30
0.0
 40
1.3316972534972611
 50
308.5368350329598
 51
356.8396081697606
  0
LINE
  5
FBDF
  8
0
 10
327.89162486489857
 20
262.37313927047649
 30
0.0
 11
327.89162486489857
 21
269.30134289794381
 31
0.0
  0
ARC
  5
FBE0
  8
0
 10
321.61087842132542
 20
263.34138505988523
 30
0.0
 40
1.20616108304009
 50
126.6064853033116
 51
233.3935146966883
  0
LINE
  5
FBE1
  8
0
 10
320.89162558015443
 20
269.30134289794381
 30
0.0
 11
320.89162558015443
 21
262.37313927047649
 31
0.0
  0
ARC
  5
FBE2
  8
0
 10
321.72129646149261
 20
270.34300685701658
 30
0.0
 40
1.331697253497226
 50
183.16039183023929
 51
231.46316496704
  0
POLYLINE
  5
FBE3
  8
0
 66
     1
 10
0.0
 20
0.0
 30
0.0
 70
   128
  0
VERTEX
  5
10C3B
  8
0
 10
317.39162593778218
 20
293.65225427680429
 30
0.0
  0
VERTEX
  5
10C3C
  8
0
 10
317.40930616553868
 20
293.40365447931703
 30
0.0
  0
VERTEX
  5
10C3D
  8
0
 10
317.57304757531728
 20
292.86057793431701
 30
0.0
  0
VERTEX
  5
10C3E
  8
0
 10
317.90468781884761
 20
292.33699583344873
 30
0.0
  0
VERTEX
  5
10C3F
  8
0
 10
318.39605733450497
 20
291.84579768114509
 30
0.0
  0
VERTEX
  5
10C40
  8
0
 10
319.0350563794002
 20
291.39907949500503
 30
0.0
  0
VERTEX
  5
10C41
  8
0
 10
319.80595305260272
 20
291.0078457825702
 30
0.0
  0
VERTEX
  5
10C42
  8
0
 10
320.68976327475161
 20
290.68172269397201
 30
0.0
  0
VERTEX
  5
10C43
  8
0
 10
321.66472762521357
 20
290.428745680384
 30
0.0
  0
VERTEX
  5
10C44
  8
0
 10
322.70683660801501
 20
290.25514342718537
 30
0.0
  0
VERTEX
  5
10C45
  8
0
 10
323.79042669828982
 20
290.16518511705812
 30
0.0
  0
VERTEX
  5
10C46
  8
0
 10
324.88882481750102
 20
290.1610947483104
 30
0.0
  0
VERTEX
  5
10C47
  8
0
 10
325.97497790750123
 20
290.2429654531997
 30
0.0
  0
VERTEX
  5
10C48
  8
0
 10
327.02214583452792
 20
290.4087855749649
 30
0.0
  0
VERTEX
  5
10C49
  8
0
 10
328.00454213913531
 20
290.6544684701484
 30
0.0
  0
VERTEX
  5
10C4A
  8
0
 10
328.89797478612508
 20
290.97397171788629
 30
0.0
  0
SEQEND
  5
10C4B
  8
0
  0
ARC
  5
FBE4
  8
0
 10
328.09275371226408
 20
294.22369698525949
 30
0.0
 40
3.3479986994015909
 50
283.91653548888098
 51
350.17253270969888
  0
LINE
  5
FBE5
  8
0
 10
329.39162417944522
 20
226.0926730268518
 30
0.0
 11
319.39162626560778
 21
226.0926730268518
 31
0.0
  0
LINE
  5
FBE6
  8
0
 10
328.39162587817759
 20
252.0926735632936
 30
0.0
 11
329.39162417944522
 21
252.0926735632936
 31
0.0
  0
LINE
  5
FBE7
  8
0
 10
319.39162626560778
 20
252.0926735632936
 30
0.0
 11
320.39162456687541
 21
252.0926735632936
 31
0.0
  0
LINE
  5
FBE8
  8
0
 10
330.39162620600308
 20
227.09267319076449
 30
0.0
 11
329.39162417944522
 21
226.0926730268518
 31
0.0
  0
LINE
  5
FBE9
  8
0
 10
329.39162417944522
 20
252.0926735632936
 30
0.0
 11
330.39162620600308
 21
251.0926733993808
 31
0.0
  0
LINE
  5
FBEA
  8
0
 10
318.39162423904992
 20
251.0926733993808
 30
0.0
 11
319.39162626560778
 21
252.0926735632936
 31
0.0
  0
LINE
  5
FBEB
  8
0
 10
319.39162626560778
 20
226.0926730268518
 30
0.0
 11
318.39162423904992
 21
227.09267319076449
 31
0.0
  0
LINE
  5
FBEC
  8
0
 10
320.39162456687541
 20
249.5665473276454
 30
0.0
 11
320.39162456687541
 21
263.34138505988523
 31
0.0
  0
LINE
  5
FBED
  8
0
 10
320.39162456687541
 20
270.26958868735238
 30
0.0
 11
320.39162456687541
 21
282.57133854988712
 31
0.0
  0
LINE
  5
FBEE
  8
0
 10
328.39162587817759
 20
282.57133854988712
 30
0.0
 11
328.39162587817759
 21
270.26958868735238
 31
0.0
  0
LINE
  5
FBEF
  8
0
 10
328.39162587817759
 20
263.34138505988523
 30
0.0
 11
328.39162587817759
 21
249.55521203481899
 31
0.0
  0
LINE
  5
FBF0
  8
0
 10
318.79112064536662
 20
284.65386398964341
 30
0.0
 11
317.41335183080292
 21
293.37670200400771
 31
0.0
  0
LINE
  5
FBF1
  8
0
 10
331.36989861425008
 20
293.37670200400771
 30
0.0
 11
329.99212979968638
 21
284.65386398964341
 31
0.0
  0
LINE
  5
FBF2
  8
0
 10
331.39162450727082
 20
306.73202518262758
 30
0.0
 11
331.39162450727082
 21
293.65225427680429
 31
0.0
  0
LINE
  5
FBF3
  8
0
 10
317.39162593778218
 20
293.65225427680429
 30
0.0
 11
317.39162593778218
 21
306.68025010161813
 31
0.0
  0
LINE
  5
FBF8
  8
0
 10
317.39162593778218
 20
358.41892416178172
 30
0.0
 11
317.39162593778218
 21
350.89720542131852
 31
0.0
  0
LINE
  5
FBF9
  8
0
 10
331.39162450727082
 20
350.89720542131852
 30
0.0
 11
331.39162450727082
 21
358.41892416178172
 31
0.0
  0
LINE
  5
FBFA
  8
0
 10
331.19357689913357
 20
359.8507432132858
 30
0.0
 11
329.85062092240901
 21
364.6355917543072
 31
0.0
  0
LINE
  5
FBFB
  8
0
 10
318.93262952264399
 20
364.6355917543072
 30
0.0
 11
317.58967354591942
 21
359.8507432132858
 31
0.0
  0
LINE
  5
FBFC
  8
0
 10
328.39162587817759
 20
375.91891119777142
 30
0.0
 11
328.39162587817759
 21
384.69484267201642
 31
0.0
  0
LINE
  5
FBFD
  8
0
 10
328.39162587817759
 20
366.8279796235696
 30
0.0
 11
328.39162587817759
 21
371.91891426741068
 31
0.0
  0
LINE
  5
FBFE
  8
0
 10
320.39162456687541
 20
371.91891426741068
 30
0.0
 11
320.39162456687541
 21
366.86766629600828
 31
0.0
  0
LINE
  5
FBFF
  8
0
 10
320.39162456687541
 20
384.75917828829279
 30
0.0
 11
320.39162456687541
 21
375.91891119777142
 31
0.0
  0
LINE
  5
FC00
  8
0
 10
319.39162626560778
 20
402.91891282944852
 30
0.0
 11
318.39162423904992
 21
401.9189126655358
 31
0.0
  0
LINE
  5
FC01
  8
0
 10
318.39162423904992
 20
377.91891338824212
 30
0.0
 11
319.39162626560778
 21
376.91891322432929
 31
0.0
  0
LINE
  5
FC02
  8
0
 10
329.39162417944522
 20
376.91891322432929
 30
0.0
 11
330.39162620600308
 21
377.91891338824212
 31
0.0
  0
LINE
  5
FC03
  8
0
 10
330.39162620600308
 20
401.9189126655358
 30
0.0
 11
329.39162417944522
 21
402.91891282944852
 31
0.0
  0
LINE
  5
FC04
  8
0
 10
329.39162417944522
 20
402.91891282944852
 30
0.0
 11
319.39162626560778
 21
402.91891282944852
 31
0.0
  0
LINE
  5
FC05
  8
0
 10
319.39162626560778
 20
376.91891322432929
 30
0.0
 11
320.39162456687541
 21
376.91891322432929
 31
0.0
  0
LINE
  5
FC06
  8
0
 10
328.39162587817759
 20
376.91891322432929
 30
0.0
 11
329.39162417944522
 21
376.91891322432929
 31
0.0
  0
LINE
  5
FC07
  8
0
 10
317.39162593778218
 20
350.89720542131852
 30
0.0
 11
317.39408462937922
 21
351.0579218953747
 31
0.0
  0
POLYLINE
  5
FC08
  8
0
 66
     1
 10
0.0
 20
0.0
 30
0.0
 70
   128
  0
VERTEX
  5
10C4C
  8
0
 10
317.39162593778218
 20
358.41892416178172
 30
0.0
  0
VERTEX
  5
10C4D
  8
0
 10
317.40930616553868
 20
358.84951184092938
 30
0.0
  0
VERTEX
  5
10C4E
  8
0
 10
317.57304757531728
 20
359.79014764129113
 30
0.0
  0
VERTEX
  5
10C4F
  8
0
 10
317.90468781884761
 20
360.69702113567769
 30
0.0
  0
VERTEX
  5
10C50
  8
0
 10
318.39605733450497
 20
361.54779920875018
 30
0.0
  0
VERTEX
  5
10C51
  8
0
 10
319.0350563794002
 20
362.32153455316012
 30
0.0
  0
VERTEX
  5
10C52
  8
0
 10
319.80595305260272
 20
362.99917603432118
 30
0.0
  0
VERTEX
  5
10C53
  8
0
 10
320.68976327475161
 20
363.56403435169642
 30
0.0
  0
VERTEX
  5
10C54
  8
0
 10
321.66472762521357
 20
364.00220299660151
 30
0.0
  0
VERTEX
  5
10C55
  8
0
 10
322.70683660801501
 20
364.30289352833222
 30
0.0
  0
VERTEX
  5
10C56
  8
0
 10
323.79042669828982
 20
364.45870379506528
 30
0.0
  0
VERTEX
  5
10C57
  8
0
 10
324.88882481750102
 20
364.46578929721301
 30
0.0
  0
VERTEX
  5
10C58
  8
0
 10
325.97497790750123
 20
364.323986122002
 30
0.0
  0
VERTEX
  5
10C59
  8
0
 10
327.02214583452792
 20
364.03677741586148
 30
0.0
  0
VERTEX
  5
10C5A
  8
0
 10
328.00454213913531
 20
363.61123750506817
 30
0.0
  0
VERTEX
  5
10C5B
  8
0
 10
328.89797478612508
 20
363.05784935652201
 30
0.0
  0
VERTEX
  5
10C5C
  8
0
 10
329.68044593628503
 20
362.390232631554
 30
0.0
  0
VERTEX
  5
10C5D
  8
0
 10
330.33268838819117
 20
361.62483076154177
 30
0.0
  0
VERTEX
  5
10C5E
  8
0
 10
330.83864241536708
 20
360.78048626481478
 30
0.0
  0
VERTEX
  5
10C5F
  8
0
 10
331.18585064705462
 20
359.8779937118191
 30
0.0
  0
VERTEX
  5
10C60
  8
0
 10
331.3657598167286
 20
358.939574459185
 30
0.0
  0
VERTEX
  5
10C61
  8
0
 10
331.39162450727082
 20
358.41892416178172
 30
0.0
  0
SEQEND
  5
10C62
  8
0
  0
LINE
  5
FC09
  8
0
 10
318.93262952264399
 20
364.6355917543072
 30
0.0
 11
319.10971119698138
 21
365.14387036262929
 31
0.0
  0
LINE
  5
FC0A
  8
0
 10
329.85062092240901
 20
364.6355917543072
 30
0.0
 11
329.8726783662662
 21
364.55393711625521
 31
0.0
  0
ARC
  5
FC0B
  8
0
 10
325.28173387537248
 20
371.90478333034281
 30
0.0
 40
3.1099241071919992
 50
0.2603426362502253
 51
32.942816340295337
  0
ARC
  5
FC0C
  8
0
 10
325.31854031301577
 20
375.91891212909411
 30
0.0
 40
3.071362550601564
 50
326.90501016306513
 51
33.094989836934822
  0
LINE
  5
FC0D
  8
0
 10
327.89162486489857
 20
377.59596424697821
 30
0.0
 11
327.89162486489857
 21
373.59596545397233
 31
0.0
  0
ARC
  5
FC0E
  8
0
 10
323.50151656968069
 20
371.90478333034281
 30
0.0
 40
3.1099241071919992
 50
147.05718365970461
 51
179.73965736375629
  0
LINE
  5
FC0F
  8
0
 10
320.89162558015443
 20
373.59596545397233
 30
0.0
 11
320.89162558015443
 21
377.59596424697821
 31
0.0
  0
ARC
  5
FC10
  8
0
 10
323.46471013203723
 20
375.91891212909411
 30
0.0
 40
3.071362550601612
 50
146.9050101630651
 51
213.09498983693479
  0
LINE
  5
FC11
  8
0
 10
319.39162626560778
 20
402.91891282944852
 30
0.0
 11
319.39162626560778
 21
376.91891322432929
 31
0.0
  0
LINE
  5
FC12
  8
0
 10
318.39162423904992
 20
377.91891338824212
 30
0.0
 11
318.39162423904992
 21
401.9189126655358
 31
0.0
  0
LINE
  5
FC13
  8
0
 10
330.39162620600308
 20
401.9189126655358
 30
0.0
 11
330.39162620600308
 21
377.91891338824212
 31
0.0
  0
LINE
  5
FC14
  8
0
 10
329.39162417944522
 20
376.91891322432929
 30
0.0
 11
329.39162417944522
 21
402.91891282944852
 31
0.0
  0
POLYLINE
  5
FC15
  8
0
 66
     1
 10
0.0
 20
0.0
 30
0.0
 70
   128
  0
VERTEX
  5
10C63
  8
0
 10
324.3916252225265
 20
402.43621765225112
 30
0.0
  0
VERTEX
  5
10C64
  8
0
 10
323.53610485490412
 20
402.39271883441978
 30
0.0
  0
VERTEX
  5
10C65
  8
0
 10
322.71561339195819
 20
402.26400306968861
 30
0.0
  0
VERTEX
  5
10C66
  8
0
 10
321.96373432572932
 20
402.05533978118473
 30
0.0
  0
VERTEX
  5
10C67
  8
0
 10
321.31125718053431
 20
401.77527245654642
 30
0.0
  0
VERTEX
  5
10C68
  8
0
 10
320.78488856252278
 20
401.43526614232832
 30
0.0
  0
VERTEX
  5
10C69
  8
0
 10
320.4061792760715
 20
401.04924131705337
 30
0.0
  0
VERTEX
  5
10C6A
  8
0
 10
320.22815629717678
 20
400.72678424366762
 30
0.0
  0
SEQEND
  5
10C6B
  8
0
  0
ARC
  5
FC16
  8
0
 10
324.915852968031
 20
397.79088805055432
 30
0.0
 40
4.674815700919023
 50
38.885628108685673
 51
96.438616862995715
  0
POLYLINE
  5
FC17
  8
0
 66
     1
 10
0.0
 20
0.0
 30
0.0
 70
   128
  0
VERTEX
  5
10C6C
  8
0
 10
324.3916252225265
 20
401.76121740191161
 30
0.0
  0
VERTEX
  5
10C6D
  8
0
 10
323.67042392190552
 20
401.7156631551581
 30
0.0
  0
VERTEX
  5
10C6E
  8
0
 10
322.99454077776522
 20
401.58186236916953
 30
0.0
  0
VERTEX
  5
10C6F
  8
0
 10
322.40644037421788
 20
401.3682220928269
 30
0.0
  0
VERTEX
  5
10C70
  8
0
 10
321.94307386573411
 20
401.08816640972071
 30
0.0
  0
VERTEX
  5
10C71
  8
0
 10
321.63356184657658
 20
400.7592921942371
 30
0.0
  0
VERTEX
  5
10C72
  8
0
 10
321.49734660681338
 20
400.40226363166153
 30
0.0
  0
VERTEX
  5
10C73
  8
0
 10
321.54299258884038
 20
400.0395148858326
 30
0.0
  0
VERTEX
  5
10C74
  8
0
 10
321.76762759383769
 20
399.69383774845778
 30
0.0
  0
VERTEX
  5
10C75
  8
0
 10
322.15713649686433
 20
399.38695299028342
 30
0.0
  0
VERTEX
  5
10C76
  8
0
 10
322.68704786594958
 20
399.1381427138943
 30
0.0
  0
VERTEX
  5
10C77
  8
0
 10
323.32406505640603
 20
398.96304196267312
 30
0.0
  0
VERTEX
  5
10C78
  8
0
 10
324.02815982397652
 20
398.87265151887118
 30
0.0
  0
VERTEX
  5
10C79
  8
0
 10
324.75509062107648
 20
398.87265151887118
 30
0.0
  0
VERTEX
  5
10C7A
  8
0
 10
325.45918538864697
 20
398.96304196267312
 30
0.0
  0
VERTEX
  5
10C7B
  8
0
 10
326.09620257910342
 20
399.1381427138943
 30
0.0
  0
VERTEX
  5
10C7C
  8
0
 10
326.62611394818867
 20
399.38695299028342
 30
0.0
  0
VERTEX
  5
10C7D
  8
0
 10
327.01562285121531
 20
399.69383774845778
 30
0.0
  0
VERTEX
  5
10C7E
  8
0
 10
327.24025785621262
 20
400.0395148858326
 30
0.0
  0
VERTEX
  5
10C7F
  8
0
 10
327.28590383823962
 20
400.40226363166153
 30
0.0
  0
VERTEX
  5
10C80
  8
0
 10
327.14968859847642
 20
400.7592921942371
 30
0.0
  0
VERTEX
  5
10C81
  8
0
 10
326.84017657931901
 20
401.08816640972071
 30
0.0
  0
VERTEX
  5
10C82
  8
0
 10
326.37681007083512
 20
401.3682220928269
 30
0.0
  0
VERTEX
  5
10C83
  8
0
 10
325.78870966728778
 20
401.58186236916953
 30
0.0
  0
VERTEX
  5
10C84
  8
0
 10
325.11282652314748
 20
401.7156631551581
 30
0.0
  0
VERTEX
  5
10C85
  8
0
 10
324.3916252225265
 20
401.76121740191161
 30
0.0
  0
SEQEND
  5
10C86
  8
0
  0
POLYLINE
  5
FC18
  8
0
 66
     1
 10
0.0
 20
0.0
 30
0.0
 70
   128
  0
VERTEX
  5
10C87
  8
0
 10
324.3916252225265
 20
400.66839743926101
 30
0.0
  0
VERTEX
  5
10C88
  8
0
 10
323.79998579319567
 20
400.6258648686009
 30
0.0
  0
VERTEX
  5
10C89
  8
0
 10
323.25627967413521
 20
400.50171351580792
 30
0.0
  0
VERTEX
  5
10C8A
  8
0
 10
322.80455097254372
 20
400.3060011990267
 30
0.0
  0
VERTEX
  5
10C8B
  8
0
 10
322.48139694031329
 20
400.05458275376731
 30
0.0
  0
VERTEX
  5
10C8C
  8
0
 10
322.31299891766162
 20
399.76782760172068
 30
0.0
  0
VERTEX
  5
10C8D
  8
0
 10
322.31299891766162
 20
399.46896711884921
 30
0.0
  0
VERTEX
  5
10C8E
  8
0
 10
322.43033438619233
 20
399.2431195318598
 30
0.0
  0
SEQEND
  5
10C8F
  8
0
  0
POLYLINE
  5
FC19
  8
0
 66
     1
 10
0.0
 20
0.0
 30
0.0
 70
   128
  0
VERTEX
  5
10C90
  8
0
 10
326.35291605886073
 20
399.2431195318598
 30
0.0
  0
VERTEX
  5
10C91
  8
0
 10
326.47025152739138
 20
399.46896711884921
 30
0.0
  0
VERTEX
  5
10C92
  8
0
 10
326.47025152739138
 20
399.76782760172068
 30
0.0
  0
VERTEX
  5
10C93
  8
0
 10
326.30185350473971
 20
400.05458275376731
 30
0.0
  0
VERTEX
  5
10C94
  8
0
 10
325.97869947250928
 20
400.3060011990267
 30
0.0
  0
VERTEX
  5
10C95
  8
0
 10
325.5269707709179
 20
400.50171351580792
 30
0.0
  0
VERTEX
  5
10C96
  8
0
 10
324.98326465185733
 20
400.6258648686009
 30
0.0
  0
VERTEX
  5
10C97
  8
0
 10
324.3916252225265
 20
400.66839743926101
 30
0.0
  0
SEQEND
  5
10C98
  8
0
  0
POLYLINE
  5
FC1A
  8
0
 66
     1
 10
0.0
 20
0.0
 30
0.0
 70
   128
  0
VERTEX
  5
10C99
  8
0
 10
320.49515410956002
 20
346.27967456876218
 30
0.0
  0
VERTEX
  5
10C9A
  8
0
 10
319.7684542804584
 20
346.9076542049545
 30
0.0
  0
VERTEX
  5
10C9B
  8
0
 10
319.17475476559252
 20
347.63296077548449
 30
0.0
  0
VERTEX
  5
10C9C
  8
0
 10
318.73113229569049
 20
348.43472520410012
 30
0.0
  0
VERTEX
  5
10C9D
  8
0
 10
318.45035344060511
 20
349.28988794385378
 30
0.0
  0
VERTEX
  5
10C9E
  8
0
 10
318.34049462970353
 20
350.17384345232432
 30
0.0
  0
VERTEX
  5
10C9F
  8
0
 10
318.40471490915871
 20
351.06116289793442
 30
0.0
  0
VERTEX
  5
10CA0
  8
0
 10
318.64117026027287
 20
351.92632059155892
 30
0.0
  0
VERTEX
  5
10CA1
  8
0
 10
319.0430508523807
 20
352.74442414342349
 30
0.0
  0
VERTEX
  5
10CA2
  8
0
 10
319.5988045602665
 20
353.4919446200031
 30
0.0
  0
VERTEX
  5
10CA3
  8
0
 10
320.29243498738862
 20
354.14737219511449
 30
0.0
  0
VERTEX
  5
10CA4
  8
0
 10
321.10399692948909
 20
354.69184944926678
 30
0.0
  0
VERTEX
  5
10CA5
  8
0
 10
322.01013281639672
 20
355.10971898733561
 30
0.0
  0
VERTEX
  5
10CA6
  8
0
 10
322.98478424247361
 20
355.38895557223742
 30
0.0
  0
VERTEX
  5
10CA7
  8
0
 10
323.99990349706258
 20
355.52152747808879
 30
0.0
  0
VERTEX
  5
10CA8
  8
0
 10
325.02629548009492
 20
355.50362000762408
 30
0.0
  0
VERTEX
  5
10CA9
  8
0
 10
326.03442609008403
 20
355.33574725090449
 30
0.0
  0
VERTEX
  5
10CAA
  8
0
 10
326.9953013926372
 20
355.02274090944712
 30
0.0
  0
VERTEX
  5
10CAB
  8
0
 10
327.88126855786891
 20
354.57360500990342
 30
0.0
  0
VERTEX
  5
10CAC
  8
0
 10
328.66684660013772
 20
354.00125885902833
 30
0.0
  0
VERTEX
  5
10CAD
  8
0
 10
329.32943418320269
 20
353.32217196523129
 30
0.0
  0
VERTEX
  5
10CAE
  8
0
 10
329.84997272189707
 20
352.55587602554738
 30
0.0
  0
VERTEX
  5
10CAF
  8
0
 10
330.21347909864039
 20
351.72441358267253
 30
0.0
  0
VERTEX
  5
10CB0
  8
0
 10
330.40950759943581
 20
350.85171217619359
 30
0.0
  0
VERTEX
  5
10CB1
  8
0
 10
330.4324069589004
 20
349.96287281214182
 30
0.0
  0
VERTEX
  5
10CB2
  8
0
 10
330.2815289765224
 20
349.08346588312571
 30
0.0
  0
VERTEX
  5
10CB3
  8
0
 10
329.96120616491891
 20
348.2387935608524
 30
0.0
  0
VERTEX
  5
10CB4
  8
0
 10
329.48065489228821
 20
347.45315218864857
 30
0.0
  0
VERTEX
  5
10CB5
  8
0
 10
328.85370343621821
 20
346.749143102755
 30
0.0
  0
VERTEX
  5
10CB6
  8
0
 10
328.09838965233422
 20
346.1470207065243
 30
0.0
  0
VERTEX
  5
10CB7
  8
0
 10
327.2364357083664
 20
345.66410387455409
 30
0.0
  0
VERTEX
  5
10CB8
  8
0
 10
326.29264086183161
 20
345.31429166494792
 30
0.0
  0
VERTEX
  5
10CB9
  8
0
 10
325.29415875371552
 20
345.10764236151158
 30
0.0
  0
VERTEX
  5
10CBA
  8
0
 10
324.26971137221898
 20
345.05010152756159
 30
0.0
  0
VERTEX
  5
10CBB
  8
0
 10
323.24877321418381
 20
345.1433306425709
 30
0.0
  0
VERTEX
  5
10CBC
  8
0
 10
322.2607107430324
 20
345.38464004694413
 30
0.0
  0
VERTEX
  5
10CBD
  8
0
 10
321.3339516490326
 20
345.76708952485512
 30
0.0
  0
VERTEX
  5
10CBE
  8
0
 10
320.49515410956002
 20
346.27967456876218
 30
0.0
  0
SEQEND
  5
10CBF
  8
0
  0
POLYLINE
  5
FC1B
  8
0
 66
     1
 10
0.0
 20
0.0
 30
0.0
 70
   128
  0
VERTEX
  5
10CC0
  8
0
 10
317.39408462937922
 20
351.0579218953747
 30
0.0
  0
VERTEX
  5
10CC1
  8
0
 10
317.40930616553868
 20
351.32779310046618
 30
0.0
  0
VERTEX
  5
10CC2
  8
0
 10
317.57304757531728
 20
352.26842890082781
 30
0.0
  0
VERTEX
  5
10CC3
  8
0
 10
317.90468781884761
 20
353.17530239521449
 30
0.0
  0
VERTEX
  5
10CC4
  8
0
 10
318.39605733450497
 20
354.02608046828692
 30
0.0
  0
VERTEX
  5
10CC5
  8
0
 10
319.0350563794002
 20
354.79981581269692
 30
0.0
  0
VERTEX
  5
10CC6
  8
0
 10
319.80595305260272
 20
355.47745729385798
 30
0.0
  0
VERTEX
  5
10CC7
  8
0
 10
320.68976327475161
 20
356.04231561123322
 30
0.0
  0
VERTEX
  5
10CC8
  8
0
 10
321.66472762521357
 20
356.4804842561382
 30
0.0
  0
VERTEX
  5
10CC9
  8
0
 10
322.70683660801501
 20
356.78117478786891
 30
0.0
  0
VERTEX
  5
10CCA
  8
0
 10
323.79042669828982
 20
356.93698505460208
 30
0.0
  0
VERTEX
  5
10CCB
  8
0
 10
324.88882481750102
 20
356.94407055674969
 30
0.0
  0
VERTEX
  5
10CCC
  8
0
 10
325.97497790750123
 20
356.8022673815388
 30
0.0
  0
VERTEX
  5
10CCD
  8
0
 10
327.02214583452792
 20
356.51505867539828
 30
0.0
  0
VERTEX
  5
10CCE
  8
0
 10
328.00454213913531
 20
356.08951876460497
 30
0.0
  0
VERTEX
  5
10CCF
  8
0
 10
328.89797478612508
 20
355.5361306160587
 30
0.0
  0
VERTEX
  5
10CD0
  8
0
 10
329.68044593628503
 20
354.8685138910908
 30
0.0
  0
VERTEX
  5
10CD1
  8
0
 10
330.33268838819117
 20
354.10311202107852
 30
0.0
  0
VERTEX
  5
10CD2
  8
0
 10
330.83864241536708
 20
353.25876752435153
 30
0.0
  0
VERTEX
  5
10CD3
  8
0
 10
331.18585064705462
 20
352.35627497135579
 30
0.0
  0
VERTEX
  5
10CD4
  8
0
 10
331.3657598167286
 20
351.4178557187218
 30
0.0
  0
VERTEX
  5
10CD5
  8
0
 10
331.391427066885
 20
350.85161159335559
 30
0.0
  0
SEQEND
  5
10CD6
  8
0
  0
ARC
  5
FC1C
  8
0
 10
324.37040498207062
 20
362.57026727064061
 30
0.0
 40
5.8564777789702038
 50
20.649879928589272
 51
153.93148967221899
  0
POLYLINE
  5
FC1D
  8
0
 10
317.41042687820374
 20
351.33423119365233
 30
0.0
 66
     1
 70
     8
  0
VERTEX
  8
0
  5
10FD9
 10
317.410
 20
351.334
 30
0.000000
  70
    32
  0
VERTEX
  8
0
  5
10FDA
 10
317.400
 20
351.174
 30
0.000000
  70
    32
  0
VERTEX
  8
0
  5
10FDB
 10
317.393
 20
351.014
 30
0.000000
  70
    32
  0
VERTEX
  8
0
  5
10FDC
 10
317.392
 20
350.854
 30
0.000000
  70
    32
  0
VERTEX
  8
0
  5
10FDD
 10
317.395
 20
350.693
 30
0.000000
  70
    32
  0
VERTEX
  8
0
  5
10FDE
 10
317.402
 20
350.533
 30
0.000000
  70
    32
  0
VERTEX
  8
0
  5
10FDF
 10
317.415
 20
350.373
 30
0.000000
  70
    32
  0
VERTEX
  8
0
  5
10FE0
 10
317.432
 20
350.214
 30
0.000000
  70
    32
  0
VERTEX
  8
0
  5
10FE1
 10
317.454
 20
350.054
 30
0.000000
  70
    32
  0
VERTEX
  8
0
  5
10FE2
 10
317.480
 20
349.896
 30
0.000000
  70
    32
  0
VERTEX
  8
0
  5
10FE3
 10
317.511
 20
349.738
 30
0.000000
  70
    32
  0
VERTEX
  8
0
  5
10FE4
 10
317.547
 20
349.581
 30
0.000000
  70
    32
  0
VERTEX
  8
0
  5
10FE5
 10
317.587
 20
349.424
 30
0.000000
  70
    32
  0
VERTEX
  8
0
  5
10FE6
 10
317.631
 20
349.269
 30
0.000000
  70
    32
  0
VERTEX
  8
0
  5
10FE7
 10
317.680
 20
349.114
 30
0.000000
  70
    32
  0
VERTEX
  8
0
  5
10FE8
 10
317.734
 20
348.961
 30
0.000000
  70
    32
  0
VERTEX
  8
0
  5
10FE9
 10
317.792
 20
348.809
 30
0.000000
  70
    32
  0
VERTEX
  8
0
  5
10FEA
 10
317.855
 20
348.659
 30
0.000000
  70
    32
  0
VERTEX
  8
0
  5
10FEB
 10
317.921
 20
348.510
 30
0.000000
  70
    32
  0
VERTEX
  8
0
  5
10FEC
 10
317.993
 20
348.363
 30
0.000000
  70
    32
  0
VERTEX
  8
0
  5
10FED
 10
318.068
 20
348.217
 30
0.000000
  70
    32
  0
VERTEX
  8
0
  5
10FEE
 10
318.148
 20
348.073
 30
0.000000
  70
    32
  0
VERTEX
  8
0
  5
10FEF
 10
318.232
 20
347.931
 30
0.000000
  70
    32
  0
VERTEX
  8
0
  5
10FF0
 10
318.319
 20
347.790
 30
0.000000
  70
    32
  0
VERTEX
  8
0
  5
10FF1
 10
318.411
 20
347.652
 30
0.000000
  70
    32
  0
VERTEX
  8
0
  5
10FF2
 10
318.507
 20
347.516
 30
0.000000
  70
    32
  0
VERTEX
  8
0
  5
10FF3
 10
318.607
 20
347.383
 30
0.000000
  70
    32
  0
VERTEX
  8
0
  5
10FF4
 10
318.711
 20
347.251
 30
0.000000
  70
    32
  0
VERTEX
  8
0
  5
10FF5
 10
318.819
 20
347.122
 30
0.000000
  70
    32
  0
VERTEX
  8
0
  5
10FF6
 10
318.930
 20
346.996
 30
0.000000
  70
    32
  0
VERTEX
  8
0
  5
10FF7
 10
319.045
 20
346.872
 30
0.000000
  70
    32
  0
VERTEX
  8
0
  5
10FF8
 10
319.163
 20
346.751
 30
0.000000
  70
    32
  0
VERTEX
  8
0
  5
10FF9
 10
319.285
 20
346.632
 30
0.000000
  70
    32
  0
VERTEX
  8
0
  5
10FFA
 10
319.411
 20
346.517
 30
0.000000
  70
    32
  0
VERTEX
  8
0
  5
10FFB
 10
319.539
 20
346.404
 30
0.000000
  70
    32
  0
VERTEX
  8
0
  5
10FFC
 10
319.671
 20
346.294
 30
0.000000
  70
    32
  0
VERTEX
  8
0
  5
10FFD
 10
319.806
 20
346.188
 30
0.000000
  70
    32
  0
VERTEX
  8
0
  5
10FFE
 10
319.944
 20
346.084
 30
0.000000
  70
    32
  0
VERTEX
  8
0
  5
10FFF
 10
320.086
 20
345.984
 30
0.000000
  70
    32
  0
VERTEX
  8
0
  5
11000
 10
320.230
 20
345.887
 30
0.000000
  70
    32
  0
VERTEX
  8
0
  5
11001
 10
320.376
 20
345.793
 30
0.000000
  70
    32
  0
VERTEX
  8
0
  5
11002
 10
320.526
 20
345.703
 30
0.000000
  70
    32
  0
VERTEX
  8
0
  5
11003
 10
320.678
 20
345.616
 30
0.000000
  70
    32
  0
VERTEX
  8
0
  5
11004
 10
320.832
 20
345.532
 30
0.000000
  70
    32
  0
VERTEX
  8
0
  5
11005
 10
320.989
 20
345.452
 30
0.000000
  70
    32
  0
VERTEX
  8
0
  5
11006
 10
321.148
 20
345.376
 30
0.000000
  70
    32
  0
VERTEX
  8
0
  5
11007
 10
321.310
 20
345.304
 30
0.000000
  70
    32
  0
VERTEX
  8
0
  5
11008
 10
321.473
 20
345.235
 30
0.000000
  70
    32
  0
VERTEX
  8
0
  5
11009
 10
321.638
 20
345.170
 30
0.000000
  70
    32
  0
VERTEX
  8
0
  5
1100A
 10
321.805
 20
345.108
 30
0.000000
  70
    32
  0
VERTEX
  8
0
  5
1100B
 10
321.974
 20
345.051
 30
0.000000
  70
    32
  0
VERTEX
  8
0
  5
1100C
 10
322.145
 20
344.998
 30
0.000000
  70
    32
  0
VERTEX
  8
0
  5
1100D
 10
322.317
 20
344.948
 30
0.000000
  70
    32
  0
VERTEX
  8
0
  5
1100E
 10
322.490
 20
344.902
 30
0.000000
  70
    32
  0
VERTEX
  8
0
  5
1100F
 10
322.665
 20
344.861
 30
0.000000
  70
    32
  0
VERTEX
  8
0
  5
11010
 10
322.840
 20
344.823
 30
0.000000
  70
    32
  0
VERTEX
  8
0
  5
11011
 10
323.017
 20
344.789
 30
0.000000
  70
    32
  0
VERTEX
  8
0
  5
11012
 10
323.195
 20
344.760
 30
0.000000
  70
    32
  0
VERTEX
  8
0
  5
11013
 10
323.374
 20
344.734
 30
0.000000
  70
    32
  0
VERTEX
  8
0
  5
11014
 10
323.553
 20
344.713
 30
0.000000
  70
    32
  0
VERTEX
  8
0
  5
11015
 10
323.733
 20
344.696
 30
0.000000
  70
    32
  0
VERTEX
  8
0
  5
11016
 10
323.913
 20
344.682
 30
0.000000
  70
    32
  0
VERTEX
  8
0
  5
11017
 10
324.093
 20
344.673
 30
0.000000
  70
    32
  0
VERTEX
  8
0
  5
11018
 10
324.274
 20
344.668
 30
0.000000
  70
    32
  0
VERTEX
  8
0
  5
11019
 10
324.455
 20
344.668
 30
0.000000
  70
    32
  0
VERTEX
  8
0
  5
1101A
 10
324.636
 20
344.671
 30
0.000000
  70
    32
  0
VERTEX
  8
0
  5
1101B
 10
324.816
 20
344.679
 30
0.000000
  70
    32
  0
VERTEX
  8
0
  5
1101C
 10
324.997
 20
344.690
 30
0.000000
  70
    32
  0
VERTEX
  8
0
  5
1101D
 10
325.176
 20
344.706
 30
0.000000
  70
    32
  0
VERTEX
  8
0
  5
1101E
 10
325.356
 20
344.726
 30
0.000000
  70
    32
  0
VERTEX
  8
0
  5
1101F
 10
325.535
 20
344.750
 30
0.000000
  70
    32
  0
VERTEX
  8
0
  5
11020
 10
325.713
 20
344.778
 30
0.000000
  70
    32
  0
VERTEX
  8
0
  5
11021
 10
325.890
 20
344.810
 30
0.000000
  70
    32
  0
VERTEX
  8
0
  5
11022
 10
326.066
 20
344.847
 30
0.000000
  70
    32
  0
VERTEX
  8
0
  5
11023
 10
326.241
 20
344.887
 30
0.000000
  70
    32
  0
VERTEX
  8
0
  5
11024
 10
326.415
 20
344.931
 30
0.000000
  70
    32
  0
VERTEX
  8
0
  5
11025
 10
326.587
 20
344.979
 30
0.000000
  70
    32
  0
VERTEX
  8
0
  5
11026
 10
326.758
 20
345.031
 30
0.000000
  70
    32
  0
VERTEX
  8
0
  5
11027
 10
326.927
 20
345.087
 30
0.000000
  70
    32
  0
VERTEX
  8
0
  5
11028
 10
327.095
 20
345.147
 30
0.000000
  70
    32
  0
VERTEX
  8
0
  5
11029
 10
327.261
 20
345.211
 30
0.000000
  70
    32
  0
VERTEX
  8
0
  5
1102A
 10
327.425
 20
345.278
 30
0.000000
  70
    32
  0
VERTEX
  8
0
  5
1102B
 10
327.587
 20
345.350
 30
0.000000
  70
    32
  0
VERTEX
  8
0
  5
1102C
 10
327.746
 20
345.425
 30
0.000000
  70
    32
  0
VERTEX
  8
0
  5
1102D
 10
327.904
 20
345.503
 30
0.000000
  70
    32
  0
VERTEX
  8
0
  5
1102E
 10
328.059
 20
345.585
 30
0.000000
  70
    32
  0
VERTEX
  8
0
  5
1102F
 10
328.212
 20
345.671
 30
0.000000
  70
    32
  0
VERTEX
  8
0
  5
11030
 10
328.362
 20
345.760
 30
0.000000
  70
    32
  0
VERTEX
  8
0
  5
11031
 10
328.510
 20
345.853
 30
0.000000
  70
    32
  0
VERTEX
  8
0
  5
11032
 10
328.655
 20
345.948
 30
0.000000
  70
    32
  0
VERTEX
  8
0
  5
11033
 10
328.797
 20
346.048
 30
0.000000
  70
    32
  0
VERTEX
  8
0
  5
11034
 10
328.936
 20
346.150
 30
0.000000
  70
    32
  0
VERTEX
  8
0
  5
11035
 10
329.072
 20
346.256
 30
0.000000
  70
    32
  0
VERTEX
  8
0
  5
11036
 10
329.205
 20
346.364
 30
0.000000
  70
    32
  0
VERTEX
  8
0
  5
11037
 10
329.334
 20
346.476
 30
0.000000
  70
    32
  0
VERTEX
  8
0
  5
11038
 10
329.461
 20
346.590
 30
0.000000
  70
    32
  0
VERTEX
  8
0
  5
11039
 10
329.584
 20
346.708
 30
0.000000
  70
    32
  0
VERTEX
  8
0
  5
1103A
 10
329.703
 20
346.828
 30
0.000000
  70
    32
  0
VERTEX
  8
0
  5
1103B
 10
329.819
 20
346.951
 30
0.000000
  70
    32
  0
VERTEX
  8
0
  5
1103C
 10
329.931
 20
347.077
 30
0.000000
  70
    32
  0
VERTEX
  8
0
  5
1103D
 10
330.040
 20
347.205
 30
0.000000
  70
    32
  0
VERTEX
  8
0
  5
1103E
 10
330.145
 20
347.335
 30
0.000000
  70
    32
  0
VERTEX
  8
0
  5
1103F
 10
330.246
 20
347.468
 30
0.000000
  70
    32
  0
VERTEX
  8
0
  5
11040
 10
330.343
 20
347.603
 30
0.000000
  70
    32
  0
VERTEX
  8
0
  5
11041
 10
330.436
 20
347.740
 30
0.000000
  70
    32
  0
VERTEX
  8
0
  5
11042
 10
330.526
 20
347.880
 30
0.000000
  70
    32
  0
VERTEX
  8
0
  5
11043
 10
330.611
 20
348.021
 30
0.000000
  70
    32
  0
VERTEX
  8
0
  5
11044
 10
330.692
 20
348.165
 30
0.000000
  70
    32
  0
VERTEX
  8
0
  5
11045
 10
330.768
 20
348.310
 30
0.000000
  70
    32
  0
VERTEX
  8
0
  5
11046
 10
330.841
 20
348.457
 30
0.000000
  70
    32
  0
VERTEX
  8
0
  5
11047
 10
330.909
 20
348.605
 30
0.000000
  70
    32
  0
VERTEX
  8
0
  5
11048
 10
330.973
 20
348.755
 30
0.000000
  70
    32
  0
VERTEX
  8
0
  5
11049
 10
331.032
 20
348.906
 30
0.000000
  70
    32
  0
VERTEX
  8
0
  5
1104A
 10
331.087
 20
349.059
 30
0.000000
  70
    32
  0
VERTEX
  8
0
  5
1104B
 10
331.138
 20
349.213
 30
0.000000
  70
    32
  0
VERTEX
  8
0
  5
1104C
 10
331.184
 20
349.368
 30
0.000000
  70
    32
  0
VERTEX
  8
0
  5
1104D
 10
331.225
 20
349.524
 30
0.000000
  70
    32
  0
VERTEX
  8
0
  5
1104E
 10
331.262
 20
349.681
 30
0.000000
  70
    32
  0
VERTEX
  8
0
  5
1104F
 10
331.294
 20
349.839
 30
0.000000
  70
    32
  0
VERTEX
  8
0
  5
11050
 10
331.322
 20
349.997
 30
0.000000
  70
    32
  0
VERTEX
  8
0
  5
11051
 10
331.345
 20
350.156
 30
0.000000
  70
    32
  0
VERTEX
  8
0
  5
11052
 10
331.364
 20
350.316
 30
0.000000
  70
    32
  0
VERTEX
  8
0
  5
11053
 10
331.377
 20
350.475
 30
0.000000
  70
    32
  0
VERTEX
  8
0
  5
11054
 10
331.386
 20
350.636
 30
0.000000
  70
    32
  0
VERTEX
  8
0
  5
11055
 10
331.391
 20
350.796
 30
0.000000
  70
    32
  0
VERTEX
  8
0
  5
11056
 10
331.391
 20
350.956
 30
0.000000
  70
    32
  0
VERTEX
  8
0
  5
11057
 10
331.386
 20
351.116
 30
0.000000
  70
    32
  0
VERTEX
  8
0
  5
11058
 10
331.376
 20
351.277
 30
0.000000
  70
    32
  0
VERTEX
  8
0
  5
11059
 10
331.362
 20
351.436
 30
0.000000
  70
    32
  0
SEQEND
  8
0
  5
1105A
  0
POLYLINE
  5
FC1E
  8
0
 66
     1
 10
0.0
 20
0.0
 30
0.0
 70
     2
  0
VERTEX
  5
FC1F
  8
0
 10
328.39162587817759
 20
382.34007487594067
 30
0.0
 42
0.0070977129537174
  0
VERTEX
  5
FC20
  8
0
 10
328.46983235494918
 20
382.55097636835762
 30
0.0
 42
0.0118990934050461
 70
     1
  0
VERTEX
  5
FC21
  8
0
 10
328.51167372354212
 20
382.67847014355578
 30
0.0
 42
0.0009225172009342
  0
VERTEX
  5
FC22
  8
0
 10
328.58245002156173
 20
382.91438275251949
 30
0.0
 42
0.0052527296724394
 70
     1
  0
VERTEX
  5
FC23
  8
0
 10
328.59436787373852
 20
382.95596666451689
 30
0.0
 42
0.0188313063762996
  0
VERTEX
  5
FC24
  8
0
 10
328.6333726324533
 20
383.12183956515491
 30
0.0
 42
0.0300998476857844
 70
     1
  0
VERTEX
  5
FC25
  8
0
 10
328.64752909887972
 20
383.2275599510117
 30
0.0
 42
0.0182348815747521
  0
VERTEX
  5
FC26
  8
0
 10
328.65165025789338
 20
383.34052445441012
 30
0.0
 42
0.0116836560469976
 70
     1
  0
VERTEX
  5
FC27
  8
0
 10
328.64752909887972
 20
383.51686465248417
 30
0.0
 42
0.0022823573648718
  0
VERTEX
  5
FC28
  8
0
 10
328.64214174631479
 20
383.62179485956682
 30
0.0
 42
0.0033206119561724
 70
     1
  0
VERTEX
  5
FC29
  8
0
 10
328.6376308893868
 20
383.69387097281083
 30
0.0
 42
0.0120045507565987
  0
VERTEX
  5
FC2A
  8
0
 10
328.62419833710078
 20
383.83765360372399
 30
0.0
 42
0.0127416123937932
 70
     1
  0
VERTEX
  5
FC2B
  8
0
 10
328.60485654572813
 20
383.97232940092482
 30
0.0
 42
0.0192421756103008
  0
VERTEX
  5
FC2C
  8
0
 10
328.5792088250198
 20
384.0946978674865
 30
0.0
 42
0.0106277668392467
 70
     1
  0
VERTEX
  5
FC2D
  8
0
 10
328.51964374222553
 20
384.31302938350927
 30
0.0
 42
0.0078429449866535
  0
VERTEX
  5
FC2E
  8
0
 10
328.46615649310121
 20
384.4839524448135
 30
0.0
 42
0.007967582885702
 70
     1
  0
VERTEX
  5
FC2F
  8
0
 10
328.40821293382669
 20
384.6504534047229
 30
0.0
 42
0.0153324454267482
  0
VERTEX
  5
FC30
  8
0
 10
328.32835485963687
 20
384.84952712582623
 30
0.0
 42
0.0124582109618635
 70
     1
  0
VERTEX
  5
FC31
  8
0
 10
328.21662377890112
 20
385.08867228755531
 30
0.0
 42
0.0139628807844287
  0
VERTEX
  5
FC32
  8
0
 10
328.13137372287929
 20
385.24853337943199
 30
0.0
 42
0.0100566583347289
 70
     1
  0
VERTEX
  5
FC33
  8
0
 10
328.00250149706881
 20
385.46452809383908
 30
0.0
 42
0.0188363670789937
  0
VERTEX
  5
FC34
  8
0
 10
327.82546474732629
 20
385.7256879364399
 30
0.0
 42
0.0239495099101274
 70
     1
  0
VERTEX
  5
FC35
  8
0
 10
327.66914744173249
 20
385.91848322998658
 30
0.0
 42
0.014109676561057
  0
VERTEX
  5
FC36
  8
0
 10
327.50609334269802
 20
386.0909348222749
 30
0.0
 42
0.0093598909546484
 70
     1
  0
VERTEX
  5
FC37
  8
0
 10
327.24839758669168
 20
386.33905231466952
 30
0.0
 42
0.0067475795192343
  0
VERTEX
  5
FC38
  8
0
 10
327.0482848081042
 20
386.51967416781008
 30
0.0
 42
0.0128850319044092
 70
     1
  0
VERTEX
  5
FC39
  8
0
 10
326.93984540627929
 20
386.61008591497398
 30
0.0
 42
0.0268794913240872
  0
VERTEX
  5
FC3A
  8
0
 10
326.8037976383107
 20
386.70628455997212
 30
0.0
 42
0.0104024826605141
 70
     1
  0
VERTEX
  5
FC3B
  8
0
 10
326.43494607024007
 20
386.92784732164728
 30
0.0
 42
0.0127083366548927
  0
VERTEX
  5
FC3C
  8
0
 10
326.12579561249407
 20
387.0946163365029
 30
0.0
 42
0.0208998506823847
 70
     1
  0
VERTEX
  5
FC3D
  8
0
 10
325.93137466230661
 20
387.18319259283658
 30
0.0
 42
0.0305704302382593
  0
VERTEX
  5
FC3E
  8
0
 10
325.72831259410532
 20
387.25151837194147
 30
0.0
 42
0.0165937379920226
 70
     1
  0
VERTEX
  5
FC3F
  8
0
 10
325.34427608654551
 20
387.34154784155407
 30
0.0
 42
0.0147862034855792
  0
VERTEX
  5
FC40
  8
0
 10
324.98138547612831
 20
387.40291309841672
 30
0.0
 42
0.0175725131612294
 70
     1
  0
VERTEX
  5
FC41
  8
0
 10
324.67330733569861
 20
387.4346970817287
 30
0.0
 42
0.0234949819314384
  0
VERTEX
  5
FC42
  8
0
 10
324.32014587599519
 20
387.44200225574338
 30
0.0
 42
0.023310577390597
 70
     1
  0
VERTEX
  5
FC43
  8
0
 10
323.96506349593528
 20
387.41606654906218
 30
0.0
 42
0.0168449830889748
  0
VERTEX
  5
FC44
  8
0
 10
323.61879951339068
 20
387.36259592051329
 30
0.0
 42
0.0167735486742898
 70
     1
  0
VERTEX
  5
FC45
  8
0
 10
323.27545475057832
 20
387.2856579551335
 30
0.0
 42
0.0131426167291601
  0
VERTEX
  5
FC46
  8
0
 10
322.9868890218745
 20
387.20259533321251
 30
0.0
 42
0.0137792692073695
 70
     1
  0
VERTEX
  5
FC47
  8
0
 10
322.71631371653029
 20
387.10867217374971
 30
0.0
 42
0.0238645569252171
  0
VERTEX
  5
FC48
  8
0
 10
322.40839294735088
 20
386.97506449185272
 30
0.0
 42
0.025081284389838
 70
     1
  0
VERTEX
  5
FC49
  8
0
 10
322.12921759082161
 20
386.81990833110331
 30
0.0
 42
0.0214730132867814
  0
VERTEX
  5
FC4A
  8
0
 10
321.85275214518771
 20
386.63062575093431
 30
0.0
 42
0.0226392682382272
 70
     1
  0
VERTEX
  5
FC4B
  8
0
 10
321.6073516456895
 20
386.42868083773851
 30
0.0
 42
0.0096733745079558
  0
VERTEX
  5
FC4C
  8
0
 10
321.41127724294847
 20
386.24485126565008
 30
0.0
 42
0.010323997548593
 70
     1
  0
VERTEX
  5
FC4D
  8
0
 10
321.23459095632421
 20
386.06539657600553
 30
0.0
 42
0.0145270092291752
  0
VERTEX
  5
FC4E
  8
0
 10
321.04697596058168
 20
385.8548744517102
 30
0.0
 42
0.0125421362240613
 70
     1
  0
VERTEX
  5
FC4F
  8
0
 10
320.84319272250059
 20
385.59964866355381
 30
0.0
 42
0.0263972785564253
  0
VERTEX
  5
FC50
  8
0
 10
320.67271049127771
 20
385.34826369883922
 30
0.0
 42
0.0244303477033641
 70
     1
  0
VERTEX
  5
FC51
  8
0
 10
320.51702711930602
 20
385.05938033201528
 30
0.0
 42
0.0261786670471269
  0
VERTEX
  5
FC52
  8
0
 10
320.38590133650268
 20
384.74316967574123
 30
0.0
 42
0.0203945291531759
 70
     1
  0
VERTEX
  5
FC53
  8
0
 10
320.25609659679191
 20
384.3234973980052
 30
0.0
 42
0.0132865323556857
  0
VERTEX
  5
FC54
  8
0
 10
320.17225654369457
 20
383.96959332371989
 30
0.0
 42
0.0248792878737209
 70
     1
  0
VERTEX
  5
FC55
  8
0
 10
320.14200993218259
 20
383.7776458971918
 30
0.0
 42
0.0212618379444194
  0
VERTEX
  5
FC56
  8
0
 10
320.12809418115239
 20
383.56060050908309
 30
0.0
 42
0.0220837806140212
 70
     1
  0
VERTEX
  5
FC57
  8
0
 10
320.13283693803902
 20
383.35125059907767
 30
0.0
 42
0.0155998462803326
  0
VERTEX
  5
FC58
  8
0
 10
320.15571557991478
 20
383.11856289202387
 30
0.0
 42
0.0297875708218897
 70
     1
  0
VERTEX
  5
FC59
  8
0
 10
320.17870680886062
 20
382.99821355820592
 30
0.0
 42
0.0092272106275018
  0
VERTEX
  5
FC5A
  8
0
 10
320.18868427158623
 20
382.96170467638962
 30
0.0
 42
0.001459372533901
 70
     1
  0
VERTEX
  5
FC5B
  8
0
 10
320.256682159185
 20
382.73228901991411
 30
0.0
 42
0.0135237274756913
  0
VERTEX
  5
FC5C
  8
0
 10
320.30600815367688
 20
382.5824963014465
 30
0.0
 42
0.0088405916689027
 70
     1
  0
VERTEX
  5
FC5D
  8
0
 10
320.39162456687541
 20
382.35698024331509
 30
0.0
  0
SEQEND
  5
FC5E
  8
0
  0
POLYLINE
  5
FC5F
  8
0
 66
     1
 10
0.0
 20
0.0
 30
0.0
 70
     2
  0
VERTEX
  5
FC60
  8
0
 10
320.22815629717678
 20
400.72678424366762
 30
0.0
 42
0.0136194405989041
  0
VERTEX
  5
FC61
  8
0
 10
320.33395430977998
 20
400.50626798288431
 30
0.0
 42
0.0233347530822382
 70
     1
  0
VERTEX
  5
FC62
  8
0
 10
320.40506326020881
 20
400.38242846753258
 30
0.0
 42
0.0036645982422697
  0
VERTEX
  5
FC63
  8
0
 10
320.57985586001769
 20
400.11283859554618
 30
0.0
 42
0.0199560034756597
 70
     1
  0
VERTEX
  5
FC64
  8
0
 10
320.61426871924601
 20
400.06488514200782
 30
0.0
 42
0.0202573009818774
  0
VERTEX
  5
FC65
  8
0
 10
320.72380441604128
 20
399.93559640260992
 30
0.0
 42
0.0155965373101569
 70
     1
  0
VERTEX
  5
FC66
  8
0
 10
320.87771158180908
 20
399.77832148282391
 30
0.0
 42
0.0111729479594784
  0
VERTEX
  5
FC67
  8
0
 10
321.04776997428831
 20
399.62220368921089
 30
0.0
 42
0.0134375759887161
 70
     1
  0
VERTEX
  5
FC68
  8
0
 10
321.19539184789818
 20
399.49950332206868
 30
0.0
 42
0.0130346543441323
  0
VERTEX
  5
FC69
  8
0
 10
321.37116874612963
 20
399.36848627313162
 30
0.0
 42
0.0108020478175793
 70
     1
  0
VERTEX
  5
FC6A
  8
0
 10
321.59055697462668
 20
399.2206851613135
 30
0.0
 42
0.0118805385192597
  0
VERTEX
  5
FC6B
  8
0
 10
321.84681752151658
 20
399.06445394237198
 30
0.0
 42
0.0347061697752847
 70
     1
  0
VERTEX
  5
FC6C
  8
0
 10
321.93923218443229
 20
399.01931616641031
 30
0.0
 42
0.0005328240968816
  0
VERTEX
  5
FC6D
  8
0
 10
322.09774590742933
 20
398.95528657224992
 30
0.0
 42
-0.0003456345337514
 70
     1
  0
VERTEX
  5
FC6E
  8
0
 10
322.34214479776421
 20
398.85667117259032
 30
0.0
 42
-0.000182905467254
  0
VERTEX
  5
FC6F
  8
0
 10
322.56050438396619
 20
398.76829416039811
 30
0.0
 42
0.0003730772728781
 70
     1
  0
VERTEX
  5
FC70
  8
0
 10
322.66757421622452
 20
398.725007008798
 30
0.0
 42
0.0188838054578403
  0
VERTEX
  5
FC71
  8
0
 10
322.74539766482172
 20
398.69697883738291
 30
0.0
 42
0.0056758509963407
 70
     1
  0
VERTEX
  5
FC72
  8
0
 10
323.00850027365891
 20
398.61657817660472
 30
0.0
 42
0.0088369603555272
  0
VERTEX
  5
FC73
  8
0
 10
323.23300854869291
 20
398.55503563884082
 30
0.0
 42
0.0143725829644842
 70
     1
  0
VERTEX
  5
FC74
  8
0
 10
323.37267212243893
 20
398.52363801389492
 30
0.0
 42
0.0140121239135177
  0
VERTEX
  5
FC75
  8
0
 10
323.52915354519928
 20
398.4976834738282
 30
0.0
 42
0.0092462579577726
 70
     1
  0
VERTEX
  5
FC76
  8
0
 10
323.7678372491676
 20
398.4694230159551
 30
0.0
 42
0.0040851709489603
  0
VERTEX
  5
FC77
  8
0
 10
323.92557140087092
 20
398.4549991837477
 30
0.0
 42
0.0044925130632868
 70
     1
  0
VERTEX
  5
FC78
  8
0
 10
324.06920798153669
 20
398.44434556836859
 30
0.0
 42
0.0120277271760086
  0
VERTEX
  5
FC79
  8
0
 10
324.25016941913941
 20
398.43692274991258
 30
0.0
 42
0.0079301374198608
 70
     1
  0
VERTEX
  5
FC7A
  8
0
 10
324.52484381535379
 20
398.43662567104661
 30
0.0
 42
0.0157721669417637
  0
VERTEX
  5
FC7B
  8
0
 10
324.78382706545631
 20
398.44863038634981
 30
0.0
 42
0.0125185242735574
 70
     1
  0
VERTEX
  5
FC7C
  8
0
 10
325.10871441589012
 20
398.4821789866574
 30
0.0
 42
0.0130602745914802
  0
VERTEX
  5
FC7D
  8
0
 10
325.37995925132759
 20
398.52429861779819
 30
0.0
 42
0.0145216887713291
 70
     1
  0
VERTEX
  5
FC7E
  8
0
 10
325.62145715078049
 20
398.57557334966242
 30
0.0
 42
0.0132795966466251
  0
VERTEX
  5
FC7F
  8
0
 10
325.85308090324588
 20
398.63838517755522
 30
0.0
 42
0.0093397098663152
 70
     1
  0
VERTEX
  5
FC80
  8
0
 10
326.17800891549967
 20
398.74248583885202
 30
0.0
 42
0.0116311721405212
  0
VERTEX
  5
FC81
  8
0
 10
326.49552228889388
 20
398.85910325868781
 30
0.0
 42
0.0180892753314759
 70
     1
  0
VERTEX
  5
FC82
  8
0
 10
326.69490298595451
 20
398.9460981652644
 30
0.0
 42
0.0181703169807502
  0
VERTEX
  5
FC83
  8
0
 10
326.89408366283618
 20
399.05079218267019
 30
0.0
 42
0.0139055336416933
 70
     1
  0
VERTEX
  5
FC84
  8
0
 10
327.14501346757578
 20
399.20397694820667
 30
0.0
 42
0.008657951477188
  0
VERTEX
  5
FC85
  8
0
 10
327.37139279363919
 20
399.35660397560832
 30
0.0
 42
0.0103347033931117
 70
     1
  0
VERTEX
  5
FC86
  8
0
 10
327.55605669413262
 20
399.49158210695401
 30
0.0
 42
0.0129688530058077
  0
VERTEX
  5
FC87
  8
0
 10
327.7579922549167
 20
399.65414455106878
 30
0.0
 42
0.0154818172660211
 70
     1
  0
VERTEX
  5
FC88
  8
0
 10
327.91914412799559
 20
399.79972982636218
 30
0.0
 42
0.0143714914790748
  0
VERTEX
  5
FC89
  8
0
 10
328.02747491086978
 20
399.91002759434741
 30
0.0
 42
0.0097273898970527
 70
     1
  0
VERTEX
  5
FC8A
  8
0
 10
328.1794720045454
 20
400.080486689098
 30
0.0
 42
0.0171952543482952
  0
VERTEX
  5
FC8B
  8
0
 10
328.309746848457
 20
400.24345579598321
 30
0.0
 42
0.0226046947599845
 70
     1
  0
VERTEX
  5
FC8C
  8
0
 10
328.3986953918627
 20
400.37494014385669
 30
0.0
 42
0.0327337001382882
  0
VERTEX
  5
FC8D
  8
0
 10
328.48238457345161
 20
400.53408372309872
 30
0.0
 42
0.0287440752919653
 70
     1
  0
VERTEX
  5
FC8E
  8
0
 10
328.55473250289469
 20
400.72558693936821
 30
0.0
 42
0.0085550986846809
  0
VERTEX
  5
FC8F
  8
0
 10
328.58969183904082
 20
400.84419425757818
 30
0.0
 42
0.0097928531030114
 70
     1
  0
VERTEX
  5
FC90
  8
0
 10
328.61641125921102
 20
400.9488634239018
 30
0.0
 42
0.0173834967476679
  0
VERTEX
  5
FC91
  8
0
 10
328.63654182520401
 20
401.050470635887
 30
0.0
 42
0.014492772433954
 70
     1
  0
VERTEX
  5
FC92
  8
0
 10
328.65287325324613
 20
401.17362368441673
 30
0.0
 42
0.053440815255957
  0
VERTEX
  5
FC93
  8
0
 10
328.6524484089025
 20
401.28194681776029
 30
0.0
 42
0.0344558654658859
 70
     1
  0
VERTEX
  5
FC94
  8
0
 10
328.62248798058891
 20
401.44697949997612
 30
0.0
 42
0.0492901370726372
  0
VERTEX
  5
FC95
  8
0
 10
328.56707976014923
 20
401.6002100677033
 30
0.0
 42
0.059561584771958
 70
     1
  0
VERTEX
  5
FC96
  8
0
 10
328.49486517127821
 20
401.71426203484168
 30
0.0
 42
0.0312345511280072
  0
VERTEX
  5
FC97
  8
0
 10
328.39296822400161
 20
401.82454709226931
 30
0.0
 42
0.0205127224381337
 70
     1
  0
VERTEX
  5
FC98
  8
0
 10
328.2213910542917
 20
401.97547012532658
 30
0.0
 42
0.013593184719541
  0
VERTEX
  5
FC99
  8
0
 10
328.01724751981283
 20
402.13170632354581
 30
0.0
 42
0.0365324853177983
 70
     1
  0
VERTEX
  5
FC9A
  8
0
 10
327.93576016301341
 20
402.182005889013
 30
0.0
 42
0.0273175028801743
  0
VERTEX
  5
FC9B
  8
0
 10
327.79938692583482
 20
402.24378630219019
 30
0.0
 42
0.0201632824378528
 70
     1
  0
VERTEX
  5
FC9C
  8
0
 10
327.6075888905541
 20
402.30957271206529
 30
0.0
 42
0.0053779707634316
  0
VERTEX
  5
FC9D
  8
0
 10
327.39184787235672
 20
402.37145742115422
 30
0.0
 42
0.0057339540115986
 70
     1
  0
VERTEX
  5
FC9E
  8
0
 10
327.18826013435552
 20
402.42498948266962
 30
0.0
 42
0.0079211185697664
  0
VERTEX
  5
FC9F
  8
0
 10
326.86739149169853
 20
402.50005561108458
 30
0.0
 42
0.0107548878487374
 70
     1
  0
VERTEX
  5
FCA0
  8
0
 10
326.62915512609038
 20
402.54648186134131
 30
0.0
 42
0.016067354376214
  0
VERTEX
  5
FCA1
  8
0
 10
326.34311361233023
 20
402.58644769865322
 30
0.0
 42
0.00818167248148
 70
     1
  0
VERTEX
  5
FCA2
  8
0
 10
325.77834250516941
 20
402.63760085442311
 30
0.0
 42
0.0054531080682534
  0
VERTEX
  5
FCA3
  8
0
 10
325.0998031812378
 20
402.68044478706912
 30
0.0
 42
0.0127849739132607
 70
     1
  0
VERTEX
  5
FCA4
  8
0
 10
324.80987669594811
 20
402.68815373043498
 30
0.0
 42
0.0029702723451552
  0
VERTEX
  5
FCA5
  8
0
 10
324.52380545064722
 20
402.68674452012891
 30
0.0
 42
0.0064268944634346
 70
     1
  0
VERTEX
  5
FCA6
  8
0
 10
324.3916252225265
 20
402.68360859303652
 30
0.0
 42
0.0015615147051
  0
VERTEX
  5
FCA7
  8
0
 10
324.14106831820533
 20
402.67365705287301
 30
0.0
 42
-0.0010937633907019
 70
     1
  0
VERTEX
  5
FCA8
  8
0
 10
323.78337386657199
 20
402.65911509344778
 30
0.0
 42
-0.0020422045049119
  0
VERTEX
  5
FCA9
  8
0
 10
323.3882690462662
 20
402.64553379185372
 30
0.0
 42
0.0017653011121578
 70
     1
  0
VERTEX
  5
FCAA
  8
0
 10
322.93118032404368
 20
402.63007529277411
 30
0.0
 42
0.0119343831594617
  0
VERTEX
  5
FCAB
  8
0
 10
322.61872896704909
 20
402.61092784924051
 30
0.0
 42
0.0106342858175613
 70
     1
  0
VERTEX
  5
FCAC
  8
0
 10
322.26941570454068
 20
402.57364114436763
 30
0.0
 42
0.0183606676718649
  0
VERTEX
  5
FCAD
  8
0
 10
322.06662522067933
 20
402.5400143386816
 30
0.0
 42
0.0087905713397897
 70
     1
  0
VERTEX
  5
FCAE
  8
0
 10
321.64760619440449
 20
402.44691915783278
 30
0.0
 42
0.0142614401327568
  0
VERTEX
  5
FCAF
  8
0
 10
321.30531704432019
 20
402.35412900483527
 30
0.0
 42
0.0201462756264688
 70
     1
  0
VERTEX
  5
FCB0
  8
0
 10
321.06805388490221
 20
402.27192279377232
 30
0.0
 42
0.0293630191851576
  0
VERTEX
  5
FCB1
  8
0
 10
320.84350102307849
 20
402.16824997422981
 30
0.0
 42
0.0303062037807811
 70
     1
  0
VERTEX
  5
FCB2
  8
0
 10
320.63942681216531
 20
402.04261600946518
 30
0.0
 42
0.0116239294547686
  0
VERTEX
  5
FCB3
  8
0
 10
320.53392839715889
 20
401.96477512700488
 30
0.0
 42
0.0185610799115126
 70
     1
  0
VERTEX
  5
FCB4
  8
0
 10
320.47090773461241
 20
401.91211902339592
 30
0.0
 42
0.0247810887215969
  0
VERTEX
  5
FCB5
  8
0
 10
320.39232693168788
 20
401.83395997088741
 30
0.0
 42
0.0243665288583783
 70
     1
  0
VERTEX
  5
FCB6
  8
0
 10
320.32059550044232
 20
401.74701515965688
 30
0.0
 42
0.0291886730269237
  0
VERTEX
  5
FCB7
  8
0
 10
320.2633398864225
 20
401.66014264162999
 30
0.0
 42
0.026366832363971
 70
     1
  0
VERTEX
  5
FCB8
  8
0
 10
320.21101628925823
 20
401.55755533406273
 30
0.0
 42
0.0266944660013923
  0
VERTEX
  5
FCB9
  8
0
 10
320.16934322542193
 20
401.44867780858328
 30
0.0
 42
0.0406123742106717
 70
     1
  0
VERTEX
  5
FCBA
  8
0
 10
320.15178324773541
 20
401.37401518252273
 30
0.0
 42
0.021080832036949
  0
VERTEX
  5
FCBB
  8
0
 10
320.1423916890094
 20
401.2871168593519
 30
0.0
 42
0.0196604442320259
 70
     1
  0
VERTEX
  5
FCBC
  8
0
 10
320.13993797204512
 20
401.19343544985338
 30
0.0
 42
0.0096411565481272
  0
VERTEX
  5
FCBD
  8
0
 10
320.14325111184712
 20
401.09124975602481
 30
0.0
 42
0.0141364106339988
 70
     1
  0
VERTEX
  5
FCBE
  8
0
 10
320.14882151237089
 20
401.02173697379561
 30
0.0
 42
0.0174873705642728
  0
VERTEX
  5
FCBF
  8
0
 10
320.15320415580572
 20
400.991342730128
 30
0.0
 42
0.0044846214557569
 70
     1
  0
VERTEX
  5
FCC0
  8
0
 10
320.1754771306517
 20
400.87372184870219
 30
0.0
 42
0.0370478415977166
  0
VERTEX
  5
FCC1
  8
0
 10
320.1906494897753
 20
400.81893795101121
 30
0.0
 42
0.021147778935399
 70
     1
  0
VERTEX
  5
FCC2
  8
0
 10
320.22815629717678
 20
400.72678424366762
 30
0.0
  0
SEQEND
  5
FCC3
  8
0
  0
LINE
  5
FCC4
  8
1
 10
324.39152650233359
 20
340.6266215327442
 30
0.0
 11
324.39152650233359
 21
393.35315692635783
 31
0.0
  0
POLYLINE
  5
FCC5
  8
0
 66
     1
 10
0.0
 20
0.0
 30
0.0
 70
   128
  0
VERTEX
  5
10CD7
  8
0
 10
324.37502673232319
 20
138.32508014200391
 30
0.0
  0
VERTEX
  5
10CD8
  8
0
 10
325.23054709994562
 20
138.28158132417261
 30
0.0
  0
VERTEX
  5
10CD9
  8
0
 10
326.05103856289151
 20
138.15286555944141
 30
0.0
  0
VERTEX
  5
10CDA
  8
0
 10
326.80291762912037
 20
137.9442022709375
 30
0.0
  0
VERTEX
  5
10CDB
  8
0
 10
327.45539477431538
 20
137.66413494629921
 30
0.0
  0
VERTEX
  5
10CDC
  8
0
 10
327.98176339232691
 20
137.324128632081
 30
0.0
  0
VERTEX
  5
10CDD
  8
0
 10
328.36047267877819
 20
136.93810380680611
 30
0.0
  0
VERTEX
  5
10CDE
  8
0
 10
328.53849565767291
 20
136.61564673342031
 30
0.0
  0
SEQEND
  5
10CDF
  8
0
  0
ARC
  5
FCC6
  8
0
 10
323.85079898681897
 20
133.6797505403068
 30
0.0
 40
4.674815700919023
 50
83.561383137004299
 51
141.11437189131431
  0
POLYLINE
  5
FCC7
  8
0
 66
     1
 10
0.0
 20
0.0
 30
0.0
 70
   128
  0
VERTEX
  5
10CE0
  8
0
 10
324.37502673232319
 20
137.6500798916644
 30
0.0
  0
VERTEX
  5
10CE1
  8
0
 10
325.09622803294428
 20
137.60452564491081
 30
0.0
  0
VERTEX
  5
10CE2
  8
0
 10
325.77211117708453
 20
137.47072485892221
 30
0.0
  0
VERTEX
  5
10CE3
  8
0
 10
326.36021158063181
 20
137.25708458257961
 30
0.0
  0
VERTEX
  5
10CE4
  8
0
 10
326.8235780891157
 20
136.9770288994734
 30
0.0
  0
VERTEX
  5
10CE5
  8
0
 10
327.13309010827311
 20
136.64815468398979
 30
0.0
  0
VERTEX
  5
10CE6
  8
0
 10
327.26930534803631
 20
136.29112612141421
 30
0.0
  0
VERTEX
  5
10CE7
  8
0
 10
327.22365936600931
 20
135.92837737558531
 30
0.0
  0
VERTEX
  5
10CE8
  8
0
 10
326.999024361012
 20
135.58270023821041
 30
0.0
  0
VERTEX
  5
10CE9
  8
0
 10
326.60951545798548
 20
135.27581548003599
 30
0.0
  0
VERTEX
  5
10CEA
  8
0
 10
326.07960408890011
 20
135.02700520364689
 30
0.0
  0
VERTEX
  5
10CEB
  8
0
 10
325.44258689844378
 20
134.85190445242571
 30
0.0
  0
VERTEX
  5
10CEC
  8
0
 10
324.73849213087328
 20
134.76151400862381
 30
0.0
  0
VERTEX
  5
10CED
  8
0
 10
324.01156133377322
 20
134.76151400862381
 30
0.0
  0
VERTEX
  5
10CEE
  8
0
 10
323.30746656620272
 20
134.85190445242571
 30
0.0
  0
VERTEX
  5
10CEF
  8
0
 10
322.67044937574627
 20
135.02700520364689
 30
0.0
  0
VERTEX
  5
10CF0
  8
0
 10
322.14053800666102
 20
135.27581548003599
 30
0.0
  0
VERTEX
  5
10CF1
  8
0
 10
321.75102910363438
 20
135.58270023821041
 30
0.0
  0
VERTEX
  5
10CF2
  8
0
 10
321.52639409863718
 20
135.92837737558531
 30
0.0
  0
VERTEX
  5
10CF3
  8
0
 10
321.48074811661007
 20
136.29112612141421
 30
0.0
  0
VERTEX
  5
10CF4
  8
0
 10
321.61696335637339
 20
136.64815468398979
 30
0.0
  0
VERTEX
  5
10CF5
  8
0
 10
321.9264753755308
 20
136.9770288994734
 30
0.0
  0
VERTEX
  5
10CF6
  8
0
 10
322.38984188401469
 20
137.25708458257961
 30
0.0
  0
VERTEX
  5
10CF7
  8
0
 10
322.97794228756197
 20
137.47072485892221
 30
0.0
  0
VERTEX
  5
10CF8
  8
0
 10
323.65382543170222
 20
137.60452564491081
 30
0.0
  0
VERTEX
  5
10CF9
  8
0
 10
324.37502673232319
 20
137.6500798916644
 30
0.0
  0
SEQEND
  5
10CFA
  8
0
  0
POLYLINE
  5
FCC8
  8
0
 66
     1
 10
0.0
 20
0.0
 30
0.0
 70
   128
  0
VERTEX
  5
10CFB
  8
0
 10
324.37502673232319
 20
136.5572599290137
 30
0.0
  0
VERTEX
  5
10CFC
  8
0
 10
324.96666616165408
 20
136.51472735835361
 30
0.0
  0
VERTEX
  5
10CFD
  8
0
 10
325.51037228071459
 20
136.3905760055606
 30
0.0
  0
VERTEX
  5
10CFE
  8
0
 10
325.96210098230608
 20
136.19486368877929
 30
0.0
  0
VERTEX
  5
10CFF
  8
0
 10
326.2852550145364
 20
135.94344524351999
 30
0.0
  0
VERTEX
  5
10D00
  8
0
 10
326.45365303718808
 20
135.65669009147331
 30
0.0
  0
VERTEX
  5
10D01
  8
0
 10
326.45365303718808
 20
135.3578296086018
 30
0.0
  0
VERTEX
  5
10D02
  8
0
 10
326.33631756865748
 20
135.1319820216124
 30
0.0
  0
SEQEND
  5
10D03
  8
0
  0
POLYLINE
  5
FCC9
  8
0
 66
     1
 10
0.0
 20
0.0
 30
0.0
 70
   128
  0
VERTEX
  5
10D04
  8
0
 10
322.41373589598902
 20
135.1319820216124
 30
0.0
  0
VERTEX
  5
10D05
  8
0
 10
322.29640042745831
 20
135.3578296086018
 30
0.0
  0
VERTEX
  5
10D06
  8
0
 10
322.29640042745831
 20
135.65669009147331
 30
0.0
  0
VERTEX
  5
10D07
  8
0
 10
322.46479845010998
 20
135.94344524351999
 30
0.0
  0
VERTEX
  5
10D08
  8
0
 10
322.78795248234042
 20
136.19486368877929
 30
0.0
  0
VERTEX
  5
10D09
  8
0
 10
323.23968118393191
 20
136.3905760055606
 30
0.0
  0
VERTEX
  5
10D0A
  8
0
 10
323.78338730299242
 20
136.51472735835361
 30
0.0
  0
VERTEX
  5
10D0B
  8
0
 10
324.37502673232319
 20
136.5572599290137
 30
0.0
  0
SEQEND
  5
10D0C
  8
0
  0
POLYLINE
  5
FCCA
  8
0
 66
     1
 10
0.0
 20
0.0
 30
0.0
 70
     2
  0
VERTEX
  5
FCCB
  8
0
 10
328.53849565767291
 20
136.61564673342031
 30
0.0
 42
-0.0136194405989041
  0
VERTEX
  5
FCCC
  8
0
 10
328.43269764506999
 20
136.39513047263699
 30
0.0
 42
-0.0233347530822382
 70
     1
  0
VERTEX
  5
FCCD
  8
0
 10
328.36158869464111
 20
136.2712909572854
 30
0.0
 42
-0.0036645982422697
  0
VERTEX
  5
FCCE
  8
0
 10
328.18679609483229
 20
136.00170108529889
 30
0.0
 42
-0.0199560034756597
 70
     1
  0
VERTEX
  5
FCCF
  8
0
 10
328.15238323560402
 20
135.95374763176051
 30
0.0
 42
-0.0202573009818774
  0
VERTEX
  5
FCD0
  8
0
 10
328.0428475388087
 20
135.8244588923626
 30
0.0
 42
-0.0155965373101569
 70
     1
  0
VERTEX
  5
FCD1
  8
0
 10
327.88894037304073
 20
135.66718397257659
 30
0.0
 42
-0.0111729479594784
  0
VERTEX
  5
FCD2
  8
0
 10
327.71888198056172
 20
135.5110661789636
 30
0.0
 42
-0.0134375759887161
 70
     1
  0
VERTEX
  5
FCD3
  8
0
 10
327.57126010695151
 20
135.3883658118213
 30
0.0
 42
-0.0130346543441323
  0
VERTEX
  5
FCD4
  8
0
 10
327.39548320872041
 20
135.25734876288419
 30
0.0
 42
-0.0108020478175793
 70
     1
  0
VERTEX
  5
FCD5
  8
0
 10
327.17609498022313
 20
135.10954765106609
 30
0.0
 42
-0.0118805385192597
  0
VERTEX
  5
FCD6
  8
0
 10
326.91983443333328
 20
134.95331643212461
 30
0.0
 42
-0.0347061697752847
 70
     1
  0
VERTEX
  5
FCD7
  8
0
 10
326.82741977041752
 20
134.90817865616299
 30
0.0
 42
-0.0005328240968816
  0
VERTEX
  5
FCD8
  8
0
 10
326.66890604742071
 20
134.84414906200249
 30
0.0
 42
0.0003456345337514
 70
     1
  0
VERTEX
  5
FCD9
  8
0
 10
326.4245071570856
 20
134.74553366234289
 30
0.0
 42
0.000182905467254
  0
VERTEX
  5
FCDA
  8
0
 10
326.20614757088379
 20
134.6571566501508
 30
0.0
 42
-0.0003730772728781
 70
     1
  0
VERTEX
  5
FCDB
  8
0
 10
326.09907773862528
 20
134.61386949855071
 30
0.0
 42
-0.0188838054578403
  0
VERTEX
  5
FCDC
  8
0
 10
326.02125429002831
 20
134.58584132713551
 30
0.0
 42
-0.0056758509963407
 70
     1
  0
VERTEX
  5
FCDD
  8
0
 10
325.75815168119078
 20
134.50544066635729
 30
0.0
 42
-0.0088369603555272
  0
VERTEX
  5
FCDE
  8
0
 10
325.53364340615713
 20
134.4438981285933
 30
0.0
 42
-0.0143725829644842
 70
     1
  0
VERTEX
  5
FCDF
  8
0
 10
325.39397983241111
 20
134.41250050364761
 30
0.0
 42
-0.0140121239135177
  0
VERTEX
  5
FCE0
  8
0
 10
325.2374984096507
 20
134.38654596358089
 30
0.0
 42
-0.0092462579577726
 70
     1
  0
VERTEX
  5
FCE1
  8
0
 10
324.99881470568221
 20
134.3582855057077
 30
0.0
 42
-0.0040851709489603
  0
VERTEX
  5
FCE2
  8
0
 10
324.84108055397911
 20
134.3438616735003
 30
0.0
 42
-0.0044925130632868
 70
     1
  0
VERTEX
  5
FCE3
  8
0
 10
324.69744397331328
 20
134.3332080581213
 30
0.0
 42
-0.0120277271760086
  0
VERTEX
  5
FCE4
  8
0
 10
324.51648253571028
 20
134.32578523966521
 30
0.0
 42
-0.0079301374198608
 70
     1
  0
VERTEX
  5
FCE5
  8
0
 10
324.24180813949602
 20
134.3254881607993
 30
0.0
 42
-0.0157721669417637
  0
VERTEX
  5
FCE6
  8
0
 10
323.98282488939373
 20
134.33749287610229
 30
0.0
 42
-0.0125185242735574
 70
     1
  0
VERTEX
  5
FCE7
  8
0
 10
323.65793753895991
 20
134.37104147640991
 30
0.0
 42
-0.0130602745914802
  0
VERTEX
  5
FCE8
  8
0
 10
323.38669270352221
 20
134.41316110755091
 30
0.0
 42
-0.0145216887713291
 70
     1
  0
VERTEX
  5
FCE9
  8
0
 10
323.14519480406921
 20
134.46443583941499
 30
0.0
 42
-0.0132795966466251
  0
VERTEX
  5
FCEA
  8
0
 10
322.91357105160409
 20
134.52724766730779
 30
0.0
 42
-0.0093397098663152
 70
     1
  0
VERTEX
  5
FCEB
  8
0
 10
322.5886430393503
 20
134.63134832860459
 30
0.0
 42
-0.0116311721405212
  0
VERTEX
  5
FCEC
  8
0
 10
322.2711296659561
 20
134.74796574844049
 30
0.0
 42
-0.0180892753314759
 70
     1
  0
VERTEX
  5
FCED
  8
0
 10
322.07174896889518
 20
134.834960655017
 30
0.0
 42
-0.0181703169807502
  0
VERTEX
  5
FCEE
  8
0
 10
321.87256829201368
 20
134.9396546724229
 30
0.0
 42
-0.0139055336416933
 70
     1
  0
VERTEX
  5
FCEF
  8
0
 10
321.62163848727391
 20
135.0928394379593
 30
0.0
 42
-0.008657951477188
  0
VERTEX
  5
FCF0
  8
0
 10
321.39525916121079
 20
135.24546646536101
 30
0.0
 42
-0.0103347033931117
 70
     1
  0
VERTEX
  5
FCF1
  8
0
 10
321.21059526071741
 20
135.38044459670661
 30
0.0
 42
-0.0129688530058077
  0
VERTEX
  5
FCF2
  8
0
 10
321.00865969993328
 20
135.54300704082149
 30
0.0
 42
-0.0154818172660211
 70
     1
  0
VERTEX
  5
FCF3
  8
0
 10
320.8475078268541
 20
135.68859231611481
 30
0.0
 42
-0.0143714914790748
  0
VERTEX
  5
FCF4
  8
0
 10
320.73917704398019
 20
135.79889008410009
 30
0.0
 42
-0.0097273898970527
 70
     1
  0
VERTEX
  5
FCF5
  8
0
 10
320.58717995030452
 20
135.96934917885071
 30
0.0
 42
-0.0171952543482952
  0
VERTEX
  5
FCF6
  8
0
 10
320.45690510639292
 20
136.13231828573589
 30
0.0
 42
-0.0226046947599845
 70
     1
  0
VERTEX
  5
FCF7
  8
0
 10
320.3679565629871
 20
136.2638026336094
 30
0.0
 42
-0.0327337001382882
  0
VERTEX
  5
FCF8
  8
0
 10
320.28426738139819
 20
136.4229462128514
 30
0.0
 42
-0.0287440752919653
 70
     1
  0
VERTEX
  5
FCF9
  8
0
 10
320.21191945195528
 20
136.6144494291209
 30
0.0
 42
-0.0085550986846809
  0
VERTEX
  5
FCFA
  8
0
 10
320.17696011580909
 20
136.73305674733089
 30
0.0
 42
-0.0097928531030114
 70
     1
  0
VERTEX
  5
FCFB
  8
0
 10
320.15024069563901
 20
136.83772591365459
 30
0.0
 42
-0.0173834967476679
  0
VERTEX
  5
FCFC
  8
0
 10
320.13011012964603
 20
136.93933312563971
 30
0.0
 42
-0.014492772433954
 70
     1
  0
VERTEX
  5
FCFD
  8
0
 10
320.11377870160391
 20
137.06248617416941
 30
0.0
 42
-0.053440815255957
  0
VERTEX
  5
FCFE
  8
0
 10
320.11420354594748
 20
137.17080930751311
 30
0.0
 42
-0.0344558654658859
 70
     1
  0
VERTEX
  5
FCFF
  8
0
 10
320.14416397426089
 20
137.33584198972881
 30
0.0
 42
-0.0492901370726372
  0
VERTEX
  5
FD00
  8
0
 10
320.19957219470081
 20
137.48907255745601
 30
0.0
 42
-0.059561584771958
 70
     1
  0
VERTEX
  5
FD01
  8
0
 10
320.27178678357149
 20
137.60312452459451
 30
0.0
 42
-0.0312345511280072
  0
VERTEX
  5
FD02
  8
0
 10
320.37368373084809
 20
137.71340958202211
 30
0.0
 42
-0.0205127224381337
 70
     1
  0
VERTEX
  5
FD03
  8
0
 10
320.54526090055811
 20
137.86433261507941
 30
0.0
 42
-0.013593184719541
  0
VERTEX
  5
FD04
  8
0
 10
320.74940443503709
 20
138.02056881329861
 30
0.0
 42
-0.0365324853177983
 70
     1
  0
VERTEX
  5
FD05
  8
0
 10
320.83089179183639
 20
138.07086837876579
 30
0.0
 42
-0.0273175028801743
  0
VERTEX
  5
FD06
  8
0
 10
320.96726502901521
 20
138.1326487919431
 30
0.0
 42
-0.0201632824378528
 70
     1
  0
VERTEX
  5
FD07
  8
0
 10
321.15906306429571
 20
138.19843520181811
 30
0.0
 42
-0.0053779707634316
  0
VERTEX
  5
FD08
  8
0
 10
321.37480408249331
 20
138.26031991090699
 30
0.0
 42
-0.0057339540115986
 70
     1
  0
VERTEX
  5
FD09
  8
0
 10
321.57839182049452
 20
138.31385197242241
 30
0.0
 42
-0.0079211185697664
  0
VERTEX
  5
FD0A
  8
0
 10
321.89926046315151
 20
138.38891810083729
 30
0.0
 42
-0.0107548878487374
 70
     1
  0
VERTEX
  5
FD0B
  8
0
 10
322.13749682875942
 20
138.4353443510941
 30
0.0
 42
-0.016067354376214
  0
VERTEX
  5
FD0C
  8
0
 10
322.42353834251958
 20
138.4753101884059
 30
0.0
 42
-0.00818167248148
 70
     1
  0
VERTEX
  5
FD0D
  8
0
 10
322.98830944968063
 20
138.52646334417599
 30
0.0
 42
-0.0054531080682534
  0
VERTEX
  5
FD0E
  8
0
 10
323.66684877361217
 20
138.5693072768218
 30
0.0
 42
-0.0127849739132607
 70
     1
  0
VERTEX
  5
FD0F
  8
0
 10
323.95677525890159
 20
138.5770162201878
 30
0.0
 42
-0.0029702723451552
  0
VERTEX
  5
FD10
  8
0
 10
324.24284650420282
 20
138.57560700988159
 30
0.0
 42
-0.0064268944634346
 70
     1
  0
VERTEX
  5
FD11
  8
0
 10
324.37502673232319
 20
138.57247108278929
 30
0.0
 42
-0.0015615147051
  0
VERTEX
  5
FD12
  8
0
 10
324.62558363664448
 20
138.56251954262569
 30
0.0
 42
0.0010937633907019
 70
     1
  0
VERTEX
  5
FD13
  8
0
 10
324.98327808827781
 20
138.54797758320061
 30
0.0
 42
0.0020422045049119
  0
VERTEX
  5
FD14
  8
0
 10
325.37838290858372
 20
138.5343962816064
 30
0.0
 42
-0.0017653011121578
 70
     1
  0
VERTEX
  5
FD15
  8
0
 10
325.83547163080613
 20
138.5189377825269
 30
0.0
 42
-0.0119343831594617
  0
VERTEX
  5
FD16
  8
0
 10
326.14792298780071
 20
138.49979033899331
 30
0.0
 42
-0.0106342858175613
 70
     1
  0
VERTEX
  5
FD17
  8
0
 10
326.4972362503093
 20
138.46250363412051
 30
0.0
 42
-0.0183606676718649
  0
VERTEX
  5
FD18
  8
0
 10
326.70002673417071
 20
138.4288768284342
 30
0.0
 42
-0.0087905713397897
 70
     1
  0
VERTEX
  5
FD19
  8
0
 10
327.11904576044549
 20
138.33578164758549
 30
0.0
 42
-0.0142614401327568
  0
VERTEX
  5
FD1A
  8
0
 10
327.46133491052962
 20
138.2429914945879
 30
0.0
 42
-0.0201462756264688
 70
     1
  0
VERTEX
  5
FD1B
  8
0
 10
327.69859806994759
 20
138.16078528352509
 30
0.0
 42
-0.0293630191851576
  0
VERTEX
  5
FD1C
  8
0
 10
327.92315093177132
 20
138.05711246398261
 30
0.0
 42
-0.0303062037807811
 70
     1
  0
VERTEX
  5
FD1D
  8
0
 10
328.12722514268472
 20
137.93147849921809
 30
0.0
 42
-0.0116239294547686
  0
VERTEX
  5
FD1E
  8
0
 10
328.23272355769109
 20
137.85363761675771
 30
0.0
 42
-0.0185610799115126
 70
     1
  0
VERTEX
  5
FD1F
  8
0
 10
328.29574422023762
 20
137.80098151314871
 30
0.0
 42
-0.0247810887215969
  0
VERTEX
  5
FD20
  8
0
 10
328.3743250231621
 20
137.7228224606402
 30
0.0
 42
-0.0243665288583783
 70
     1
  0
VERTEX
  5
FD21
  8
0
 10
328.4460564544076
 20
137.63587764940971
 30
0.0
 42
-0.0291886730269237
  0
VERTEX
  5
FD22
  8
0
 10
328.50331206842731
 20
137.5490051313827
 30
0.0
 42
-0.026366832363971
 70
     1
  0
VERTEX
  5
FD23
  8
0
 10
328.55563566559181
 20
137.44641782381541
 30
0.0
 42
-0.0266944660013923
  0
VERTEX
  5
FD24
  8
0
 10
328.59730872942799
 20
137.33754029833611
 30
0.0
 42
-0.0406123742106717
 70
     1
  0
VERTEX
  5
FD25
  8
0
 10
328.61486870711428
 20
137.26287767227541
 30
0.0
 42
-0.021080832036949
  0
VERTEX
  5
FD26
  8
0
 10
328.62426026584058
 20
137.17597934910461
 30
0.0
 42
-0.0196604442320259
 70
     1
  0
VERTEX
  5
FD27
  8
0
 10
328.62671398280492
 20
137.08229793960621
 30
0.0
 42
-0.0096411565481272
  0
VERTEX
  5
FD28
  8
0
 10
328.62340084300263
 20
136.98011224577749
 30
0.0
 42
-0.0141364106339988
 70
     1
  0
VERTEX
  5
FD29
  8
0
 10
328.61783044247909
 20
136.91059946354829
 30
0.0
 42
-0.0174873705642728
  0
VERTEX
  5
FD2A
  8
0
 10
328.6134477990442
 20
136.88020521988071
 30
0.0
 42
-0.0044846214557569
 70
     1
  0
VERTEX
  5
FD2B
  8
0
 10
328.59117482419811
 20
136.76258433845479
 30
0.0
 42
-0.0370478415977166
  0
VERTEX
  5
FD2C
  8
0
 10
328.57600246507468
 20
136.707800440764
 30
0.0
 42
-0.021147778935399
 70
     1
  0
VERTEX
  5
FD2D
  8
0
 10
328.53849565767291
 20
136.61564673342031
 30
0.0
  0
SEQEND
  5
FD2E
  8
0
  0
POLYLINE
  5
FD2F
  8
0
 66
     1
 10
0.0
 20
0.0
 30
0.0
 70
   128
  0
VERTEX
  5
10D0D
  8
0
 10
324.39386611361579
 20
122.29944738535229
 30
0.0
  0
VERTEX
  5
10D0E
  8
0
 10
325.11506741423682
 20
122.2205448055083
 30
0.0
  0
VERTEX
  5
10D0F
  8
0
 10
325.79095055837712
 20
121.9887947288716
 30
0.0
  0
VERTEX
  5
10D10
  8
0
 10
326.37905096192429
 20
121.61875908238829
 30
0.0
  0
VERTEX
  5
10D11
  8
0
 10
326.84241747040818
 20
121.1336885669643
 30
0.0
  0
VERTEX
  5
10D12
  8
0
 10
327.15192948956559
 20
120.56406141234579
 30
0.0
  0
VERTEX
  5
10D13
  8
0
 10
327.28814472932891
 20
119.9456702077204
 30
0.0
  0
VERTEX
  5
10D14
  8
0
 10
327.24249874730179
 20
119.31737019656239
 30
0.0
  0
VERTEX
  5
10D15
  8
0
 10
327.0178637423046
 20
118.7186401428098
 30
0.0
  0
VERTEX
  5
10D16
  8
0
 10
326.62835483927802
 20
118.1870998905415
 30
0.0
  0
VERTEX
  5
10D17
  8
0
 10
326.09844347019271
 20
117.7561489955897
 30
0.0
  0
VERTEX
  5
10D18
  8
0
 10
325.46142627973632
 20
117.4528647304887
 30
0.0
  0
VERTEX
  5
10D19
  8
0
 10
324.75733151216582
 20
117.2963038177604
 30
0.0
  0
VERTEX
  5
10D1A
  8
0
 10
324.0304007150657
 20
117.2963038177604
 30
0.0
  0
VERTEX
  5
10D1B
  8
0
 10
323.3263059474952
 20
117.4528647304887
 30
0.0
  0
VERTEX
  5
10D1C
  8
0
 10
322.68928875703892
 20
117.7561489955897
 30
0.0
  0
VERTEX
  5
10D1D
  8
0
 10
322.1593773879535
 20
118.1870998905415
 30
0.0
  0
VERTEX
  5
10D1E
  8
0
 10
321.76986848492697
 20
118.7186401428098
 30
0.0
  0
VERTEX
  5
10D1F
  8
0
 10
321.54523347992972
 20
119.31737019656239
 30
0.0
  0
VERTEX
  5
10D20
  8
0
 10
321.49958749790272
 20
119.9456702077204
 30
0.0
  0
VERTEX
  5
10D21
  8
0
 10
321.63580273766593
 20
120.56406141234579
 30
0.0
  0
VERTEX
  5
10D22
  8
0
 10
321.94531475682328
 20
121.1336885669643
 30
0.0
  0
VERTEX
  5
10D23
  8
0
 10
322.40868126530722
 20
121.61875908238829
 30
0.0
  0
VERTEX
  5
10D24
  8
0
 10
322.99678166885451
 20
121.9887947288716
 30
0.0
  0
VERTEX
  5
10D25
  8
0
 10
323.6726648129947
 20
122.2205448055083
 30
0.0
  0
VERTEX
  5
10D26
  8
0
 10
324.39386611361579
 20
122.29944738535229
 30
0.0
  0
SEQEND
  5
10D27
  8
0
  0
POLYLINE
  5
FD30
  8
0
 66
     1
 10
0.0
 20
0.0
 30
0.0
 70
   128
  0
VERTEX
  5
10D28
  8
0
 10
324.39386611361579
 20
122.0066269950384
 30
0.0
  0
VERTEX
  5
10D29
  8
0
 10
324.98550554294661
 20
121.9329586808944
 30
0.0
  0
VERTEX
  5
10D2A
  8
0
 10
325.52921166200713
 20
121.71792211918179
 30
0.0
  0
VERTEX
  5
10D2B
  8
0
 10
325.98094036359862
 20
121.3789383971507
 30
0.0
  0
VERTEX
  5
10D2C
  8
0
 10
326.304094395829
 20
120.9434696563894
 30
0.0
  0
VERTEX
  5
10D2D
  8
0
 10
326.47249241848073
 20
120.4467948616857
 30
0.0
  0
VERTEX
  5
10D2E
  8
0
 10
326.47249241848073
 20
119.9291522705371
 30
0.0
  0
VERTEX
  5
10D2F
  8
0
 10
326.304094395829
 20
119.43247747583329
 30
0.0
  0
VERTEX
  5
10D30
  8
0
 10
325.98094036359862
 20
118.9970087350721
 30
0.0
  0
VERTEX
  5
10D31
  8
0
 10
325.52921166200713
 20
118.6580250130409
 30
0.0
  0
VERTEX
  5
10D32
  8
0
 10
324.98550554294661
 20
118.442988684159
 30
0.0
  0
VERTEX
  5
10D33
  8
0
 10
324.39386611361579
 20
118.3693201371843
 30
0.0
  0
VERTEX
  5
10D34
  8
0
 10
323.8022266842849
 20
118.442988684159
 30
0.0
  0
VERTEX
  5
10D35
  8
0
 10
323.25852056522439
 20
118.6580250130409
 30
0.0
  0
VERTEX
  5
10D36
  8
0
 10
322.8067918636329
 20
118.9970087350721
 30
0.0
  0
VERTEX
  5
10D37
  8
0
 10
322.48363783140258
 20
119.43247747583329
 30
0.0
  0
VERTEX
  5
10D38
  8
0
 10
322.3152398087509
 20
119.9291522705371
 30
0.0
  0
VERTEX
  5
10D39
  8
0
 10
322.3152398087509
 20
120.4467948616857
 30
0.0
  0
VERTEX
  5
10D3A
  8
0
 10
322.48363783140258
 20
120.9434696563894
 30
0.0
  0
VERTEX
  5
10D3B
  8
0
 10
322.8067918636329
 20
121.3789383971507
 30
0.0
  0
VERTEX
  5
10D3C
  8
0
 10
323.25852056522439
 20
121.71792211918179
 30
0.0
  0
VERTEX
  5
10D3D
  8
0
 10
323.8022266842849
 20
121.9329586808944
 30
0.0
  0
VERTEX
  5
10D3E
  8
0
 10
324.39386611361579
 20
122.0066269950384
 30
0.0
  0
SEQEND
  5
10D3F
  8
0
  0
POLYLINE
  5
FD31
  8
0
 66
     1
 10
0.0
 20
0.0
 30
0.0
 70
   130
  0
VERTEX
  5
FD32
  8
0
 10
328.6373965872753
 20
119.5468414519154
 30
0.0
 42
-0.0122542547158862
  0
VERTEX
  5
FD33
  8
0
 10
328.64650005767112
 20
119.3630763979273
 30
0.0
 42
-0.0300251108820151
 70
     1
  0
VERTEX
  5
FD34
  8
0
 10
328.6438672759063
 20
119.287973465156
 30
0.0
 42
-0.0047652579015361
  0
VERTEX
  5
FD35
  8
0
 10
328.60903742762321
 20
118.9562199539115
 30
0.0
 42
-0.0111887452228918
 70
     1
  0
VERTEX
  5
FD36
  8
0
 10
328.58970158356692
 20
118.8154577029064
 30
0.0
 42
-0.0104988450404194
  0
VERTEX
  5
FD37
  8
0
 10
328.54061619605449
 20
118.54553546426
 30
0.0
 42
-0.0179223965381954
 70
     1
  0
VERTEX
  5
FD38
  8
0
 10
328.50291840678051
 20
118.3892722571874
 30
0.0
 42
-0.0177783218052356
  0
VERTEX
  5
FD39
  8
0
 10
328.45985624732771
 20
118.2539637092697
 30
0.0
 42
-0.0129476083166114
 70
     1
  0
VERTEX
  5
FD3A
  8
0
 10
328.38944066509322
 20
118.0721805293975
 30
0.0
 42
-0.0148586459841528
  0
VERTEX
  5
FD3B
  8
0
 10
328.3237320941974
 20
117.92706122448369
 30
0.0
 42
-0.0121591903451474
 70
     1
  0
VERTEX
  5
FD3C
  8
0
 10
328.2339820545256
 20
117.7543319492307
 30
0.0
 42
-0.0268598501278955
  0
VERTEX
  5
FD3D
  8
0
 10
328.12476254886428
 20
117.57904634330551
 30
0.0
 42
-0.0230712169684585
 70
     1
  0
VERTEX
  5
FD3E
  8
0
 10
327.97792784925042
 20
117.388702716864
 30
0.0
 42
-0.0257508511238402
  0
VERTEX
  5
FD3F
  8
0
 10
327.79524621679349
 20
117.1944436226855
 30
0.0
 42
-0.0203806512774659
 70
     1
  0
VERTEX
  5
FD40
  8
0
 10
327.54286348267459
 20
116.9713588045703
 30
0.0
 42
-0.0118079086845454
  0
VERTEX
  5
FD41
  8
0
 10
327.34020558138508
 20
116.81424171724861
 30
0.0
 42
-0.0141081400832882
 70
     1
  0
VERTEX
  5
FD42
  8
0
 10
327.1639943718244
 20
116.6916978395803
 30
0.0
 42
-0.0220278826842408
  0
VERTEX
  5
FD43
  8
0
 10
326.93190575929771
 20
116.554026091219
 30
0.0
 42
-0.0154327828562308
 70
     1
  0
VERTEX
  5
FD44
  8
0
 10
326.58694309608359
 20
116.38290741843061
 30
0.0
 42
-0.0207240720449826
  0
VERTEX
  5
FD45
  8
0
 10
326.27635422736438
 20
116.2558996570416
 30
0.0
 42
-0.0184994963780008
 70
     1
  0
VERTEX
  5
FD46
  8
0
 10
325.91836923851662
 20
116.1413297674072
 30
0.0
 42
-0.0262358566743977
  0
VERTEX
  5
FD47
  8
0
 10
325.46756745865167
 20
116.0403864798233
 30
0.0
 42
-0.0229242911714714
 70
     1
  0
VERTEX
  5
FD48
  8
0
 10
324.94288253596352
 20
115.9760631613777
 30
0.0
 42
-0.0138858963611788
  0
VERTEX
  5
FD49
  8
0
 10
324.46847138105358
 20
115.95309563659529
 30
0.0
 42
-0.0201406187126542
 70
     1
  0
VERTEX
  5
FD4A
  8
0
 10
324.14100046973789
 20
115.9595381054088
 30
0.0
 42
-0.0132376637372535
  0
VERTEX
  5
FD4B
  8
0
 10
323.8005213283584
 20
115.98903593522159
 30
0.0
 42
-0.0132588724589247
 70
     1
  0
VERTEX
  5
FD4C
  8
0
 10
323.46262362754328
 20
116.0364499610105
 30
0.0
 42
-0.0151399914424939
  0
VERTEX
  5
FD4D
  8
0
 10
323.11570569144868
 20
116.1054038418273
 30
0.0
 42
-0.0121804169559156
 70
     1
  0
VERTEX
  5
FD4E
  8
0
 10
322.68985273115709
 20
116.21452379116219
 30
0.0
 42
-0.0206237771127015
  0
VERTEX
  5
FD4F
  8
0
 10
322.31366088642898
 20
116.33770642392579
 30
0.0
 42
-0.0240318347378954
 70
     1
  0
VERTEX
  5
FD50
  8
0
 10
322.00148449739191
 20
116.4718094916653
 30
0.0
 42
-0.0280878131129802
  0
VERTEX
  5
FD51
  8
0
 10
321.70956974095469
 20
116.6350770487024
 30
0.0
 42
-0.0240603253434206
 70
     1
  0
VERTEX
  5
FD52
  8
0
 10
321.3905468806804
 20
116.8600611273708
 30
0.0
 42
-0.01488630090834
  0
VERTEX
  5
FD53
  8
0
 10
321.18560541122321
 20
117.02993439678841
 30
0.0
 42
-0.0135714717028514
 70
     1
  0
VERTEX
  5
FD54
  8
0
 10
320.97177946780471
 20
117.2287428342557
 30
0.0
 42
-0.0282006120815871
  0
VERTEX
  5
FD55
  8
0
 10
320.75030066583281
 20
117.47215733071479
 30
0.0
 42
-0.0284965612251486
 70
     1
  0
VERTEX
  5
FD56
  8
0
 10
320.55977509415578
 20
117.73629586289699
 30
0.0
 42
-0.0410828719033552
  0
VERTEX
  5
FD57
  8
0
 10
320.40495738411818
 20
118.0295171635986
 30
0.0
 42
-0.0341909755900677
 70
     1
  0
VERTEX
  5
FD58
  8
0
 10
320.27391933292529
 20
118.4055536142975
 30
0.0
 42
-0.0199398065221257
  0
VERTEX
  5
FD59
  8
0
 10
320.22837728939038
 20
118.60264686027411
 30
0.0
 42
-0.0091094985744887
 70
     1
  0
VERTEX
  5
FD5A
  8
0
 10
320.1539299605061
 20
119.0389876259843
 30
0.0
 42
-0.036459971594578
  0
VERTEX
  5
FD5B
  8
0
 10
320.13819096149501
 20
119.2406614064713
 30
0.0
 42
-0.0210129433912686
 70
     1
  0
VERTEX
  5
FD5C
  8
0
 10
320.15117138039108
 20
119.59110204975561
 30
0.0
  0
SEQEND
  5
FD5D
  8
0
  0
ARC
  5
FD5E
  8
0
 10
324.3916252225265
 20
119.0591989885864
 30
0.0
 40
4.2736833824889731
 50
6.5519221383349926
 51
172.85042168379749
  0
LINE
  5
FD5F
  8
0
 10
330.39162620600308
 20
113.7951054389551
 30
0.0
 11
330.39162620600308
 21
137.7951056475714
 31
0.0
  0
LINE
  5
FD60
  8
0
 10
318.39162423904992
 20
137.7951056475714
 30
0.0
 11
318.39162423904992
 21
113.7951054389551
 31
0.0
  0
LINE
  5
FD61
  8
0
 10
319.39162626560778
 20
112.7951052750423
 30
0.0
 11
319.39162626560778
 21
138.79510581148409
 31
0.0
  0
LINE
  5
FD62
  8
0
 10
329.39162417944522
 20
138.79510581148409
 30
0.0
 11
329.39162417944522
 21
112.7951052750423
 31
0.0
  0
LINE
  5
FD63
  8
0
 10
330.39162620600308
 20
113.7951054389551
 30
0.0
 11
329.39162417944522
 21
112.7951052750423
 31
0.0
  0
LINE
  5
FD64
  8
0
 10
329.39162417944522
 20
138.79510581148409
 30
0.0
 11
330.39162620600308
 21
137.7951056475714
 31
0.0
  0
LINE
  5
FD65
  8
0
 10
318.39162423904992
 20
137.7951056475714
 30
0.0
 11
319.39162626560778
 21
138.79510581148409
 31
0.0
  0
LINE
  5
FD66
  8
0
 10
319.39162626560778
 20
112.7951052750423
 30
0.0
 11
318.39162423904992
 21
113.7951054389551
 31
0.0
  0
LINE
  5
FD67
  8
0
 10
329.39162417944522
 20
112.7951052750423
 30
0.0
 11
319.39162626560778
 21
112.7951052750423
 31
0.0
  0
LINE
  5
FD68
  8
0
 10
319.39162626560778
 20
138.79510581148409
 30
0.0
 11
329.39162417944522
 21
138.79510581148409
 31
0.0
  0
POLYLINE
  5
FD69
  8
0
 66
     1
 10
0.0
 20
0.0
 30
0.0
  0
VERTEX
  5
10D40
  8
0
 10
318.93262952264399
 20
151.07842681584509
 30
0.0
  0
VERTEX
  5
10D41
  8
0
 10
319.05067682337739
 20
150.70254274676051
 30
0.0
  0
VERTEX
  5
10D42
  8
0
 10
319.29141811359818
 20
150.1747571590484
 30
0.0
  0
VERTEX
  5
10D43
  8
0
 10
319.58754880043102
 20
149.683360138892
 30
0.0
  0
VERTEX
  5
10D44
  8
0
 10
319.98277528080069
 20
149.18553114934321
 30
0.0
  0
VERTEX
  5
10D45
  8
0
 10
320.39162456687541
 20
148.77614525733139
 30
0.0
  0
SEQEND
  5
10D46
  8
0
  0
POLYLINE
  5
FD6A
  8
0
 66
     1
 10
0.0
 20
0.0
 30
0.0
  0
VERTEX
  5
10D47
  8
0
 10
329.85062092240901
 20
151.07842681584509
 30
0.0
  0
VERTEX
  5
10D48
  8
0
 10
329.73257362167561
 20
150.70254274676051
 30
0.0
  0
VERTEX
  5
10D49
  8
0
 10
329.49183233145482
 20
150.1747571590484
 30
0.0
  0
VERTEX
  5
10D4A
  8
0
 10
329.19570164462198
 20
149.683360138892
 30
0.0
  0
VERTEX
  5
10D4B
  8
0
 10
328.80047516425219
 20
149.18553114934321
 30
0.0
  0
VERTEX
  5
10D4C
  8
0
 10
328.39162587817759
 20
148.77614525733139
 30
0.0
  0
SEQEND
  5
10D4D
  8
0
  0
ARC
  5
FD6B
  8
0
 10
323.46470774072668
 20
143.79510430274161
 30
0.0
 40
3.0713600387130429
 50
146.90500036006171
 51
213.09499963994219
  0
ARC
  5
FD6C
  8
0
 10
323.5015165696804
 20
139.78097643531291
 30
0.0
 40
3.1099241071919481
 50
147.05718365970461
 51
179.7396573637497
  0
LINE
  5
FD6D
  8
0
 10
320.89162558015443
 20
141.4721585589424
 30
0.0
 11
320.89162558015443
 21
145.47215548930319
 31
0.0
  0
ARC
  5
FD6E
  8
0
 10
325.31854270432609
 20
143.79510430274161
 30
0.0
 40
3.0713600387130668
 50
326.90500036006182
 51
33.094999639938202
  0
LINE
  5
FD6F
  8
0
 10
327.89162486489857
 20
145.47215548930319
 30
0.0
 11
327.89162486489857
 21
141.4721585589424
 31
0.0
  0
ARC
  5
FD70
  8
0
 10
325.28173387537231
 20
139.78097643531291
 30
0.0
 40
3.1099241071919721
 50
0.2603426362502253
 51
32.942816340295309
  0
POLYLINE
  5
FD71
  8
0
 66
     1
 10
0.0
 20
0.0
 30
0.0
 70
   128
  0
VERTEX
  5
10D4E
  8
0
 10
328.39162587817759
 20
151.64510680017619
 30
0.0
  0
VERTEX
  5
10D4F
  8
0
 10
328.30421566661448
 20
152.365332074739
 30
0.0
  0
VERTEX
  5
10D50
  8
0
 10
328.04580717977137
 20
153.05408237157019
 30
0.0
  0
VERTEX
  5
10D51
  8
0
 10
327.6276917725429
 20
153.68125361976769
 30
0.0
  0
VERTEX
  5
10D52
  8
0
 10
327.06814571913333
 20
154.21943513331561
 30
0.0
  0
VERTEX
  5
10D53
  8
0
 10
326.3916255503521
 20
154.64510542926939
 30
0.0
  0
VERTEX
  5
10D54
  8
0
 10
325.62769144471741
 20
154.93966040787839
 30
0.0
  0
VERTEX
  5
10D55
  8
0
 10
324.80974062975503
 20
155.09022919116171
 30
0.0
  0
VERTEX
  5
10D56
  8
0
 10
323.97350981529797
 20
155.09022919116171
 30
0.0
  0
VERTEX
  5
10D57
  8
0
 10
323.1555590003357
 20
154.93966040787839
 30
0.0
  0
VERTEX
  5
10D58
  8
0
 10
322.39162489470101
 20
154.64510542926939
 30
0.0
  0
VERTEX
  5
10D59
  8
0
 10
321.71510100062937
 20
154.21943513331561
 30
0.0
  0
VERTEX
  5
10D5A
  8
0
 10
321.1555586725101
 20
153.68125361976769
 30
0.0
  0
VERTEX
  5
10D5B
  8
0
 10
320.73744326528163
 20
153.05408237157019
 30
0.0
  0
VERTEX
  5
10D5C
  8
0
 10
320.47903477843852
 20
152.365332074739
 30
0.0
  0
VERTEX
  5
10D5D
  8
0
 10
320.39162456687541
 20
151.64510680017619
 30
0.0
  0
VERTEX
  5
10D5E
  8
0
 10
320.39162456687541
 20
151.64510680017619
 30
0.0
  0
SEQEND
  5
10D5F
  8
0
  0
POLYLINE
  5
FD72
  8
0
 66
     1
 10
0.0
 20
0.0
 30
0.0
 70
   128
  0
VERTEX
  5
10D60
  8
0
 10
329.88666310604663
 20
151.21543926773219
 30
0.0
  0
VERTEX
  5
10D61
  8
0
 10
329.92545827921481
 20
151.38881427822261
 30
0.0
  0
VERTEX
  5
10D62
  8
0
 10
330.00956415828318
 20
152.23375854668771
 30
0.0
  0
VERTEX
  5
10D63
  8
0
 10
329.92296978529538
 20
153.0785091000572
 30
0.0
  0
VERTEX
  5
10D64
  8
0
 10
329.66830894049258
 20
153.8974061387554
 30
0.0
  0
VERTEX
  5
10D65
  8
0
 10
329.25331905182452
 20
154.66556472358849
 30
0.0
  0
VERTEX
  5
10D66
  8
0
 10
328.69061022695161
 20
155.35964591083669
 30
0.0
  0
VERTEX
  5
10D67
  8
0
 10
327.99727782305331
 20
155.9585608321205
 30
0.0
  0
VERTEX
  5
10D68
  8
0
 10
327.1943883567676
 20
156.4441077190414
 30
0.0
  0
VERTEX
  5
10D69
  8
0
 10
326.30634247954941
 20
156.80153814730789
 30
0.0
  0
VERTEX
  5
10D6A
  8
0
 10
325.36011501844968
 20
157.0199928957
 30
0.0
  0
VERTEX
  5
10D6B
  8
0
 10
324.38446148928261
 20
157.09282977161561
 30
0.0
  0
VERTEX
  5
10D6C
  8
0
 10
323.40902402695269
 20
157.01783967790749
 30
0.0
  0
VERTEX
  5
10D6D
  8
0
 10
322.463444766365
 20
156.797295041658
 30
0.0
  0
VERTEX
  5
10D6E
  8
0
 10
321.57645314630122
 20
156.43790511069449
 30
0.0
  0
VERTEX
  5
10D6F
  8
0
 10
320.77499419149012
 20
155.95058126030119
 30
0.0
  0
VERTEX
  5
10D70
  8
0
 10
320.08343130048371
 20
155.3501389699951
 30
0.0
  0
VERTEX
  5
10D71
  8
0
 10
319.52276393469418
 20
154.65481726107751
 30
0.0
  0
VERTEX
  5
10D72
  8
0
 10
319.1100390225277
 20
153.88574598012119
 30
0.0
  0
VERTEX
  5
10D73
  8
0
 10
318.85779216583819
 20
153.06629014787819
 30
0.0
  0
VERTEX
  5
10D74
  8
0
 10
318.77368628676982
 20
152.22134960470351
 30
0.0
  0
VERTEX
  5
10D75
  8
0
 10
318.86028065975762
 20
151.37659532604371
 30
0.0
  0
VERTEX
  5
10D76
  8
0
 10
318.90290170606232
 20
151.1900551396385
 30
0.0
  0
SEQEND
  5
10D77
  8
0
  0
POLYLINE
  5
FD73
  8
0
 66
     1
 10
0.0
 20
0.0
 30
0.0
 70
   128
  0
VERTEX
  5
10D78
  8
0
 10
328.39162587817759
 20
149.78074056682729
 30
0.0
  0
VERTEX
  5
10D79
  8
0
 10
328.4986534684524
 20
149.94932112870359
 30
0.0
  0
VERTEX
  5
10D7A
  8
0
 10
328.83553892072291
 20
150.67868454036861
 30
0.0
  0
VERTEX
  5
10D7B
  8
0
 10
329.00164961513133
 20
151.45094839511069
 30
0.0
  0
VERTEX
  5
10D7C
  8
0
 10
328.99059667881579
 20
152.23644075570249
 30
0.0
  0
VERTEX
  5
10D7D
  8
0
 10
328.80280852016062
 20
153.00497186956551
 30
0.0
  0
VERTEX
  5
10D7E
  8
0
 10
328.4455047517643
 20
153.7270076352134
 30
0.0
  0
VERTEX
  5
10D7F
  8
0
 10
327.93240934308619
 20
154.37480209050329
 30
0.0
  0
VERTEX
  5
10D80
  8
0
 10
327.28324398096652
 20
154.92345912037041
 30
0.0
  0
VERTEX
  5
10D81
  8
0
 10
326.52295693453402
 20
155.35189730701589
 30
0.0
  0
VERTEX
  5
10D82
  8
0
 10
325.6807619303093
 20
155.64365086732059
 30
0.0
  0
VERTEX
  5
10D83
  8
0
 10
324.78902801569552
 20
155.78750667748599
 30
0.0
  0
VERTEX
  5
10D84
  8
0
 10
323.8820204108581
 20
155.77793640670919
 30
0.0
  0
VERTEX
  5
10D85
  8
0
 10
322.9945966571197
 20
155.61530513343959
 30
0.0
  0
VERTEX
  5
10D86
  8
0
 10
322.16086178716267
 20
155.30587134537839
 30
0.0
  0
VERTEX
  5
10D87
  8
0
 10
321.41285329755402
 20
154.86151871857791
 30
0.0
  0
VERTEX
  5
10D88
  8
0
 10
320.77931552823628
 20
154.2993239837661
 30
0.0
  0
VERTEX
  5
10D89
  8
0
 10
320.2845969766006
 20
153.64089382467421
 30
0.0
  0
VERTEX
  5
10D8A
  8
0
 10
319.94771152433009
 20
152.91153413829949
 30
0.0
  0
VERTEX
  5
10D8B
  8
0
 10
319.78160082992167
 20
152.13927028355749
 30
0.0
  0
VERTEX
  5
10D8C
  8
0
 10
319.79265376623721
 20
151.35377792296561
 30
0.0
  0
VERTEX
  5
10D8D
  8
0
 10
319.98044192489238
 20
150.58524680910261
 30
0.0
  0
VERTEX
  5
10D8E
  8
0
 10
320.33774569328881
 20
149.8632110434547
 30
0.0
  0
VERTEX
  5
10D8F
  8
0
 10
320.39162456687541
 20
149.78074056682729
 30
0.0
  0
SEQEND
  5
10D90
  8
0
  0
POLYLINE
  5
FD74
  8
0
 66
     1
 10
0.0
 20
0.0
 30
0.0
 70
   128
  0
VERTEX
  5
10D91
  8
0
 10
331.38945266302682
 20
164.9678848463073
 30
0.0
  0
VERTEX
  5
10D92
  8
0
 10
331.37394427951432
 20
165.24740082798149
 30
0.0
  0
VERTEX
  5
10D93
  8
0
 10
331.21020286973572
 20
166.18803662834321
 30
0.0
  0
VERTEX
  5
10D94
  8
0
 10
330.87856262620539
 20
167.0949101227298
 30
0.0
  0
VERTEX
  5
10D95
  8
0
 10
330.38719311054803
 20
167.94568819580229
 30
0.0
  0
VERTEX
  5
10D96
  8
0
 10
329.7481940656528
 20
168.7194235402122
 30
0.0
  0
VERTEX
  5
10D97
  8
0
 10
328.97729739245028
 20
169.39706502137329
 30
0.0
  0
VERTEX
  5
10D98
  8
0
 10
328.09348717030139
 20
169.96192333874851
 30
0.0
  0
VERTEX
  5
10D99
  8
0
 10
327.11852281983943
 20
170.4000919836536
 30
0.0
  0
VERTEX
  5
10D9A
  8
0
 10
326.07641383703799
 20
170.70078251538419
 30
0.0
  0
VERTEX
  5
10D9B
  8
0
 10
324.99282374676318
 20
170.85658905682709
 30
0.0
  0
VERTEX
  5
10D9C
  8
0
 10
323.89442562755198
 20
170.86368200955539
 30
0.0
  0
VERTEX
  5
10D9D
  8
0
 10
322.80827253755177
 20
170.72187510905411
 30
0.0
  0
VERTEX
  5
10D9E
  8
0
 10
321.76110461052508
 20
170.43466267762329
 30
0.0
  0
VERTEX
  5
10D9F
  8
0
 10
320.77870830591769
 20
170.00912649212029
 30
0.0
  0
VERTEX
  5
10DA0
  8
0
 10
319.88527565892792
 20
169.4557383435741
 30
0.0
  0
VERTEX
  5
10DA1
  8
0
 10
319.10280450876797
 20
168.78812161860611
 30
0.0
  0
VERTEX
  5
10DA2
  8
0
 10
318.45056205686183
 20
168.02271974859389
 30
0.0
  0
VERTEX
  5
10DA3
  8
0
 10
317.94460802968592
 20
167.1783752518669
 30
0.0
  0
VERTEX
  5
10DA4
  8
0
 10
317.59739979799838
 20
166.27588642416151
 30
0.0
  0
VERTEX
  5
10DA5
  8
0
 10
317.41749062832452
 20
165.33746344623711
 30
0.0
  0
VERTEX
  5
10DA6
  8
0
 10
317.39162593778218
 20
164.8168131488338
 30
0.0
  0
SEQEND
  5
10DA7
  8
0
  0
LINE
  5
FD75
  8
0
 10
317.58967354591942
 20
155.86327535686641
 30
0.0
 11
318.93262952264399
 21
151.07842681584509
 31
0.0
  0
LINE
  5
FD76
  8
0
 10
329.85062092240901
 20
151.07842681584509
 30
0.0
 11
331.19357689913357
 21
155.86327535686641
 31
0.0
  0
LINE
  5
FD77
  8
0
 10
331.39162450727082
 20
157.29509440837049
 30
0.0
 11
331.39162450727082
 21
164.8168131488338
 31
0.0
  0
LINE
  5
FD78
  8
0
 10
317.39162593778218
 20
164.8168131488338
 30
0.0
 11
317.39162593778218
 21
157.29509440837049
 31
0.0
  0
LINE
  5
FD79
  8
0
 10
320.39162456687541
 20
139.79510737238081
 30
0.0
 11
320.39162456687541
 21
138.79510534582289
 31
0.0
  0
LINE
  5
FD7A
  8
0
 10
320.39162456687541
 20
151.64510680017619
 30
0.0
 11
320.39162456687541
 21
143.79510430274161
 31
0.0
  0
LINE
  5
FD7B
  8
0
 10
328.39162587817759
 20
143.79510430274161
 30
0.0
 11
328.39162587817759
 21
151.64510680017619
 31
0.0
  0
LINE
  5
FD7C
  8
0
 10
328.39162587817759
 20
138.79510534582289
 30
0.0
 11
328.39162587817759
 21
139.79510737238081
 31
0.0
  0
LINE
  5
FD7D
  8
0
 10
329.85062092240901
 20
151.07842681584509
 30
0.0
 11
329.88666310604663
 21
151.21543926773219
 31
0.0
  0
LINE
  5
FD7E
  8
0
 10
318.90290170606232
 20
151.1900551396385
 30
0.0
 11
318.93262952264399
 21
151.07842681584509
 31
0.0
  0
POLYLINE
  5
FD7F
  8
0
 66
     1
 10
0.0
 20
0.0
 30
0.0
 70
   128
  0
VERTEX
  5
10DA8
  8
0
 10
331.19357689913357
 20
155.86327535686641
 30
0.0
  0
VERTEX
  5
10DA9
  8
0
 10
331.3657598167286
 20
156.77444411096721
 30
0.0
  0
VERTEX
  5
10DAA
  8
0
 10
331.37394427951432
 20
157.72568208751829
 30
0.0
  0
VERTEX
  5
10DAB
  8
0
 10
331.21020286973572
 20
158.6663178878799
 30
0.0
  0
VERTEX
  5
10DAC
  8
0
 10
330.87856262620539
 20
159.5731913822666
 30
0.0
  0
VERTEX
  5
10DAD
  8
0
 10
330.38719311054803
 20
160.42396945533901
 30
0.0
  0
VERTEX
  5
10DAE
  8
0
 10
329.7481940656528
 20
161.19770479974889
 30
0.0
  0
VERTEX
  5
10DAF
  8
0
 10
328.97729739245028
 20
161.87534628091009
 30
0.0
  0
VERTEX
  5
10DB0
  8
0
 10
328.09348717030139
 20
162.44020459828519
 30
0.0
  0
VERTEX
  5
10DB1
  8
0
 10
327.11852281983943
 20
162.87837324319031
 30
0.0
  0
VERTEX
  5
10DB2
  8
0
 10
326.07641383703799
 20
163.17906377492099
 30
0.0
  0
VERTEX
  5
10DB3
  8
0
 10
324.99282374676318
 20
163.33487404165419
 30
0.0
  0
VERTEX
  5
10DB4
  8
0
 10
323.89442562755198
 20
163.34195954380181
 30
0.0
  0
VERTEX
  5
10DB5
  8
0
 10
322.80827253755177
 20
163.20015636859091
 30
0.0
  0
VERTEX
  5
10DB6
  8
0
 10
321.76110461052508
 20
162.91294766245039
 30
0.0
  0
VERTEX
  5
10DB7
  8
0
 10
320.77870830591769
 20
162.48740775165709
 30
0.0
  0
VERTEX
  5
10DB8
  8
0
 10
319.88527565892792
 20
161.93401960311081
 30
0.0
  0
VERTEX
  5
10DB9
  8
0
 10
319.10280450876797
 20
161.26640287814291
 30
0.0
  0
VERTEX
  5
10DBA
  8
0
 10
318.45056205686183
 20
160.5010010081306
 30
0.0
  0
VERTEX
  5
10DBB
  8
0
 10
317.94460802968592
 20
159.65665651140361
 30
0.0
  0
VERTEX
  5
10DBC
  8
0
 10
317.59739979799838
 20
158.7541676836982
 30
0.0
  0
VERTEX
  5
10DBD
  8
0
 10
317.41749062832452
 20
157.81574843106421
 30
0.0
  0
VERTEX
  5
10DBE
  8
0
 10
317.40930616553868
 20
156.8645067292228
 30
0.0
  0
VERTEX
  5
10DBF
  8
0
 10
317.57304757531728
 20
155.92387092886119
 30
0.0
  0
VERTEX
  5
10DC0
  8
0
 10
317.58967354591942
 20
155.86327535686641
 30
0.0
  0
SEQEND
  5
10DC1
  8
0
  0
LINE
  5
FD80
  8
0
 10
331.39162450727082
 20
164.8168131488338
 30
0.0
 11
331.38945266302682
 21
164.9678848463073
 31
0.0
  0
LINE
  5
FD81
  8
1
 10
324.3916252225265
 20
119.0591989885864
 30
0.0
 11
324.3916252225265
 21
176.27209579559519
 31
0.0
  0
LINE
  5
1062A
  8
0
 10
445.97916450574928
 20
297.15225629472928
 30
0.0
 11
449.84980914262991
 21
287.6839855050722
 31
0.0
  0
LINE
  5
1062B
  8
0
 10
440.1192467973035
 20
282.06604245884409
 30
0.0
 11
433.85480935748473
 21
290.1522557384144
 31
0.0
  0
LINE
  5
1062C
  8
0
 10
433.85480935748473
 20
290.1522557384144
 30
0.0
 11
426.33309338303002
 21
303.1802531601839
 31
0.0
  0
LINE
  5
1062D
  8
0
 10
438.45744853129457
 20
310.1802537164989
 30
0.0
 11
445.97916450574928
 21
297.15225629472928
 31
0.0
  0
ARC
  5
1062E
  8
0
 10
437.37489359808978
 20
309.55528796794408
 30
0.0
 40
1.2500006828506069
 50
29.998183398075739
 51
105.98905878568139
  0
ARC
  5
1062F
  8
0
 10
443.91684029980178
 20
286.72396434938742
 30
0.0
 40
25.00000136570722
 50
120.0000000000001
 51
134.01043897978889
  0
ARC
  5
10630
  8
0
 10
443.91713435831838
 20
286.72413412415102
 30
0.0
 40
25.00000136570722
 50
105.9895610202211
 51
120.0000000000001
  0
ARC
  5
10631
  8
0
 10
431.41579522005679
 20
308.37676615320993
 30
0.0
 40
0.0024015206803624
 50
295.72278230736578
 51
303.85457292204831
  0
ARC
  5
10632
  8
0
 10
440.90977443588667
 20
282.67846909297901
 30
0.0
 40
0.9999999999999674
 50
217.7651660184207
 51
299.9998036117874
  0
ARC
  5
10633
  8
0
 10
448.92416895321497
 20
287.30558192495022
 30
0.0
 40
1.000000000000022
 50
300.00019638823852
 51
22.23483398156764
  0
LINE
  5
10634
  8
0
 10
449.4241744060177
 20
286.4395587910771
 30
0.0
 11
448.62127001959209
 21
285.97599314616599
 31
0.0
  0
LINE
  5
10635
  8
0
 10
442.21267985427698
 20
282.27599543078549
 30
0.0
 11
441.40976951455349
 21
281.81244182620179
 31
0.0
  0
LINE
  5
10636
  8
0
 10
449.03107426903051
 20
285.86618635820548
 30
0.0
 11
468.6964174097954
 21
251.80481611027531
 31
0.0
  0
LINE
  5
10637
  8
0
 10
461.76821537737919
 20
247.80481686572861
 30
0.0
 11
442.10287442986731
 21
281.86618609250598
 31
0.0
  0
LINE
  5
10638
  8
0
 10
442.10287442986731
 20
281.86618609250598
 30
0.0
 11
442.21267985427698
 21
282.27599543078549
 31
0.0
  0
LINE
  5
10639
  8
0
 10
448.62127001959209
 20
285.97599314616599
 30
0.0
 11
449.03107426903051
 21
285.86618635820548
 31
0.0
  0
POLYLINE
  5
1063A
  8
0
 66
     1
 10
0.0
 20
0.0
 30
0.0
 70
   128
  0
VERTEX
  5
10DC2
  8
0
 10
433.85480935748473
 20
290.1522557384144
 30
0.0
  0
VERTEX
  5
10DC3
  8
0
 10
433.87012059223912
 20
290.16109534717879
 30
0.0
  0
VERTEX
  5
10DC4
  8
0
 10
434.01192429010428
 20
290.24296514680412
 30
0.0
  0
VERTEX
  5
10DC5
  8
0
 10
434.29913308108189
 20
290.40878512162732
 30
0.0
  0
VERTEX
  5
10DC6
  8
0
 10
434.72467066498268
 20
290.65447204710671
 30
0.0
  0
VERTEX
  5
10DC7
  8
0
 10
435.27805944219261
 20
290.97397048067722
 30
0.0
  0
VERTEX
  5
10DC8
  8
0
 10
435.9456758560197
 20
291.35941935619007
 30
0.0
  0
VERTEX
  5
10DC9
  8
0
 10
436.71107784327859
 20
291.80132426418771
 30
0.0
  0
VERTEX
  5
10DCA
  8
0
 10
437.55542365238222
 20
292.28880602896078
 30
0.0
  0
VERTEX
  5
10DCB
  8
0
 10
438.45791474209079
 20
292.80986119220353
 30
0.0
  0
VERTEX
  5
10DCC
  8
0
 10
439.39633586733743
 20
293.3516567191711
 30
0.0
  0
VERTEX
  5
10DCD
  8
0
 10
440.34757357986808
 20
293.90085437342867
 30
0.0
  0
VERTEX
  5
10DCE
  8
0
 10
441.2882095642185
 20
294.4439305997509
 30
0.0
  0
VERTEX
  5
10DCF
  8
0
 10
442.19508171173038
 20
294.9675150334744
 30
0.0
  0
VERTEX
  5
10DD0
  8
0
 10
443.04586082645369
 20
295.45871138158611
 30
0.0
  0
VERTEX
  5
10DD1
  8
0
 10
443.81959779618842
 20
295.90542675258092
 30
0.0
  0
VERTEX
  5
10DD2
  8
0
 10
444.49723687055439
 20
296.29666463370722
 30
0.0
  0
VERTEX
  5
10DD3
  8
0
 10
445.06209690872879
 20
296.62278474179402
 30
0.0
  0
VERTEX
  5
10DD4
  8
0
 10
445.50026575152191
 20
296.87576141262952
 30
0.0
  0
VERTEX
  5
10DD5
  8
0
 10
445.80095497881138
 20
297.04936592518641
 30
0.0
  0
VERTEX
  5
10DD6
  8
0
 10
445.95676629402982
 20
297.13932241928421
 30
0.0
  0
VERTEX
  5
10DD7
  8
0
 10
445.97916450574928
 20
297.15225629472928
 30
0.0
  0
SEQEND
  5
10DD8
  8
0
  0
POLYLINE
  5
1063B
  8
0
 66
     1
 10
0.0
 20
0.0
 30
0.0
 70
   128
  0
VERTEX
  5
10DD9
  8
0
 10
441.4097676519084
 20
281.81243860000581
 30
0.0
  0
VERTEX
  5
10DDA
  8
0
 10
441.43414537038501
 20
281.82651375348468
 30
0.0
  0
VERTEX
  5
10DDB
  8
0
 10
441.59677218923929
 20
281.92040723304871
 30
0.0
  0
VERTEX
  5
10DDC
  8
0
 10
441.90620962916267
 20
282.09906110707328
 30
0.0
  0
VERTEX
  5
10DDD
  8
0
 10
442.35056438490108
 20
282.35560698662869
 30
0.0
  0
VERTEX
  5
10DDE
  8
0
 10
442.9127569866352
 20
282.68019149964238
 30
0.0
  0
VERTEX
  5
10DDF
  8
0
 10
443.57118415172539
 20
283.06033375622962
 30
0.0
  0
VERTEX
  5
10DE0
  8
0
 10
444.30054860495551
 20
283.48143131694349
 30
0.0
  0
VERTEX
  5
10DE1
  8
0
 10
445.07281103096437
 20
283.92729888624382
 30
0.0
  0
VERTEX
  5
10DE2
  8
0
 10
445.85830463796577
 20
284.38080239246312
 30
0.0
  0
VERTEX
  5
10DE3
  8
0
 10
446.62683272603078
 20
284.82451578487769
 30
0.0
  0
VERTEX
  5
10DE4
  8
0
 10
447.34887162375242
 20
285.24138152023539
 30
0.0
  0
VERTEX
  5
10DE5
  8
0
 10
447.9966660285213
 20
285.61538585254488
 30
0.0
  0
VERTEX
  5
10DE6
  8
0
 10
448.54532121850178
 20
285.93215419869051
 30
0.0
  0
VERTEX
  5
10DE7
  8
0
 10
448.97375972854451
 20
286.17951291436788
 30
0.0
  0
VERTEX
  5
10DE8
  8
0
 10
449.26551218861272
 20
286.34795754616869
 30
0.0
  0
VERTEX
  5
10DE9
  8
0
 10
449.40936813429448
 20
286.43101265865181
 30
0.0
  0
VERTEX
  5
10DEA
  8
0
 10
449.4241744060177
 20
286.4395587910771
 30
0.0
  0
SEQEND
  5
10DEB
  8
0
  0
POLYLINE
  5
1063C
  8
0
 66
     1
 10
0.0
 20
0.0
 30
0.0
 70
   128
  0
VERTEX
  5
10DEC
  8
0
 10
451.73992231212549
 20
269.30134119012979
 30
0.0
  0
VERTEX
  5
10DED
  8
0
 10
452.13522098808539
 20
269.5295662113669
 30
0.0
  0
VERTEX
  5
10DEE
  8
0
 10
452.55094854668999
 20
269.76958655711712
 30
0.0
  0
VERTEX
  5
10DEF
  8
0
 10
452.9804849903777
 20
270.01758035094929
 30
0.0
  0
VERTEX
  5
10DF0
  8
0
 10
453.41697335614163
 20
270.26958722643468
 30
0.0
  0
VERTEX
  5
10DF1
  8
0
 10
453.85346681074651
 20
270.5215954654708
 30
0.0
  0
VERTEX
  5
10DF2
  8
0
 10
454.28299977869108
 20
270.76958696442961
 30
0.0
  0
VERTEX
  5
10DF3
  8
0
 10
454.698729199941
 20
271.00961053637587
 30
0.0
  0
VERTEX
  5
10DF4
  8
0
 10
455.09402440015759
 20
271.23783326273951
 30
0.0
  0
SEQEND
  5
10DF5
  8
0
  0
LINE
  5
1063D
  8
0
 10
455.09402440015759
 20
271.23783326273951
 30
0.0
 11
459.09402627895508
 21
264.30963249225368
 31
0.0
  0
POLYLINE
  5
1063E
  8
0
 66
     1
 10
0.0
 20
0.0
 30
0.0
 70
   128
  0
VERTEX
  5
10DF6
  8
0
 10
459.09402627895508
 20
264.30963249225368
 30
0.0
  0
VERTEX
  5
10DF7
  8
0
 10
458.69872921609362
 20
264.08140653969411
 30
0.0
  0
VERTEX
  5
10DF8
  8
0
 10
458.28300165748868
 20
263.84138619394378
 30
0.0
  0
VERTEX
  5
10DF9
  8
0
 10
457.85346521380092
 20
263.59339240011161
 30
0.0
  0
VERTEX
  5
10DFA
  8
0
 10
457.41697523493917
 20
263.34138645594879
 30
0.0
  0
VERTEX
  5
10DFB
  8
0
 10
456.98048339343222
 20
263.08937728559022
 30
0.0
  0
VERTEX
  5
10DFC
  8
0
 10
456.55094949416491
 20
262.84138417353319
 30
0.0
  0
VERTEX
  5
10DFD
  8
0
 10
456.13522032246237
 20
262.60136475910559
 30
0.0
  0
VERTEX
  5
10DFE
  8
0
 10
455.73992325960052
 20
262.37313880654602
 30
0.0
  0
SEQEND
  5
10DFF
  8
0
  0
LINE
  5
1063F
  8
0
 10
455.73992325960052
 20
262.37313880654602
 30
0.0
 11
451.73992231212549
 21
269.30134119012979
 31
0.0
  0
POLYLINE
  5
10640
  8
0
 66
     1
 10
0.0
 20
0.0
 30
0.0
 70
   128
  0
VERTEX
  5
10E00
  8
0
 10
442.10287442986731
 20
281.86618609250598
 30
0.0
  0
VERTEX
  5
10E01
  8
0
 10
442.12185098679618
 20
281.87714229572401
 30
0.0
  0
VERTEX
  5
10E02
  8
0
 10
442.2724186629132
 20
281.96407386250701
 30
0.0
  0
VERTEX
  5
10E03
  8
0
 10
442.56697522740882
 20
282.13413434308598
 30
0.0
  0
VERTEX
  5
10E04
  8
0
 10
442.99264761665171
 20
282.37989829607449
 30
0.0
  0
VERTEX
  5
10E05
  8
0
 10
443.53082706966268
 20
282.69061442585109
 30
0.0
  0
VERTEX
  5
10E06
  8
0
 10
444.15799572216179
 20
283.05271341345332
 30
0.0
  0
VERTEX
  5
10E07
  8
0
 10
444.8467479401308
 20
283.45036247356359
 30
0.0
  0
VERTEX
  5
10E08
  8
0
 10
445.56697689386971
 20
283.86618690713118
 30
0.0
  0
VERTEX
  5
10E09
  8
0
 10
446.28720075876703
 20
284.28200997714788
 30
0.0
  0
VERTEX
  5
10E0A
  8
0
 10
446.9759529767361
 20
284.6796590372582
 30
0.0
  0
VERTEX
  5
10E0B
  8
0
 10
447.60312162923509
 20
285.04175802486048
 30
0.0
  0
VERTEX
  5
10E0C
  8
0
 10
448.14130294489132
 20
285.35247738083308
 30
0.0
  0
VERTEX
  5
10E0D
  8
0
 10
448.56697347148901
 20
285.59823810762549
 30
0.0
  0
VERTEX
  5
10E0E
  8
0
 10
448.86153003598469
 20
285.76829858820457
 30
0.0
  0
VERTEX
  5
10E0F
  8
0
 10
449.01209771210159
 20
285.85523015498751
 30
0.0
  0
VERTEX
  5
10E10
  8
0
 10
449.03107426903051
 20
285.86618635820548
 30
0.0
  0
SEQEND
  5
10E11
  8
0
  0
POLYLINE
  5
10641
  8
0
 66
     1
 10
0.0
 20
0.0
 30
0.0
 70
   128
  0
VERTEX
  5
10E12
  8
0
 10
440.1192467973035
 20
282.06604245884409
 30
0.0
  0
VERTEX
  5
10E13
  8
0
 10
440.11925188614458
 20
282.06604382239487
 30
0.0
  0
VERTEX
  5
10E14
  8
0
 10
440.19424364596188
 20
282.10934271284992
 30
0.0
  0
VERTEX
  5
10E15
  8
0
 10
440.41478548191589
 20
282.23667153311368
 30
0.0
  0
VERTEX
  5
10E16
  8
0
 10
440.77417634034771
 20
282.44416487102541
 30
0.0
  0
VERTEX
  5
10E17
  8
0
 10
441.26149994727922
 20
282.72552156779528
 30
0.0
  0
VERTEX
  5
10E18
  8
0
 10
441.86194121685571
 20
283.07218767505492
 30
0.0
  0
VERTEX
  5
10E19
  8
0
 10
442.55726340843171
 20
283.47363157220877
 30
0.0
  0
VERTEX
  5
10E1A
  8
0
 10
443.32633580670631
 20
283.91765443821089
 30
0.0
  0
VERTEX
  5
10E1B
  8
0
 10
444.1457906192652
 20
284.3907680722603
 30
0.0
  0
VERTEX
  5
10E1C
  8
0
 10
444.99073312427288
 20
284.87859789124133
 30
0.0
  0
VERTEX
  5
10E1D
  8
0
 10
445.83548521204801
 20
285.3663139647378
 30
0.0
  0
VERTEX
  5
10E1E
  8
0
 10
446.65438317497552
 20
285.83910385686482
 30
0.0
  0
VERTEX
  5
10E1F
  8
0
 10
447.42254110535168
 20
286.28260080044942
 30
0.0
  0
VERTEX
  5
10E20
  8
0
 10
448.1166203802581
 20
286.68332986483762
 30
0.0
  0
VERTEX
  5
10E21
  8
0
 10
448.71553658305919
 20
287.02911281597818
 30
0.0
  0
VERTEX
  5
10E22
  8
0
 10
449.20108450434492
 20
287.30944284465539
 30
0.0
  0
VERTEX
  5
10E23
  8
0
 10
449.55851484783369
 20
287.51580544757809
 30
0.0
  0
VERTEX
  5
10E24
  8
0
 10
449.77696831498849
 20
287.64193109509063
 30
0.0
  0
VERTEX
  5
10E25
  8
0
 10
449.84980914262991
 20
287.6839855050722
 30
0.0
  0
SEQEND
  5
10E26
  8
0
  0
POLYLINE
  5
10642
  8
0
 66
     1
 10
0.0
 20
0.0
 30
0.0
 70
   128
  0
VERTEX
  5
10E27
  8
0
 10
426.33309338303002
 20
303.1802531601839
 30
0.0
  0
VERTEX
  5
10E28
  8
0
 10
426.34840139158831
 20
303.1890946315936
 30
0.0
  0
VERTEX
  5
10E29
  8
0
 10
426.49020831564962
 20
303.27096256857379
 30
0.0
  0
VERTEX
  5
10E2A
  8
0
 10
426.77741710662713
 20
303.43678254339687
 30
0.0
  0
VERTEX
  5
10E2B
  8
0
 10
427.20295469052797
 20
303.68246946887632
 30
0.0
  0
VERTEX
  5
10E2C
  8
0
 10
427.75634024154181
 20
304.00196976509193
 30
0.0
  0
VERTEX
  5
10E2D
  8
0
 10
428.42395665536901
 20
304.38741864060489
 30
0.0
  0
VERTEX
  5
10E2E
  8
0
 10
429.18936186882388
 20
304.82932168595732
 30
0.0
  0
VERTEX
  5
10E2F
  8
0
 10
430.03370122553531
 20
305.31680717602057
 30
0.0
  0
VERTEX
  5
10E30
  8
0
 10
430.9361955414401
 20
305.83786047661818
 30
0.0
  0
VERTEX
  5
10E31
  8
0
 10
431.87461666668668
 20
306.37965600358592
 30
0.0
  0
VERTEX
  5
10E32
  8
0
 10
432.82585437921722
 20
306.92885365784338
 30
0.0
  0
VERTEX
  5
10E33
  8
0
 10
433.76649358976368
 20
307.47192802152063
 30
0.0
  0
VERTEX
  5
10E34
  8
0
 10
434.67336573727562
 20
307.99551245524412
 30
0.0
  0
VERTEX
  5
10E35
  8
0
 10
435.52414162580288
 20
308.4867106660007
 30
0.0
  0
VERTEX
  5
10E36
  8
0
 10
436.29787536934168
 20
308.93342789964089
 30
0.0
  0
VERTEX
  5
10E37
  8
0
 10
436.97551766990358
 20
309.32466391812198
 30
0.0
  0
VERTEX
  5
10E38
  8
0
 10
437.54038093427403
 20
309.65078216356352
 30
0.0
  0
VERTEX
  5
10E39
  8
0
 10
437.97854977706709
 20
309.90375883439918
 30
0.0
  0
VERTEX
  5
10E3A
  8
0
 10
438.27923577816068
 20
310.07736520960123
 30
0.0
  0
VERTEX
  5
10E3B
  8
0
 10
438.43504523073392
 20
310.16731847750287
 30
0.0
  0
VERTEX
  5
10E3C
  8
0
 10
438.45744853129457
 20
310.1802537164989
 30
0.0
  0
SEQEND
  5
10E3D
  8
0
  0
POLYLINE
  5
10643
  8
0
 66
     1
 10
0.0
 20
0.0
 30
0.0
 70
   128
  0
VERTEX
  5
10E3E
  8
0
 10
426.5471058547779
 20
304.70429841226991
 30
0.0
  0
VERTEX
  5
10E3F
  8
0
 10
426.57599943640002
 20
304.72097986373859
 30
0.0
  0
VERTEX
  5
10E40
  8
0
 10
426.74387498319697
 20
304.81789963416838
 30
0.0
  0
VERTEX
  5
10E41
  8
0
 10
427.05688092358031
 20
304.9986141612269
 30
0.0
  0
VERTEX
  5
10E42
  8
0
 10
427.50601792695232
 20
305.25792225643568
 30
0.0
  0
VERTEX
  5
10E43
  8
0
 10
428.07836104308132
 20
305.58836821282472
 30
0.0
  0
VERTEX
  5
10E44
  8
0
 10
428.75744871787282
 20
305.98043876285391
 30
0.0
  0
VERTEX
  5
10E45
  8
0
 10
429.52374618121638
 20
306.42285905022408
 30
0.0
  0
VERTEX
  5
10E46
  8
0
 10
430.35520502371622
 20
306.9029061941165
 30
0.0
  0
VERTEX
  5
10E47
  8
0
 10
431.22790519307341
 20
307.40676130032188
 30
0.0
  0
VERTEX
  5
10E48
  8
0
 10
432.11674628369627
 20
307.91993194958712
 30
0.0
  0
VERTEX
  5
10E49
  8
0
 10
432.9961544581983
 20
308.42765705770029
 30
0.0
  0
VERTEX
  5
10E4A
  8
0
 10
433.84082548987681
 20
308.91532959546703
 30
0.0
  0
VERTEX
  5
10E4B
  8
0
 10
434.62646780519287
 20
309.36891930868921
 30
0.0
  0
VERTEX
  5
10E4C
  8
0
 10
435.33047614511992
 20
309.77537957462579
 30
0.0
  0
VERTEX
  5
10E4D
  8
0
 10
435.93259950482383
 20
310.12301454591318
 30
0.0
  0
VERTEX
  5
10E4E
  8
0
 10
436.41551288445589
 20
310.4018287020557
 30
0.0
  0
VERTEX
  5
10E4F
  8
0
 10
436.7653304334894
 20
310.60378979271798
 30
0.0
  0
VERTEX
  5
10E50
  8
0
 10
436.97197723942247
 20
310.723100265619
 30
0.0
  0
VERTEX
  5
10E51
  8
0
 10
437.03057696000928
 20
310.75693178600312
 30
0.0
  0
SEQEND
  5
10E52
  8
0
  0
LINE
  5
10644
  8
1
 10
471.41697487235427
 20
239.0926736042714
 30
0.0
 11
428.91007160554477
 21
312.71678973480198
 31
0.0
  0
ARC
  5
10645
  8
0
 10
427.41560145348052
 20
303.80528796731591
 30
0.0
 40
1.2500006828506049
 50
134.01094121430179
 51
210.00181660193309
  0
LINE
  5
10646
  8
0
 10
460.55306448096582
 20
249.90951992983841
 30
0.0
 11
458.33180236071678
 21
244.070452292346
 31
0.0
  0
ARC
  5
10648
  8
0
 10
468.12346620890821
 20
241.68496939646991
 30
0.0
 40
10.00000000000021
 50
134.14569851352081
 51
159.17250306798741
  0
ARC
  5
107EB
  8
0
 10
471.41697487235228
 20
224.5926739134722
 30
0.0
 40
2.3499999999999721
 50
136.66073414726671
 51
43.339265852730747
  0
ARC
  5
107EC
  8
0
 10
471.41697487235228
 20
224.5926739134722
 30
0.0
 40
2.000000000000012
 50
128.72363584253841
 51
51.276364157460002
  0
LINE
  5
107ED
  8
0
 10
470.43252255674611
 20
225.1961528890663
 30
0.0
 11
471.44737681186388
 21
225.74697431259679
 31
0.0
  0
LINE
  5
107EE
  8
0
 10
470.40212057903568
 20
224.04185259797509
 30
0.0
 11
470.43252255674611
 21
225.1961528890663
 31
0.0
  0
LINE
  5
107EF
  8
0
 10
471.38657293284058
 20
223.43837373041441
 30
0.0
 11
470.40212057903568
 21
224.04185259797509
 31
0.0
  0
LINE
  5
107F0
  8
0
 10
472.40142718795852
 20
223.9891949211142
 30
0.0
 11
471.38657293284058
 21
223.43837373041441
 31
0.0
  0
LINE
  5
107F1
  8
0
 10
472.43182916566889
 20
225.14349497937479
 30
0.0
 11
472.40142718795852
 21
223.9891949211142
 31
0.0
  0
LINE
  5
107F2
  8
0
 10
471.44737681186388
 20
225.74697431259679
 30
0.0
 11
472.43182916566889
 21
225.14349497937479
 31
0.0
  0
TEXT
  5
10A0C
  8
0
 62
     3
 10
0.0
 20
0.0
 30
0.0
 40
10.0
  1
QLRCF-08R
  7
STANDARD1
  0
ENDSEC
  0
EOF
