  0
SECTION
  2
HEADER
  9
$ACADVER
  1
AC1009
  9
$INSBASE
 10
0.0
 20
0.0
 30
0.0
  9
$EXTMIN
 10
0.0
 20
-2.960436562073669
 30
0.0
  9
$EXTMAX
 10
615.24458248132032
 20
535.80062396796518
 30
0.0
  9
$LIMMIN
 10
0.0
 20
0.0
  9
$LIMMAX
 10
375.0
 20
270.0
  9
$ORTHOMODE
 70
     1
  9
$REGENMODE
 70
     1
  9
$FILLMODE
 70
     1
  9
$QTEXTMODE
 70
     0
  9
$MIRRTEXT
 70
     0
  9
$DRAGMODE
 70
     2
  9
$LTSCALE
 40
10.0
  9
$OSMODE
 70
  3071
  9
$ATTMODE
 70
     1
  9
$TEXTSIZE
 40
6.0
  9
$TRACEWID
 40
0.05
  9
$TEXTSTYLE
  7
STANDARD
  9
$CLAYER
  8
0
  9
$CELTYPE
  6
BYLAYER
  9
$CECOLOR
 62
   256
  9
$DIMSCALE
 40
1.0
  9
$DIMASZ
 40
3.0
  9
$DIMEXO
 40
2.0
  9
$DIMDLI
 40
0.3799999999999999
  9
$DIMRND
 40
0.0
  9
$DIMDLE
 40
0.0
  9
$DIMEXE
 40
2.0
  9
$DIMTP
 40
0.0
  9
$DIMTM
 40
0.0
  9
$DIMTXT
 40
3.2000000000000002
  9
$DIMCEN
 40
0.09
  9
$DIMTSZ
 40
0.0
  9
$DIMTOL
 70
     0
  9
$DIMLIM
 70
     0
  9
$DIMTIH
 70
     0
  9
$DIMTOH
 70
     0
  9
$DIMSE1
 70
     0
  9
$DIMSE2
 70
     0
  9
$DIMTAD
 70
     1
  9
$DIMZIN
 70
     9
  9
$DIMBLK
  1

  9
$DIMASO
 70
     0
  9
$DIMSHO
 70
     0
  9
$DIMPOST
  1

  9
$DIMAPOST
  1

  9
$DIMALT
 70
     0
  9
$DIMALTD
 70
     2
  9
$DIMALTF
 40
25.399999999999999
  9
$DIMLFAC
 40
1.0
  9
$DIMTOFL
 70
     0
  9
$DIMTVP
 40
0.0
  9
$DIMTIX
 70
     0
  9
$DIMSOXD
 70
     0
  9
$DIMSAH
 70
     0
  9
$DIMBLK1
  1

  9
$DIMBLK2
  1

  9
$DIMSTYLE
  2
STANDARD
  9
$DIMCLRD
 70
     0
  9
$DIMCLRE
 70
     0
  9
$DIMCLRT
 70
     0
  9
$DIMTFAC
 40
1.0
  9
$DIMGAP
 40
0.09
  9
$LUNITS
 70
     2
  9
$LUPREC
 70
     4
  9
$SKETCHINC
 40
0.1
  9
$FILLETRAD
 40
20.0
  9
$AUNITS
 70
     0
  9
$AUPREC
 70
     0
  9
$MENU
  1
E:\r13\win\SUPPORT\ACAD
  9
$ELEVATION
 40
0.0
  9
$PELEVATION
 40
0.0
  9
$THICKNESS
 40
0.0
  9
$LIMCHECK
 70
     0
  9
$BLIPMODE
 70
     0
  9
$CHAMFERA
 40
0.0
  9
$CHAMFERB
 40
0.0
  9
$SKPOLY
 70
     0
  9
$TDCREATE
 40
2449840.6320370371
  9
$TDUPDATE
 40
2456598.429510741
  9
$TDINDWG
 40
0.6675853125
  9
$TDUSRTIMER
 40
0.6675853125
  9
$USRTIMER
 70
     1
  9
$ANGBASE
 50
0.0
  9
$ANGDIR
 70
     0
  9
$PDMODE
 70
     0
  9
$PDSIZE
 40
0.0
  9
$PLINEWID
 40
0.0
  9
$COORDS
 70
     1
  9
$SPLFRAME
 70
     0
  9
$SPLINETYPE
 70
     6
  9
$SPLINESEGS
 70
     8
  9
$ATTDIA
 70
     0
  9
$ATTREQ
 70
     1
  9
$HANDLING
 70
     1
  9
$HANDSEED
  5
115EC
  9
$SURFTAB1
 70
     6
  9
$SURFTAB2
 70
     6
  9
$SURFTYPE
 70
     6
  9
$SURFU
 70
     6
  9
$SURFV
 70
     6
  9
$UCSNAME
  2

  9
$UCSORG
 10
0.0
 20
0.0
 30
0.0
  9
$UCSXDIR
 10
1.0
 20
0.0
 30
0.0
  9
$UCSYDIR
 10
0.0
 20
1.0
 30
0.0
  9
$PUCSNAME
  2

  9
$PUCSORG
 10
0.0
 20
0.0
 30
0.0
  9
$PUCSXDIR
 10
1.0
 20
0.0
 30
0.0
  9
$PUCSYDIR
 10
0.0
 20
1.0
 30
0.0
  9
$USERI1
 70
     0
  9
$USERI2
 70
     1
  9
$USERI3
 70
     0
  9
$USERI4
 70
     0
  9
$USERI5
 70
     0
  9
$USERR1
 40
0.0
  9
$USERR2
 40
0.0
  9
$USERR3
 40
0.0
  9
$USERR4
 40
0.0
  9
$USERR5
 40
0.0
  9
$WORLDVIEW
 70
     1
  9
$SHADEDGE
 70
     3
  9
$SHADEDIF
 70
    70
  9
$TILEMODE
 70
     1
  9
$MAXACTVP
 70
    16
  9
$PLIMCHECK
 70
     0
  9
$PEXTMIN
 10
1.0000000000000000E+020
 20
1.0000000000000000E+020
 30
1.0000000000000000E+020
  9
$PEXTMAX
 10
-1.0000000000000000E+020
 20
-1.0000000000000000E+020
 30
-1.0000000000000000E+020
  9
$PLIMMIN
 10
0.0
 20
0.0
  9
$PLIMMAX
 10
12.0
 20
9.0
  9
$UNITMODE
 70
     0
  9
$VISRETAIN
 70
     0
  9
$PLINEGEN
 70
     0
  9
$PSLTSCALE
 70
     0
  0
ENDSEC
  0
SECTION
  2
TABLES
  0
TABLE
  2
VPORT
 70
     1
  0
VPORT
  2
*ACTIVE
 70
     0
 10
0.0
 20
0.0
 11
1.0
 21
1.0
 12
307.62229267313791
 22
297.71890015689058
 13
0.0
 23
0.0
 14
10.0
 24
10.0
 15
10.0
 25
10.0
 16
0.0
 26
0.0
 36
1.0
 17
0.0
 27
0.0
 37
0.0
 40
608.99225424628651
 41
2.304913294797688
 42
50.0
 43
0.0
 44
0.0
 50
0.0
 51
0.0
 71
     0
 72
   500
 73
     1
 74
     0
 75
     0
 76
     0
 77
     0
 78
     0
  0
ENDTAB
  0
TABLE
  2
LTYPE
 70
     3
  0
LTYPE
  2
CONTINUOUS
 70
     0
  3
Solid Line
 72
    65
 73
     0
 40
0.0
  0
LTYPE
  2
CENTER
 70
     0
  3
____ _ ____ _ ____ _ ____ _ ____ _ ____ _ ____
 72
    65
 73
     4
 40
2.0
 49
1.25
 49
-0.25
 49
0.25
 49
-0.25
  0
LTYPE
  2
PHANTOM2
 70
     0
  3
___ _ _ ___ _ _ ___ _ _ ___ _ _
 72
    65
 73
     6
 40
1.25
 49
0.625
 49
-0.125
 49
0.125
 49
-0.125
 49
0.125
 49
-0.125
  0
ENDTAB
  0
TABLE
  2
LAYER
 70
     3
  0
LAYER
  2
0
 70
     0
 62
     7
  6
CONTINUOUS
  0
LAYER
  2
1
 70
     0
 62
     1
  6
CENTER
  0
LAYER
  2
DEFPOINTS
 70
     0
 62
     7
  6
CONTINUOUS
  0
ENDTAB
  0
TABLE
  2
STYLE
 70
     2
  0
STYLE
  2
STANDARD
 70
     0
 40
0.0
 41
1.0
 50
0.0
 71
     0
 42
6.0
  3
TXT
  4
BIGFONT
  0
STYLE
  2
STANDARD1
 70
     0
 40
0.0
 41
1.0
 50
0.0
 71
     0
 42
3.0
  3
txt
  4

  0
ENDTAB
  0
TABLE
  2
VIEW
 70
     1
  0
VIEW
  2
ALL
 70
     0
 40
270.0
 10
213.25689075630251
 20
135.0
 41
0.0
 11
0.0
 21
0.0
 31
1.0
 12
0.0
 22
0.0
 32
0.0
 42
0.0
 43
0.0
 44
0.0
 50
0.0
 71
     0
  0
ENDTAB
  0
TABLE
  2
UCS
 70
     0
  0
ENDTAB
  0
TABLE
  2
APPID
 70
     6
  0
APPID
  2
ACAD
 70
     0
  0
APPID
  2
ACAD_EXEMPT_FROM_CAD_STANDARDS
 70
     0
  0
APPID
  2
ACAD_MLEADERVER
 70
     0
  0
APPID
  2
ACAD_DSTYLE_DIMJAG
 70
     0
  0
APPID
  2
ACAD_DSTYLE_DIMTALN
 70
     0
  0
APPID
  2
ACAD_NAV_VCDISPLAY
 70
     0
  0
ENDTAB
  0
TABLE
  2
DIMSTYLE
 70
     1
  0
DIMSTYLE
  2
STANDARD
 70
     0
  3

  4

  5

  6

  7

 40
1.0
 41
0.18
 42
0.0625
 43
0.38
 44
0.18
 45
0.0
 46
0.0
 47
0.0
 48
0.0
140
0.18
141
0.09
142
0.0
143
25.399999999999999
144
1.0
145
0.0
146
1.0
147
0.09
 71
     0
 72
     0
 73
     1
 74
     1
 75
     0
 76
     0
 77
     0
 78
     0
170
     0
171
     2
172
     0
173
     0
174
     0
175
     0
176
     0
177
     0
178
     0
  0
ENDTAB
  0
ENDSEC
  0
SECTION
  2
BLOCKS
  0
BLOCK
  8
0
  2
$MODEL_SPACE
 70
     0
 10
0.0
 20
0.0
 30
0.0
  3
$MODEL_SPACE
  1

  0
ENDBLK
  5
126
  8
0
  0
BLOCK
 67
     1
  8
0
  2
$PAPER_SPACE
 70
     0
 10
0.0
 20
0.0
 30
0.0
  3
$PAPER_SPACE
  1

  0
ENDBLK
  5
124
 67
     1
  8
0
  0
ENDSEC
  0
SECTION
  2
ENTITIES
  0
LINE
  5
C6F4
  8
0
 10
372.34122958954958
 20
334.56494384749368
 30
0.0
 11
373.64122929773657
 21
334.56494384749368
 31
0.0
  0
LINE
  5
C6F5
  8
0
 10
373.64122929773657
 20
366.56494536741212
 30
0.0
 11
372.34123068814
 21
366.56494536741212
 31
0.0
  0
LINE
  5
C6F6
  8
0
 10
372.34122929773639
 20
327.56494432991877
 30
0.0
 11
372.74123234353368
 21
327.56494432991877
 31
0.0
  0
LINE
  5
C6F7
  8
0
 10
372.74123234353368
 20
332.56494445099071
 30
0.0
 11
372.34122929773639
 21
332.56494445099071
 31
0.0
  0
LINE
  5
C6F8
  8
0
 10
300.24123070440601
 20
336.06494409336278
 30
0.0
 11
300.34123053453283
 21
336.05655194564298
 31
0.0
  0
LINE
  5
C6F9
  8
0
 10
300.34123053453283
 20
365.07333540661767
 30
0.0
 11
300.24123070440601
 21
365.06494605286548
 31
0.0
  0
LINE
  5
C6FA
  8
0
 10
292.34123108587568
 20
365.5649433408542
 30
0.0
 11
288.34123043022458
 21
363.2555427525802
 31
0.0
  0
LINE
  5
C6FB
  8
0
 10
288.34123043022458
 20
337.87434553100297
 30
0.0
 11
292.34123108587568
 21
335.5649440114064
 31
0.0
  0
LINE
  5
C6FC
  8
0
 10
298.84123121998618
 20
365.5649433408542
 30
0.0
 11
292.34123108587568
 21
365.5649433408542
 31
0.0
  0
LINE
  5
C6FD
  8
0
 10
292.34123108587568
 20
335.5649440114064
 30
0.0
 11
298.84123121998618
 21
335.5649440114064
 31
0.0
  0
LINE
  5
C6FE
  8
0
 10
298.84123121998618
 20
335.5649440114064
 30
0.0
 11
299.34123037062
 21
336.06494409336278
 31
0.0
  0
LINE
  5
C6FF
  8
0
 10
299.34123037062
 20
365.06494605286548
 30
0.0
 11
298.84123121998618
 21
365.5649433408542
 31
0.0
  0
LINE
  5
C700
  8
0
 10
299.34123037062
 20
336.06494409336278
 30
0.0
 11
300.24123070440601
 21
336.06494409336278
 31
0.0
  0
LINE
  5
C701
  8
0
 10
300.24123070440601
 20
365.06494605286548
 30
0.0
 11
299.34123037062
 21
365.06494605286548
 31
0.0
  0
LINE
  5
C702
  8
0
 10
300.34123053453283
 20
309.06494432433078
 30
0.0
 11
301.34123069844549
 21
308.06494416041801
 31
0.0
  0
LINE
  5
C703
  8
0
 10
301.34123069844549
 20
308.06494416041801
 30
0.0
 11
311.8412310225458
 21
308.06494416041801
 31
0.0
  0
LINE
  5
C704
  8
0
 10
301.34123069844549
 20
393.06494691713289
 30
0.0
 11
300.34123053453283
 21
392.06494489057491
 31
0.0
  0
LINE
  5
C705
  8
0
 10
311.8412310225458
 20
393.06494691713289
 30
0.0
 11
301.34123069844549
 21
393.06494691713289
 31
0.0
  0
ARC
  5
C706
  8
0
 10
311.8412309799532
 20
308.56494423492393
 30
0.0
 40
0.5
 50
270.0
 51
0.0
  0
ARC
  5
C707
  8
0
 10
311.8412309799532
 20
392.56494423492393
 30
0.0
 40
0.500000000000057
 50
0.0
 51
90.0
  0
LINE
  5
C708
  8
0
 10
337.34123101136993
 20
372.45889478667209
 30
0.0
 11
312.84123095362793
 21
372.45889478667209
 31
0.0
  0
LINE
  5
C709
  8
0
 10
312.84123095362793
 20
328.67099349691108
 30
0.0
 11
337.34123101136993
 21
328.67099349691108
 31
0.0
  0
LINE
  5
C70A
  8
0
 10
372.74123234353368
 20
327.56494432991877
 30
0.0
 11
372.74123234353368
 21
332.56494445099071
 31
0.0
  0
ARC
  5
C716
  8
0
 10
339.35616086965541
 20
351.33469935102607
 30
0.0
 40
0.4607195999956523
 50
0.0434716596511961
 51
180.0435788857952
  0
LINE
  5
C717
  8
0
 10
338.89596415362672
 20
350.64694756014779
 30
0.0
 11
339.81740167043517
 21
350.6476479147239
 31
0.0
  0
LINE
  5
C718
  8
0
 10
337.36218949458907
 20
348.06802780671552
 30
0.0
 11
338.89792179367851
 21
348.06919568522409
 31
0.0
  0
LINE
  5
C719
  8
0
 10
337.35971031389539
 20
351.33318142338231
 30
0.0
 11
337.36218949458907
 21
348.06802780671552
 31
0.0
  0
ARC
  5
C71A
  8
0
 10
339.35616086965541
 20
351.33469935102607
 30
0.0
 40
1.9964515999801351
 50
0.0435129004762914
 51
180.04353764497651
  0
LINE
  5
C71B
  8
0
 10
341.35509160957639
 20
348.07106205566362
 30
0.0
 11
341.35261242888282
 21
351.33621567233041
 31
0.0
  0
LINE
  5
C71C
  8
0
 10
339.81936117313222
 20
348.06989417715499
 30
0.0
 11
341.35509160957639
 21
348.07106205566362
 31
0.0
  0
LINE
  5
C71D
  8
0
 10
339.81844661436389
 20
349.27284629388288
 30
0.0
 11
339.81936117313222
 21
348.06989417715499
 31
0.0
  0
LINE
  5
C71E
  8
0
 10
339.81740167043517
 20
350.6476479147239
 30
0.0
 11
339.81688012979339
 21
351.33504965646699
 31
0.0
  0
LINE
  5
C71F
  8
0
 10
338.89700723491018
 20
349.27214593930671
 30
0.0
 11
339.81844661436389
 21
349.27284629388288
 31
0.0
  0
LINE
  5
C720
  8
0
 10
338.89792179367851
 20
348.06919568522409
 30
0.0
 11
338.89700723491018
 21
349.27214593930671
 31
0.0
  0
LINE
  5
C721
  8
0
 10
338.89544075033967
 20
351.33434930189088
 30
0.0
 11
338.89596415362672
 21
350.64694756014779
 31
0.0
  0
LINE
  5
C722
  8
0
 10
330.29534453205179
 20
351.32781514270738
 30
0.0
 11
330.29782464406799
 21
348.06266152604059
 31
0.0
  0
ARC
  5
C723
  8
0
 10
332.33741718420612
 20
351.42300910762731
 30
0.0
 40
2.0442900632568901
 50
54.68909744645017
 51
182.668969891307
  0
ARC
  5
C724
  8
0
 10
334.70320245155563
 20
351.42480629879321
 30
0.0
 40
2.044290063256839
 50
357.41808065414182
 51
125.3979530990003
  0
LINE
  5
C725
  8
0
 10
335.20968509517019
 20
351.33154974623159
 30
0.0
 11
335.21216613850902
 21
348.06639612956479
 31
0.0
  0
ARC
  5
C726
  8
0
 10
334.74896619939409
 20
351.33119902089021
 30
0.0
 40
0.4607195999954313
 50
0.0435252727199126
 51
180.04352527272641
  0
LINE
  5
C727
  8
0
 10
332.75499632261108
 20
348.06452789648012
 30
0.0
 11
334.29072675905542
 21
348.06569577498868
 31
0.0
  0
LINE
  5
C728
  8
0
 10
331.83355694315742
 20
348.0638294045491
 30
0.0
 11
331.83107589981859
 21
351.32898302121589
 31
0.0
  0
LINE
  5
C729
  8
0
 10
330.29782464406799
 20
348.06266152604059
 30
0.0
 11
331.83355694315742
 21
348.0638294045491
 31
0.0
  0
ARC
  5
C72A
  8
0
 10
332.2917957084137
 20
351.32933240807438
 30
0.0
 40
0.4607195999953745
 50
0.0435252727199126
 51
180.04352527272641
  0
LINE
  5
C72B
  8
0
 10
336.74789843759839
 20
348.06756214542821
 30
0.0
 11
336.74541739425968
 21
351.33271576209501
 31
0.0
  0
LINE
  5
C72C
  8
0
 10
334.29072675905542
 20
348.06569577498868
 30
0.0
 11
334.28824757836168
 21
351.33084939165548
 31
0.0
  0
LINE
  5
C72D
  8
0
 10
332.7525152792723
 20
351.32968151314691
 30
0.0
 11
332.75499632261108
 21
348.06452789648012
 31
0.0
  0
LINE
  5
C72E
  8
0
 10
335.21216613850902
 20
348.06639612956479
 30
0.0
 11
336.74789843759839
 21
348.06756214542821
 31
0.0
  0
LINE
  5
C72F
  8
0
 10
328.14780128798787
 20
348.06102798624471
 30
0.0
 11
329.68353265575479
 21
348.06219586475328
 31
0.0
  0
LINE
  5
C730
  8
0
 10
329.67935474268512
 20
353.56140234811738
 30
0.0
 11
328.14362337491821
 21
353.56023446960882
 31
0.0
  0
LINE
  5
C731
  8
0
 10
328.14362337491821
 20
353.56023446960882
 30
0.0
 11
328.14780128798787
 21
348.06102798624471
 31
0.0
  0
LINE
  5
C732
  8
0
 10
329.68353265575479
 20
348.06219586475328
 30
0.0
 11
329.67935474268512
 21
353.56140234811738
 31
0.0
  0
CIRCLE
  5
C733
  8
0
 10
344.5520211832918
 20
350.64764810817269
 30
0.0
 40
0.9214391999907434
  0
CIRCLE
  5
C734
  8
0
 10
344.5520211832918
 20
350.64764810817269
 30
0.0
 40
2.6208599999999929
  0
ARC
  5
C735
  8
0
 10
323.94316384164449
 20
350.52973907072379
 30
0.0
 40
2.622067808574863
 50
279.33601857369149
 51
307.58381908558658
  0
LINE
  5
C736
  8
0
 10
324.36544140479867
 20
352.0038826887174
 30
0.0
 11
324.36608122340749
 21
351.16128162785009
 31
0.0
  0
ARC
  5
C737
  8
0
 10
324.09964993241653
 20
346.46702561461922
 30
0.0
 40
3.1651607403416762
 50
96.608030022928887
 51
99.165005866589581
  0
LINE
  5
C738
  8
0
 10
323.7354147215874
 20
349.6111585323377
 30
0.0
 11
323.73499422944502
 21
350.16453923030332
 31
0.0
  0
ARC
  5
C739
  8
0
 10
324.1576921506412
 20
351.08530268197887
 30
0.0
 40
2.6220678085748532
 50
99.336018573691433
 51
127.5838190855866
  0
ARC
  5
C73A
  8
0
 10
324.15453333073128
 20
355.24350785672101
 30
0.0
 40
2.6220678085748288
 50
232.50323145985661
 51
260.7510319717482
  0
LINE
  5
C73B
  8
0
 10
323.73310224763458
 20
352.65552909417579
 30
0.0
 11
323.7323292498977
 21
353.67263765378431
 31
0.0
  0
ARC
  5
C73C
  8
0
 10
320.62794052616761
 20
350.80492147288948
 30
0.0
 40
0.8424586971344378
 50
180.0435607421945
 51
0.0434451930188062
  0
LINE
  5
C73D
  8
0
 10
319.78521351381551
 20
351.15780220671132
 30
0.0
 11
319.78548196754758
 21
350.80428147061298
 31
0.0
  0
LINE
  5
C73E
  8
0
 10
319.20602330617021
 20
351.1573607598109
 30
0.0
 11
319.78521351381551
 21
351.15780220671132
 31
0.0
  0
LINE
  5
C73F
  8
0
 10
319.20629199273299
 20
350.80384188635782
 30
0.0
 11
319.20602330617021
 21
351.1573607598109
 31
0.0
  0
ARC
  5
C740
  8
0
 10
320.73139903732948
 20
350.72251813989863
 30
0.0
 40
1.527273790038687
 50
176.9477245724284
 51
254.10813616549351
  0
ARC
  5
C741
  8
0
 10
320.76589097585389
 20
350.68745730590223
 30
0.0
 40
2.1419296238024161
 50
176.89703507056299
 51
257.81231478316357
  0
LINE
  5
C742
  8
0
 10
318.62683309852491
 20
351.15692117555568
 30
0.0
 11
318.62710178508769
 21
350.80340043945739
 31
0.0
  0
LINE
  5
C743
  8
0
 10
318.04764289087962
 20
351.15648159130052
 30
0.0
 11
318.62683309852491
 21
351.15692117555568
 31
0.0
  0
ARC
  5
C744
  8
0
 10
320.80038269898893
 20
350.65268000630692
 30
0.0
 40
2.756570699249083
 50
176.8748350594031
 51
259.84137374400672
  0
LINE
  5
C745
  8
0
 10
320.3146906537504
 20
347.2871976469321
 30
0.0
 11
320.31419519014071
 21
347.9393227521939
 31
0.0
  0
ARC
  5
C746
  8
0
 10
320.54493257243388
 20
350.77583295729369
 30
0.0
 40
3.4962251487327332
 50
59.16608930843487
 51
266.22408712698359
  0
ARC
  5
C747
  8
0
 10
324.25408649451953
 20
350.8076755874568
 30
0.0
 40
3.5352051428218312
 50
237.2463569769069
 51
122.8406935685417
  0
ARC
  5
C748
  8
0
 10
320.507574171128
 20
350.45975396229511
 30
0.0
 40
3.2023049263789272
 50
277.878704046736
 51
304.93670186527311
  0
LINE
  5
C749
  8
0
 10
320.9460393493564
 20
347.9398033146424
 30
0.0
 11
320.94653434730481
 21
347.28767634673551
 31
0.0
  0
ARC
  5
C74A
  8
0
 10
320.45572985558101
 20
350.65241818751281
 30
0.0
 40
2.7565706992490728
 50
280.2456768014398
 51
3.2122154860513632
  0
LINE
  5
C74B
  8
0
 10
323.2077008081169
 20
351.1604005966945
 30
0.0
 11
323.20796949467967
 21
350.8068817232413
 31
0.0
  0
LINE
  5
C74C
  8
0
 10
323.73423752985309
 20
351.16080106540159
 30
0.0
 11
323.2077008081169
 21
351.1604005966945
 31
0.0
  0
LINE
  5
C74D
  8
0
 10
323.73359724558298
 20
352.0034021262689
 30
0.0
 11
323.73423752985309
 21
351.16080106540159
 31
0.0
  0
ARC
  5
C74E
  8
0
 10
324.31875777860017
 20
350.9095735712404
 30
0.0
 40
2.8502572874417962
 50
140.53217560829731
 51
182.09133621754631
  0
ARC
  5
C74F
  8
0
 10
323.93958310662401
 20
355.24334456774938
 30
0.0
 40
2.622067808574863
 50
279.33601857369149
 51
307.58381908558658
  0
ARC
  5
C750
  8
0
 10
323.7832678159894
 20
350.68666977822801
 30
0.0
 40
2.837438674621493
 50
320.81020244669929
 51
355.33588872317841
  0
LINE
  5
C751
  8
0
 10
324.36661859653299
 20
350.45424015565351
 30
0.0
 11
324.36725841514181
 21
349.6116390947862
 31
0.0
  0
LINE
  5
C752
  8
0
 10
323.73668271727269
 20
347.94192300482229
 30
0.0
 11
323.7359101851971
 21
348.95903342707589
 31
0.0
  0
LINE
  5
C753
  8
0
 10
324.3677538787515
 20
348.95951212687919
 30
0.0
 11
324.36852687648837
 21
347.94240356727079
 31
0.0
  0
ARC
  5
C754
  8
0
 10
324.1807816219316
 20
355.18537000640242
 30
0.0
 40
3.2132366393076919
 50
230.0711552631621
 51
262.00021456259162
  0
ARC
  5
C755
  8
0
 10
324.14237705556479
 20
350.5201202247402
 30
0.0
 40
2.6099208569966912
 50
239.7290583165375
 51
261.05750239331451
  0
ARC
  5
C756
  8
0
 10
320.3412309799532
 20
350.56494423492393
 30
0.0
 40
3.385652738892392
 50
317.23381982692212
 51
329.34626416763388
  0
LINE
  5
C757
  8
0
 10
324.36608122340749
 20
351.16128162785009
 30
0.0
 11
326.61077351919721
 21
351.16298594816158
 31
0.0
  0
ARC
  5
C758
  8
0
 10
323.91342317560338
 20
355.1851669050285
 30
0.0
 40
3.2132366393075991
 50
278.08683598285688
 51
310.01589528229601
  0
ARC
  5
C759
  8
0
 10
323.78308451308112
 20
350.92796593370878
 30
0.0
 40
2.8374386746214628
 50
4.7511618222695207
 51
39.276848098747458
  0
ARC
  5
C75A
  8
0
 10
323.92007437035409
 20
346.42967174630041
 30
0.0
 40
3.2132366393075942
 50
50.071155263147837
 51
82.000214562591594
  0
LINE
  5
C75B
  8
0
 10
326.61130996100019
 20
350.4559463386102
 30
0.0
 11
324.36661859653299
 21
350.45424015565351
 31
0.0
  0
ARC
  5
C75C
  8
0
 10
320.26662320373538
 20
350.7058357546037
 30
0.0
 40
3.5103562100482919
 50
341.49648327665352
 51
351.1295979818168
  0
LINE
  5
C75D
  8
0
 10
324.3641729434521
 20
353.67311821623281
 30
0.0
 11
324.36494594118898
 21
352.65600965662429
 31
0.0
  0
ARC
  5
C75E
  8
0
 10
323.94274192653393
 20
351.08513939300678
 30
0.0
 40
2.6220678085749092
 50
52.503231459856671
 51
80.751031971748205
  0
LINE
  5
C75F
  8
0
 10
318.04791157744239
 20
350.80296085520217
 30
0.0
 11
318.04764289087962
 21
351.15648159130052
 31
0.0
  0
LINE
  5
C760
  8
0
 10
320.31369832954709
 20
348.59380410356948
 30
0.0
 11
320.31319681234072
 21
349.25361634536222
 31
0.0
  0
ARC
  5
C761
  8
0
 10
323.9463226615544
 20
346.37153389598149
 30
0.0
 40
2.6220678085748861
 50
52.503231459856671
 51
80.751031971748205
  0
ARC
  5
C762
  8
0
 10
324.12007520022507
 20
346.39233391215072
 30
0.0
 40
2.595289292283447
 50
98.51243141081909
 51
109.4991308438221
  0
LINE
  5
C763
  8
0
 10
320.94504050589512
 20
349.25409690781072
 30
0.0
 11
320.9455420231015
 21
348.59428466601798
 31
0.0
  0
ARC
  5
C764
  8
0
 10
320.52460733128419
 20
350.72236104862202
 30
0.0
 40
1.5272737900386031
 50
285.97891437995821
 51
3.1393259730211271
  0
LINE
  5
C765
  8
0
 10
322.0493203928263
 20
351.15952142818401
 30
0.0
 11
322.04958907938908
 21
350.80600069208577
 31
0.0
  0
LINE
  5
C766
  8
0
 10
322.62851083330219
 20
351.15996101243928
 30
0.0
 11
322.0493203928263
 21
351.15952142818401
 31
0.0
  0
LINE
  5
C767
  8
0
 10
322.62877951986502
 20
350.80644027634099
 30
0.0
 11
322.62851083330219
 21
351.15996101243928
 31
0.0
  0
ARC
  5
C768
  8
0
 10
320.49016870112791
 20
350.68724785086698
 30
0.0
 40
2.1419296238024801
 50
282.27473576227737
 51
3.1900154748808012
  0
ARC
  5
C769
  8
0
 10
319.83545824378598
 20
350.5649446074529
 30
0.0
 40
5.2500026372703594
 50
89.936999838039327
 51
270.06300016196059
  0
LINE
  5
C76A
  8
0
 10
319.84123093686412
 20
355.8149440710111
 30
0.0
 11
344.84123130939309
 21
355.8149440710111
 31
0.0
  0
LINE
  5
C76B
  8
0
 10
344.84123130939309
 20
345.3149451438947
 30
0.0
 11
319.84123093686412
 21
345.3149451438947
 31
0.0
  0
LINE
  5
C76C
  8
0
 10
312.34123087167148
 20
363.61693688972429
 30
0.0
 11
312.36427761293362
 21
363.19647082431749
 31
0.0
  0
LINE
  5
C771
  8
0
 10
312.34123087167148
 20
337.51295046253631
 30
0.0
 11
312.34123097995331
 21
308.56494424315588
 31
0.0
  0
LINE
  5
C772
  8
0
 10
312.34123097995331
 20
392.56494423492393
 30
0.0
 11
312.34123087167148
 21
363.61693688972429
 31
0.0
  0
LINE
  5
C773
  8
0
 10
288.34123043022458
 20
337.87434553100297
 30
0.0
 11
288.34123043022458
 21
363.2555427525802
 31
0.0
  0
LINE
  5
C774
  8
0
 10
292.34123108587568
 20
365.5649433408542
 30
0.0
 11
292.34123108587568
 21
335.5649440114064
 31
0.0
  0
LINE
  5
C775
  8
0
 10
298.84123121998618
 20
335.5649440114064
 30
0.0
 11
298.84123121998618
 21
365.5649433408542
 31
0.0
  0
LINE
  5
C776
  8
0
 10
299.34123037062
 20
336.06494409336278
 30
0.0
 11
299.34123037062
 21
365.06494605286548
 31
0.0
  0
LINE
  5
C777
  8
0
 10
301.34123069844549
 20
393.06494691713289
 30
0.0
 11
301.34123069844549
 21
308.06494416041801
 31
0.0
  0
LINE
  5
C778
  8
0
 10
300.34123053453283
 20
309.06494432433078
 30
0.0
 11
300.34123053453283
 21
392.06494489057491
 31
0.0
  0
LINE
  5
C779
  8
0
 10
312.84123095362793
 20
328.67115927232931
 30
0.0
 11
312.84123095362793
 21
328.67099349691108
 31
0.0
  0
LINE
  5
C77A
  8
0
 10
337.34123101136993
 20
372.45889478667209
 30
0.0
 11
337.34123101136993
 21
375.06494396670303
 31
0.0
  0
ARC
  5
C77B
  8
0
 10
337.84123097995331
 20
375.06494423492393
 30
0.0
 40
0.5
 50
90.0
 51
180.0
  0
LINE
  5
C77C
  8
0
 10
337.34123101136993
 20
326.0649442586726
 30
0.0
 11
337.34123101136993
 21
328.67099349691108
 31
0.0
  0
ARC
  5
C77D
  8
0
 10
337.84123097995331
 20
326.06494423492393
 30
0.0
 40
0.5
 50
180.0
 51
270.0
  0
LINE
  5
C77E
  8
0
 10
337.84123016200368
 20
375.56494497998187
 30
0.0
 11
371.84123200974773
 21
375.56494497998187
 31
0.0
  0
ARC
  5
C77F
  8
0
 10
371.8412309799532
 20
375.06494423492393
 30
0.0
 40
0.5
 50
0.0
 51
90.0
  0
LINE
  5
C780
  8
0
 10
355.94725859961818
 20
325.56494423492393
 30
0.0
 11
337.84123097995331
 21
325.56494423492393
 31
0.0
  0
LINE
  5
C781
  8
0
 10
371.84123200974773
 20
325.56494423492393
 30
0.0
 11
363.13520250521009
 21
325.56494423492393
 31
0.0
  0
ARC
  5
C782
  8
0
 10
371.8412309799532
 20
326.06494423492393
 30
0.0
 40
0.5
 50
270.0
 51
0.0
  0
LINE
  5
C783
  8
0
 10
372.3412309799532
 20
375.06494423492393
 30
0.0
 11
372.34122929773639
 21
326.0649442586726
 31
0.0
  0
LINE
  5
C784
  8
0
 10
356.84123141370128
 20
344.41109844787547
 30
0.0
 11
300.34123053453283
 21
344.41109844787547
 31
0.0
  0
LINE
  5
C785
  8
0
 10
356.84123141370128
 20
356.71879076703033
 30
0.0
 11
300.34123053453283
 21
356.71879076703033
 31
0.0
  0
LINE
  5
C786
  8
0
 10
372.34122992757688
 20
344.41109844787547
 30
0.0
 11
367.34123034081767
 21
344.41109844787547
 31
0.0
  0
LINE
  5
C787
  8
0
 10
372.3412303501118
 20
356.71879076703033
 30
0.0
 11
367.34123034081767
 21
356.71879076703033
 31
0.0
  0
LINE
  5
C788
  8
0
 10
312.84123095362793
 20
342.57060760004953
 30
0.0
 11
356.84123141370128
 21
342.57060760004953
 31
0.0
  0
LINE
  5
C789
  8
0
 10
356.84123141370128
 20
358.55928161485627
 30
0.0
 11
312.84123095362793
 21
358.55928161485627
 31
0.0
  0
LINE
  5
C78A
  8
0
 10
367.34123034081767
 20
342.57060760004953
 30
0.0
 11
372.34122986439161
 21
342.57060760004953
 31
0.0
  0
LINE
  5
C78B
  8
0
 10
372.34123041329798
 20
358.55928161485627
 30
0.0
 11
367.34123034081767
 21
358.55928161485627
 31
0.0
  0
LINE
  5
C78C
  8
0
 10
312.34123088054548
 20
365.989291158752
 30
0.0
 11
372.3412306683777
 21
365.989291158752
 31
0.0
  0
LINE
  5
C78D
  8
0
 10
372.34122960931199
 20
335.14059898747638
 30
0.0
 11
312.34123088054548
 21
335.140598985606
 31
0.0
  0
LINE
  5
C78E
  8
1
 10
276.18104352750288
 20
350.56494423492393
 30
0.0
 11
403.30770107762049
 21
350.56494423492393
 31
0.0
  0
LINE
  5
C795
  8
0
 10
372.34122929773639
 20
499.79062311323452
 30
0.0
 11
373.64122929773657
 21
499.79062311323452
 31
0.0
  0
LINE
  5
C796
  8
0
 10
373.64122929773657
 20
531.7906246331529
 30
0.0
 11
372.34122929773639
 21
531.7906246331529
 31
0.0
  0
LINE
  5
C797
  8
0
 10
292.34123108587568
 20
530.79062353791755
 30
0.0
 11
288.34123043022458
 21
528.48122294964355
 31
0.0
  0
LINE
  5
C798
  8
0
 10
288.34123043022458
 20
503.10002479674392
 30
0.0
 11
292.34123108587568
 21
500.79062420846992
 31
0.0
  0
LINE
  5
C799
  8
0
 10
298.84123121998618
 20
530.79062353791755
 30
0.0
 11
292.34123108587568
 21
530.79062353791755
 31
0.0
  0
LINE
  5
C79A
  8
0
 10
292.34123108587568
 20
500.79062420846992
 30
0.0
 11
298.84123121998618
 21
500.79062420846992
 31
0.0
  0
LINE
  5
C79B
  8
0
 10
298.84123121998618
 20
500.79062420846992
 30
0.0
 11
299.34123037062
 21
501.29062429042631
 31
0.0
  0
LINE
  5
C79C
  8
0
 10
299.34123037062
 20
530.29062345596105
 30
0.0
 11
298.84123121998618
 21
530.79062353791755
 31
0.0
  0
LINE
  5
C79D
  8
0
 10
299.34123037062
 20
501.29062429042631
 30
0.0
 11
300.34123053453283
 21
501.29062429042631
 31
0.0
  0
LINE
  5
C79E
  8
0
 10
300.34123053453283
 20
530.29062345596105
 30
0.0
 11
299.34123037062
 21
530.29062345596105
 31
0.0
  0
ARC
  5
C79F
  8
0
 10
371.8412309799532
 20
535.29062387319391
 30
0.0
 40
0.5
 50
0.0
 51
90.0
  0
LINE
  5
C7A0
  8
0
 10
371.84123200974773
 20
535.79062342615885
 30
0.0
 11
367.34123034081767
 21
535.79062342615885
 31
0.0
  0
LINE
  5
C7A1
  8
0
 10
314.65279690134679
 20
535.79062342615885
 30
0.0
 11
301.34123069844549
 21
535.79062342615885
 31
0.0
  0
LINE
  5
C7A2
  8
0
 10
356.84123141370128
 20
535.79062342615885
 30
0.0
 11
350.02966476283382
 21
535.79062342615885
 31
0.0
  0
LINE
  5
C7A3
  8
0
 10
301.34123069844549
 20
535.79062342615885
 30
0.0
 11
300.34123053453283
 21
534.79062326224596
 31
0.0
  0
LINE
  5
C7A4
  8
0
 10
367.34123034081767
 20
495.79062432022857
 30
0.0
 11
371.84123200974773
 21
495.79062432022857
 31
0.0
  0
ARC
  5
C7A5
  8
0
 10
371.8412309799532
 20
496.29062387319368
 30
0.0
 40
0.5
 50
270.0
 51
0.0
  0
LINE
  5
C7A6
  8
0
 10
350.02966476283382
 20
495.79062432022857
 30
0.0
 11
356.84123141370128
 21
495.79062432022857
 31
0.0
  0
LINE
  5
C7A7
  8
0
 10
301.34123069844549
 20
495.79062432022857
 30
0.0
 11
314.65279690134679
 21
495.79062432022857
 31
0.0
  0
LINE
  5
C7A8
  8
0
 10
300.34123053453283
 20
496.79062448414129
 30
0.0
 11
301.34123069844549
 21
495.79062432022857
 31
0.0
  0
LINE
  5
C7BB
  8
0
 10
337.34123101136993
 20
509.29360629962849
 30
0.0
 11
337.34134183875631
 21
522.28127352865499
 31
0.0
  0
LINE
  5
C7C1
  8
0
 10
288.34123043022458
 20
503.10002479674392
 30
0.0
 11
288.34123043022458
 21
528.48122294964355
 31
0.0
  0
LINE
  5
C7C2
  8
0
 10
292.34123108587568
 20
530.79062353791755
 30
0.0
 11
292.34123108587568
 21
500.79062420846992
 31
0.0
  0
LINE
  5
C7C3
  8
0
 10
298.84123121998618
 20
500.79062420846992
 30
0.0
 11
298.84123121998618
 21
530.79062353791755
 31
0.0
  0
LINE
  5
C7C4
  8
0
 10
299.34123037062
 20
501.29062429042631
 30
0.0
 11
299.34123037062
 21
530.29062345596105
 31
0.0
  0
LINE
  5
C7C7
  8
0
 10
319.84123093686412
 20
535.08926302166742
 30
0.0
 11
344.84123130939309
 21
535.08926302166742
 31
0.0
  0
LINE
  5
C7C9
  8
0
 10
372.34122929773639
 20
535.29192087513434
 30
0.0
 11
372.34122929773639
 21
496.29062347086239
 31
0.0
  0
LINE
  5
C7CA
  8
0
 10
301.34123069844549
 20
535.79062342615885
 30
0.0
 11
301.34123069844549
 21
495.79062432022857
 31
0.0
  0
LINE
  5
C7CB
  8
0
 10
319.84123093686412
 20
496.49198472472
 30
0.0
 11
344.84123130939309
 21
496.49198472472
 31
0.0
  0
LINE
  5
C7CD
  8
0
 10
300.34123053453283
 20
496.79062448414129
 30
0.0
 11
300.34123053453283
 21
534.79062326224596
 31
0.0
  0
LINE
  5
C7CE
  8
0
 10
312.34123087167148
 20
525.30548281939775
 30
0.0
 11
300.34123053453283
 21
525.30548281939775
 31
0.0
  0
LINE
  5
C7CF
  8
0
 10
312.34123087167148
 20
506.27576492698961
 30
0.0
 11
300.34123053453283
 21
506.27576492698961
 31
0.0
  0
LINE
  5
C7D0
  8
0
 10
312.84123095362793
 20
534.22516331048769
 30
0.0
 11
356.84123141370128
 21
534.22516331048769
 31
0.0
  0
LINE
  5
C7D1
  8
0
 10
356.84123141370128
 20
497.35608443589967
 30
0.0
 11
312.84123095362793
 21
497.35608443589967
 31
0.0
  0
LINE
  5
C7D2
  8
0
 10
337.84123016200368
 20
522.62607010053546
 30
0.0
 11
372.34122929773639
 21
522.62607010053546
 31
0.0
  0
LINE
  5
C7D3
  8
0
 10
372.34122929773639
 20
517.54657694110733
 30
0.0
 11
337.34130143626948
 21
517.54657694110733
 31
0.0
  0
LINE
  5
C7D4
  8
0
 10
337.34127146819537
 20
514.03467080527969
 30
0.0
 11
372.34122929773639
 21
514.03467080528003
 31
0.0
  0
ARC
  5
C7D5
  8
0
 10
337.8058188492505
 20
522.1609490026724
 30
0.0
 40
0.4664671443395519
 50
85.646268745811312
 51
174.8551606430301
  0
LINE
  5
C7D6
  8
0
 10
372.34122929773639
 20
508.95517764585179
 30
0.0
 11
337.84123016200368
 21
508.95517764585179
 31
0.0
  0
ARC
  5
C7D7
  8
0
 10
337.8058188492505
 20
509.4202987437148
 30
0.0
 40
0.4664671443394386
 50
185.14483935695691
 51
274.35373125418869
  0
LINE
  5
C7D8
  8
0
 10
372.34122929773639
 20
528.89203026862901
 30
0.0
 11
312.36609981934271
 21
528.89203026862901
 31
0.0
  0
LINE
  5
C7D9
  8
0
 10
312.3439163786025
 20
502.6892174777584
 30
0.0
 11
372.34122929773639
 21
502.6892174777584
 31
0.0
  0
LINE
  5
C7DA
  8
0
 10
337.34145266614269
 20
522.28764144675893
 30
0.0
 11
312.36050850862239
 21
522.28764144675893
 31
0.0
  0
LINE
  5
C7DB
  8
0
 10
312.34950768932282
 20
509.29360629962849
 30
0.0
 11
337.34123101136993
 21
509.29360629962849
 31
0.0
  0
LINE
  5
C7DC
  8
0
 10
367.34123034081767
 20
534.22516331048769
 30
0.0
 11
372.34122929773639
 21
534.22516331048769
 31
0.0
  0
LINE
  5
C7DD
  8
0
 10
372.34122929773639
 20
497.35608443589967
 30
0.0
 11
367.34123034081767
 21
497.35608443589967
 31
0.0
  0
LINE
  5
C7DE
  8
1
 10
276.18104352750288
 20
515.79062387319357
 30
0.0
 11
403.30770107762049
 21
515.79062387319357
 31
0.0
  0
ARC
  5
C7E5
  8
0
 10
344.84700400247129
 20
350.5649446074529
 30
0.0
 40
5.2500026372703594
 50
269.93699983803941
 51
90.063000161960645
  0
ARC
  5
C7E6
  8
0
 10
359.54123055241422
 20
310.92002700339458
 30
0.0
 40
15.079464019514409
 50
76.21167757917064
 51
103.7883224208293
  0
POLYLINE
  5
C7E7
  8
0
 66
     1
 10
0.0
 20
0.0
 30
0.0
  0
VERTEX
  5
11218
  8
0
 10
312.34495204164159
 20
327.7709469090662
 30
0.0
  0
VERTEX
  5
11219
  8
0
 10
312.3629383472981
 20
328.04418650967602
 30
0.0
  0
VERTEX
  5
1121A
  8
0
 10
312.41688941569919
 20
328.25630614878878
 30
0.0
  0
VERTEX
  5
1121B
  8
0
 10
312.49961595696089
 20
328.40730582640532
 30
0.0
  0
VERTEX
  5
1121C
  8
0
 10
312.57514797596008
 20
328.53673568805431
 30
0.0
  0
VERTEX
  5
1121D
  8
0
 10
312.68664999008251
 20
328.62661723181492
 30
0.0
  0
VERTEX
  5
1121E
  8
0
 10
312.780168314739
 20
328.66616372206261
 30
0.0
  0
VERTEX
  5
1121F
  8
0
 10
312.84123095362793
 20
328.67115927232931
 30
0.0
  0
SEQEND
  5
11220
  8
0
  0
POLYLINE
  5
C7E8
  8
0
 66
     1
 10
0.0
 20
0.0
 30
0.0
  0
VERTEX
  5
11221
  8
0
 10
312.34495204164159
 20
373.35894156078149
 30
0.0
  0
VERTEX
  5
11222
  8
0
 10
312.3629383472981
 20
373.085701960172
 30
0.0
  0
VERTEX
  5
11223
  8
0
 10
312.41688941569919
 20
372.8735823210589
 30
0.0
  0
VERTEX
  5
11224
  8
0
 10
312.49961595696089
 20
372.72258264344259
 30
0.0
  0
VERTEX
  5
11225
  8
0
 10
312.57514797596008
 20
372.59315278179372
 30
0.0
  0
VERTEX
  5
11226
  8
0
 10
312.68664999008251
 20
372.50327123803282
 30
0.0
  0
VERTEX
  5
11227
  8
0
 10
312.780168314739
 20
372.46372474778519
 30
0.0
  0
VERTEX
  5
11228
  8
0
 10
312.84123095362793
 20
372.45872919751838
 30
0.0
  0
SEQEND
  5
11229
  8
0
  0
POLYLINE
  5
C7E9
  8
0
 66
     1
 10
0.0
 20
0.0
 30
0.0
 70
     2
  0
VERTEX
  5
C7EA
  8
0
 10
312.84123095362793
 20
342.57060760004953
 30
0.0
 42
0.0077159079889821
  0
VERTEX
  5
C7EB
  8
0
 10
312.65772959612792
 20
341.31244606357279
 30
0.0
 42
0.0077159079889825
 70
     1
  0
VERTEX
  5
C7EC
  8
0
 10
312.51314012637249
 20
340.04922118837851
 30
0.0
 42
0.0077142297424104
  0
VERTEX
  5
C7ED
  8
0
 10
312.40761895956263
 20
338.78241205186629
 30
0.0
 42
0.0077142297424162
 70
     1
  0
VERTEX
  5
C7EE
  8
0
 10
312.34123087167148
 20
337.51295046253631
 30
0.0
  0
SEQEND
  5
C7EF
  8
0
  0
POLYLINE
  5
C7F0
  8
0
 66
     1
 10
0.0
 20
0.0
 30
0.0
 70
     2
  0
VERTEX
  5
C7F1
  8
0
 10
312.84123336543689
 20
358.55928214107081
 30
0.0
 42
-0.0077159079889821
  0
VERTEX
  5
C7F2
  8
0
 10
312.65773238751171
 20
359.8174437329078
 30
0.0
 42
-0.0077159079889825
 70
     1
  0
VERTEX
  5
C7F3
  8
0
 10
312.51314329885781
 20
361.08066865172327
 30
0.0
 42
-0.0077142297424104
  0
VERTEX
  5
C7F4
  8
0
 10
312.40762251423121
 20
362.34747782007008
 30
0.0
 42
-0.0077142297424162
 70
     1
  0
VERTEX
  5
C7F5
  8
0
 10
312.3412348093234
 20
363.61693942942838
 30
0.0
  0
SEQEND
  5
C7F6
  8
0
  0
LINE
  5
C82A
  8
0
 10
312.34123087167148
 20
499.5171290632756
 30
0.0
 11
312.34123087167148
 21
532.31507658930582
 31
0.0
  0
POLYLINE
  5
C82B
  8
0
 66
     1
 10
0.0
 20
0.0
 30
0.0
  0
VERTEX
  5
1122A
  8
0
 10
312.84123095362793
 20
534.22516331048769
 30
0.0
  0
VERTEX
  5
1122B
  8
0
 10
312.51249567659028
 20
533.29088400455669
 30
0.0
  0
VERTEX
  5
1122C
  8
0
 10
312.34123087167148
 20
532.31507658930582
 30
0.0
  0
SEQEND
  5
1122D
  8
0
  0
POLYLINE
  5
C82C
  8
0
 66
     1
 10
0.0
 20
0.0
 30
0.0
  0
VERTEX
  5
1122E
  8
0
 10
312.83653536242127
 20
497.3559576758214
 30
0.0
  0
VERTEX
  5
1122F
  8
0
 10
312.45796317308759
 20
498.53938805249231
 30
0.0
  0
VERTEX
  5
11230
  8
0
 10
312.34123087167148
 20
499.51712906332779
 30
0.0
  0
SEQEND
  5
11231
  8
0
  0
POLYLINE
  5
C82D
  8
0
 66
     1
 10
0.0
 20
0.0
 30
0.0
  0
VERTEX
  5
11232
  8
0
 10
319.84123093686412
 20
535.08926302166742
 30
0.0
  0
VERTEX
  5
11233
  8
0
 10
317.18894386358721
 20
535.27091177311559
 30
0.0
  0
VERTEX
  5
11234
  8
0
 10
314.65279690134679
 20
535.79062342615885
 30
0.0
  0
SEQEND
  5
11235
  8
0
  0
POLYLINE
  5
C82E
  8
0
 66
     1
 10
0.0
 20
0.0
 30
0.0
  0
VERTEX
  5
11236
  8
0
 10
350.02966476283382
 20
535.77461957903665
 30
0.0
  0
VERTEX
  5
11237
  8
0
 10
347.4575603989756
 20
535.26424530426311
 30
0.0
  0
VERTEX
  5
11238
  8
0
 10
344.84123130939309
 20
535.08926302166742
 30
0.0
  0
SEQEND
  5
11239
  8
0
  0
POLYLINE
  5
C82F
  8
0
 66
     1
 10
0.0
 20
0.0
 30
0.0
  0
VERTEX
  5
1123A
  8
0
 10
350.03040507650798
 20
495.80709823172731
 30
0.0
  0
VERTEX
  5
1123B
  8
0
 10
347.45828180720991
 20
496.31737722058028
 30
0.0
  0
VERTEX
  5
1123C
  8
0
 10
344.8419462370702
 20
496.49226257914688
 30
0.0
  0
SEQEND
  5
1123D
  8
0
  0
POLYLINE
  5
C830
  8
0
 66
     1
 10
0.0
 20
0.0
 30
0.0
  0
VERTEX
  5
1123E
  8
0
 10
319.84194588169612
 20
496.49133643504319
 30
0.0
  0
VERTEX
  5
1123F
  8
0
 10
317.18966553955619
 20
496.3095894277198
 30
0.0
  0
VERTEX
  5
11240
  8
0
 10
314.65353783217103
 20
495.78978382153241
 30
0.0
  0
SEQEND
  5
11241
  8
0
  0
LINE
  5
C872
  8
0
 10
344.84123130939309
 20
139.42868559763889
 30
0.0
 11
319.84123093686412
 21
139.42868559763889
 31
0.0
  0
LINE
  5
C873
  8
0
 10
300.34123053453283
 20
101.1300470601127
 30
0.0
 11
300.34123053453283
 21
139.13004583821751
 31
0.0
  0
LINE
  5
C874
  8
0
 10
301.34123069844549
 20
140.13004600213031
 30
0.0
 11
301.34123069844549
 21
100.1300468961999
 31
0.0
  0
LINE
  5
C875
  8
0
 10
372.34122929773639
 20
139.63134345110549
 30
0.0
 11
372.34122929773639
 21
100.6300460468337
 31
0.0
  0
LINE
  5
C876
  8
0
 10
344.84123130939309
 20
100.8314073006913
 30
0.0
 11
319.84123093686412
 21
100.8314073006913
 31
0.0
  0
LINE
  5
C877
  8
0
 10
299.34123037062
 20
105.63004686639761
 30
0.0
 11
299.34123037062
 21
134.63004603193261
 31
0.0
  0
LINE
  5
C878
  8
0
 10
298.84123121998618
 20
105.1300467844414
 30
0.0
 11
298.84123121998618
 21
135.13004611388891
 31
0.0
  0
LINE
  5
C879
  8
0
 10
292.34123108587568
 20
135.13004611388891
 30
0.0
 11
292.34123108587568
 21
105.13004678444121
 31
0.0
  0
LINE
  5
C87A
  8
0
 10
288.34123043022458
 20
107.43944737271519
 30
0.0
 11
288.34123043022458
 21
132.82064552561491
 31
0.0
  0
LINE
  5
C87C
  8
0
 10
367.34123034081767
 20
138.5645858864591
 30
0.0
 11
372.34122929773639
 21
138.5645858864591
 31
0.0
  0
LINE
  5
C87D
  8
0
 10
372.34122929773639
 20
101.6955070118711
 30
0.0
 11
367.34123034081767
 21
101.6955070118711
 31
0.0
  0
LINE
  5
C87E
  8
0
 10
312.34123087167148
 20
136.4035412590311
 30
0.0
 11
312.36899778857241
 21
136.65449916527729
 31
0.0
  0
LINE
  5
C87F
  8
0
 10
337.34145266614269
 20
126.62706402273049
 30
0.0
 11
312.34123087167148
 21
126.62706402273049
 31
0.0
  0
LINE
  5
C880
  8
0
 10
312.34123087167148
 20
113.6330288756
 30
0.0
 11
337.34145266614269
 21
113.6330288756
 31
0.0
  0
LINE
  5
C881
  8
0
 10
337.34123101136993
 20
126.5422014440703
 30
0.0
 11
337.34123101136993
 21
126.6143281865227
 31
0.0
  0
LINE
  5
C882
  8
0
 10
337.34123101136993
 20
126.6143281865227
 30
0.0
 11
337.34145266614269
 21
126.62706402273049
 31
0.0
  0
LINE
  5
C883
  8
0
 10
372.34122929773639
 20
133.2314528446004
 30
0.0
 11
312.34123087167148
 21
133.2314528446004
 31
0.0
  0
LINE
  5
C884
  8
0
 10
337.34123101136993
 20
113.6457647118079
 30
0.0
 11
337.34123101136993
 21
113.7178914542603
 31
0.0
  0
LINE
  5
C885
  8
0
 10
337.34145266614269
 20
113.6330288756
 30
0.0
 11
337.34123101136993
 21
113.6457647118079
 31
0.0
  0
LINE
  5
C886
  8
0
 10
312.34123087167148
 20
107.0286400537297
 30
0.0
 11
372.34122929773639
 21
107.0286400537297
 31
0.0
  0
ARC
  5
C887
  8
0
 10
337.8058188492505
 20
126.50037157864401
 30
0.0
 40
0.4664671443395051
 50
85.646268745811312
 51
174.85516064303661
  0
LINE
  5
C888
  8
0
 10
337.84123016200368
 20
126.9654926765072
 30
0.0
 11
372.34122929773639
 21
126.9654926765072
 31
0.0
  0
LINE
  5
C889
  8
0
 10
372.34122929773639
 20
121.8859995170789
 30
0.0
 11
363.13520250521009
 21
121.8859995170789
 31
0.0
  0
LINE
  5
C88A
  8
0
 10
355.94725859961818
 20
121.8859995170789
 30
0.0
 11
343.99302554927181
 21
121.8859995170789
 31
0.0
  0
LINE
  5
C88B
  8
0
 10
341.6894364138634
 20
121.8859995170789
 30
0.0
 11
337.34123101136993
 21
121.8859995170789
 31
0.0
  0
ARC
  5
C88C
  8
0
 10
337.8058188492505
 20
113.75972131968641
 30
0.0
 40
0.4664671443395051
 50
185.14483935696339
 51
274.35373125418869
  0
LINE
  5
C88D
  8
0
 10
337.34123101136993
 20
113.7178914542603
 30
0.0
 11
337.34123101136993
 21
126.6143281865227
 31
0.0
  0
LINE
  5
C88E
  8
0
 10
372.34122929773639
 20
113.2946002218234
 30
0.0
 11
337.84123016200368
 21
113.2946002218234
 31
0.0
  0
LINE
  5
C88F
  8
0
 10
363.13520250521009
 20
118.3740933812516
 30
0.0
 11
372.34122929773639
 21
118.3740933812516
 31
0.0
  0
LINE
  5
C890
  8
0
 10
343.99302554927181
 20
118.3740933812516
 30
0.0
 11
355.94725859961818
 21
118.3740933812516
 31
0.0
  0
LINE
  5
C891
  8
0
 10
337.34123101136993
 20
118.3740933812516
 30
0.0
 11
341.6894364138634
 21
118.3740933812516
 31
0.0
  0
LINE
  5
C892
  8
0
 10
312.84123095362793
 20
138.5645858864591
 30
0.0
 11
356.84123141370128
 21
138.5645858864591
 31
0.0
  0
LINE
  5
C893
  8
0
 10
312.34123087167148
 20
136.4035412590311
 30
0.0
 11
312.34123087167148
 21
103.8565516392991
 31
0.0
  0
LINE
  5
C894
  8
0
 10
356.84123141370128
 20
101.6955070118711
 30
0.0
 11
312.84123095362793
 21
101.6955070118711
 31
0.0
  0
LINE
  5
C895
  8
0
 10
312.34123087167148
 20
110.61518750296111
 30
0.0
 11
300.34123053453283
 21
110.61518750296111
 31
0.0
  0
LINE
  5
C896
  8
0
 10
312.34123087167148
 20
129.64490539536951
 30
0.0
 11
300.34123053453283
 21
129.64490539536951
 31
0.0
  0
CIRCLE
  5
C897
  8
0
 10
359.54123097995313
 20
120.13004644916511
 30
0.0
 40
3.8000000000000109
  0
LINE
  5
C8A2
  8
0
 10
344.56822899780582
 20
119.997841542616
 30
0.0
 11
343.81922213039712
 21
121.5595680442932
 31
0.0
  0
LINE
  5
C8A3
  8
0
 10
343.5902378489763
 20
118.5683198892804
 30
0.0
 11
344.56822899780582
 21
119.997841542616
 31
0.0
  0
LINE
  5
C8A4
  8
0
 10
341.86323983273809
 20
118.7005248540374
 30
0.0
 11
343.5902378489763
 21
118.5683198892804
 31
0.0
  0
LINE
  5
C8A5
  8
0
 10
341.11423296532939
 20
120.2622513557146
 30
0.0
 11
341.86323983273809
 21
118.7005248540374
 31
0.0
  0
LINE
  5
C8A6
  8
0
 10
342.0922241141588
 20
121.6917730090501
 30
0.0
 11
341.11423296532939
 21
120.2622513557146
 31
0.0
  0
LINE
  5
C8A7
  8
0
 10
343.81922213039712
 20
121.5595680442932
 30
0.0
 11
342.0922241141588
 21
121.6917730090501
 31
0.0
  0
LINE
  5
C8A8
  8
0
 10
372.74123234353368
 20
117.6300465050446
 30
0.0
 11
372.74123234353368
 21
122.63004639328589
 31
0.0
  0
ARC
  5
C8AB
  8
0
 10
371.8412309799532
 20
139.63004644916509
 30
0.0
 40
0.5
 50
0.0
 51
90.0
  0
LINE
  5
C8AC
  8
0
 10
371.84123200974773
 20
140.13004600213031
 30
0.0
 11
367.34123034081767
 21
140.13004600213031
 31
0.0
  0
LINE
  5
C8AD
  8
0
 10
356.84123141370128
 20
140.13004600213031
 30
0.0
 11
350.02966476283382
 21
140.13004600213031
 31
0.0
  0
LINE
  5
C8AE
  8
0
 10
314.65279690134679
 20
140.13004600213031
 30
0.0
 11
301.34123069844549
 21
140.13004600213031
 31
0.0
  0
LINE
  5
C8AF
  8
0
 10
301.34123069844549
 20
140.13004600213031
 30
0.0
 11
300.34123053453283
 21
139.13004583821751
 31
0.0
  0
ARC
  5
C8B0
  8
0
 10
371.8412309799532
 20
100.63004644916511
 30
0.0
 40
0.5
 50
270.0
 51
0.0
  0
LINE
  5
C8B1
  8
0
 10
367.34123034081767
 20
100.1300468961999
 30
0.0
 11
371.84123200974773
 21
100.1300468961999
 31
0.0
  0
LINE
  5
C8B2
  8
0
 10
301.34123069844549
 20
100.1300468961999
 30
0.0
 11
314.65279690134679
 21
100.1300468961999
 31
0.0
  0
LINE
  5
C8B3
  8
0
 10
350.02966476283382
 20
100.1300468961999
 30
0.0
 11
356.84123141370128
 21
100.1300468961999
 31
0.0
  0
LINE
  5
C8B4
  8
0
 10
300.34123053453283
 20
101.1300470601127
 30
0.0
 11
301.34123069844549
 21
100.1300468961999
 31
0.0
  0
LINE
  5
C8B5
  8
0
 10
300.34123053453283
 20
134.63004603193261
 30
0.0
 11
299.34123037062
 21
134.63004603193261
 31
0.0
  0
LINE
  5
C8B6
  8
0
 10
299.34123037062
 20
105.63004686639761
 30
0.0
 11
300.34123053453283
 21
105.63004686639761
 31
0.0
  0
LINE
  5
C8B7
  8
0
 10
299.34123037062
 20
134.63004603193261
 30
0.0
 11
298.84123121998618
 21
135.13004611388891
 31
0.0
  0
LINE
  5
C8B8
  8
0
 10
298.84123121998618
 20
105.13004678444121
 30
0.0
 11
299.34123037062
 21
105.63004686639761
 31
0.0
  0
LINE
  5
C8B9
  8
0
 10
292.34123108587568
 20
105.13004678444121
 30
0.0
 11
298.84123121998618
 21
105.13004678444121
 31
0.0
  0
LINE
  5
C8BA
  8
0
 10
298.84123121998618
 20
135.13004611388891
 30
0.0
 11
292.34123108587568
 21
135.13004611388891
 31
0.0
  0
LINE
  5
C8BB
  8
0
 10
288.34123043022458
 20
107.43944737271519
 30
0.0
 11
292.34123108587568
 21
105.13004678444121
 31
0.0
  0
LINE
  5
C8BC
  8
0
 10
292.34123108587568
 20
135.13004611388891
 30
0.0
 11
288.34123043022458
 21
132.82064552561491
 31
0.0
  0
LINE
  5
C8BD
  8
0
 10
373.64122929773657
 20
136.1300472091244
 30
0.0
 11
372.34122929773639
 21
136.1300472091244
 31
0.0
  0
LINE
  5
C8BE
  8
0
 10
372.34122929773639
 20
104.1300456892058
 30
0.0
 11
373.64122929773657
 21
104.1300456892058
 31
0.0
  0
LINE
  5
C8C5
  8
0
 10
372.74123234353368
 20
122.63004639328589
 30
0.0
 11
372.34122929773639
 21
122.63004639328589
 31
0.0
  0
LINE
  5
C8C6
  8
0
 10
372.34122929773639
 20
117.6300465050446
 30
0.0
 11
372.74123234353368
 21
117.6300465050446
 31
0.0
  0
LINE
  5
C8C8
  8
1
 10
276.18104352750288
 20
120.13004607663601
 30
0.0
 11
403.30770107762049
 21
120.13004607663601
 31
0.0
  0
POLYLINE
  5
C8C9
  8
0
 66
     1
 10
0.0
 20
0.0
 30
0.0
  0
VERTEX
  5
11242
  8
0
 10
319.84123093686412
 20
139.42868559763889
 30
0.0
  0
VERTEX
  5
11243
  8
0
 10
317.18894386358721
 20
139.610334349087
 30
0.0
  0
VERTEX
  5
11244
  8
0
 10
314.65279690134679
 20
140.13004600213031
 30
0.0
  0
SEQEND
  5
11245
  8
0
  0
POLYLINE
  5
C8CA
  8
0
 66
     1
 10
0.0
 20
0.0
 30
0.0
  0
VERTEX
  5
11246
  8
0
 10
350.02966476283382
 20
140.11404215500809
 30
0.0
  0
VERTEX
  5
11247
  8
0
 10
347.4575603989756
 20
139.60366788023461
 30
0.0
  0
VERTEX
  5
11248
  8
0
 10
344.84123130939309
 20
139.42868559763889
 30
0.0
  0
SEQEND
  5
11249
  8
0
  0
POLYLINE
  5
C8CB
  8
0
 66
     1
 10
0.0
 20
0.0
 30
0.0
  0
VERTEX
  5
1124A
  8
0
 10
312.84123095362793
 20
138.5645858864591
 30
0.0
  0
VERTEX
  5
1124B
  8
0
 10
312.51249567659028
 20
137.6303065805283
 30
0.0
  0
VERTEX
  5
1124C
  8
0
 10
312.34123087167148
 20
136.65449916527729
 30
0.0
  0
SEQEND
  5
1124D
  8
0
  0
POLYLINE
  5
C8CC
  8
0
 66
     1
 10
0.0
 20
0.0
 30
0.0
  0
VERTEX
  5
1124E
  8
0
 10
312.84122691397943
 20
101.6955123806742
 30
0.0
  0
VERTEX
  5
1124F
  8
0
 10
312.512491841675
 20
102.6297917586423
 30
0.0
  0
VERTEX
  5
11250
  8
0
 10
312.34123087167148
 20
103.8565516392991
 30
0.0
  0
SEQEND
  5
11251
  8
0
  0
POLYLINE
  5
C8CD
  8
0
 66
     1
 10
0.0
 20
0.0
 30
0.0
  0
VERTEX
  5
11252
  8
0
 10
319.8412267078611
 20
100.83141113555099
 30
0.0
  0
VERTEX
  5
11253
  8
0
 10
317.18893959477919
 20
100.6497629653111
 30
0.0
  0
VERTEX
  5
11254
  8
0
 10
314.65279251865149
 20
100.1300518680259
 30
0.0
  0
SEQEND
  5
11255
  8
0
  0
POLYLINE
  5
C8CE
  8
0
 66
     1
 10
0.0
 20
0.0
 30
0.0
  0
VERTEX
  5
11256
  8
0
 10
350.02966038364502
 20
100.1460479628456
 30
0.0
  0
VERTEX
  5
11257
  8
0
 10
347.45755613162743
 20
100.65642280125689
 30
0.0
  0
VERTEX
  5
11258
  8
0
 10
344.84122708038922
 20
100.83140565718099
 30
0.0
  0
SEQEND
  5
11259
  8
0
  0
CIRCLE
  5
C8CF
  8
0
 10
359.54123097995313
 20
120.13004644916511
 30
0.0
 40
3.9999572086561219
  0
CIRCLE
  5
C8D0
  8
0
 10
342.8404547653472
 20
120.13004607663601
 30
0.0
 40
2.1010234286264051
  0
LINE
  5
C919
  8
1
 10
124.3611803487656
 20
383.06494423492393
 30
0.0
 11
140.8611803487656
 21
383.06494423492381
 31
0.0
  0
LINE
  5
C91A
  8
1
 10
124.3611803487656
 20
318.06494423492393
 30
0.0
 11
140.8611803487656
 21
318.06494423492381
 31
0.0
  0
LINE
  5
C91B
  8
1
 10
132.61118034876611
 20
304.83983024332161
 30
0.0
 11
132.61118034876611
 21
396.1882491569861
 31
0.0
  0
LINE
  5
C91C
  8
1
 10
108.4638533792094
 20
350.56494423492393
 30
0.0
 11
156.7585073183227
 21
350.56494423492393
 31
0.0
  0
LINE
  5
C91D
  8
0
 10
112.75887924290871
 20
353.05956588430843
 30
0.0
 11
112.76879969097349
 21
353.05830673618749
 31
0.0
  0
LINE
  5
C91E
  8
0
 10
152.4634814546225
 20
348.07032184048131
 30
0.0
 11
152.45356100655769
 21
348.07158098860208
 31
0.0
  0
ARC
  5
C923
  8
0
 10
132.6111803487656
 20
350.56494423492381
 30
0.0
 40
20.0
 50
342.0797868606162
 51
17.92021313938373
  0
LINE
  5
C924
  8
0
 10
151.640898241174
 20
356.7187900219721
 30
0.0
 11
142.12603929496979
 21
386.14186761273572
 31
0.0
  0
LINE
  5
C925
  8
0
 10
142.12603929496979
 20
314.98802104337642
 30
0.0
 11
151.640898241174
 21
344.41109770281741
 31
0.0
  0
CIRCLE
  5
C926
  8
0
 10
132.6111803487656
 20
383.06494423492381
 30
0.0
 40
4.2500000000000142
  0
ARC
  5
C927
  8
0
 10
132.6111803487656
 20
383.06494423492381
 30
0.0
 40
10.000000000000011
 50
17.92021313938373
 51
162.07978686061631
  0
CIRCLE
  5
C928
  8
0
 10
132.6111803487656
 20
318.06494423492381
 30
0.0
 40
4.2499999999999707
  0
ARC
  5
C929
  8
0
 10
132.6111803487656
 20
318.06494423492381
 30
0.0
 40
10.000000000000011
 50
197.92021313938369
 51
342.0797868606162
  0
CIRCLE
  5
C92A
  8
0
 10
132.6111803487656
 20
350.56494423492381
 30
0.0
 40
16.000000000000028
  0
LINE
  5
C92B
  8
0
 10
123.0963214025614
 20
386.14186761273578
 30
0.0
 11
113.5814624563572
 21
356.71879002197221
 31
0.0
  0
ARC
  5
C92C
  8
0
 10
132.6111803487656
 20
350.56494423492381
 30
0.0
 40
20.0
 50
162.07978686061631
 51
197.92021313938369
  0
LINE
  5
C92D
  8
0
 10
113.5814624563572
 20
344.41109770281747
 30
0.0
 11
123.0963214025614
 21
314.98802104337648
 31
0.0
  0
CIRCLE
  5
C92E
  8
0
 10
132.6111803487656
 20
318.06494423492381
 30
0.0
 40
5.7499999999999707
  0
CIRCLE
  5
C92F
  8
0
 10
132.6111803487656
 20
383.06494423492381
 30
0.0
 40
5.75
  0
CIRCLE
  5
C930
  8
0
 10
132.6111803487656
 20
350.56494423492381
 30
0.0
 40
16.5
  0
CIRCLE
  5
C931
  8
0
 10
132.6111803487656
 20
350.56494423492381
 30
0.0
 40
15.0
  0
CIRCLE
  5
C932
  8
0
 10
132.6111803487656
 20
350.56494423492381
 30
0.0
 40
12.69059892324152
  0
LINE
  5
C93B
  8
0
 10
112.75887924290871
 20
353.05956588430843
 30
0.0
 11
112.76879969097349
 21
353.05830673618749
 31
0.0
  0
LINE
  5
C93C
  8
0
 10
152.4634814546225
 20
348.07032184048131
 30
0.0
 11
152.45356100655769
 21
348.07158098860208
 31
0.0
  0
ARC
  5
C94C
  8
0
 10
595.36656948478594
 20
347.15136899522048
 30
0.0
 40
15.000000000000041
 50
306.57993922557762
 51
342.0797868606162
  0
ARC
  5
C94D
  8
0
 10
619.20431951287173
 20
315.03032178940038
 30
0.0
 40
25.000000000000021
 50
126.5799392255775
 51
147.84184951282731
  0
LINE
  5
C94E
  8
0
 10
589.44836644495797
 20
325.53032104434283
 30
0.0
 11
592.96027258078527
 21
325.53032104434283
 31
0.0
  0
ARC
  5
C94F
  8
0
 10
592.96027256885009
 20
331.53032178940089
 30
0.0
 40
6.0000000000000284
 50
270.0
 51
327.84184951282731
  0
ARC
  5
C950
  8
0
 10
589.44836645689338
 20
331.53032178940089
 30
0.0
 40
6.0000000000000044
 50
212.15815048717269
 51
270.0
  0
ARC
  5
C951
  8
0
 10
595.36656948478594
 20
353.90927458358118
 30
0.0
 40
15.00000000000002
 50
17.92021313938373
 51
53.420060774422431
  0
ARC
  5
C952
  8
0
 10
619.20431951287264
 20
386.03032178940038
 30
0.0
 40
25.000000000000028
 50
212.15815048717269
 51
233.42006077442241
  0
ARC
  5
C953
  8
0
 10
592.960272568851
 20
369.53032178940089
 30
0.0
 40
6.0000000000001004
 50
32.158150487172684
 51
90.0
  0
LINE
  5
C954
  8
0
 10
592.96027258078618
 20
375.53032178940089
 30
0.0
 11
589.44836644495888
 21
375.53032178940089
 31
0.0
  0
ARC
  5
C955
  8
0
 10
589.44836645689429
 20
369.53032178940089
 30
0.0
 40
6.0
 50
90.0
 51
147.84184951282731
  0
ARC
  5
C956
  8
0
 10
563.20431951287264
 20
386.03032178940128
 30
0.0
 40
25.000000000000082
 50
306.57993922557762
 51
327.84184951282731
  0
ARC
  5
C957
  8
0
 10
587.04206954095844
 20
353.90927458358118
 30
0.0
 40
15.000000000000041
 50
126.5799392255775
 51
162.07978686061631
  0
ARC
  5
C959
  8
0
 10
563.20431951287173
 20
315.0303217894014
 30
0.0
 40
25.00000000000005
 50
32.158150487172684
 51
32.74752071913742
  0
CIRCLE
  5
C95A
  8
0
 10
591.09725551176405
 20
350.56494423492381
 30
0.0
 40
17.999999999999979
  0
CIRCLE
  5
C95B
  8
0
 10
591.09725551176405
 20
350.56494423492381
 30
0.0
 40
16.999999999999918
  0
CIRCLE
  5
C95C
  8
0
 10
591.09725551176405
 20
350.56494423492359
 30
0.0
 40
12.50000015262621
  0
CIRCLE
  5
C95D
  8
0
 10
591.21551599884515
 20
383.06494423492381
 30
0.0
 40
4.25
  0
CIRCLE
  5
C95E
  8
0
 10
591.21551599884515
 20
383.06494423492381
 30
0.0
 40
4.75
  0
CIRCLE
  5
C95F
  8
0
 10
591.21551599884515
 20
318.06494423492381
 30
0.0
 40
4.75
  0
CIRCLE
  5
C960
  8
0
 10
591.21551599884515
 20
318.06494423492381
 30
0.0
 40
4.25
  0
LINE
  5
C974
  8
0
 10
611.06781710470295
 20
353.05956588430831
 30
0.0
 11
611.05789665663815
 21
353.05830673618738
 31
0.0
  0
LINE
  5
C97D
  8
0
 10
610.24523389125341
 20
344.41109770281741
 30
0.0
 11
600.73037494504933
 21
314.98802104337642
 31
0.0
  0
ARC
  5
C97E
  8
0
 10
591.21551599884515
 20
350.56494423492381
 30
0.0
 40
20.0
 50
342.0797868606162
 51
17.92021313938373
  0
LINE
  5
C97F
  8
0
 10
600.73037494504933
 20
386.14186761273572
 30
0.0
 11
610.24523389125341
 21
356.7187900219721
 31
0.0
  0
ARC
  5
C980
  8
0
 10
591.21551599884515
 20
318.06494423492381
 30
0.0
 40
10.000000000000011
 50
197.92021313938369
 51
342.0797868606162
  0
ARC
  5
C981
  8
0
 10
591.21551599884515
 20
383.06494423492381
 30
0.0
 40
10.000000000000011
 50
17.92021313938373
 51
162.07978686061631
  0
LINE
  5
C982
  8
0
 10
581.70065705264085
 20
314.98802104337642
 30
0.0
 11
579.79714269462465
 21
320.87431417656228
 31
0.0
  0
LINE
  5
C983
  8
0
 10
572.18579810643666
 20
356.7187900219721
 30
0.0
 11
581.70065705264085
 21
386.14186761273572
 31
0.0
  0
LINE
  5
C987
  8
0
 10
611.06781710470295
 20
353.05956588430831
 30
0.0
 11
611.05789665663815
 21
353.05830673618738
 31
0.0
  0
LINE
  5
C988
  8
1
 10
615.24458248132032
 20
350.56494423492381
 30
0.0
 11
566.94992854220664
 21
350.56494423492381
 31
0.0
  0
LINE
  5
C989
  8
1
 10
591.21551599884515
 20
304.8398302433215
 30
0.0
 11
591.21551599884515
 21
396.18824915698639
 31
0.0
  0
LINE
  5
C98A
  8
1
 10
599.46551599884515
 20
318.06494423492381
 30
0.0
 11
582.96551599884515
 21
318.06494423492381
 31
0.0
  0
LINE
  5
C98B
  8
1
 10
599.46551599884515
 20
383.06494423492381
 30
0.0
 11
582.96551599884515
 21
383.06494423492381
 31
0.0
  0
CIRCLE
  5
CAA2
  8
0
 10
132.61118034876611
 20
350.56494423492381
 30
0.0
 40
6.0509040281303319
  0
CIRCLE
  5
CAA3
  8
0
 10
591.21551599884515
 20
350.56494423492381
 30
0.0
 40
5.9999994933605194
  0
LINE
  5
CAD3
  8
0
 10
366.34123203954999
 20
348.19484952880032
 30
0.0
 11
364.09123120508502
 21
348.19484952880032
 31
0.0
  0
LINE
  5
CAD4
  8
0
 10
364.09123120508502
 20
359.38713032795079
 30
0.0
 11
364.09123120508502
 21
348.19484952880032
 31
0.0
  0
LINE
  5
CAD5
  8
0
 10
364.09123120508502
 20
359.38713032795079
 30
0.0
 11
360.09123054943387
 21
359.38713032795079
 31
0.0
  0
LINE
  5
CAD6
  8
0
 10
360.09123054943387
 20
359.38713032795079
 30
0.0
 11
360.09123054943387
 21
348.19484952880032
 31
0.0
  0
LINE
  5
CAD7
  8
0
 10
360.09123054943387
 20
348.19484952880032
 30
0.0
 11
357.8412297149689
 21
348.19484952880032
 31
0.0
  0
LINE
  5
CAD8
  8
0
 10
367.09122983417819
 20
360.33820327414162
 30
0.0
 11
357.09123192034082
 21
360.33820327414162
 31
0.0
  0
LINE
  5
CAD9
  8
0
 10
367.09122983417819
 20
341.04074131740219
 30
0.0
 11
357.09123192034082
 21
341.04074131740219
 31
0.0
  0
LINE
  5
CADA
  8
0
 10
357.09123192034082
 20
341.04074131740219
 30
0.0
 11
357.09123192034082
 21
360.33820327414162
 31
0.0
  0
LINE
  5
CADB
  8
0
 10
367.09122983417819
 20
341.04074131740219
 30
0.0
 11
367.09122983417819
 21
360.33820327414162
 31
0.0
  0
LINE
  5
CADC
  8
0
 10
366.34123203954999
 20
348.19484952880032
 30
0.0
 11
366.34123203954999
 21
348.1961086769212
 31
0.0
  0
LINE
  5
CADD
  8
0
 10
357.8412297149689
 20
348.19484952880032
 30
0.0
 11
357.8412297149689
 21
348.1961086769212
 31
0.0
  0
LINE
  5
CB3F
  8
0
 10
357.34123242698018
 20
360.66597666634209
 30
0.0
 11
366.84122932753871
 21
360.66597666634209
 31
0.0
  0
LINE
  5
CB40
  8
0
 10
356.84123141370128
 20
360.21200906528122
 30
0.0
 11
356.84123141370128
 21
341.21468948439548
 31
0.0
  0
LINE
  5
CB41
  8
0
 10
357.34123242698018
 20
340.71296606255657
 30
0.0
 11
366.84122932753871
 21
340.71296606255657
 31
0.0
  0
LINE
  5
CB42
  8
0
 10
367.34123034081767
 20
360.16425436209039
 30
0.0
 11
367.34123034081767
 21
341.16693366361739
 31
0.0
  0
LINE
  5
CB94
  8
0
 10
364.09123120508502
 20
495.79062432022857
 30
0.0
 11
367.09122983417819
 21
495.79062432022857
 31
0.0
  0
LINE
  5
CB95
  8
0
 10
357.09123192034082
 20
495.79062432022857
 30
0.0
 11
360.09123054943387
 21
495.79062432022857
 31
0.0
  0
LINE
  5
CB96
  8
0
 10
360.09123054943387
 20
535.80062396796518
 30
0.0
 11
364.09123120508502
 21
535.80062396796518
 31
0.0
  0
LINE
  5
CB97
  8
0
 10
360.09123054943387
 20
535.79062342615885
 30
0.0
 11
357.09123192034082
 21
535.79062342615885
 31
0.0
  0
LINE
  5
CB98
  8
0
 10
367.09122983417819
 20
535.79062342615885
 30
0.0
 11
364.09123120508502
 21
535.79062342615885
 31
0.0
  0
LINE
  5
CB99
  8
0
 10
364.09123120508502
 20
495.78062377842252
 30
0.0
 11
360.09123054943387
 21
495.78062377842252
 31
0.0
  0
LINE
  5
CBBB
  8
0
 10
367.34123034081767
 20
535.49062393577844
 30
0.0
 11
367.09122983417819
 21
535.49062393577844
 31
0.0
  0
LINE
  5
CBBC
  8
0
 10
357.09123192034082
 20
535.49062393577844
 30
0.0
 11
356.84123141370128
 21
535.49062393577844
 31
0.0
  0
LINE
  5
CBBD
  8
0
 10
356.84123141370128
 20
496.09062381060892
 30
0.0
 11
357.09123192034082
 21
496.09062381060892
 31
0.0
  0
LINE
  5
CBBE
  8
0
 10
367.09122983417819
 20
496.09062381060892
 30
0.0
 11
367.34123034081767
 21
496.09062381060892
 31
0.0
  0
LINE
  5
CBBF
  8
0
 10
357.09123192034082
 20
495.79062432022857
 30
0.0
 11
357.09123192034082
 21
498.12940707220639
 31
0.0
  0
LINE
  5
CBC0
  8
0
 10
367.09122983417819
 20
495.79062432022857
 30
0.0
 11
367.09122983417819
 21
498.12940707220639
 31
0.0
  0
LINE
  5
CBC1
  8
0
 10
366.34123203954999
 20
535.64292497905069
 30
0.0
 11
364.09123120508502
 21
535.64292497905069
 31
0.0
  0
LINE
  5
CBC2
  8
0
 10
364.09123120508502
 20
535.80062396796518
 30
0.0
 11
364.09123120508502
 21
535.64292497905069
 31
0.0
  0
LINE
  5
CBC3
  8
0
 10
360.09123054943387
 20
535.80062396796518
 30
0.0
 11
360.09123054943387
 21
535.64292497905069
 31
0.0
  0
LINE
  5
CBC4
  8
0
 10
360.09123054943387
 20
535.64292497905069
 30
0.0
 11
357.8412297149689
 21
535.64292497905069
 31
0.0
  0
LINE
  5
CBC5
  8
0
 10
357.09123192034082
 20
533.45313727379016
 30
0.0
 11
357.09123192034082
 21
535.79062342615885
 31
0.0
  0
LINE
  5
CBC6
  8
0
 10
364.09123120508502
 20
497.80110202701871
 30
0.0
 11
360.09123054943387
 21
497.80110202701871
 31
0.0
  0
LINE
  5
CBC7
  8
0
 10
367.09122983417819
 20
533.45337527736115
 30
0.0
 11
367.09122983417819
 21
535.79062342615885
 31
0.0
  0
LINE
  5
CBC8
  8
0
 10
360.09123054943387
 20
497.79211848946397
 30
0.0
 11
360.09123054943387
 21
495.78062377842252
 31
0.0
  0
LINE
  5
CBC9
  8
0
 10
364.09123120508502
 20
497.79211848946397
 30
0.0
 11
364.09123120508502
 21
495.78062377842252
 31
0.0
  0
LINE
  5
CBCA
  8
0
 10
360.09123054943387
 20
497.79211848946397
 30
0.0
 11
360.09123054943387
 21
497.80110202701871
 31
0.0
  0
LINE
  5
CBCB
  8
0
 10
364.09123120508502
 20
497.79211848946397
 30
0.0
 11
364.09123120508502
 21
497.80110202701871
 31
0.0
  0
LINE
  5
CBDA
  8
0
 10
356.84123141370128
 20
534.22516331048769
 30
0.0
 11
356.84123141370128
 21
534.82034176560205
 31
0.0
  0
LINE
  5
CBDC
  8
0
 10
367.34123034081767
 20
533.63703869255335
 30
0.0
 11
367.34123034081767
 21
534.22516331048769
 31
0.0
  0
LINE
  5
CBDD
  8
0
 10
356.84123141370128
 20
533.63703869255335
 30
0.0
 11
356.84123141370128
 21
534.22516331048769
 31
0.0
  0
LINE
  5
CBDE
  8
0
 10
357.34123242698018
 20
533.42403963180345
 30
0.0
 11
366.84122932753871
 21
533.42403963180345
 31
0.0
  0
LINE
  5
CBDF
  8
0
 10
367.34123034081767
 20
497.94420905383402
 30
0.0
 11
367.34123034081767
 21
495.79062432022857
 31
0.0
  0
LINE
  5
CBE0
  8
0
 10
357.34123242698018
 20
498.15720811458402
 30
0.0
 11
366.84122932753871
 21
498.15720811458402
 31
0.0
  0
LINE
  5
CBE5
  8
0
 10
367.34123034081767
 20
534.22516331048769
 30
0.0
 11
367.34123034081767
 21
534.82034176560205
 31
0.0
  0
LINE
  5
CBE6
  8
0
 10
367.34123034081767
 20
534.82034176560205
 30
0.0
 11
367.34123034081767
 21
535.79062342615885
 31
0.0
  0
LINE
  5
CBE8
  8
0
 10
356.84123141370128
 20
534.82034176560205
 30
0.0
 11
356.84123141370128
 21
535.79062342615885
 31
0.0
  0
LINE
  5
CBEC
  8
0
 10
356.84123141370128
 20
497.94550565344309
 30
0.0
 11
356.84123141370128
 21
495.79062432022857
 31
0.0
  0
ARC
  5
CC09
  8
0
 10
366.86346462489792
 20
360.18813171368612
 30
0.0
 40
0.4783620043727516
 50
357.13890278305809
 51
92.664191326528652
  0
ARC
  5
CC0A
  8
0
 10
357.31899712962098
 20
360.18813171368612
 30
0.0
 40
0.4783620043727516
 50
87.335808673471362
 51
182.8610972169418
  0
ARC
  5
CC0B
  8
0
 10
366.86346462489792
 20
341.19081213279969
 30
0.0
 40
0.4783620043727516
 50
267.33580867347132
 51
2.8610972169418551
  0
ARC
  5
CC0C
  8
0
 10
357.31899712962098
 20
341.19081213279969
 30
0.0
 40
0.4783620043727516
 50
177.13890278305811
 51
272.66419132652862
  0
LINE
  5
CC0D
  8
0
 10
362.09123087725948
 20
341.991814636122
 30
0.0
 11
366.34123203954999
 21
348.19484952880032
 31
0.0
  0
LINE
  5
CC0E
  8
0
 10
362.09123087725948
 20
341.991814636122
 30
0.0
 11
357.8412297149689
 21
348.1961086769212
 31
0.0
  0
POLYLINE
  5
CCCC
  8
0
 66
     1
 10
0.0
 20
0.0
 30
0.0
 70
     2
  0
VERTEX
  5
CCCD
  8
0
 10
356.84123141370128
 20
533.63703869255335
 30
0.0
 42
0.0438578148918741
  0
VERTEX
  5
CCCE
  8
0
 10
356.84521312166999
 20
533.61153433747722
 30
0.0
 42
0.0688774049184382
 70
     1
  0
VERTEX
  5
CCCF
  8
0
 10
356.85132798445238
 20
533.59622762058575
 30
0.0
 42
0.018565286847123
  0
VERTEX
  5
CCD0
  8
0
 10
356.86676603079832
 20
533.57131274025676
 30
0.0
 42
0.0436417455944525
 70
     1
  0
VERTEX
  5
CCD1
  8
0
 10
356.87460952398811
 20
533.56159519392099
 30
0.0
 42
0.0260793640092288
  0
VERTEX
  5
CCD2
  8
0
 10
356.89549669801909
 20
533.54204538955673
 30
0.0
 42
0.0299534807362535
 70
     1
  0
VERTEX
  5
CCD3
  8
0
 10
356.91547569805238
 20
533.52716078932747
 30
0.0
 42
0.0103056004869257
  0
VERTEX
  5
CCD4
  8
0
 10
356.93797506644478
 20
533.51306103258946
 30
0.0
 42
0.0153136758379833
 70
     1
  0
VERTEX
  5
CCD5
  8
0
 10
356.95358447847912
 20
533.50435912847638
 30
0.0
 42
0.0132976421377839
  0
VERTEX
  5
CCD6
  8
0
 10
356.98353790086372
 20
533.48984015636643
 30
0.0
 42
0.0163063488453517
 70
     1
  0
VERTEX
  5
CCD7
  8
0
 10
357.00862457795211
 20
533.47946522039433
 30
0.0
 42
0.0093282778934222
  0
VERTEX
  5
CCD8
  8
0
 10
357.04511984106102
 20
533.46651942255664
 30
0.0
 42
0.0129124935016348
 70
     1
  0
VERTEX
  5
CCD9
  8
0
 10
357.07187675306892
 20
533.45834800087925
 30
0.0
 42
0.0018984897701324
  0
VERTEX
  5
CCDA
  8
0
 10
357.08283174071772
 20
533.45535408287367
 30
0.0
 42
0.0024817302827307
 70
     1
  0
VERTEX
  5
CCDB
  8
0
 10
357.09123192034082
 20
533.45313727379016
 30
0.0
 42
0.0100460069920961
  0
VERTEX
  5
CCDC
  8
0
 10
357.11722602155902
 20
533.44696962708838
 30
0.0
 42
0.0085342281969452
 70
     1
  0
VERTEX
  5
CCDD
  8
0
 10
357.14807252874738
 20
533.44085137855734
 30
0.0
 42
0.0121363721362538
  0
VERTEX
  5
CCDE
  8
0
 10
357.18109872165218
 20
533.43570905660386
 30
0.0
 42
0.0094679959545472
 70
     1
  0
VERTEX
  5
CCDF
  8
0
 10
357.22367547488102
 20
533.43095244940332
 30
0.0
 42
0.0041174581454716
  0
VERTEX
  5
CCE0
  8
0
 10
357.23342514497563
 20
533.43013069337246
 30
0.0
 42
0.000693730687137
 70
     1
  0
VERTEX
  5
CCE1
  8
0
 10
357.2913350748895
 20
533.42581047433555
 30
0.0
 42
0.00940081834781
  0
VERTEX
  5
CCE2
  8
0
 10
357.30693141807927
 20
533.42496313650167
 30
0.0
 42
0.004278916156648
 70
     1
  0
VERTEX
  5
CCE3
  8
0
 10
357.34123242698018
 20
533.42403963180345
 30
0.0
  0
SEQEND
  5
CCE4
  8
0
  0
POLYLINE
  5
CCE5
  8
0
 66
     1
 10
0.0
 20
0.0
 30
0.0
 70
     2
  0
VERTEX
  5
CCE6
  8
0
 10
367.34123034081767
 20
533.63703869255335
 30
0.0
 42
-0.0438578148918741
  0
VERTEX
  5
CCE7
  8
0
 10
367.33724863284942
 20
533.61153433747722
 30
0.0
 42
-0.0688774049184382
 70
     1
  0
VERTEX
  5
CCE8
  8
0
 10
367.33113377006703
 20
533.59622762058575
 30
0.0
 42
-0.018565286847123
  0
VERTEX
  5
CCE9
  8
0
 10
367.31569572372109
 20
533.57131274025676
 30
0.0
 42
-0.0436417455944525
 70
     1
  0
VERTEX
  5
CCEA
  8
0
 10
367.3078522305309
 20
533.56159519392099
 30
0.0
 42
-0.0260793640092288
  0
VERTEX
  5
CCEB
  8
0
 10
367.28696505650032
 20
533.54204538955673
 30
0.0
 42
-0.0299534807362535
 70
     1
  0
VERTEX
  5
CCEC
  8
0
 10
367.26698605646652
 20
533.52716078932747
 30
0.0
 42
-0.0103056004869257
  0
VERTEX
  5
CCED
  8
0
 10
367.24448668807457
 20
533.51306103258946
 30
0.0
 42
-0.0153136758379833
 70
     1
  0
VERTEX
  5
CCEE
  8
0
 10
367.22887727603978
 20
533.50435912847638
 30
0.0
 42
-0.0132976421377839
  0
VERTEX
  5
CCEF
  8
0
 10
367.1989238536558
 20
533.48984015636643
 30
0.0
 42
-0.0163063488453517
 70
     1
  0
VERTEX
  5
CCF0
  8
0
 10
367.17383717656679
 20
533.47946522039433
 30
0.0
 42
-0.0093282778934222
  0
VERTEX
  5
CCF1
  8
0
 10
367.13734191345839
 20
533.46651942255664
 30
0.0
 42
-0.0129124935016348
 70
     1
  0
VERTEX
  5
CCF2
  8
0
 10
367.11058500145009
 20
533.45834800087925
 30
0.0
 42
-0.0018984897701324
  0
VERTEX
  5
CCF3
  8
0
 10
367.0996300138018
 20
533.45535408287367
 30
0.0
 42
-0.0024817302827307
 70
     1
  0
VERTEX
  5
CCF4
  8
0
 10
367.09122983417819
 20
533.45313727379016
 30
0.0
 42
-0.0100460069920961
  0
VERTEX
  5
CCF5
  8
0
 10
367.0652357329605
 20
533.44696962708838
 30
0.0
 42
-0.0085342281969452
 70
     1
  0
VERTEX
  5
CCF6
  8
0
 10
367.03438922577197
 20
533.44085137855734
 30
0.0
 42
-0.0121363721362538
  0
VERTEX
  5
CCF7
  8
0
 10
367.00136303286718
 20
533.43570905660386
 30
0.0
 42
-0.0094679959545472
 70
     1
  0
VERTEX
  5
CCF8
  8
0
 10
366.95878627963799
 20
533.43095244940332
 30
0.0
 42
-0.0041174581454716
  0
VERTEX
  5
CCF9
  8
0
 10
366.94903660954378
 20
533.43013069337246
 30
0.0
 42
-0.000693730687137
 70
     1
  0
VERTEX
  5
CCFA
  8
0
 10
366.89112667962991
 20
533.42581047433555
 30
0.0
 42
-0.00940081834781
  0
VERTEX
  5
CCFB
  8
0
 10
366.87553033644008
 20
533.42496313650167
 30
0.0
 42
-0.004278916156648
 70
     1
  0
VERTEX
  5
CCFC
  8
0
 10
366.84122932753871
 20
533.42403963180345
 30
0.0
  0
SEQEND
  5
CCFD
  8
0
  0
POLYLINE
  5
CD05
  8
0
 66
     1
 10
0.0
 20
0.0
 30
0.0
 70
     2
  0
VERTEX
  5
CD06
  8
0
 10
356.84123141370128
 20
497.94550565344309
 30
0.0
 42
-0.0438578148918741
  0
VERTEX
  5
CD07
  8
0
 10
356.84521312166999
 20
497.97101000851939
 30
0.0
 42
-0.0688774049184382
 70
     1
  0
VERTEX
  5
CD08
  8
0
 10
356.85132798445238
 20
497.98631672541097
 30
0.0
 42
-0.018565286847123
  0
VERTEX
  5
CD09
  8
0
 10
356.86676603079832
 20
498.01123160573979
 30
0.0
 42
-0.0436417455944525
 70
     1
  0
VERTEX
  5
CD0A
  8
0
 10
356.87460952398811
 20
498.0209491520755
 30
0.0
 42
-0.0260793640092288
  0
VERTEX
  5
CD0B
  8
0
 10
356.89549669801909
 20
498.04049895643988
 30
0.0
 42
-0.0299534807362535
 70
     1
  0
VERTEX
  5
CD0C
  8
0
 10
356.91547569805238
 20
498.05538355666909
 30
0.0
 42
-0.0103056004869257
  0
VERTEX
  5
CD0D
  8
0
 10
356.93797506644478
 20
498.06948331340698
 30
0.0
 42
-0.0153136758379833
 70
     1
  0
VERTEX
  5
CD0E
  8
0
 10
356.95358447847912
 20
498.07818521752017
 30
0.0
 42
-0.0132976421377839
  0
VERTEX
  5
CD0F
  8
0
 10
356.98353790086372
 20
498.09270418963018
 30
0.0
 42
-0.0163063488453517
 70
     1
  0
VERTEX
  5
CD10
  8
0
 10
357.00862457795211
 20
498.10307912560239
 30
0.0
 42
-0.0093282778934222
  0
VERTEX
  5
CD11
  8
0
 10
357.04511984106102
 20
498.11602492343991
 30
0.0
 42
-0.0129124935016348
 70
     1
  0
VERTEX
  5
CD12
  8
0
 10
357.07187675306892
 20
498.1241963451173
 30
0.0
 42
-0.0018984897701324
  0
VERTEX
  5
CD13
  8
0
 10
357.08283174071772
 20
498.12719026312283
 30
0.0
 42
-0.0024817302827307
 70
     1
  0
VERTEX
  5
CD14
  8
0
 10
357.09123192034082
 20
498.12940707220639
 30
0.0
 42
-0.0100460069920961
  0
VERTEX
  5
CD15
  8
0
 10
357.11722602155902
 20
498.13557471890812
 30
0.0
 42
-0.0085342281969452
 70
     1
  0
VERTEX
  5
CD16
  8
0
 10
357.14807252874738
 20
498.14169296743933
 30
0.0
 42
-0.0121363721362538
  0
VERTEX
  5
CD17
  8
0
 10
357.18109872165218
 20
498.14683528939293
 30
0.0
 42
-0.0094679959545472
 70
     1
  0
VERTEX
  5
CD18
  8
0
 10
357.22367547488102
 20
498.1515918965934
 30
0.0
 42
-0.0041174581454716
  0
VERTEX
  5
CD19
  8
0
 10
357.23342514497563
 20
498.15241365262409
 30
0.0
 42
-0.000693730687137
 70
     1
  0
VERTEX
  5
CD1A
  8
0
 10
357.2913350748895
 20
498.15673387166112
 30
0.0
 42
-0.00940081834781
  0
VERTEX
  5
CD1B
  8
0
 10
357.30693141807927
 20
498.15758120949488
 30
0.0
 42
-0.004278916156648
 70
     1
  0
VERTEX
  5
CD1C
  8
0
 10
357.34123242698018
 20
498.15850471419321
 30
0.0
  0
SEQEND
  5
CD1D
  8
0
  0
POLYLINE
  5
CD1E
  8
0
 66
     1
 10
0.0
 20
0.0
 30
0.0
 70
     2
  0
VERTEX
  5
CD1F
  8
0
 10
367.34123034081767
 20
497.94550565344309
 30
0.0
 42
0.0438578148918741
  0
VERTEX
  5
CD20
  8
0
 10
367.33724863284942
 20
497.97101000851939
 30
0.0
 42
0.0688774049184382
 70
     1
  0
VERTEX
  5
CD21
  8
0
 10
367.33113377006703
 20
497.98631672541097
 30
0.0
 42
0.018565286847123
  0
VERTEX
  5
CD22
  8
0
 10
367.31569572372109
 20
498.01123160573979
 30
0.0
 42
0.0436417455944525
 70
     1
  0
VERTEX
  5
CD23
  8
0
 10
367.3078522305309
 20
498.0209491520755
 30
0.0
 42
0.0260793640092288
  0
VERTEX
  5
CD24
  8
0
 10
367.28696505650032
 20
498.04049895643988
 30
0.0
 42
0.0299534807362535
 70
     1
  0
VERTEX
  5
CD25
  8
0
 10
367.26698605646652
 20
498.05538355666909
 30
0.0
 42
0.0103056004869257
  0
VERTEX
  5
CD26
  8
0
 10
367.24448668807457
 20
498.06948331340698
 30
0.0
 42
0.0153136758379833
 70
     1
  0
VERTEX
  5
CD27
  8
0
 10
367.22887727603978
 20
498.07818521752017
 30
0.0
 42
0.0132976421377839
  0
VERTEX
  5
CD28
  8
0
 10
367.1989238536558
 20
498.09270418963018
 30
0.0
 42
0.0163063488453517
 70
     1
  0
VERTEX
  5
CD29
  8
0
 10
367.17383717656679
 20
498.10307912560239
 30
0.0
 42
0.0093282778934222
  0
VERTEX
  5
CD2A
  8
0
 10
367.13734191345839
 20
498.11602492343991
 30
0.0
 42
0.0129124935016348
 70
     1
  0
VERTEX
  5
CD2B
  8
0
 10
367.11058500145009
 20
498.1241963451173
 30
0.0
 42
0.0018984897701324
  0
VERTEX
  5
CD2C
  8
0
 10
367.0996300138018
 20
498.12719026312283
 30
0.0
 42
0.0024817302827307
 70
     1
  0
VERTEX
  5
CD2D
  8
0
 10
367.09122983417819
 20
498.12940707220639
 30
0.0
 42
0.0100460069920961
  0
VERTEX
  5
CD2E
  8
0
 10
367.0652357329605
 20
498.13557471890812
 30
0.0
 42
0.0085342281969452
 70
     1
  0
VERTEX
  5
CD2F
  8
0
 10
367.03438922577197
 20
498.14169296743933
 30
0.0
 42
0.0121363721362538
  0
VERTEX
  5
CD30
  8
0
 10
367.00136303286718
 20
498.14683528939293
 30
0.0
 42
0.0094679959545472
 70
     1
  0
VERTEX
  5
CD31
  8
0
 10
366.95878627963799
 20
498.1515918965934
 30
0.0
 42
0.0041174581454716
  0
VERTEX
  5
CD32
  8
0
 10
366.94903660954378
 20
498.15241365262409
 30
0.0
 42
0.000693730687137
 70
     1
  0
VERTEX
  5
CD33
  8
0
 10
366.89112667962991
 20
498.15673387166112
 30
0.0
 42
0.00940081834781
  0
VERTEX
  5
CD34
  8
0
 10
366.87553033644008
 20
498.15758120949488
 30
0.0
 42
0.004278916156648
 70
     1
  0
VERTEX
  5
CD35
  8
0
 10
366.84122932753871
 20
498.15850471419321
 30
0.0
  0
SEQEND
  5
CD36
  8
0
  0
POLYLINE
  5
CD37
  8
0
 66
     1
 10
0.0
 20
0.0
 30
0.0
 70
     2
  0
VERTEX
  5
CD38
  8
0
 10
357.84122971499983
 20
535.64292497904285
 30
0.0
 42
-0.0250580891295824
  0
VERTEX
  5
CD39
  8
0
 10
358.96785208648089
 20
535.3421064398832
 30
0.0
 42
-0.0250580891295909
 70
     1
  0
VERTEX
  5
CD3A
  8
0
 10
360.05872722537151
 20
534.9300855753936
 30
0.0
 42
-0.0250752767253644
  0
VERTEX
  5
CD3B
  8
0
 10
361.103606847018
 20
534.41060507344707
 30
0.0
 42
-0.025075276725359
 70
     1
  0
VERTEX
  5
CD3C
  8
0
 10
362.09123087725948
 20
533.78912925692384
 30
0.0
  0
SEQEND
  5
CD3D
  8
0
  0
POLYLINE
  5
CD3E
  8
0
 66
     1
 10
0.0
 20
0.0
 30
0.0
 70
     2
  0
VERTEX
  5
CD3F
  8
0
 10
366.34123203951913
 20
535.64292497904285
 30
0.0
 42
0.0250580891295824
  0
VERTEX
  5
CD40
  8
0
 10
365.21460966803852
 20
535.3421064398832
 30
0.0
 42
0.0250580891295909
 70
     1
  0
VERTEX
  5
CD41
  8
0
 10
364.1237345291479
 20
534.9300855753936
 30
0.0
 42
0.0250752767253644
  0
VERTEX
  5
CD42
  8
0
 10
363.07885490750141
 20
534.41060507344707
 30
0.0
 42
0.025075276725359
 70
     1
  0
VERTEX
  5
CD43
  8
0
 10
362.09123087725948
 20
533.78912925692384
 30
0.0
  0
SEQEND
  5
CD44
  8
0
  0
LINE
  5
CD50
  8
0
 10
367.34123034081767
 20
140.13004600213031
 30
0.0
 11
367.34123034081767
 21
137.9764612685249
 31
0.0
  0
LINE
  5
CD5A
  8
0
 10
357.34123242698018
 20
137.76346220777489
 30
0.0
 11
366.84122932753871
 21
137.76346220777489
 31
0.0
  0
LINE
  5
CD8D
  8
0
 10
364.09123120508502
 20
102.1315403203771
 30
0.0
 11
364.09123120508502
 21
102.1405238579318
 31
0.0
  0
LINE
  5
CD8E
  8
0
 10
360.09123054943387
 20
102.1315403203771
 30
0.0
 11
360.09123054943387
 21
102.1405238579318
 31
0.0
  0
LINE
  5
CD8F
  8
0
 10
364.09123120508502
 20
102.1315403203771
 30
0.0
 11
364.09123120508502
 21
100.12004560933561
 31
0.0
  0
LINE
  5
CD90
  8
0
 10
360.09123054943387
 20
102.1315403203771
 30
0.0
 11
360.09123054943387
 21
100.12004560933561
 31
0.0
  0
LINE
  5
CD91
  8
0
 10
364.09123120508502
 20
102.1405238579318
 30
0.0
 11
360.09123054943387
 21
102.1405238579318
 31
0.0
  0
LINE
  5
CD92
  8
0
 10
367.09122983417819
 20
137.79337064567591
 30
0.0
 11
367.09122983417819
 21
140.13004600213031
 31
0.0
  0
LINE
  5
CD93
  8
0
 10
360.09123054943387
 20
139.98234680996401
 30
0.0
 11
357.8412297149689
 21
139.98234680996401
 31
0.0
  0
LINE
  5
CD94
  8
0
 10
360.09123054943387
 20
140.1400457988785
 30
0.0
 11
360.09123054943387
 21
139.98234680996401
 31
0.0
  0
LINE
  5
CD95
  8
0
 10
364.09123120508502
 20
140.1400457988785
 30
0.0
 11
364.09123120508502
 21
139.98234680996401
 31
0.0
  0
LINE
  5
CD96
  8
0
 10
366.34123203954999
 20
139.98234680996401
 30
0.0
 11
364.09123120508502
 21
139.98234680996401
 31
0.0
  0
LINE
  5
CD9E
  8
0
 10
357.09123192034082
 20
139.83004651175
 30
0.0
 11
356.84123141370128
 21
139.83004651175
 31
0.0
  0
LINE
  5
CD9F
  8
0
 10
367.34123034081767
 20
139.83004651175
 30
0.0
 11
367.09122983417819
 21
139.83004651175
 31
0.0
  0
LINE
  5
CDC0
  8
0
 10
364.09123120508502
 20
100.12004560933561
 30
0.0
 11
360.09123054943387
 21
100.12004560933561
 31
0.0
  0
LINE
  5
CDC1
  8
0
 10
367.09122983417819
 20
140.13004600213031
 30
0.0
 11
364.09123120508502
 21
140.13004600213031
 31
0.0
  0
LINE
  5
CDC2
  8
0
 10
360.09123054943387
 20
140.13004600213031
 30
0.0
 11
357.09123192034082
 21
140.13004600213031
 31
0.0
  0
LINE
  5
CDC3
  8
0
 10
360.09123054943387
 20
140.1400457988785
 30
0.0
 11
364.09123120508502
 21
140.1400457988785
 31
0.0
  0
LINE
  5
CDC4
  8
0
 10
357.09123192034082
 20
100.1300468961999
 30
0.0
 11
360.09123054943387
 21
100.1300468961999
 31
0.0
  0
LINE
  5
CDC5
  8
0
 10
364.09123120508502
 20
100.1300468961999
 30
0.0
 11
367.09122983417819
 21
100.1300468961999
 31
0.0
  0
POLYLINE
  5
CDD6
  8
0
 66
     1
 10
0.0
 20
0.0
 30
0.0
 70
     2
  0
VERTEX
  5
CDD7
  8
0
 10
367.34123034081767
 20
137.9764612685249
 30
0.0
 42
-0.0567864906234559
  0
VERTEX
  5
CDD8
  8
0
 10
367.32921289302891
 20
137.93266155396529
 30
0.0
 42
-0.0932782922001985
 70
     1
  0
VERTEX
  5
CDD9
  8
0
 10
367.31427493637239
 20
137.90921471523259
 30
0.0
 42
-0.0313528818928191
  0
VERTEX
  5
CDDA
  8
0
 10
367.27344216555821
 20
137.87080420003721
 30
0.0
 42
-0.0581245360683098
 70
     1
  0
VERTEX
  5
CDDB
  8
0
 10
367.24802215625459
 20
137.85429343228679
 30
0.0
 42
-0.0153904057373616
  0
VERTEX
  5
CDDC
  8
0
 10
367.1958190872856
 20
137.8304063301708
 30
0.0
 42
-0.0167957872656566
 70
     1
  0
VERTEX
  5
CDDD
  8
0
 10
367.14667301630652
 20
137.81163931103359
 30
0.0
 42
-0.0082009329208163
  0
VERTEX
  5
CDDE
  8
0
 10
367.07602319868238
 20
137.78863505075
 30
0.0
 42
-0.0176376346526828
 70
     1
  0
VERTEX
  5
CDDF
  8
0
 10
367.04265655670588
 20
137.77964759650521
 30
0.0
 42
-0.0182297057346103
  0
VERTEX
  5
CDE0
  8
0
 10
367.03023952821968
 20
137.77724174184209
 30
0.0
 42
-0.0031256402300107
 70
     1
  0
VERTEX
  5
CDE1
  8
0
 10
366.95731004798108
 20
137.76631823979301
 30
0.0
 42
-0.0294651000430345
  0
VERTEX
  5
CDE2
  8
0
 10
366.91233815188161
 20
137.7625537896709
 30
0.0
 42
-0.0186887890417171
 70
     1
  0
VERTEX
  5
CDE3
  8
0
 10
366.84122932753871
 20
137.76346220777489
 30
0.0
  0
SEQEND
  5
CDE4
  8
0
  0
LINE
  5
CDE5
  8
0
 10
357.09123192034082
 20
137.79337064567591
 30
0.0
 11
357.09123192034082
 21
140.13004600213031
 31
0.0
  0
LINE
  5
CDE6
  8
0
 10
356.84123141370128
 20
140.13004600213031
 30
0.0
 11
356.84123141370128
 21
137.9764612685249
 31
0.0
  0
POLYLINE
  5
CDE7
  8
0
 66
     1
 10
0.0
 20
0.0
 30
0.0
 70
     2
  0
VERTEX
  5
CDE8
  8
0
 10
356.84123141370128
 20
137.9764612685249
 30
0.0
 42
0.0567864906234559
  0
VERTEX
  5
CDE9
  8
0
 10
356.8532488614901
 20
137.93266155396529
 30
0.0
 42
0.0932782922001985
 70
     1
  0
VERTEX
  5
CDEA
  8
0
 10
356.86818681814702
 20
137.90921471523259
 30
0.0
 42
0.0313528818928191
  0
VERTEX
  5
CDEB
  8
0
 10
356.9090195889612
 20
137.87080420003721
 30
0.0
 42
0.0581245360683098
 70
     1
  0
VERTEX
  5
CDEC
  8
0
 10
356.93443959826442
 20
137.85429343228679
 30
0.0
 42
0.0153904057373616
  0
VERTEX
  5
CDED
  8
0
 10
356.98664266723381
 20
137.8304063301708
 30
0.0
 42
0.0167957872656566
 70
     1
  0
VERTEX
  5
CDEE
  8
0
 10
357.03578873821237
 20
137.81163931103359
 30
0.0
 42
0.0082009329208163
  0
VERTEX
  5
CDEF
  8
0
 10
357.10643855583697
 20
137.78863505075
 30
0.0
 42
0.0176376346526828
 70
     1
  0
VERTEX
  5
CDF0
  8
0
 10
357.13980519781308
 20
137.77964759650521
 30
0.0
 42
0.0182297057346103
  0
VERTEX
  5
CDF1
  8
0
 10
357.15222222629973
 20
137.77724174184209
 30
0.0
 42
0.0031256402300107
 70
     1
  0
VERTEX
  5
CDF2
  8
0
 10
357.22515170653833
 20
137.76631823979301
 30
0.0
 42
0.0294651000430345
  0
VERTEX
  5
CDF3
  8
0
 10
357.27012360263728
 20
137.7625537896709
 30
0.0
 42
0.0186887890417171
 70
     1
  0
VERTEX
  5
CDF4
  8
0
 10
357.34123242698018
 20
137.76346220777489
 30
0.0
  0
SEQEND
  5
CDF5
  8
0
  0
POLYLINE
  5
CDF6
  8
0
 66
     1
 10
0.0
 20
0.0
 30
0.0
 70
     2
  0
VERTEX
  5
CDF7
  8
0
 10
367.34122684170831
 20
102.2836301004758
 30
0.0
 42
0.0567864906234559
  0
VERTEX
  5
CDF8
  8
0
 10
367.32920940250727
 20
102.3274298173919
 30
0.0
 42
0.0932782922001985
 70
     1
  0
VERTEX
  5
CDF9
  8
0
 10
367.31427145044751
 20
102.3508766590535
 30
0.0
 42
0.0313528818928191
  0
VERTEX
  5
CDFA
  8
0
 10
367.27343868716429
 20
102.3892871822549
 30
0.0
 42
0.0581245360683098
 70
     1
  0
VERTEX
  5
CDFB
  8
0
 10
367.24801868109847
 20
102.4057979549891
 30
0.0
 42
0.0153904057373616
  0
VERTEX
  5
CDFC
  8
0
 10
367.19581561681298
 20
102.4296850673406
 30
0.0
 42
0.0167957872656566
 70
     1
  0
VERTEX
  5
CDFD
  8
0
 10
367.14666954951372
 20
102.4484520961136
 30
0.0
 42
0.0082009329208163
  0
VERTEX
  5
CDFE
  8
0
 10
367.07601973639981
 20
102.4714563702496
 30
0.0
 42
0.0176376346526828
 70
     1
  0
VERTEX
  5
CDFF
  8
0
 10
367.0426530961854
 20
102.4804438310364
 30
0.0
 42
0.0182297057346103
  0
VERTEX
  5
CE00
  8
0
 10
367.03023606817078
 20
102.4828496881341
 30
0.0
 42
0.0031256402300107
 70
     1
  0
VERTEX
  5
CE01
  8
0
 10
366.95730659007359
 20
102.4937732044823
 30
0.0
 42
0.0294651000430345
  0
VERTEX
  5
CE02
  8
0
 10
366.91233469471263
 20
102.49753766342199
 30
0.0
 42
0.0186887890417171
 70
     1
  0
VERTEX
  5
CE03
  8
0
 10
366.84122587019192
 20
102.4966292592601
 30
0.0
  0
SEQEND
  5
CE04
  8
0
  0
LINE
  5
CE05
  8
0
 10
367.09122637096698
 20
102.4667207723421
 30
0.0
 11
367.09122591281988
 21
100.13004541588769
 31
0.0
  0
LINE
  5
CE06
  8
0
 10
357.34122896963351
 20
102.4966311219048
 30
0.0
 11
366.84122587019192
 21
102.4966292592601
 31
0.0
  0
LINE
  5
CE07
  8
0
 10
367.34122641945942
 20
100.1300453668707
 30
0.0
 11
367.34122684170831
 21
102.2836301004758
 31
0.0
  0
LINE
  5
CE08
  8
0
 10
367.34122647827962
 20
100.430044857251
 30
0.0
 11
367.0912259716402
 21
100.43004490626799
 31
0.0
  0
POLYLINE
  5
CE09
  8
0
 66
     1
 10
0.0
 20
0.0
 30
0.0
 70
     2
  0
VERTEX
  5
CE0A
  8
0
 10
356.84122791459231
 20
102.2836321591887
 30
0.0
 42
-0.0567864906234559
  0
VERTEX
  5
CE0B
  8
0
 10
356.85324537096858
 20
102.32743187139221
 30
0.0
 42
-0.0932782922001985
 70
     1
  0
VERTEX
  5
CE0C
  8
0
 10
356.8681833322226
 20
102.350878707196
 30
0.0
 42
-0.0313528818928191
  0
VERTEX
  5
CE0D
  8
0
 10
356.90901611056779
 20
102.3892892143856
 30
0.0
 42
-0.0581245360683098
 70
     1
  0
VERTEX
  5
CE0E
  8
0
 10
356.9344361231083
 20
102.4057999771516
 30
0.0
 42
-0.0153904057373616
  0
VERTEX
  5
CE0F
  8
0
 10
356.98663919676119
 20
102.4296870690325
 30
0.0
 42
-0.0167957872656566
 70
     1
  0
VERTEX
  5
CE10
  8
0
 10
357.03578527141963
 20
102.4484540785336
 30
0.0
 42
-0.0082009329208163
  0
VERTEX
  5
CE11
  8
0
 10
357.10643509355441
 20
102.4714583249652
 30
0.0
 42
-0.0176376346526828
 70
     1
  0
VERTEX
  5
CE12
  8
0
 10
357.139801737293
 20
102.48044577266769
 30
0.0
 42
-0.0182297057346103
  0
VERTEX
  5
CE13
  8
0
 10
357.15221876625083
 20
102.4828516248962
 30
0.0
 42
-0.0031256402300107
 70
     1
  0
VERTEX
  5
CE14
  8
0
 10
357.22514824863129
 20
102.4937751126463
 30
0.0
 42
-0.0294651000430345
  0
VERTEX
  5
CE15
  8
0
 10
357.2701201454683
 20
102.4975395539506
 30
0.0
 42
-0.0186887890417171
 70
     1
  0
VERTEX
  5
CE16
  8
0
 10
357.34122896963351
 20
102.4966311219045
 30
0.0
  0
SEQEND
  5
CE17
  8
0
  0
LINE
  5
CE18
  8
0
 10
357.09122805780322
 20
100.4300468669466
 30
0.0
 11
356.84122755116368
 21
100.4300469159639
 31
0.0
  0
LINE
  5
CE19
  8
0
 10
356.84122749234302
 20
100.1300474255836
 30
0.0
 11
356.84122791459231
 21
102.2836321591887
 31
0.0
  0
LINE
  5
CE1A
  8
0
 10
357.0912284571296
 20
102.4667207723421
 30
0.0
 11
357.0912279989825
 21
100.13004541588769
 31
0.0
  0
POLYLINE
  5
CE1B
  8
0
 66
     1
 10
0.0
 20
0.0
 30
0.0
  0
VERTEX
  5
1125A
  8
0
 10
366.34123203954999
 20
139.98234680996401
 30
0.0
  0
VERTEX
  5
1125B
  8
0
 10
365.62118202450353
 20
139.78315181500699
 30
0.0
  0
VERTEX
  5
1125C
  8
0
 10
364.12373389223831
 20
139.2695071143842
 30
0.0
  0
VERTEX
  5
1125D
  8
0
 10
363.7575076669159
 20
139.08445709374769
 30
0.0
  0
VERTEX
  5
1125E
  8
0
 10
362.09123087725948
 20
138.11956755028231
 30
0.0
  0
SEQEND
  5
1125F
  8
0
  0
POLYLINE
  5
CE1C
  8
0
 66
     1
 10
0.0
 20
0.0
 30
0.0
  0
VERTEX
  5
11260
  8
0
 10
357.8412297149689
 20
139.98234680996401
 30
0.0
  0
VERTEX
  5
11261
  8
0
 10
358.56127973001588
 20
139.78315181500699
 30
0.0
  0
VERTEX
  5
11262
  8
0
 10
360.0587278622811
 20
139.2695071143842
 30
0.0
  0
VERTEX
  5
11263
  8
0
 10
360.42495408760351
 20
139.08445709374769
 30
0.0
  0
VERTEX
  5
11264
  8
0
 10
362.09123087725948
 20
138.11956755028231
 30
0.0
  0
SEQEND
  5
11265
  8
0
  0
LINE
  5
FF6B
  8
0
 10
370.6412306686434
 20
262.23035403831432
 30
0.0
 11
370.6412306686434
 21
238.45798024280489
 31
0.0
  0
LINE
  5
FF6C
  8
0
 10
391.64123224816649
 20
238.45798024280489
 30
0.0
 11
391.64123224816649
 21
262.23035403831432
 31
0.0
  0
LINE
  5
FF6D
  8
0
 10
391.62371593318312
 20
262.53345855815837
 30
0.0
 11
389.71694844565718
 21
279.01897826536128
 31
0.0
  0
LINE
  5
FF6E
  8
0
 10
372.56551074586241
 20
279.01897826536128
 30
0.0
 11
370.65874325833647
 21
262.53345855815837
 31
0.0
  0
LINE
  5
FF6F
  8
0
 10
386.14122855267851
 20
282.24471136906118
 30
0.0
 11
386.14122855267851
 21
303.79635012403702
 31
0.0
  0
LINE
  5
FF71
  8
0
 10
374.64123132429449
 20
332.56494500978431
 30
0.0
 11
376.14123063884108
 21
332.56494500978431
 31
0.0
  0
LINE
  5
FF72
  8
0
 10
386.14122855267851
 20
332.56494500978431
 30
0.0
 11
387.6412315925154
 21
332.56494500978431
 31
0.0
  0
LINE
  5
FF73
  8
0
 10
387.6412315925154
 20
368.5649434600636
 30
0.0
 11
374.64123132429449
 21
368.5649434600636
 31
0.0
  0
LINE
  5
FF74
  8
0
 10
387.6412315925154
 20
332.56494500978431
 30
0.0
 11
388.64123361907332
 21
333.56494331105188
 31
0.0
  0
LINE
  5
FF75
  8
0
 10
388.64123361907332
 20
367.56494515879592
 30
0.0
 11
387.6412315925154
 21
368.5649434600636
 31
0.0
  0
LINE
  5
FF76
  8
0
 10
374.64123132429449
 20
368.5649434600636
 30
0.0
 11
373.64122929773657
 21
367.56494515879592
 31
0.0
  0
LINE
  5
FF77
  8
0
 10
373.64122929773657
 20
333.56494331105188
 30
0.0
 11
374.64123132429449
 21
332.56494500978431
 31
0.0
  0
POLYLINE
  5
FF79
  8
0
 66
     1
 10
0.0
 20
0.0
 30
0.0
 70
   128
  0
VERTEX
  5
11266
  8
0
 10
370.6412306686434
 20
262.23035403831432
 30
0.0
  0
VERTEX
  5
11267
  8
0
 10
370.70166605315541
 20
262.79282816989848
 30
0.0
  0
VERTEX
  5
11268
  8
0
 10
370.99574046931599
 20
263.58303674800823
 30
0.0
  0
VERTEX
  5
11269
  8
0
 10
371.52761134109829
 20
264.34153565509752
 30
0.0
  0
VERTEX
  5
1126A
  8
0
 10
372.2848175724539
 20
265.05054780586192
 30
0.0
  0
VERTEX
  5
1126B
  8
0
 10
373.24961560569142
 20
265.69345840557048
 30
0.0
  0
VERTEX
  5
1126C
  8
0
 10
374.39938175282811
 20
266.2551949296755
 30
0.0
  0
VERTEX
  5
1126D
  8
0
 10
375.70717098913519
 20
266.72259965284297
 30
0.0
  0
VERTEX
  5
1126E
  8
0
 10
377.1423353513274
 20
267.08470532043413
 30
0.0
  0
VERTEX
  5
1126F
  8
0
 10
378.6712242921385
 20
267.33302572114889
 30
0.0
  0
VERTEX
  5
11270
  8
0
 10
380.25801169476841
 20
267.461749402122
 30
0.0
  0
VERTEX
  5
11271
  8
0
 10
381.86549681029652
 20
267.46785142763088
 30
0.0
  0
VERTEX
  5
11272
  8
0
 10
383.45600950322478
 20
267.35119023664419
 30
0.0
  0
VERTEX
  5
11273
  8
0
 10
384.99226706824629
 20
267.11450019224122
 30
0.0
  0
VERTEX
  5
11274
  8
0
 10
386.43825339875548
 20
266.76333197696641
 30
0.0
  0
VERTEX
  5
11275
  8
0
 10
387.76009070477812
 20
266.30591103179881
 30
0.0
  0
VERTEX
  5
11276
  8
0
 10
388.92677712045042
 20
265.75296619279811
 30
0.0
  0
VERTEX
  5
11277
  8
0
 10
389.91098391614292
 20
265.1174540196223
 30
0.0
  0
VERTEX
  5
11278
  8
0
 10
390.68963664374678
 20
264.41426822288457
 30
0.0
  0
VERTEX
  5
11279
  8
0
 10
391.2444813807997
 20
263.65989693744609
 30
0.0
  0
VERTEX
  5
1127A
  8
0
 10
391.56250941357939
 20
262.87201294048259
 30
0.0
  0
VERTEX
  5
1127B
  8
0
 10
391.64123224816649
 20
262.23035403831432
 30
0.0
  0
SEQEND
  5
1127C
  8
0
  0
LINE
  5
FF7A
  8
0
 10
389.70887946687071
 20
279.08098944766948
 30
0.0
 11
389.71694844565718
 21
279.01897826536128
 31
0.0
  0
LINE
  5
FF80
  8
0
 10
387.6412315925154
 20
332.56494500978431
 30
0.0
 11
387.64123159251488
 21
368.5649434600636
 31
0.0
  0
LINE
  5
FF81
  8
0
 10
374.64123132429449
 20
368.5649434600636
 30
0.0
 11
374.64123132429449
 21
332.56494500978431
 31
0.0
  0
LINE
  5
FF82
  8
0
 10
388.64123361907332
 20
367.56494515879598
 30
0.0
 11
388.64123361907332
 21
333.56494331105188
 31
0.0
  0
LINE
  5
FF83
  8
0
 10
373.64122929773657
 20
333.56494331105188
 30
0.0
 11
373.64122929773657
 21
367.56494515879592
 31
0.0
  0
POLYLINE
  5
FF84
  8
0
 66
     1
 10
0.0
 20
0.0
 30
0.0
 70
   128
  0
VERTEX
  5
1127D
  8
0
 10
381.14123332105009
 20
356.03385526059702
 30
0.0
  0
VERTEX
  5
1127E
  8
0
 10
382.08551990590422
 20
356.14625611646602
 30
0.0
  0
VERTEX
  5
1127F
  8
0
 10
382.95977103314732
 20
356.47512288136909
 30
0.0
  0
VERTEX
  5
11280
  8
0
 10
383.69915920100539
 20
356.99606514839962
 30
0.0
  0
VERTEX
  5
11281
  8
0
 10
384.2488257845435
 20
357.6704460692269
 30
0.0
  0
VERTEX
  5
11282
  8
0
 10
384.56802355847691
 20
358.44825082762668
 30
0.0
  0
VERTEX
  5
11283
  8
0
 10
384.63307457766859
 20
359.27179330332712
 30
0.0
  0
VERTEX
  5
11284
  8
0
 10
384.43914341531132
 20
360.0799941022558
 30
0.0
  0
VERTEX
  5
11285
  8
0
 10
384.00062459311812
 20
360.81291330351081
 30
0.0
  0
VERTEX
  5
11286
  8
0
 10
383.35003989539479
 20
361.41619426502427
 30
0.0
  0
VERTEX
  5
11287
  8
0
 10
382.53563183150618
 20
361.84509345634422
 30
0.0
  0
VERTEX
  5
11288
  8
0
 10
381.61781715951292
 20
362.06780155493459
 30
0.0
  0
VERTEX
  5
11289
  8
0
 10
380.66464948258732
 20
362.06780155493459
 30
0.0
  0
VERTEX
  5
1128A
  8
0
 10
379.74682736001341
 20
361.84509345634422
 30
0.0
  0
VERTEX
  5
1128B
  8
0
 10
378.93241929612492
 20
361.41619426502427
 30
0.0
  0
VERTEX
  5
1128C
  8
0
 10
378.28183459840147
 20
360.81291330351081
 30
0.0
  0
VERTEX
  5
1128D
  8
0
 10
377.84331577620833
 20
360.0799941022558
 30
0.0
  0
VERTEX
  5
1128E
  8
0
 10
377.64939206443159
 20
359.27179330332712
 30
0.0
  0
VERTEX
  5
1128F
  8
0
 10
377.7144356330428
 20
358.44825082762668
 30
0.0
  0
VERTEX
  5
11290
  8
0
 10
378.03363340697621
 20
357.6704460692269
 30
0.0
  0
VERTEX
  5
11291
  8
0
 10
378.5833074410948
 20
356.99606514839962
 30
0.0
  0
VERTEX
  5
11292
  8
0
 10
379.32268815837239
 20
356.47512288136909
 30
0.0
  0
VERTEX
  5
11293
  8
0
 10
380.19693928561537
 20
356.14625611646602
 30
0.0
  0
VERTEX
  5
11294
  8
0
 10
381.14123332105009
 20
356.03385526059702
 30
0.0
  0
SEQEND
  5
11295
  8
0
  0
POLYLINE
  5
FF85
  8
0
 66
     1
 10
0.0
 20
0.0
 30
0.0
 70
   128
  0
VERTEX
  5
11296
  8
0
 10
381.14123332105009
 20
356.39988086490462
 30
0.0
  0
VERTEX
  5
11297
  8
0
 10
381.91376912198399
 20
356.50584628178308
 30
0.0
  0
VERTEX
  5
11298
  8
0
 10
382.61069643102019
 20
356.81337085856632
 30
0.0
  0
VERTEX
  5
11299
  8
0
 10
383.16377538047169
 20
357.29235192133609
 30
0.0
  0
VERTEX
  5
1129A
  8
0
 10
383.51887005172102
 20
357.89590296639631
 30
0.0
  0
VERTEX
  5
1129B
  8
0
 10
383.6412309368643
 20
358.5649446149036
 30
0.0
  0
VERTEX
  5
1129C
  8
0
 10
383.51887005172102
 20
359.23398533208808
 30
0.0
  0
VERTEX
  5
1129D
  8
0
 10
383.16377538047169
 20
359.8375363771483
 30
0.0
  0
VERTEX
  5
1129E
  8
0
 10
382.61069643102019
 20
360.31651743991807
 30
0.0
  0
VERTEX
  5
1129F
  8
0
 10
381.91376912198399
 20
360.62404201670131
 30
0.0
  0
VERTEX
  5
112A0
  8
0
 10
381.14123332105009
 20
360.73000789924112
 30
0.0
  0
VERTEX
  5
112A1
  8
0
 10
380.36869006953572
 20
360.62404201670131
 30
0.0
  0
VERTEX
  5
112A2
  8
0
 10
379.67177021108
 20
360.31651743991807
 30
0.0
  0
VERTEX
  5
112A3
  8
0
 10
379.11869126162861
 20
359.8375363771483
 30
0.0
  0
VERTEX
  5
112A4
  8
0
 10
378.76358913979863
 20
359.23398533208808
 30
0.0
  0
VERTEX
  5
112A5
  8
0
 10
378.64122825465529
 20
358.5649446149036
 30
0.0
  0
VERTEX
  5
112A6
  8
0
 10
378.76358913979863
 20
357.89590296639631
 30
0.0
  0
VERTEX
  5
112A7
  8
0
 10
379.11869126162861
 20
357.29235192133609
 30
0.0
  0
VERTEX
  5
112A8
  8
0
 10
379.67177021108
 20
356.81337085856632
 30
0.0
  0
VERTEX
  5
112A9
  8
0
 10
380.36869006953572
 20
356.50584628178308
 30
0.0
  0
VERTEX
  5
112AA
  8
0
 10
381.14123332105009
 20
356.39988086490462
 30
0.0
  0
SEQEND
  5
112AB
  8
0
  0
POLYLINE
  5
FF86
  8
0
 66
     1
 10
0.0
 20
0.0
 30
0.0
 70
   128
  0
VERTEX
  5
112AC
  8
0
 10
370.6412306686434
 20
238.45798024280489
 30
0.0
  0
VERTEX
  5
112AD
  8
0
 10
370.70166605315541
 20
239.02045437438909
 30
0.0
  0
VERTEX
  5
112AE
  8
0
 10
370.99574046931599
 20
239.8106629524988
 30
0.0
  0
VERTEX
  5
112AF
  8
0
 10
371.52761134109829
 20
240.56916185958801
 30
0.0
  0
VERTEX
  5
112B0
  8
0
 10
372.2848175724539
 20
241.2781740103525
 30
0.0
  0
VERTEX
  5
112B1
  8
0
 10
373.24961560569142
 20
241.921084610061
 30
0.0
  0
VERTEX
  5
112B2
  8
0
 10
374.39938175282811
 20
242.4828211341661
 30
0.0
  0
VERTEX
  5
112B3
  8
0
 10
375.70717098913519
 20
242.95022585733349
 30
0.0
  0
VERTEX
  5
112B4
  8
0
 10
377.1423353513274
 20
243.31232407434399
 30
0.0
  0
VERTEX
  5
112B5
  8
0
 10
378.6712242921385
 20
243.56065192563949
 30
0.0
  0
VERTEX
  5
112B6
  8
0
 10
380.25801169476841
 20
243.6893756066126
 30
0.0
  0
VERTEX
  5
112B7
  8
0
 10
381.86549681029652
 20
243.6954776321214
 30
0.0
  0
VERTEX
  5
112B8
  8
0
 10
383.45600950322478
 20
243.57881644113479
 30
0.0
  0
VERTEX
  5
112B9
  8
0
 10
384.99226706824629
 20
243.34212639673169
 30
0.0
  0
VERTEX
  5
112BA
  8
0
 10
386.43825339875548
 20
242.9909581814569
 30
0.0
  0
VERTEX
  5
112BB
  8
0
 10
387.76009070477812
 20
242.53353723628939
 30
0.0
  0
VERTEX
  5
112BC
  8
0
 10
388.92677712045042
 20
241.98059239728869
 30
0.0
  0
VERTEX
  5
112BD
  8
0
 10
389.91098391614292
 20
241.34508022411291
 30
0.0
  0
VERTEX
  5
112BE
  8
0
 10
390.68963664374678
 20
240.64189442737521
 30
0.0
  0
VERTEX
  5
112BF
  8
0
 10
391.2444813807997
 20
239.8875231419367
 30
0.0
  0
VERTEX
  5
112C0
  8
0
 10
391.56250941357939
 20
239.0996391449732
 30
0.0
  0
VERTEX
  5
112C1
  8
0
 10
391.64116519294112
 20
238.47656944139419
 30
0.0
  0
SEQEND
  5
112C2
  8
0
  0
POLYLINE
  5
FF87
  8
0
 66
     1
 10
0.0
 20
0.0
 30
0.0
 70
   128
  0
VERTEX
  5
112C3
  8
0
 10
389.6979047616515
 20
235.46754070861761
 30
0.0
  0
VERTEX
  5
112C4
  8
0
 10
389.0874116381201
 20
234.7838083778185
 30
0.0
  0
VERTEX
  5
112C5
  8
0
 10
388.26016622386311
 20
234.15964343889181
 30
0.0
  0
VERTEX
  5
112C6
  8
0
 10
387.23873632750838
 20
233.6120704685014
 30
0.0
  0
VERTEX
  5
112C7
  8
0
 10
386.05097966990797
 20
233.15602043016369
 30
0.0
  0
VERTEX
  5
112C8
  8
0
 10
384.72929882607792
 20
232.80395069463671
 30
0.0
  0
VERTEX
  5
112C9
  8
0
 10
383.30974715552662
 20
232.56545015914861
 30
0.0
  0
VERTEX
  5
112CA
  8
0
 10
381.83104532561629
 20
232.44702318056051
 30
0.0
  0
VERTEX
  5
112CB
  8
0
 10
380.33352332911818
 20
232.45191076143209
 30
0.0
  0
VERTEX
  5
112CC
  8
0
 10
378.85803269944518
 20
232.57996389015139
 30
0.0
  0
VERTEX
  5
112CD
  8
0
 10
377.44482147298191
 20
232.8277105961603
 30
0.0
  0
VERTEX
  5
112CE
  8
0
 10
376.13244640431731
 20
233.18837830169619
 30
0.0
  0
VERTEX
  5
112CF
  8
0
 10
374.95668890676831
 20
233.65213224037109
 30
0.0
  0
VERTEX
  5
112D0
  8
0
 10
373.9496311803851
 20
234.2063213263315
 30
0.0
  0
VERTEX
  5
112D1
  8
0
 10
373.13874351582859
 20
234.8358283315462
 30
0.0
  0
VERTEX
  5
112D2
  8
0
 10
372.54614296160071
 20
235.52348711831991
 30
0.0
  0
VERTEX
  5
112D3
  8
0
 10
372.18799355230658
 20
236.2505296741289
 30
0.0
  0
VERTEX
  5
112D4
  8
0
 10
372.07406672439902
 20
236.99713745458541
 30
0.0
  0
VERTEX
  5
112D5
  8
0
 10
372.2074656446967
 20
237.74294057233749
 30
0.0
  0
VERTEX
  5
112D6
  8
0
 10
372.58455442986821
 20
238.4675840411943
 30
0.0
  0
VERTEX
  5
112D7
  8
0
 10
373.19505127868979
 20
239.151323822574
 30
0.0
  0
VERTEX
  5
112D8
  8
0
 10
374.0222929676566
 20
239.7754887615007
 30
0.0
  0
VERTEX
  5
112D9
  8
0
 10
375.04372658930151
 20
240.32306173189099
 30
0.0
  0
VERTEX
  5
112DA
  8
0
 10
376.23147952161162
 20
240.7791043196481
 30
0.0
  0
VERTEX
  5
112DB
  8
0
 10
377.55316036544173
 20
241.13117405517519
 30
0.0
  0
VERTEX
  5
112DC
  8
0
 10
378.97271203599303
 20
241.36968204124389
 30
0.0
  0
VERTEX
  5
112DD
  8
0
 10
380.4514213164839
 20
241.4881015692514
 30
0.0
  0
VERTEX
  5
112DE
  8
0
 10
381.94893586240141
 20
241.48322143896041
 30
0.0
  0
VERTEX
  5
112DF
  8
0
 10
383.42442649207442
 20
241.35516085966049
 30
0.0
  0
VERTEX
  5
112E0
  8
0
 10
384.83763771853779
 20
241.1074141536516
 30
0.0
  0
VERTEX
  5
112E1
  8
0
 10
386.15002023778288
 20
240.74675389869631
 30
0.0
  0
VERTEX
  5
112E2
  8
0
 10
387.3257740100417
 20
240.28299996002141
 30
0.0
  0
VERTEX
  5
112E3
  8
0
 10
388.33282428584431
 20
239.728810874061
 30
0.0
  0
VERTEX
  5
112E4
  8
0
 10
389.14371567569111
 20
239.09929641826571
 30
0.0
  0
VERTEX
  5
112E5
  8
0
 10
389.73631995520918
 20
238.4116450820726
 30
0.0
  0
VERTEX
  5
112E6
  8
0
 10
390.09446936450331
 20
237.68459507568301
 30
0.0
  0
VERTEX
  5
112E7
  8
0
 10
390.20839619241087
 20
236.93798729522649
 30
0.0
  0
VERTEX
  5
112E8
  8
0
 10
390.07499354682301
 20
236.19219162805501
 30
0.0
  0
VERTEX
  5
112E9
  8
0
 10
389.6979047616515
 20
235.46754070861761
 30
0.0
  0
SEQEND
  5
112EA
  8
0
  0
POLYLINE
  5
FF88
  8
0
 66
     1
 10
0.0
 20
0.0
 30
0.0
 70
   128
  0
VERTEX
  5
112EB
  8
0
 10
372.56551074586241
 20
279.01897826536128
 30
0.0
  0
VERTEX
  5
112EC
  8
0
 10
372.58039328060482
 20
279.12491807086889
 30
0.0
  0
VERTEX
  5
112ED
  8
0
 10
372.82315554819439
 20
279.84322109563777
 30
0.0
  0
VERTEX
  5
112EE
  8
0
 10
373.30521183810561
 20
280.53067871673528
 30
0.0
  0
VERTEX
  5
112EF
  8
0
 10
374.012700345138
 20
281.1675170932574
 30
0.0
  0
VERTEX
  5
112F0
  8
0
 10
374.92525863252013
 20
281.73540779693548
 30
0.0
  0
VERTEX
  5
112F1
  8
0
 10
376.01664203009932
 20
282.21801915510127
 30
0.0
  0
VERTEX
  5
112F2
  8
0
 10
377.2554500659499
 20
282.6014707361025
 30
0.0
  0
VERTEX
  5
112F3
  8
0
 10
378.60604661307661
 20
282.87472077949468
 30
0.0
  0
VERTEX
  5
112F4
  8
0
 10
380.02957689366667
 20
283.0299163733286
 30
0.0
  0
VERTEX
  5
112F5
  8
0
 10
381.48508506617873
 20
283.06258716924623
 30
0.0
  0
VERTEX
  5
112F6
  8
0
 10
382.93069886765812
 20
282.9718018446726
 30
0.0
  0
VERTEX
  5
112F7
  8
0
 10
384.32483660779332
 20
282.76016810281698
 30
0.0
  0
VERTEX
  5
112F8
  8
0
 10
385.62738436065052
 20
282.43377306802699
 30
0.0
  0
VERTEX
  5
112F9
  8
0
 10
386.80087315640782
 20
282.0020044718546
 30
0.0
  0
VERTEX
  5
112FA
  8
0
 10
387.81155186496107
 20
281.4772898827357
 30
0.0
  0
VERTEX
  5
112FB
  8
0
 10
388.63032596907942
 20
280.87471672637889
 30
0.0
  0
VERTEX
  5
112FC
  8
0
 10
389.23365908465712
 20
280.21162250383333
 30
0.0
  0
VERTEX
  5
112FD
  8
0
 10
389.60419135890339
 20
279.5070881520075
 30
0.0
  0
VERTEX
  5
112FE
  8
0
 10
389.70887946687071
 20
279.08098944766948
 30
0.0
  0
SEQEND
  5
112FF
  8
0
  0
ARC
  5
FF89
  8
0
 10
381.1419330278618
 20
331.72067729095153
 30
0.0
 40
6.5582391937319171
 50
45.16117709602598
 51
134.83882290397401
  0
POLYLINE
  5
FF8A
  8
0
 66
     1
 10
0.0
 20
0.0
 30
0.0
 70
     2
  0
VERTEX
  5
FF8B
  8
0
 10
385.76624483668729
 20
336.37107959795247
 30
0.0
 42
-0.0070636417015478
  0
VERTEX
  5
FF8C
  8
0
 10
385.82927649143539
 20
336.29957766808468
 30
0.0
 42
-0.0179512418184258
 70
     1
  0
VERTEX
  5
FF8D
  8
0
 10
385.8526472768599
 20
336.27022931402382
 30
0.0
 42
-0.0030596053827364
  0
VERTEX
  5
FF8E
  8
0
 10
385.97678332413722
 20
336.10014407926889
 30
0.0
 42
-0.0125023320794577
 70
     1
  0
VERTEX
  5
FF8F
  8
0
 10
386.00585657432339
 20
336.05758893666359
 30
0.0
 42
-0.0091366828105581
  0
VERTEX
  5
FF90
  8
0
 10
386.07747679637811
 20
335.94235127256718
 30
0.0
 42
-0.0096372635467342
 70
     1
  0
VERTEX
  5
FF91
  8
0
 10
386.14122855267851
 20
335.83062642570468
 30
0.0
 42
-0.0055844065713227
  0
VERTEX
  5
FF92
  8
0
 10
386.17922847345523
 20
335.75905488428651
 30
0.0
 42
-0.0073426925971888
 70
     1
  0
VERTEX
  5
FF93
  8
0
 10
386.20671273105148
 20
335.70389174542709
 30
0.0
 42
-0.0158952354651154
  0
VERTEX
  5
FF94
  8
0
 10
386.2450695530938
 20
335.61701322226071
 30
0.0
 42
-0.0110231396270655
 70
     1
  0
VERTEX
  5
FF95
  8
0
 10
386.29355230366627
 20
335.48895762845171
 30
0.0
 42
-0.0092522238463464
  0
VERTEX
  5
FF96
  8
0
 10
386.31913018222212
 20
335.41212909528002
 30
0.0
 42
-0.0089792419680755
 70
     1
  0
VERTEX
  5
FF97
  8
0
 10
386.3425821904911
 20
335.3320571214598
 30
0.0
 42
-0.0185459644738714
  0
VERTEX
  5
FF98
  8
0
 10
386.36340658475871
 20
335.24306730044481
 30
0.0
 42
-0.0110329604739713
 70
     1
  0
VERTEX
  5
FF99
  8
0
 10
386.38950114051391
 20
335.09170480998171
 30
0.0
 42
-0.0170847177101846
  0
VERTEX
  5
FF9A
  8
0
 10
386.40333034596779
 20
334.97144182875053
 30
0.0
 42
-0.0153291516670911
 70
     1
  0
VERTEX
  5
FF9B
  8
0
 10
386.41002818114839
 20
334.83669653754072
 30
0.0
 42
-0.025552711942326
  0
VERTEX
  5
FF9C
  8
0
 10
386.40776676279211
 20
334.76623578016472
 30
0.0
 42
-0.0169665877246495
 70
     1
  0
VERTEX
  5
FF9D
  8
0
 10
386.39536600926658
 20
334.66082863819508
 30
0.0
 42
-0.0516503076986445
  0
VERTEX
  5
FF9E
  8
0
 10
386.35956794922589
 20
334.52307518033979
 30
0.0
 42
-0.0782726862429932
 70
     1
  0
VERTEX
  5
FF9F
  8
0
 10
386.31325784672759
 20
334.4409946720649
 30
0.0
 42
-0.0166398686732782
  0
VERTEX
  5
FFA0
  8
0
 10
386.2870982577229
 20
334.41013698047863
 30
0.0
 42
-0.0078087726732144
 70
     1
  0
VERTEX
  5
FFA1
  8
0
 10
386.22821984948769
 20
334.34719833800688
 30
0.0
 42
-0.0194006923866425
  0
VERTEX
  5
FFA2
  8
0
 10
386.19448384608182
 20
334.31485648612232
 30
0.0
 42
-0.0130248363340776
 70
     1
  0
VERTEX
  5
FFA3
  8
0
 10
386.14122855267851
 20
334.27004949493852
 30
0.0
  0
SEQEND
  5
FFA4
  8
0
  0
POLYLINE
  5
FFA5
  8
0
 66
     1
 10
0.0
 20
0.0
 30
0.0
 70
     2
  0
VERTEX
  5
FFA6
  8
0
 10
376.51762121903681
 20
336.37107959795247
 30
0.0
 42
0.0070636417015478
  0
VERTEX
  5
FFA7
  8
0
 10
376.4545895642886
 20
336.29957766808468
 30
0.0
 42
0.0179512418184258
 70
     1
  0
VERTEX
  5
FFA8
  8
0
 10
376.43121877886409
 20
336.27022931402382
 30
0.0
 42
0.0030596053827364
  0
VERTEX
  5
FFA9
  8
0
 10
376.30708273158689
 20
336.10014407926889
 30
0.0
 42
0.0125023320794577
 70
     1
  0
VERTEX
  5
FFAA
  8
0
 10
376.27800948140072
 20
336.05758893666359
 30
0.0
 42
0.0091366828105581
  0
VERTEX
  5
FFAB
  8
0
 10
376.206389259346
 20
335.94235127256718
 30
0.0
 42
0.0096372635467342
 70
     1
  0
VERTEX
  5
FFAC
  8
0
 10
376.14263750304548
 20
335.83062642570468
 30
0.0
 42
0.0055844065713227
  0
VERTEX
  5
FFAD
  8
0
 10
376.10463758226888
 20
335.75905488428651
 30
0.0
 42
0.0073426925971888
 70
     1
  0
VERTEX
  5
FFAE
  8
0
 10
376.07715332467251
 20
335.70389174542709
 30
0.0
 42
0.0158952354651154
  0
VERTEX
  5
FFAF
  8
0
 10
376.0387965026303
 20
335.61701322226071
 30
0.0
 42
0.0110231396270655
 70
     1
  0
VERTEX
  5
FFB0
  8
0
 10
375.99031375205777
 20
335.48895762845171
 30
0.0
 42
0.0092522238463464
  0
VERTEX
  5
FFB1
  8
0
 10
375.96473587350192
 20
335.41212909528002
 30
0.0
 42
0.0089792419680755
 70
     1
  0
VERTEX
  5
FFB2
  8
0
 10
375.94128386523289
 20
335.3320571214598
 30
0.0
 42
0.0185459644738714
  0
VERTEX
  5
FFB3
  8
0
 10
375.9204594709654
 20
335.24306730044481
 30
0.0
 42
0.0110329604739713
 70
     1
  0
VERTEX
  5
FFB4
  8
0
 10
375.89436491521019
 20
335.09170480998171
 30
0.0
 42
0.0170847177101846
  0
VERTEX
  5
FFB5
  8
0
 10
375.88053570975632
 20
334.97144182875053
 30
0.0
 42
0.0153291516670911
 70
     1
  0
VERTEX
  5
FFB6
  8
0
 10
375.87383787457571
 20
334.83669653754072
 30
0.0
 42
0.025552711942326
  0
VERTEX
  5
FFB7
  8
0
 10
375.87609929293188
 20
334.76623578016472
 30
0.0
 42
0.0169665877246495
 70
     1
  0
VERTEX
  5
FFB8
  8
0
 10
375.88850004645752
 20
334.66082863819508
 30
0.0
 42
0.0516503076986445
  0
VERTEX
  5
FFB9
  8
0
 10
375.9242981064981
 20
334.52307518033979
 30
0.0
 42
0.0782726862429932
 70
     1
  0
VERTEX
  5
FFBA
  8
0
 10
375.97060820899651
 20
334.4409946720649
 30
0.0
 42
0.0166398686732782
  0
VERTEX
  5
FFBB
  8
0
 10
375.9967677980012
 20
334.41013698047863
 30
0.0
 42
0.0078087726732144
 70
     1
  0
VERTEX
  5
FFBC
  8
0
 10
376.05564620623642
 20
334.34719833800688
 30
0.0
 42
0.0194006923866425
  0
VERTEX
  5
FFBD
  8
0
 10
376.08938220964228
 20
334.31485648612232
 30
0.0
 42
0.0130248363340776
 70
     1
  0
VERTEX
  5
FFBE
  8
0
 10
376.14263750304548
 20
334.27004949493852
 30
0.0
  0
SEQEND
  5
FFBF
  8
0
  0
ARC
  5
FFC0
  8
0
 10
381.11596649879181
 20
359.93738225220528
 30
0.0
 40
5.2970726312787599
 50
189.47991360314751
 51
353.66464720008219
  0
POLYLINE
  5
FFC1
  8
0
 10
385.65855225303841
 20
361.78854463192198
 30
0.0
 66
     1
 70
     8
  0
VERTEX
  8
0
  5
114E8
 10
385.659
 20
361.789
 30
0.000000
  70
    32
  0
VERTEX
  8
0
  5
114E9
 10
385.612
 20
361.843
 30
0.000000
  70
    32
  0
VERTEX
  8
0
  5
114EA
 10
385.565
 20
361.897
 30
0.000000
  70
    32
  0
VERTEX
  8
0
  5
114EB
 10
385.516
 20
361.950
 30
0.000000
  70
    32
  0
VERTEX
  8
0
  5
114EC
 10
385.467
 20
362.003
 30
0.000000
  70
    32
  0
VERTEX
  8
0
  5
114ED
 10
385.416
 20
362.055
 30
0.000000
  70
    32
  0
VERTEX
  8
0
  5
114EE
 10
385.365
 20
362.106
 30
0.000000
  70
    32
  0
VERTEX
  8
0
  5
114EF
 10
385.313
 20
362.157
 30
0.000000
  70
    32
  0
VERTEX
  8
0
  5
114F0
 10
385.260
 20
362.207
 30
0.000000
  70
    32
  0
VERTEX
  8
0
  5
114F1
 10
385.206
 20
362.256
 30
0.000000
  70
    32
  0
VERTEX
  8
0
  5
114F2
 10
385.151
 20
362.305
 30
0.000000
  70
    32
  0
VERTEX
  8
0
  5
114F3
 10
385.095
 20
362.353
 30
0.000000
  70
    32
  0
VERTEX
  8
0
  5
114F4
 10
385.039
 20
362.401
 30
0.000000
  70
    32
  0
VERTEX
  8
0
  5
114F5
 10
384.981
 20
362.448
 30
0.000000
  70
    32
  0
VERTEX
  8
0
  5
114F6
 10
384.923
 20
362.494
 30
0.000000
  70
    32
  0
VERTEX
  8
0
  5
114F7
 10
384.864
 20
362.539
 30
0.000000
  70
    32
  0
VERTEX
  8
0
  5
114F8
 10
384.804
 20
362.584
 30
0.000000
  70
    32
  0
VERTEX
  8
0
  5
114F9
 10
384.743
 20
362.628
 30
0.000000
  70
    32
  0
VERTEX
  8
0
  5
114FA
 10
384.682
 20
362.671
 30
0.000000
  70
    32
  0
VERTEX
  8
0
  5
114FB
 10
384.620
 20
362.714
 30
0.000000
  70
    32
  0
VERTEX
  8
0
  5
114FC
 10
384.557
 20
362.755
 30
0.000000
  70
    32
  0
VERTEX
  8
0
  5
114FD
 10
384.493
 20
362.796
 30
0.000000
  70
    32
  0
VERTEX
  8
0
  5
114FE
 10
384.429
 20
362.836
 30
0.000000
  70
    32
  0
VERTEX
  8
0
  5
114FF
 10
384.364
 20
362.876
 30
0.000000
  70
    32
  0
VERTEX
  8
0
  5
11500
 10
384.298
 20
362.914
 30
0.000000
  70
    32
  0
VERTEX
  8
0
  5
11501
 10
384.231
 20
362.952
 30
0.000000
  70
    32
  0
VERTEX
  8
0
  5
11502
 10
384.164
 20
362.989
 30
0.000000
  70
    32
  0
VERTEX
  8
0
  5
11503
 10
384.096
 20
363.025
 30
0.000000
  70
    32
  0
VERTEX
  8
0
  5
11504
 10
384.028
 20
363.061
 30
0.000000
  70
    32
  0
VERTEX
  8
0
  5
11505
 10
383.959
 20
363.095
 30
0.000000
  70
    32
  0
VERTEX
  8
0
  5
11506
 10
383.889
 20
363.129
 30
0.000000
  70
    32
  0
VERTEX
  8
0
  5
11507
 10
383.819
 20
363.162
 30
0.000000
  70
    32
  0
VERTEX
  8
0
  5
11508
 10
383.748
 20
363.194
 30
0.000000
  70
    32
  0
VERTEX
  8
0
  5
11509
 10
383.677
 20
363.225
 30
0.000000
  70
    32
  0
VERTEX
  8
0
  5
1150A
 10
383.605
 20
363.255
 30
0.000000
  70
    32
  0
VERTEX
  8
0
  5
1150B
 10
383.532
 20
363.285
 30
0.000000
  70
    32
  0
VERTEX
  8
0
  5
1150C
 10
383.459
 20
363.313
 30
0.000000
  70
    32
  0
VERTEX
  8
0
  5
1150D
 10
383.386
 20
363.341
 30
0.000000
  70
    32
  0
VERTEX
  8
0
  5
1150E
 10
383.312
 20
363.368
 30
0.000000
  70
    32
  0
VERTEX
  8
0
  5
1150F
 10
383.237
 20
363.393
 30
0.000000
  70
    32
  0
VERTEX
  8
0
  5
11510
 10
383.162
 20
363.418
 30
0.000000
  70
    32
  0
VERTEX
  8
0
  5
11511
 10
383.087
 20
363.442
 30
0.000000
  70
    32
  0
VERTEX
  8
0
  5
11512
 10
383.011
 20
363.465
 30
0.000000
  70
    32
  0
VERTEX
  8
0
  5
11513
 10
382.935
 20
363.488
 30
0.000000
  70
    32
  0
VERTEX
  8
0
  5
11514
 10
382.858
 20
363.509
 30
0.000000
  70
    32
  0
VERTEX
  8
0
  5
11515
 10
382.781
 20
363.529
 30
0.000000
  70
    32
  0
VERTEX
  8
0
  5
11516
 10
382.704
 20
363.549
 30
0.000000
  70
    32
  0
VERTEX
  8
0
  5
11517
 10
382.626
 20
363.567
 30
0.000000
  70
    32
  0
VERTEX
  8
0
  5
11518
 10
382.548
 20
363.585
 30
0.000000
  70
    32
  0
VERTEX
  8
0
  5
11519
 10
382.470
 20
363.601
 30
0.000000
  70
    32
  0
VERTEX
  8
0
  5
1151A
 10
382.392
 20
363.617
 30
0.000000
  70
    32
  0
VERTEX
  8
0
  5
1151B
 10
382.313
 20
363.632
 30
0.000000
  70
    32
  0
VERTEX
  8
0
  5
1151C
 10
382.234
 20
363.645
 30
0.000000
  70
    32
  0
VERTEX
  8
0
  5
1151D
 10
382.154
 20
363.658
 30
0.000000
  70
    32
  0
VERTEX
  8
0
  5
1151E
 10
382.075
 20
363.670
 30
0.000000
  70
    32
  0
VERTEX
  8
0
  5
1151F
 10
381.995
 20
363.681
 30
0.000000
  70
    32
  0
VERTEX
  8
0
  5
11520
 10
381.915
 20
363.691
 30
0.000000
  70
    32
  0
VERTEX
  8
0
  5
11521
 10
381.835
 20
363.700
 30
0.000000
  70
    32
  0
VERTEX
  8
0
  5
11522
 10
381.755
 20
363.708
 30
0.000000
  70
    32
  0
VERTEX
  8
0
  5
11523
 10
381.674
 20
363.715
 30
0.000000
  70
    32
  0
VERTEX
  8
0
  5
11524
 10
381.594
 20
363.721
 30
0.000000
  70
    32
  0
VERTEX
  8
0
  5
11525
 10
381.513
 20
363.726
 30
0.000000
  70
    32
  0
VERTEX
  8
0
  5
11526
 10
381.433
 20
363.730
 30
0.000000
  70
    32
  0
VERTEX
  8
0
  5
11527
 10
381.352
 20
363.733
 30
0.000000
  70
    32
  0
VERTEX
  8
0
  5
11528
 10
381.271
 20
363.735
 30
0.000000
  70
    32
  0
VERTEX
  8
0
  5
11529
 10
381.190
 20
363.736
 30
0.000000
  70
    32
  0
VERTEX
  8
0
  5
1152A
 10
381.109
 20
363.736
 30
0.000000
  70
    32
  0
VERTEX
  8
0
  5
1152B
 10
381.029
 20
363.735
 30
0.000000
  70
    32
  0
VERTEX
  8
0
  5
1152C
 10
380.948
 20
363.734
 30
0.000000
  70
    32
  0
VERTEX
  8
0
  5
1152D
 10
380.867
 20
363.731
 30
0.000000
  70
    32
  0
VERTEX
  8
0
  5
1152E
 10
380.786
 20
363.727
 30
0.000000
  70
    32
  0
VERTEX
  8
0
  5
1152F
 10
380.706
 20
363.722
 30
0.000000
  70
    32
  0
VERTEX
  8
0
  5
11530
 10
380.625
 20
363.717
 30
0.000000
  70
    32
  0
VERTEX
  8
0
  5
11531
 10
380.545
 20
363.710
 30
0.000000
  70
    32
  0
VERTEX
  8
0
  5
11532
 10
380.464
 20
363.703
 30
0.000000
  70
    32
  0
VERTEX
  8
0
  5
11533
 10
380.384
 20
363.694
 30
0.000000
  70
    32
  0
VERTEX
  8
0
  5
11534
 10
380.304
 20
363.684
 30
0.000000
  70
    32
  0
VERTEX
  8
0
  5
11535
 10
380.224
 20
363.674
 30
0.000000
  70
    32
  0
VERTEX
  8
0
  5
11536
 10
380.145
 20
363.662
 30
0.000000
  70
    32
  0
VERTEX
  8
0
  5
11537
 10
380.065
 20
363.650
 30
0.000000
  70
    32
  0
VERTEX
  8
0
  5
11538
 10
379.986
 20
363.636
 30
0.000000
  70
    32
  0
VERTEX
  8
0
  5
11539
 10
379.907
 20
363.622
 30
0.000000
  70
    32
  0
VERTEX
  8
0
  5
1153A
 10
379.829
 20
363.607
 30
0.000000
  70
    32
  0
VERTEX
  8
0
  5
1153B
 10
379.750
 20
363.591
 30
0.000000
  70
    32
  0
VERTEX
  8
0
  5
1153C
 10
379.672
 20
363.573
 30
0.000000
  70
    32
  0
VERTEX
  8
0
  5
1153D
 10
379.594
 20
363.555
 30
0.000000
  70
    32
  0
VERTEX
  8
0
  5
1153E
 10
379.517
 20
363.536
 30
0.000000
  70
    32
  0
VERTEX
  8
0
  5
1153F
 10
379.440
 20
363.516
 30
0.000000
  70
    32
  0
VERTEX
  8
0
  5
11540
 10
379.363
 20
363.495
 30
0.000000
  70
    32
  0
VERTEX
  8
0
  5
11541
 10
379.287
 20
363.473
 30
0.000000
  70
    32
  0
VERTEX
  8
0
  5
11542
 10
379.211
 20
363.450
 30
0.000000
  70
    32
  0
VERTEX
  8
0
  5
11543
 10
379.135
 20
363.427
 30
0.000000
  70
    32
  0
VERTEX
  8
0
  5
11544
 10
379.060
 20
363.402
 30
0.000000
  70
    32
  0
VERTEX
  8
0
  5
11545
 10
378.986
 20
363.376
 30
0.000000
  70
    32
  0
VERTEX
  8
0
  5
11546
 10
378.912
 20
363.350
 30
0.000000
  70
    32
  0
VERTEX
  8
0
  5
11547
 10
378.838
 20
363.323
 30
0.000000
  70
    32
  0
VERTEX
  8
0
  5
11548
 10
378.765
 20
363.295
 30
0.000000
  70
    32
  0
VERTEX
  8
0
  5
11549
 10
378.692
 20
363.265
 30
0.000000
  70
    32
  0
VERTEX
  8
0
  5
1154A
 10
378.620
 20
363.235
 30
0.000000
  70
    32
  0
VERTEX
  8
0
  5
1154B
 10
378.548
 20
363.205
 30
0.000000
  70
    32
  0
VERTEX
  8
0
  5
1154C
 10
378.477
 20
363.173
 30
0.000000
  70
    32
  0
VERTEX
  8
0
  5
1154D
 10
378.407
 20
363.140
 30
0.000000
  70
    32
  0
VERTEX
  8
0
  5
1154E
 10
378.337
 20
363.107
 30
0.000000
  70
    32
  0
VERTEX
  8
0
  5
1154F
 10
378.268
 20
363.073
 30
0.000000
  70
    32
  0
VERTEX
  8
0
  5
11550
 10
378.199
 20
363.038
 30
0.000000
  70
    32
  0
VERTEX
  8
0
  5
11551
 10
378.131
 20
363.002
 30
0.000000
  70
    32
  0
VERTEX
  8
0
  5
11552
 10
378.063
 20
362.965
 30
0.000000
  70
    32
  0
VERTEX
  8
0
  5
11553
 10
377.997
 20
362.928
 30
0.000000
  70
    32
  0
VERTEX
  8
0
  5
11554
 10
377.931
 20
362.889
 30
0.000000
  70
    32
  0
VERTEX
  8
0
  5
11555
 10
377.865
 20
362.850
 30
0.000000
  70
    32
  0
VERTEX
  8
0
  5
11556
 10
377.801
 20
362.810
 30
0.000000
  70
    32
  0
VERTEX
  8
0
  5
11557
 10
377.737
 20
362.769
 30
0.000000
  70
    32
  0
VERTEX
  8
0
  5
11558
 10
377.674
 20
362.728
 30
0.000000
  70
    32
  0
VERTEX
  8
0
  5
11559
 10
377.611
 20
362.686
 30
0.000000
  70
    32
  0
VERTEX
  8
0
  5
1155A
 10
377.549
 20
362.643
 30
0.000000
  70
    32
  0
VERTEX
  8
0
  5
1155B
 10
377.488
 20
362.599
 30
0.000000
  70
    32
  0
VERTEX
  8
0
  5
1155C
 10
377.428
 20
362.555
 30
0.000000
  70
    32
  0
VERTEX
  8
0
  5
1155D
 10
377.369
 20
362.510
 30
0.000000
  70
    32
  0
VERTEX
  8
0
  5
1155E
 10
377.310
 20
362.464
 30
0.000000
  70
    32
  0
VERTEX
  8
0
  5
1155F
 10
377.253
 20
362.417
 30
0.000000
  70
    32
  0
VERTEX
  8
0
  5
11560
 10
377.196
 20
362.370
 30
0.000000
  70
    32
  0
VERTEX
  8
0
  5
11561
 10
377.140
 20
362.322
 30
0.000000
  70
    32
  0
VERTEX
  8
0
  5
11562
 10
377.085
 20
362.273
 30
0.000000
  70
    32
  0
VERTEX
  8
0
  5
11563
 10
377.031
 20
362.224
 30
0.000000
  70
    32
  0
VERTEX
  8
0
  5
11564
 10
376.977
 20
362.174
 30
0.000000
  70
    32
  0
VERTEX
  8
0
  5
11565
 10
376.925
 20
362.123
 30
0.000000
  70
    32
  0
VERTEX
  8
0
  5
11566
 10
376.873
 20
362.072
 30
0.000000
  70
    32
  0
VERTEX
  8
0
  5
11567
 10
376.822
 20
362.020
 30
0.000000
  70
    32
  0
VERTEX
  8
0
  5
11568
 10
376.773
 20
361.968
 30
0.000000
  70
    32
  0
SEQEND
  8
0
  5
11569
  0
POLYLINE
  5
FFC2
  8
0
 66
     1
 10
0.0
 20
0.0
 30
0.0
  0
VERTEX
  5
11300
  8
0
 10
385.65855225303858
 20
361.78854463192198
 30
0.0
  0
VERTEX
  5
11301
  8
0
 10
386.0163596320931
 20
361.21373500087509
 30
0.0
  0
VERTEX
  5
11302
  8
0
 10
386.22253498434611
 20
360.65463554357001
 30
0.0
  0
VERTEX
  5
11303
  8
0
 10
386.33273354592387
 20
360.07438006417601
 30
0.0
  0
VERTEX
  5
11304
  8
0
 10
386.3806902130637
 20
359.3528630708031
 30
0.0
  0
SEQEND
  5
11305
  8
0
  0
POLYLINE
  5
FFC3
  8
0
 66
     1
 10
0.0
 20
0.0
 30
0.0
  0
VERTEX
  5
11306
  8
0
 10
376.77267777359481
 20
361.96801142649872
 30
0.0
  0
VERTEX
  5
11307
  8
0
 10
376.46309897642101
 20
361.54918481551732
 30
0.0
  0
VERTEX
  5
11308
  8
0
 10
376.2085777077682
 20
361.09530372504372
 30
0.0
  0
VERTEX
  5
11309
  8
0
 10
376.01596301877089
 20
360.53138878410141
 30
0.0
  0
VERTEX
  5
1130A
  8
0
 10
375.91054318916298
 20
359.94956551041969
 30
0.0
  0
VERTEX
  5
1130B
  8
0
 10
375.8912338574919
 20
359.06494469685998
 30
0.0
  0
SEQEND
  5
1130C
  8
0
  0
POLYLINE
  5
FFC4
  8
0
 66
     1
 10
0.0
 20
0.0
 30
0.0
 70
   128
  0
VERTEX
  5
1130D
  8
0
 10
370.65535324416493
 20
238.35975178821499
 30
0.0
  0
VERTEX
  5
1130E
  8
0
 10
370.75710299069402
 20
237.50093122953851
 30
0.0
  0
VERTEX
  5
1130F
  8
0
 10
371.21970686456689
 20
236.37018510460089
 30
0.0
  0
VERTEX
  5
11310
  8
0
 10
371.72552336868063
 20
235.64785834872211
 30
0.0
  0
VERTEX
  5
11311
  8
0
 10
372.42774813184133
 20
234.93912016812891
 30
0.0
  0
VERTEX
  5
11312
  8
0
 10
373.33709023297843
 20
234.26862524017471
 30
0.0
  0
VERTEX
  5
11313
  8
0
 10
374.44512135353028
 20
233.66716737007059
 30
0.0
  0
VERTEX
  5
11314
  8
0
 10
375.72676300130752
 20
233.16004580156871
 30
0.0
  0
VERTEX
  5
11315
  8
0
 10
377.1423353513274
 20
232.73928542050899
 30
0.0
  0
VERTEX
  5
11316
  8
0
 10
378.6712242921385
 20
232.49095756921349
 30
0.0
  0
VERTEX
  5
11317
  8
0
 10
380.25801169476841
 20
232.3622338882405
 30
0.0
  0
VERTEX
  5
11318
  8
0
 10
381.86549681029652
 20
232.35613186273159
 30
0.0
  0
VERTEX
  5
11319
  8
0
 10
383.45600950322478
 20
232.47279305371819
 30
0.0
  0
VERTEX
  5
1131A
  8
0
 10
384.99226706824629
 20
232.7094830981213
 30
0.0
  0
VERTEX
  5
1131B
  8
0
 10
386.42050963121068
 20
233.11568000936879
 30
0.0
  0
VERTEX
  5
1131C
  8
0
 10
387.71760363761092
 20
233.61237216503159
 30
0.0
  0
VERTEX
  5
1131D
  8
0
 10
388.84415699761979
 20
234.20545683689869
 30
0.0
  0
VERTEX
  5
1131E
  8
0
 10
389.77381390827082
 20
234.87056994901991
 30
0.0
  0
VERTEX
  5
1131F
  8
0
 10
390.49681642530282
 20
235.57649891827461
 30
0.0
  0
VERTEX
  5
11320
  8
0
 10
391.1727513523474
 20
236.57485462353151
 30
0.0
  0
VERTEX
  5
11321
  8
0
 10
391.54298710045208
 20
237.5612856461747
 30
0.0
  0
VERTEX
  5
11322
  8
0
 10
391.62748592696522
 20
238.48593482120449
 30
0.0
  0
SEQEND
  5
11323
  8
0
  0
LINE
  5
FFC5
  8
1
 10
381.16067392950481
 20
361.19615952675713
 30
0.0
 11
381.16067392950481
 21
226.51863030887321
 31
0.0
  0
LINE
  5
1004C
  8
1
 10
381.12178982841351
 20
435.4638854314569
 30
0.0
 11
381.12178982841351
 21
521.17535941809467
 31
0.0
  0
POLYLINE
  5
1004D
  8
0
 66
     1
 10
0.0
 20
0.0
 30
0.0
  0
VERTEX
  5
11324
  8
0
 10
376.6044700553166
 20
527.01155767373166
 30
0.0
  0
VERTEX
  5
11325
  8
0
 10
376.24666267626162
 20
526.43674804268471
 30
0.0
  0
VERTEX
  5
11326
  8
0
 10
376.04048732400861
 20
525.87764858537946
 30
0.0
  0
VERTEX
  5
11327
  8
0
 10
375.93028876243079
 20
525.29739310598541
 30
0.0
  0
VERTEX
  5
11328
  8
0
 10
375.88233209529147
 20
524.5758761126126
 30
0.0
  0
SEQEND
  5
11329
  8
0
  0
ARC
  5
1004E
  8
0
 10
381.14705580956348
 20
525.16039529401473
 30
0.0
 40
5.2970726312787599
 50
186.33535279991781
 51
350.52008639685249
  0
POLYLINE
  5
1004F
  8
0
 66
     1
 10
0.0
 20
0.0
 30
0.0
  0
VERTEX
  5
1132A
  8
0
 10
385.49034453476003
 20
527.19102446830834
 30
0.0
  0
VERTEX
  5
1132B
  8
0
 10
385.79992333193422
 20
526.77219785732666
 30
0.0
  0
VERTEX
  5
1132C
  8
0
 10
386.05444460058698
 20
526.31831676685329
 30
0.0
  0
VERTEX
  5
1132D
  8
0
 10
386.24705928958429
 20
525.75440182591092
 30
0.0
  0
VERTEX
  5
1132E
  8
0
 10
386.35247911919208
 20
525.1725785522292
 30
0.0
  0
VERTEX
  5
1132F
  8
0
 10
386.37178845086328
 20
524.28795773866955
 30
0.0
  0
SEQEND
  5
11330
  8
0
  0
POLYLINE
  5
10050
  8
0
 10
376.60447005531677
 20
527.01155767373166
 30
0.0
 66
     1
 70
     8
  0
VERTEX
  8
0
  5
1156A
 10
376.604
 20
527.012
 30
0.000000
  70
    32
  0
VERTEX
  8
0
  5
1156B
 10
376.651
 20
527.066
 30
0.000000
  70
    32
  0
VERTEX
  8
0
  5
1156C
 10
376.699
 20
527.120
 30
0.000000
  70
    32
  0
VERTEX
  8
0
  5
1156D
 10
376.747
 20
527.173
 30
0.000000
  70
    32
  0
VERTEX
  8
0
  5
1156E
 10
376.796
 20
527.226
 30
0.000000
  70
    32
  0
VERTEX
  8
0
  5
1156F
 10
376.847
 20
527.278
 30
0.000000
  70
    32
  0
VERTEX
  8
0
  5
11570
 10
376.898
 20
527.329
 30
0.000000
  70
    32
  0
VERTEX
  8
0
  5
11571
 10
376.950
 20
527.380
 30
0.000000
  70
    32
  0
VERTEX
  8
0
  5
11572
 10
377.003
 20
527.430
 30
0.000000
  70
    32
  0
VERTEX
  8
0
  5
11573
 10
377.057
 20
527.479
 30
0.000000
  70
    32
  0
VERTEX
  8
0
  5
11574
 10
377.112
 20
527.528
 30
0.000000
  70
    32
  0
VERTEX
  8
0
  5
11575
 10
377.168
 20
527.576
 30
0.000000
  70
    32
  0
VERTEX
  8
0
  5
11576
 10
377.224
 20
527.624
 30
0.000000
  70
    32
  0
VERTEX
  8
0
  5
11577
 10
377.282
 20
527.671
 30
0.000000
  70
    32
  0
VERTEX
  8
0
  5
11578
 10
377.340
 20
527.717
 30
0.000000
  70
    32
  0
VERTEX
  8
0
  5
11579
 10
377.399
 20
527.762
 30
0.000000
  70
    32
  0
VERTEX
  8
0
  5
1157A
 10
377.459
 20
527.807
 30
0.000000
  70
    32
  0
VERTEX
  8
0
  5
1157B
 10
377.520
 20
527.851
 30
0.000000
  70
    32
  0
VERTEX
  8
0
  5
1157C
 10
377.581
 20
527.894
 30
0.000000
  70
    32
  0
VERTEX
  8
0
  5
1157D
 10
377.643
 20
527.937
 30
0.000000
  70
    32
  0
VERTEX
  8
0
  5
1157E
 10
377.706
 20
527.978
 30
0.000000
  70
    32
  0
VERTEX
  8
0
  5
1157F
 10
377.770
 20
528.019
 30
0.000000
  70
    32
  0
VERTEX
  8
0
  5
11580
 10
377.834
 20
528.059
 30
0.000000
  70
    32
  0
VERTEX
  8
0
  5
11581
 10
377.899
 20
528.099
 30
0.000000
  70
    32
  0
VERTEX
  8
0
  5
11582
 10
377.965
 20
528.137
 30
0.000000
  70
    32
  0
VERTEX
  8
0
  5
11583
 10
378.032
 20
528.175
 30
0.000000
  70
    32
  0
VERTEX
  8
0
  5
11584
 10
378.099
 20
528.212
 30
0.000000
  70
    32
  0
VERTEX
  8
0
  5
11585
 10
378.167
 20
528.248
 30
0.000000
  70
    32
  0
VERTEX
  8
0
  5
11586
 10
378.235
 20
528.284
 30
0.000000
  70
    32
  0
VERTEX
  8
0
  5
11587
 10
378.304
 20
528.318
 30
0.000000
  70
    32
  0
VERTEX
  8
0
  5
11588
 10
378.374
 20
528.352
 30
0.000000
  70
    32
  0
VERTEX
  8
0
  5
11589
 10
378.444
 20
528.385
 30
0.000000
  70
    32
  0
VERTEX
  8
0
  5
1158A
 10
378.515
 20
528.417
 30
0.000000
  70
    32
  0
VERTEX
  8
0
  5
1158B
 10
378.586
 20
528.448
 30
0.000000
  70
    32
  0
VERTEX
  8
0
  5
1158C
 10
378.658
 20
528.478
 30
0.000000
  70
    32
  0
VERTEX
  8
0
  5
1158D
 10
378.731
 20
528.508
 30
0.000000
  70
    32
  0
VERTEX
  8
0
  5
1158E
 10
378.804
 20
528.536
 30
0.000000
  70
    32
  0
VERTEX
  8
0
  5
1158F
 10
378.877
 20
528.564
 30
0.000000
  70
    32
  0
VERTEX
  8
0
  5
11590
 10
378.951
 20
528.591
 30
0.000000
  70
    32
  0
VERTEX
  8
0
  5
11591
 10
379.026
 20
528.616
 30
0.000000
  70
    32
  0
VERTEX
  8
0
  5
11592
 10
379.101
 20
528.641
 30
0.000000
  70
    32
  0
VERTEX
  8
0
  5
11593
 10
379.176
 20
528.665
 30
0.000000
  70
    32
  0
VERTEX
  8
0
  5
11594
 10
379.252
 20
528.688
 30
0.000000
  70
    32
  0
VERTEX
  8
0
  5
11595
 10
379.328
 20
528.711
 30
0.000000
  70
    32
  0
VERTEX
  8
0
  5
11596
 10
379.405
 20
528.732
 30
0.000000
  70
    32
  0
VERTEX
  8
0
  5
11597
 10
379.482
 20
528.752
 30
0.000000
  70
    32
  0
VERTEX
  8
0
  5
11598
 10
379.559
 20
528.772
 30
0.000000
  70
    32
  0
VERTEX
  8
0
  5
11599
 10
379.637
 20
528.790
 30
0.000000
  70
    32
  0
VERTEX
  8
0
  5
1159A
 10
379.715
 20
528.808
 30
0.000000
  70
    32
  0
VERTEX
  8
0
  5
1159B
 10
379.793
 20
528.824
 30
0.000000
  70
    32
  0
VERTEX
  8
0
  5
1159C
 10
379.871
 20
528.840
 30
0.000000
  70
    32
  0
VERTEX
  8
0
  5
1159D
 10
379.950
 20
528.855
 30
0.000000
  70
    32
  0
VERTEX
  8
0
  5
1159E
 10
380.029
 20
528.868
 30
0.000000
  70
    32
  0
VERTEX
  8
0
  5
1159F
 10
380.109
 20
528.881
 30
0.000000
  70
    32
  0
VERTEX
  8
0
  5
115A0
 10
380.188
 20
528.893
 30
0.000000
  70
    32
  0
VERTEX
  8
0
  5
115A1
 10
380.268
 20
528.904
 30
0.000000
  70
    32
  0
VERTEX
  8
0
  5
115A2
 10
380.348
 20
528.914
 30
0.000000
  70
    32
  0
VERTEX
  8
0
  5
115A3
 10
380.428
 20
528.923
 30
0.000000
  70
    32
  0
VERTEX
  8
0
  5
115A4
 10
380.508
 20
528.931
 30
0.000000
  70
    32
  0
VERTEX
  8
0
  5
115A5
 10
380.589
 20
528.938
 30
0.000000
  70
    32
  0
VERTEX
  8
0
  5
115A6
 10
380.669
 20
528.944
 30
0.000000
  70
    32
  0
VERTEX
  8
0
  5
115A7
 10
380.750
 20
528.949
 30
0.000000
  70
    32
  0
VERTEX
  8
0
  5
115A8
 10
380.830
 20
528.953
 30
0.000000
  70
    32
  0
VERTEX
  8
0
  5
115A9
 10
380.911
 20
528.956
 30
0.000000
  70
    32
  0
VERTEX
  8
0
  5
115AA
 10
380.992
 20
528.958
 30
0.000000
  70
    32
  0
VERTEX
  8
0
  5
115AB
 10
381.073
 20
528.959
 30
0.000000
  70
    32
  0
VERTEX
  8
0
  5
115AC
 10
381.154
 20
528.959
 30
0.000000
  70
    32
  0
VERTEX
  8
0
  5
115AD
 10
381.234
 20
528.959
 30
0.000000
  70
    32
  0
VERTEX
  8
0
  5
115AE
 10
381.315
 20
528.957
 30
0.000000
  70
    32
  0
VERTEX
  8
0
  5
115AF
 10
381.396
 20
528.954
 30
0.000000
  70
    32
  0
VERTEX
  8
0
  5
115B0
 10
381.477
 20
528.950
 30
0.000000
  70
    32
  0
VERTEX
  8
0
  5
115B1
 10
381.557
 20
528.946
 30
0.000000
  70
    32
  0
VERTEX
  8
0
  5
115B2
 10
381.638
 20
528.940
 30
0.000000
  70
    32
  0
VERTEX
  8
0
  5
115B3
 10
381.718
 20
528.933
 30
0.000000
  70
    32
  0
VERTEX
  8
0
  5
115B4
 10
381.799
 20
528.926
 30
0.000000
  70
    32
  0
VERTEX
  8
0
  5
115B5
 10
381.879
 20
528.917
 30
0.000000
  70
    32
  0
VERTEX
  8
0
  5
115B6
 10
381.959
 20
528.907
 30
0.000000
  70
    32
  0
VERTEX
  8
0
  5
115B7
 10
382.039
 20
528.897
 30
0.000000
  70
    32
  0
VERTEX
  8
0
  5
115B8
 10
382.118
 20
528.885
 30
0.000000
  70
    32
  0
VERTEX
  8
0
  5
115B9
 10
382.198
 20
528.873
 30
0.000000
  70
    32
  0
VERTEX
  8
0
  5
115BA
 10
382.277
 20
528.859
 30
0.000000
  70
    32
  0
VERTEX
  8
0
  5
115BB
 10
382.356
 20
528.845
 30
0.000000
  70
    32
  0
VERTEX
  8
0
  5
115BC
 10
382.434
 20
528.830
 30
0.000000
  70
    32
  0
VERTEX
  8
0
  5
115BD
 10
382.513
 20
528.814
 30
0.000000
  70
    32
  0
VERTEX
  8
0
  5
115BE
 10
382.591
 20
528.796
 30
0.000000
  70
    32
  0
VERTEX
  8
0
  5
115BF
 10
382.669
 20
528.778
 30
0.000000
  70
    32
  0
VERTEX
  8
0
  5
115C0
 10
382.746
 20
528.759
 30
0.000000
  70
    32
  0
VERTEX
  8
0
  5
115C1
 10
382.823
 20
528.739
 30
0.000000
  70
    32
  0
VERTEX
  8
0
  5
115C2
 10
382.900
 20
528.718
 30
0.000000
  70
    32
  0
VERTEX
  8
0
  5
115C3
 10
382.976
 20
528.696
 30
0.000000
  70
    32
  0
VERTEX
  8
0
  5
115C4
 10
383.052
 20
528.673
 30
0.000000
  70
    32
  0
VERTEX
  8
0
  5
115C5
 10
383.128
 20
528.650
 30
0.000000
  70
    32
  0
VERTEX
  8
0
  5
115C6
 10
383.203
 20
528.625
 30
0.000000
  70
    32
  0
VERTEX
  8
0
  5
115C7
 10
383.277
 20
528.600
 30
0.000000
  70
    32
  0
VERTEX
  8
0
  5
115C8
 10
383.351
 20
528.573
 30
0.000000
  70
    32
  0
VERTEX
  8
0
  5
115C9
 10
383.425
 20
528.546
 30
0.000000
  70
    32
  0
VERTEX
  8
0
  5
115CA
 10
383.498
 20
528.518
 30
0.000000
  70
    32
  0
VERTEX
  8
0
  5
115CB
 10
383.571
 20
528.488
 30
0.000000
  70
    32
  0
VERTEX
  8
0
  5
115CC
 10
383.643
 20
528.458
 30
0.000000
  70
    32
  0
VERTEX
  8
0
  5
115CD
 10
383.715
 20
528.428
 30
0.000000
  70
    32
  0
VERTEX
  8
0
  5
115CE
 10
383.786
 20
528.396
 30
0.000000
  70
    32
  0
VERTEX
  8
0
  5
115CF
 10
383.856
 20
528.363
 30
0.000000
  70
    32
  0
VERTEX
  8
0
  5
115D0
 10
383.926
 20
528.330
 30
0.000000
  70
    32
  0
VERTEX
  8
0
  5
115D1
 10
383.995
 20
528.296
 30
0.000000
  70
    32
  0
VERTEX
  8
0
  5
115D2
 10
384.064
 20
528.261
 30
0.000000
  70
    32
  0
VERTEX
  8
0
  5
115D3
 10
384.132
 20
528.225
 30
0.000000
  70
    32
  0
VERTEX
  8
0
  5
115D4
 10
384.200
 20
528.188
 30
0.000000
  70
    32
  0
VERTEX
  8
0
  5
115D5
 10
384.266
 20
528.151
 30
0.000000
  70
    32
  0
VERTEX
  8
0
  5
115D6
 10
384.332
 20
528.112
 30
0.000000
  70
    32
  0
VERTEX
  8
0
  5
115D7
 10
384.398
 20
528.073
 30
0.000000
  70
    32
  0
VERTEX
  8
0
  5
115D8
 10
384.462
 20
528.033
 30
0.000000
  70
    32
  0
VERTEX
  8
0
  5
115D9
 10
384.526
 20
527.992
 30
0.000000
  70
    32
  0
VERTEX
  8
0
  5
115DA
 10
384.590
 20
527.951
 30
0.000000
  70
    32
  0
VERTEX
  8
0
  5
115DB
 10
384.652
 20
527.909
 30
0.000000
  70
    32
  0
VERTEX
  8
0
  5
115DC
 10
384.714
 20
527.866
 30
0.000000
  70
    32
  0
VERTEX
  8
0
  5
115DD
 10
384.775
 20
527.822
 30
0.000000
  70
    32
  0
VERTEX
  8
0
  5
115DE
 10
384.835
 20
527.778
 30
0.000000
  70
    32
  0
VERTEX
  8
0
  5
115DF
 10
384.894
 20
527.733
 30
0.000000
  70
    32
  0
VERTEX
  8
0
  5
115E0
 10
384.953
 20
527.687
 30
0.000000
  70
    32
  0
VERTEX
  8
0
  5
115E1
 10
385.010
 20
527.640
 30
0.000000
  70
    32
  0
VERTEX
  8
0
  5
115E2
 10
385.067
 20
527.593
 30
0.000000
  70
    32
  0
VERTEX
  8
0
  5
115E3
 10
385.123
 20
527.545
 30
0.000000
  70
    32
  0
VERTEX
  8
0
  5
115E4
 10
385.178
 20
527.496
 30
0.000000
  70
    32
  0
VERTEX
  8
0
  5
115E5
 10
385.233
 20
527.447
 30
0.000000
  70
    32
  0
VERTEX
  8
0
  5
115E6
 10
385.286
 20
527.397
 30
0.000000
  70
    32
  0
VERTEX
  8
0
  5
115E7
 10
385.338
 20
527.346
 30
0.000000
  70
    32
  0
VERTEX
  8
0
  5
115E8
 10
385.390
 20
527.295
 30
0.000000
  70
    32
  0
VERTEX
  8
0
  5
115E9
 10
385.441
 20
527.243
 30
0.000000
  70
    32
  0
VERTEX
  8
0
  5
115EA
 10
385.490
 20
527.191
 30
0.000000
  70
    32
  0
SEQEND
  8
0
  5
115EB
  0
POLYLINE
  5
10051
  8
0
 66
     1
 10
0.0
 20
0.0
 30
0.0
 70
   130
  0
VERTEX
  5
10052
  8
0
 10
385.74032867550341
 20
501.62312140359381
 30
0.0
 42
-0.0330645639365063
  0
VERTEX
  5
10053
  8
0
 10
385.94071637637808
 20
501.40906206976189
 30
0.0
 42
-0.0534029450941034
 70
     1
  0
VERTEX
  5
10054
  8
0
 10
386.04032406620718
 20
501.25689989722861
 30
0.0
 42
-0.0022725116356079
  0
VERTEX
  5
10055
  8
0
 10
386.15455755435693
 20
501.03110125228039
 30
0.0
 42
-0.0081267397579827
 70
     1
  0
VERTEX
  5
10056
  8
0
 10
386.1851829423631
 20
500.96730575851171
 30
0.0
 42
-0.0075709763335914
  0
VERTEX
  5
10057
  8
0
 10
386.24874222431748
 20
500.82350227260099
 30
0.0
 42
-0.0061886385880182
 70
     1
  0
VERTEX
  5
10058
  8
0
 10
386.3216271119154
 20
500.64550833494809
 30
0.0
 42
-0.041741166195616
  0
VERTEX
  5
10059
  8
0
 10
386.36868266675629
 20
500.48944150471812
 30
0.0
 42
-0.0255973459186232
 70
     1
  0
VERTEX
  5
1005A
  8
0
 10
386.41051954962307
 20
500.22723487518402
 30
0.0
 42
-0.062329436276015
  0
VERTEX
  5
1005B
  8
0
 10
386.40699604875732
 20
500.0254294369131
 30
0.0
 42
-0.0490673832137578
 70
     1
  0
VERTEX
  5
1005C
  8
0
 10
386.34613840457132
 20
499.77675631453741
 30
0.0
 42
-0.062615755433705
  0
VERTEX
  5
1005D
  8
0
 10
386.22407206799471
 20
499.53231131985132
 30
0.0
 42
-0.0549727270310949
 70
     1
  0
VERTEX
  5
1005E
  8
0
 10
386.02422748015488
 20
499.29410123271191
 30
0.0
 42
-0.0326063070969975
  0
VERTEX
  5
1005F
  8
0
 10
385.77082476845038
 20
499.08164349363688
 30
0.0
 42
-0.0400188333804338
 70
     1
  0
VERTEX
  5
10060
  8
0
 10
385.54136369310891
 20
498.94015405163742
 30
0.0
 42
-0.0230535181429928
  0
VERTEX
  5
10061
  8
0
 10
385.14412420213188
 20
498.75967378995551
 30
0.0
 42
-0.0389792446868927
 70
     1
  0
VERTEX
  5
10062
  8
0
 10
384.89754184427602
 20
498.6827382501354
 30
0.0
 42
-0.0040346686785299
  0
VERTEX
  5
10063
  8
0
 10
384.56352126849561
 20
498.60928963013947
 30
0.0
 42
-0.0026871982170036
 70
     1
  0
VERTEX
  5
10064
  8
0
 10
384.0605765602877
 20
498.50576375158022
 30
0.0
 42
-0.0025702997507533
  0
VERTEX
  5
10065
  8
0
 10
383.2747663828905
 20
498.35260757036349
 30
0.0
 42
-0.0137542804434876
 70
     1
  0
VERTEX
  5
10066
  8
0
 10
383.12703695914303
 20
498.3287910690608
 30
0.0
 42
-0.0232286514494311
  0
VERTEX
  5
10067
  8
0
 10
382.92748768148698
 20
498.31161032955202
 30
0.0
 42
-0.0045402138624221
 70
     1
  0
VERTEX
  5
10068
  8
0
 10
381.90377960568549
 20
498.2805244712568
 30
0.0
 42
-0.0023443550594949
  0
VERTEX
  5
10069
  8
0
 10
380.98114327089752
 20
498.26521879555622
 30
0.0
 42
-0.0050381816205595
 70
     1
  0
VERTEX
  5
1006A
  8
0
 10
380.5517573625466
 20
498.26443621066738
 30
0.0
 42
-0.0122013620699593
  0
VERTEX
  5
1006B
  8
0
 10
379.94489809555489
 20
498.28426038401898
 30
0.0
 42
-0.0142005386284143
 70
     1
  0
VERTEX
  5
1006C
  8
0
 10
379.42507172666768
 20
498.3287910690608
 30
0.0
 42
-0.00578807459948
  0
VERTEX
  5
1006D
  8
0
 10
379.16427422122979
 20
498.36167582523763
 30
0.0
 42
-0.0022389299632512
 70
     1
  0
VERTEX
  5
1006E
  8
0
 10
378.49153212552301
 20
498.45749896981198
 30
0.0
 42
-0.0061747940190622
  0
VERTEX
  5
1006F
  8
0
 10
377.93464212300751
 20
498.54640547164968
 30
0.0
 42
-0.009081343957858
 70
     1
  0
VERTEX
  5
10070
  8
0
 10
377.55799252437828
 20
498.61838339174187
 30
0.0
 42
-0.0461730668744547
  0
VERTEX
  5
10071
  8
0
 10
377.34401833166248
 20
498.68440147208503
 30
0.0
 42
-0.0178432543456511
 70
     1
  0
VERTEX
  5
10072
  8
0
 10
376.81759895796768
 20
498.92406579104801
 30
0.0
 42
-0.032786670242374
  0
VERTEX
  5
10073
  8
0
 10
376.47613372800151
 20
499.12343149851682
 30
0.0
 42
-0.0398963572585907
 70
     1
  0
VERTEX
  5
10074
  8
0
 10
376.22206686729078
 20
499.32627775389079
 30
0.0
 42
-0.0763244188711707
  0
VERTEX
  5
10075
  8
0
 10
376.02193117659039
 20
499.58154171883029
 30
0.0
 42
-0.0903689666087665
 70
     1
  0
VERTEX
  5
10076
  8
0
 10
375.93234651540109
 20
499.84111117293088
 30
0.0
 42
-0.0299643716965418
  0
VERTEX
  5
10077
  8
0
 10
375.9079874317722
 20
500.10465039461792
 30
0.0
 42
-0.0337045200439564
 70
     1
  0
VERTEX
  5
10078
  8
0
 10
375.91625252892658
 20
500.33985451534568
 30
0.0
 42
-0.0114580119405067
  0
VERTEX
  5
10079
  8
0
 10
375.94245243800287
 20
500.54764837381731
 30
0.0
 42
-0.0226384315214432
 70
     1
  0
VERTEX
  5
1007A
  8
0
 10
375.96285541957423
 20
500.65171109587891
 30
0.0
 42
-0.0403855571742279
  0
VERTEX
  5
1007B
  8
0
 10
375.99008568204948
 20
500.73398998351132
 30
0.0
 42
-0.0084495726094169
 70
     1
  0
VERTEX
  5
1007C
  8
0
 10
376.15768572223902
 20
501.11210191985219
 30
0.0
 42
-0.0422799398281421
  0
VERTEX
  5
1007D
  8
0
 10
376.28085072878088
 20
501.3278946407242
 30
0.0
 42
-0.0280972886211138
 70
     1
  0
VERTEX
  5
1007E
  8
0
 10
376.50966011050332
 20
501.62312140359381
 30
0.0
  0
SEQEND
  5
1007F
  8
0
  0
ARC
  5
10080
  8
0
 10
381.12499439300342
 20
496.90299392922071
 30
0.0
 40
6.6015841972631231
 50
45.643134276683831
 51
134.3568657233161
  0
LINE
  5
10081
  8
0
 10
387.6412315925154
 20
497.79062464805412
 30
0.0
 11
374.64123132429449
 21
497.79062464805412
 31
0.0
  0
LINE
  5
10082
  8
0
 10
374.64123132429449
 20
533.7906230983333
 30
0.0
 11
387.6412315925154
 21
533.7906230983333
 31
0.0
  0
LINE
  5
10083
  8
0
 10
387.6412315925154
 20
533.7906230983333
 30
0.0
 11
388.64123361907332
 21
532.79062479706556
 31
0.0
  0
LINE
  5
10084
  8
0
 10
388.64123361907332
 20
498.79062294932169
 30
0.0
 11
387.6412315925154
 21
497.79062464805412
 31
0.0
  0
LINE
  5
10085
  8
0
 10
374.64123132429449
 20
497.79062464805412
 30
0.0
 11
373.64122929773657
 21
498.79062294932169
 31
0.0
  0
LINE
  5
10086
  8
0
 10
373.64122929773657
 20
532.79062479706556
 30
0.0
 11
374.64123132429449
 21
533.7906230983333
 31
0.0
  0
LINE
  5
10087
  8
0
 10
374.64123132429449
 20
497.79062464805412
 30
0.0
 11
374.64123132429449
 21
533.7906230983333
 31
0.0
  0
LINE
  5
10088
  8
0
 10
387.6412315925154
 20
533.7906230983333
 30
0.0
 11
387.6412315925154
 21
497.79062464805412
 31
0.0
  0
LINE
  5
10089
  8
0
 10
388.64123361907332
 20
498.79062294932169
 30
0.0
 11
388.64123361907332
 21
532.79062479706556
 31
0.0
  0
LINE
  5
1008A
  8
0
 10
373.64122929773657
 20
532.79062479706556
 30
0.0
 11
373.64122929773657
 21
498.79062294932169
 31
0.0
  0
POLYLINE
  5
1008B
  8
0
 66
     1
 10
0.0
 20
0.0
 30
0.0
 70
   128
  0
VERTEX
  5
11331
  8
0
 10
381.1412295957598
 20
521.25953489886683
 30
0.0
  0
VERTEX
  5
11332
  8
0
 10
380.19694301090573
 20
521.37193575473589
 30
0.0
  0
VERTEX
  5
11333
  8
0
 10
379.32269188366263
 20
521.70080251963896
 30
0.0
  0
VERTEX
  5
11334
  8
0
 10
378.5833037158045
 20
522.22174478666943
 30
0.0
  0
VERTEX
  5
11335
  8
0
 10
378.03363713226651
 20
522.89612570749682
 30
0.0
  0
VERTEX
  5
11336
  8
0
 10
377.7144393583331
 20
523.67393046589655
 30
0.0
  0
VERTEX
  5
11337
  8
0
 10
377.6493883391413
 20
524.49747294159693
 30
0.0
  0
VERTEX
  5
11338
  8
0
 10
377.84331950149863
 20
525.30567374052555
 30
0.0
  0
VERTEX
  5
11339
  8
0
 10
378.28183832369177
 20
526.03859294178051
 30
0.0
  0
VERTEX
  5
1133A
  8
0
 10
378.93242302141522
 20
526.64187390329403
 30
0.0
  0
VERTEX
  5
1133B
  8
0
 10
379.74683108530371
 20
527.07077309461386
 30
0.0
  0
VERTEX
  5
1133C
  8
0
 10
380.66464575729702
 20
527.29348119320434
 30
0.0
  0
VERTEX
  5
1133D
  8
0
 10
381.61781343422263
 20
527.29348119320434
 30
0.0
  0
VERTEX
  5
1133E
  8
0
 10
382.53563555679648
 20
527.07077309461386
 30
0.0
  0
VERTEX
  5
1133F
  8
0
 10
383.35004362068503
 20
526.64187390329403
 30
0.0
  0
VERTEX
  5
11340
  8
0
 10
384.00062831840842
 20
526.03859294178051
 30
0.0
  0
VERTEX
  5
11341
  8
0
 10
384.43914714060162
 20
525.30567374052555
 30
0.0
  0
VERTEX
  5
11342
  8
0
 10
384.6330708523783
 20
524.49747294159693
 30
0.0
  0
VERTEX
  5
11343
  8
0
 10
384.56802728376721
 20
523.67393046589655
 30
0.0
  0
VERTEX
  5
11344
  8
0
 10
384.2488295098338
 20
522.89612570749682
 30
0.0
  0
VERTEX
  5
11345
  8
0
 10
383.69915547571509
 20
522.22174478666943
 30
0.0
  0
VERTEX
  5
11346
  8
0
 10
382.95977475843762
 20
521.70080251963896
 30
0.0
  0
VERTEX
  5
11347
  8
0
 10
382.08552363119452
 20
521.37193575473589
 30
0.0
  0
VERTEX
  5
11348
  8
0
 10
381.1412295957598
 20
521.25953489886683
 30
0.0
  0
SEQEND
  5
11349
  8
0
  0
POLYLINE
  5
1008C
  8
0
 66
     1
 10
0.0
 20
0.0
 30
0.0
 70
   128
  0
VERTEX
  5
1134A
  8
0
 10
381.1412295957598
 20
521.62556050317448
 30
0.0
  0
VERTEX
  5
1134B
  8
0
 10
380.36869379482602
 20
521.73152592005295
 30
0.0
  0
VERTEX
  5
1134C
  8
0
 10
379.6717664857897
 20
522.03905049683613
 30
0.0
  0
VERTEX
  5
1134D
  8
0
 10
379.11868753633831
 20
522.51803155960602
 30
0.0
  0
VERTEX
  5
1134E
  8
0
 10
378.76359286508892
 20
523.12158260466606
 30
0.0
  0
VERTEX
  5
1134F
  8
0
 10
378.64123197994559
 20
523.79062425317329
 30
0.0
  0
VERTEX
  5
11350
  8
0
 10
378.76359286508892
 20
524.45966497035784
 30
0.0
  0
VERTEX
  5
11351
  8
0
 10
379.11868753633831
 20
525.06321601541799
 30
0.0
  0
VERTEX
  5
11352
  8
0
 10
379.6717664857897
 20
525.54219707818788
 30
0.0
  0
VERTEX
  5
11353
  8
0
 10
380.36869379482602
 20
525.84972165497095
 30
0.0
  0
VERTEX
  5
11354
  8
0
 10
381.1412295957598
 20
525.95568753751081
 30
0.0
  0
VERTEX
  5
11355
  8
0
 10
381.91377284727429
 20
525.84972165497095
 30
0.0
  0
VERTEX
  5
11356
  8
0
 10
382.61069270572989
 20
525.54219707818788
 30
0.0
  0
VERTEX
  5
11357
  8
0
 10
383.16377165518139
 20
525.06321601541799
 30
0.0
  0
VERTEX
  5
11358
  8
0
 10
383.51887377701132
 20
524.45966497035784
 30
0.0
  0
VERTEX
  5
11359
  8
0
 10
383.6412346621546
 20
523.79062425317329
 30
0.0
  0
VERTEX
  5
1135A
  8
0
 10
383.51887377701132
 20
523.12158260466606
 30
0.0
  0
VERTEX
  5
1135B
  8
0
 10
383.16377165518139
 20
522.51803155960602
 30
0.0
  0
VERTEX
  5
1135C
  8
0
 10
382.61069270572989
 20
522.03905049683613
 30
0.0
  0
VERTEX
  5
1135D
  8
0
 10
381.91377284727429
 20
521.73152592005295
 30
0.0
  0
VERTEX
  5
1135E
  8
0
 10
381.1412295957598
 20
521.62556050317448
 30
0.0
  0
SEQEND
  5
1135F
  8
0
  0
POLYLINE
  5
1008D
  8
0
 66
     1
 10
0.0
 20
0.0
 30
0.0
 70
   128
  0
VERTEX
  5
11360
  8
0
 10
381.1412295957598
 20
498.44319120021629
 30
0.0
  0
VERTEX
  5
11361
  8
0
 10
380.01263799867962
 20
498.5045634952383
 30
0.0
  0
VERTEX
  5
11362
  8
0
 10
378.93681141338681
 20
498.68580631883913
 30
0.0
  0
VERTEX
  5
11363
  8
0
 10
377.96407106123303
 20
498.9784483608799
 30
0.0
  0
VERTEX
  5
11364
  8
0
 10
377.13988038502072
 20
499.36880290480423
 30
0.0
  0
VERTEX
  5
11365
  8
0
 10
376.5027961393389
 20
499.8386197534399
 30
0.0
  0
VERTEX
  5
11366
  8
0
 10
376.08259829483359
 20
500.36592993857431
 30
0.0
  0
VERTEX
  5
11367
  8
0
 10
375.94421121082632
 20
500.69620672585529
 30
0.0
  0
SEQEND
  5
11368
  8
0
  0
POLYLINE
  5
1008E
  8
0
 66
     1
 10
0.0
 20
0.0
 30
0.0
 70
   128
  0
VERTEX
  5
11369
  8
0
 10
386.32585021457999
 20
500.6552052495079
 30
0.0
  0
VERTEX
  5
1136A
  8
0
 10
386.1998683472666
 20
500.36592993857431
 30
0.0
  0
VERTEX
  5
1136B
  8
0
 10
385.77967050276129
 20
499.8386197534399
 30
0.0
  0
VERTEX
  5
1136C
  8
0
 10
385.14258625707947
 20
499.36880290480423
 30
0.0
  0
VERTEX
  5
1136D
  8
0
 10
384.31839558086722
 20
498.9784483608799
 30
0.0
  0
VERTEX
  5
1136E
  8
0
 10
383.3456477781329
 20
498.68580631883913
 30
0.0
  0
VERTEX
  5
1136F
  8
0
 10
382.26982864342062
 20
498.5045634952383
 30
0.0
  0
VERTEX
  5
11370
  8
0
 10
381.1412295957598
 20
498.44319120021629
 30
0.0
  0
SEQEND
  5
11371
  8
0
  0
POLYLINE
  5
1008F
  8
0
 66
     1
 10
0.0
 20
0.0
 30
0.0
 70
   128
  0
VERTEX
  5
11372
  8
0
 10
381.1412295957598
 20
499.31819111080932
 30
0.0
  0
VERTEX
  5
11373
  8
0
 10
380.19694301090573
 20
499.38308753045368
 30
0.0
  0
VERTEX
  5
11374
  8
0
 10
379.32269188366263
 20
499.57295812638569
 30
0.0
  0
VERTEX
  5
11375
  8
0
 10
378.5833037158045
 20
499.87372316392231
 30
0.0
  0
VERTEX
  5
11376
  8
0
 10
378.03363713226651
 20
500.26307839872408
 30
0.0
  0
VERTEX
  5
11377
  8
0
 10
377.7144393583331
 20
500.71214444907469
 30
0.0
  0
VERTEX
  5
11378
  8
0
 10
377.6493883391413
 20
501.18761628838348
 30
0.0
  0
VERTEX
  5
11379
  8
0
 10
377.84331950149863
 20
501.65423125000763
 30
0.0
  0
VERTEX
  5
1137A
  8
0
 10
378.28183832369177
 20
502.07738231839699
 30
0.0
  0
VERTEX
  5
1137B
  8
0
 10
378.93242302141522
 20
502.42568671675491
 30
0.0
  0
VERTEX
  5
1137C
  8
0
 10
379.74683108530371
 20
502.67331141950649
 30
0.0
  0
VERTEX
  5
1137D
  8
0
 10
380.66464575729702
 20
502.80189260812568
 30
0.0
  0
VERTEX
  5
1137E
  8
0
 10
381.61781343422263
 20
502.80189260812568
 30
0.0
  0
VERTEX
  5
1137F
  8
0
 10
382.53563555679648
 20
502.67331141950649
 30
0.0
  0
VERTEX
  5
11380
  8
0
 10
383.35004362068503
 20
502.42568671675491
 30
0.0
  0
VERTEX
  5
11381
  8
0
 10
384.00062831840842
 20
502.07738231839699
 30
0.0
  0
VERTEX
  5
11382
  8
0
 10
384.43914714060162
 20
501.65423125000763
 30
0.0
  0
VERTEX
  5
11383
  8
0
 10
384.6330708523783
 20
501.18761628838348
 30
0.0
  0
VERTEX
  5
11384
  8
0
 10
384.56802728376721
 20
500.71214444907469
 30
0.0
  0
VERTEX
  5
11385
  8
0
 10
384.2488295098338
 20
500.26307839872408
 30
0.0
  0
VERTEX
  5
11386
  8
0
 10
383.69915547571509
 20
499.87372316392231
 30
0.0
  0
VERTEX
  5
11387
  8
0
 10
382.95977475843762
 20
499.57295812638569
 30
0.0
  0
VERTEX
  5
11388
  8
0
 10
382.08552363119452
 20
499.38308753045368
 30
0.0
  0
VERTEX
  5
11389
  8
0
 10
381.1412295957598
 20
499.31819111080932
 30
0.0
  0
SEQEND
  5
1138A
  8
0
  0
POLYLINE
  5
10090
  8
0
 66
     1
 10
0.0
 20
0.0
 30
0.0
 70
   128
  0
VERTEX
  5
1138B
  8
0
 10
381.1412295957598
 20
500.68421781035232
 30
0.0
  0
VERTEX
  5
1138C
  8
0
 10
380.36869379482602
 20
500.74539639027881
 30
0.0
  0
VERTEX
  5
1138D
  8
0
 10
379.6717664857897
 20
500.92294651987118
 30
0.0
  0
VERTEX
  5
1138E
  8
0
 10
379.11868753633831
 20
501.19948599459701
 30
0.0
  0
VERTEX
  5
1138F
  8
0
 10
378.76359286508892
 20
501.54794592382478
 30
0.0
  0
VERTEX
  5
11390
  8
0
 10
378.64123197994559
 20
501.934217549582
 30
0.0
  0
VERTEX
  5
11391
  8
0
 10
378.76359286508892
 20
502.32048824401659
 30
0.0
  0
VERTEX
  5
11392
  8
0
 10
378.79602524242728
 20
502.36723039271402
 30
0.0
  0
SEQEND
  5
11393
  8
0
  0
POLYLINE
  5
10091
  8
0
 66
     1
 10
0.0
 20
0.0
 30
0.0
 70
   128
  0
VERTEX
  5
11394
  8
0
 10
383.48644139967291
 20
502.36723039271402
 30
0.0
  0
VERTEX
  5
11395
  8
0
 10
383.51887377701132
 20
502.32048824401659
 30
0.0
  0
VERTEX
  5
11396
  8
0
 10
383.6412346621546
 20
501.934217549582
 30
0.0
  0
VERTEX
  5
11397
  8
0
 10
383.51887377701132
 20
501.54794592382478
 30
0.0
  0
VERTEX
  5
11398
  8
0
 10
383.16377165518139
 20
501.19948599459701
 30
0.0
  0
VERTEX
  5
11399
  8
0
 10
382.61069270572989
 20
500.92294651987118
 30
0.0
  0
VERTEX
  5
1139A
  8
0
 10
381.91377284727429
 20
500.74539639027881
 30
0.0
  0
VERTEX
  5
1139B
  8
0
 10
381.1412295957598
 20
500.68421781035232
 30
0.0
  0
SEQEND
  5
1139C
  8
0
  0
POLYLINE
  5
10092
  8
0
 66
     1
 10
0.0
 20
0.0
 30
0.0
  0
VERTEX
  5
1139D
  8
0
 10
389.22542312788352
 20
476.81863725157518
 30
0.0
  0
VERTEX
  5
1139E
  8
0
 10
388.78228208345132
 20
477.72987169089021
 30
0.0
  0
VERTEX
  5
1139F
  8
0
 10
388.20316621708253
 20
478.56141373487281
 30
0.0
  0
VERTEX
  5
113A0
  8
0
 10
387.25520887215822
 20
479.60652791835469
 30
0.0
  0
VERTEX
  5
113A1
  8
0
 10
386.12179437326768
 20
480.45470684738922
 30
0.0
  0
SEQEND
  5
113A2
  8
0
  0
POLYLINE
  5
10093
  8
0
 66
     1
 10
0.0
 20
0.0
 30
0.0
  0
VERTEX
  5
113A3
  8
0
 10
373.01815652894362
 20
476.81863725157518
 30
0.0
  0
VERTEX
  5
113A4
  8
0
 10
373.46129757337582
 20
477.72987169089021
 30
0.0
  0
VERTEX
  5
113A5
  8
0
 10
374.0404134397449
 20
478.56141373487281
 30
0.0
  0
VERTEX
  5
113A6
  8
0
 10
374.98837078466931
 20
479.60652791835469
 30
0.0
  0
VERTEX
  5
113A7
  8
0
 10
376.12178528355929
 20
480.45470684738922
 30
0.0
  0
SEQEND
  5
113A8
  8
0
  0
POLYLINE
  5
10098
  8
0
 66
     1
 10
0.0
 20
0.0
 30
0.0
 70
   128
  0
VERTEX
  5
113A9
  8
0
 10
376.12178528355929
 20
475.04062324734502
 30
0.0
  0
VERTEX
  5
113AA
  8
0
 10
376.20877826260897
 20
474.2364224788742
 30
0.0
  0
VERTEX
  5
113AB
  8
0
 10
376.53859311389311
 20
473.30980122061538
 30
0.0
  0
VERTEX
  5
113AC
  8
0
 10
377.0982285742698
 20
472.46997922631073
 30
0.0
  0
VERTEX
  5
113AD
  8
0
 10
377.85962575721118
 20
471.75905227633291
 30
0.0
  0
VERTEX
  5
113AE
  8
0
 10
378.78460043715808
 20
471.21267884941858
 30
0.0
  0
VERTEX
  5
113AF
  8
0
 10
379.82676529931399
 20
470.85826218100362
 30
0.0
  0
VERTEX
  5
113B0
  8
0
 10
380.9338768725334
 20
470.71355700465011
 30
0.0
  0
VERTEX
  5
113B1
  8
0
 10
382.05040597962721
 20
470.78583508702093
 30
0.0
  0
VERTEX
  5
113B2
  8
0
 10
383.12036895799019
 20
471.07146054478449
 30
0.0
  0
VERTEX
  5
113B3
  8
0
 10
384.09012162732461
 20
471.55612081261438
 30
0.0
  0
VERTEX
  5
113B4
  8
0
 10
384.91101914691308
 20
472.21551209660339
 30
0.0
  0
VERTEX
  5
113B5
  8
0
 10
385.54191941069939
 20
473.01656126948171
 30
0.0
  0
VERTEX
  5
113B6
  8
0
 10
385.95116862701752
 20
473.91910225125122
 30
0.0
  0
VERTEX
  5
113B7
  8
0
 10
386.11825534748408
 20
474.87788766594701
 30
0.0
  0
VERTEX
  5
113B8
  8
0
 10
386.12178692268708
 20
475.04062324734502
 30
0.0
  0
SEQEND
  5
113B9
  8
0
  0
POLYLINE
  5
1009A
  8
0
 66
     1
 10
0.0
 20
0.0
 30
0.0
 70
   128
  0
VERTEX
  5
113BA
  8
0
 10
372.66157174157479
 20
475.62888383837509
 30
0.0
  0
VERTEX
  5
113BB
  8
0
 10
372.64722192334511
 20
475.55611401768488
 30
0.0
  0
VERTEX
  5
113BC
  8
0
 10
372.53187948512408
 20
474.29829955073171
 30
0.0
  0
VERTEX
  5
113BD
  8
0
 10
372.66364300298068
 20
473.04169207783508
 30
0.0
  0
VERTEX
  5
113BE
  8
0
 10
373.03874248313292
 20
471.82244926663208
 30
0.0
  0
VERTEX
  5
113BF
  8
0
 10
373.64636713313439
 20
470.67564099999242
 30
0.0
  0
VERTEX
  5
113C0
  8
0
 10
374.46905279206612
 20
469.63425844879907
 30
0.0
  0
VERTEX
  5
113C1
  8
0
 10
375.48312151479098
 20
468.72826784821319
 30
0.0
  0
VERTEX
  5
113C2
  8
0
 10
376.65941172885277
 20
467.983723878582
 30
0.0
  0
VERTEX
  5
113C3
  8
0
 10
377.96406799601891
 20
467.4220469591217
 30
0.0
  0
VERTEX
  5
113C4
  8
0
 10
379.35956919240328
 20
467.05939739914697
 30
0.0
  0
VERTEX
  5
113C5
  8
0
 10
380.80576413916918
 20
466.90621346207428
 30
0.0
  0
VERTEX
  5
113C6
  8
0
 10
382.26105624484399
 20
466.96689099045562
 30
0.0
  0
VERTEX
  5
113C7
  8
0
 10
383.68356579589232
 20
467.23969399901199
 30
0.0
  0
VERTEX
  5
113C8
  8
0
 10
385.03238165425643
 20
467.71676957579422
 30
0.0
  0
VERTEX
  5
113C9
  8
0
 10
386.26870119618752
 20
468.38440120192342
 30
0.0
  0
VERTEX
  5
113CA
  8
0
 10
387.35694789933541
 20
469.22336637945938
 30
0.0
  0
VERTEX
  5
113CB
  8
0
 10
388.26582187461241
 20
470.20954012842941
 30
0.0
  0
VERTEX
  5
113CC
  8
0
 10
388.96917530941352
 20
471.31455063792038
 30
0.0
  0
VERTEX
  5
113CD
  8
0
 10
389.44677242683753
 20
472.5066137311058
 30
0.0
  0
VERTEX
  5
113CE
  8
0
 10
389.68487435626372
 20
473.75142693491739
 30
0.0
  0
VERTEX
  5
113CF
  8
0
 10
389.67663401412352
 20
475.0131827590065
 30
0.0
  0
VERTEX
  5
113D0
  8
0
 10
389.58200791525218
 20
475.62888383837509
 30
0.0
  0
SEQEND
  5
113D1
  8
0
  0
POLYLINE
  5
1009B
  8
0
 66
     1
 10
0.0
 20
0.0
 30
0.0
 70
   128
  0
VERTEX
  5
113D2
  8
0
 10
373.9464243655143
 20
476.94672763319778
 30
0.0
  0
VERTEX
  5
113D3
  8
0
 10
373.61719065951678
 20
475.8025196191864
 30
0.0
  0
VERTEX
  5
113D4
  8
0
 10
373.52916204976418
 20
474.62578982086939
 30
0.0
  0
VERTEX
  5
113D5
  8
0
 10
373.68516230630257
 20
473.4543499347763
 30
0.0
  0
VERTEX
  5
113D6
  8
0
 10
374.08018463897088
 20
472.32586264582437
 30
0.0
  0
VERTEX
  5
113D7
  8
0
 10
374.70153325843188
 20
471.27659738035959
 30
0.0
  0
VERTEX
  5
113D8
  8
0
 10
375.5292331581054
 20
470.34027546616358
 30
0.0
  0
VERTEX
  5
113D9
  8
0
 10
376.53667831467959
 20
469.54698979826742
 30
0.0
  0
VERTEX
  5
113DA
  8
0
 10
377.69149595546099
 20
468.92223626347351
 30
0.0
  0
VERTEX
  5
113DB
  8
0
 10
378.95655983733508
 20
468.48610162707138
 30
0.0
  0
VERTEX
  5
113DC
  8
0
 10
380.29121959256508
 20
468.25260043116378
 30
0.0
  0
VERTEX
  5
113DD
  8
0
 10
381.65258222865441
 20
468.22923541041177
 30
0.0
  0
VERTEX
  5
113DE
  8
0
 10
382.99687558459618
 20
468.41675907345581
 30
0.0
  0
VERTEX
  5
113DF
  8
0
 10
384.28090119408938
 20
468.8091439005928
 30
0.0
  0
VERTEX
  5
113E0
  8
0
 10
385.46339774178841
 20
469.39377605887222
 30
0.0
  0
VERTEX
  5
113E1
  8
0
 10
386.506344914907
 20
470.15187263460922
 30
0.0
  0
VERTEX
  5
113E2
  8
0
 10
387.3762337272106
 20
471.05905532809072
 30
0.0
  0
VERTEX
  5
113E3
  8
0
 10
388.04509469913819
 20
472.08617746802139
 30
0.0
  0
VERTEX
  5
113E4
  8
0
 10
388.49143663095811
 20
473.20022553177643
 30
0.0
  0
VERTEX
  5
113E5
  8
0
 10
388.70091342973092
 20
474.36538457842641
 30
0.0
  0
VERTEX
  5
113E6
  8
0
 10
388.66678977059701
 20
475.54421544047159
 30
0.0
  0
VERTEX
  5
113E7
  8
0
 10
388.39016088890412
 20
476.69882446499628
 30
0.0
  0
VERTEX
  5
113E8
  8
0
 10
387.87992277788499
 20
477.79210031004709
 30
0.0
  0
VERTEX
  5
113E9
  8
0
 10
387.15247416543338
 20
478.78891348810959
 30
0.0
  0
VERTEX
  5
113EA
  8
0
 10
386.23119124817231
 20
479.65721160145569
 30
0.0
  0
VERTEX
  5
113EB
  8
0
 10
386.12178692268708
 20
479.7417011854248
 30
0.0
  0
SEQEND
  5
113EC
  8
0
  0
ARC
  5
1009C
  8
0
 10
380.0740630643777
 20
474.42155540068029
 30
0.0
 40
6.6275524009758557
 50
126.60825099336699
 51
157.60366217507229
  0
POLYLINE
  5
1009D
  8
0
 66
     1
 10
0.0
 20
0.0
 30
0.0
 70
   128
  0
VERTEX
  5
113ED
  8
0
 10
370.62178903865203
 20
451.06563836308288
 30
0.0
  0
VERTEX
  5
113EE
  8
0
 10
370.70472145127633
 20
449.92499172659677
 30
0.0
  0
VERTEX
  5
113EF
  8
0
 10
371.02786058234551
 20
448.56124490471649
 30
0.0
  0
VERTEX
  5
113F0
  8
0
 10
371.58759290027001
 20
447.25619375677871
 30
0.0
  0
VERTEX
  5
113F1
  8
0
 10
372.37079793261859
 20
446.04043781729513
 30
0.0
  0
VERTEX
  5
113F2
  8
0
 10
373.35912489938119
 20
444.9424681064682
 30
0.0
  0
VERTEX
  5
113F3
  8
0
 10
374.52939504432061
 20
443.98801892967992
 30
0.0
  0
VERTEX
  5
113F4
  8
0
 10
375.85418278025958
 20
443.19946438046259
 30
0.0
  0
VERTEX
  5
113F5
  8
0
 10
377.30244153785088
 20
442.5952818986969
 30
0.0
  0
VERTEX
  5
113F6
  8
0
 10
378.84022647189482
 20
442.18964248867798
 30
0.0
  0
VERTEX
  5
113F7
  8
0
 10
380.43148422288277
 20
441.99204564066702
 30
0.0
  0
VERTEX
  5
113F8
  8
0
 10
382.0389246349273
 20
442.00712561579508
 30
0.0
  0
VERTEX
  5
113F9
  8
0
 10
383.6248701219497
 20
442.23453223677438
 30
0.0
  0
VERTEX
  5
113FA
  8
0
 10
385.15214228677132
 20
442.66893088789749
 30
0.0
  0
VERTEX
  5
113FB
  8
0
 10
386.58494854020461
 20
443.30014407606888
 30
0.0
  0
VERTEX
  5
113FC
  8
0
 10
387.8897016649185
 20
444.11336749764251
 30
0.0
  0
VERTEX
  5
113FD
  8
0
 10
389.03582075285289
 20
445.08955746861272
 30
0.0
  0
VERTEX
  5
113FE
  8
0
 10
389.99643901037552
 20
446.20581090422439
 30
0.0
  0
VERTEX
  5
113FF
  8
0
 10
390.74904450821259
 20
447.43597626658249
 30
0.0
  0
VERTEX
  5
11400
  8
0
 10
391.27599799680092
 20
448.75121980877691
 30
0.0
  0
VERTEX
  5
11401
  8
0
 10
391.56494268822053
 20
450.12071847887802
 30
0.0
  0
VERTEX
  5
11402
  8
0
 10
391.62178689288481
 20
451.06563836308288
 30
0.0
  0
SEQEND
  5
11403
  8
0
  0
LINE
  5
1009E
  8
0
 10
391.46308952617028
 20
466.36562913628393
 30
0.0
 11
389.58200791525218
 21
475.62888383837509
 31
0.0
  0
LINE
  5
1009F
  8
0
 10
372.66157174157479
 20
475.62888383837509
 30
0.0
 11
370.78048640536639
 21
466.36562913628393
 31
0.0
  0
LINE
  5
100A0
  8
0
 10
373.01815652894362
 20
476.81863725157552
 30
0.0
 11
372.92221540259698
 21
476.53985887738042
 31
0.0
  0
LINE
  5
100A1
  8
0
 10
370.62178903865203
 20
464.79062855215841
 30
0.0
 11
370.62178903865203
 21
451.06563836308288
 31
0.0
  0
LINE
  5
100A2
  8
0
 10
391.62178689288481
 20
451.06563836308288
 30
0.0
 11
391.62178689288481
 21
464.79062855215841
 31
0.0
  0
LINE
  5
100A3
  8
0
 10
386.12178692268662
 20
491.79541438799708
 30
0.0
 11
386.12178692268708
 21
497.79062464805412
 31
0.0
  0
LINE
  5
100A4
  8
0
 10
376.12178528355929
 20
486.79541904460967
 30
0.0
 11
376.12178528355929
 21
475.04062324734502
 31
0.0
  0
LINE
  5
100A5
  8
0
 10
372.90551865147933
 20
476.5109506246643
 30
0.0
 11
372.66157174157479
 21
475.62888383837509
 31
0.0
  0
LINE
  5
100A6
  8
0
 10
389.58200791525218
 20
475.62888383837509
 30
0.0
 11
389.22542312788352
 21
476.81863725157518
 31
0.0
  0
POLYLINE
  5
100A7
  8
0
 66
     1
 10
0.0
 20
0.0
 30
0.0
 70
   128
  0
VERTEX
  5
11404
  8
0
 10
370.78048640536639
 20
466.36562913628393
 30
0.0
  0
VERTEX
  5
11405
  8
0
 10
370.62575274752948
 20
465.0404614207344
 30
0.0
  0
VERTEX
  5
11406
  8
0
 10
370.70472145127633
 20
463.6499819156723
 30
0.0
  0
VERTEX
  5
11407
  8
0
 10
371.02786058234551
 20
462.28622764321142
 30
0.0
  0
VERTEX
  5
11408
  8
0
 10
371.58759290027001
 20
460.98118394585418
 30
0.0
  0
VERTEX
  5
11409
  8
0
 10
372.37079793261859
 20
459.76542800637048
 30
0.0
  0
VERTEX
  5
1140A
  8
0
 10
373.35912489938119
 20
458.66745084496313
 30
0.0
  0
VERTEX
  5
1140B
  8
0
 10
374.52939504432061
 20
457.71300166817468
 30
0.0
  0
VERTEX
  5
1140C
  8
0
 10
375.85418278025958
 20
456.92444711895752
 30
0.0
  0
VERTEX
  5
1140D
  8
0
 10
377.30244153785088
 20
456.32027208777242
 30
0.0
  0
VERTEX
  5
1140E
  8
0
 10
378.84022647189482
 20
455.91462522717279
 30
0.0
  0
VERTEX
  5
1140F
  8
0
 10
380.43148422288277
 20
455.71702837916177
 30
0.0
  0
VERTEX
  5
11410
  8
0
 10
382.0389246349273
 20
455.7321158048706
 30
0.0
  0
VERTEX
  5
11411
  8
0
 10
383.6248701219497
 20
455.95952242584991
 30
0.0
  0
VERTEX
  5
11412
  8
0
 10
385.15214228677132
 20
456.39392107697302
 30
0.0
  0
VERTEX
  5
11413
  8
0
 10
386.58494854020461
 20
457.02512681456369
 30
0.0
  0
VERTEX
  5
11414
  8
0
 10
387.8897016649185
 20
457.83835768671798
 30
0.0
  0
VERTEX
  5
11415
  8
0
 10
389.03582075285289
 20
458.81454020710748
 30
0.0
  0
VERTEX
  5
11416
  8
0
 10
389.99643901037552
 20
459.93080109329992
 30
0.0
  0
VERTEX
  5
11417
  8
0
 10
390.74904450821259
 20
461.16096645565801
 30
0.0
  0
VERTEX
  5
11418
  8
0
 10
391.27599799680092
 20
462.47620999785232
 30
0.0
  0
VERTEX
  5
11419
  8
0
 10
391.56494268822053
 20
463.84570121737289
 30
0.0
  0
VERTEX
  5
1141A
  8
0
 10
391.60910972999909
 20
465.23734301300811
 30
0.0
  0
VERTEX
  5
1141B
  8
0
 10
391.46308952617028
 20
466.36562913628393
 30
0.0
  0
SEQEND
  5
1141C
  8
0
  0
ARC
  5
1017A
  8
0
 10
382.28043649074613
 20
486.79541904460922
 30
0.0
 40
3.8391994190974801
 50
326.90500036006188
 51
33.094999639943516
  0
ARC
  5
1017B
  8
0
 10
382.23442546209623
 20
491.81307805643672
 30
0.0
 40
3.8874044967946828
 50
327.05718365970449
 51
359.73965736374981
  0
LINE
  5
1017C
  8
0
 10
385.49678866426081
 20
489.69910074840777
 30
0.0
 11
385.49678866426081
 21
484.69910540501991
 31
0.0
  0
ARC
  5
1017D
  8
0
 10
379.9631431660809
 20
486.79541904460922
 30
0.0
 40
3.8391994190975112
 50
146.9050003600619
 51
213.09499963993801
  0
LINE
  5
1017E
  8
0
 10
376.74679099256667
 20
484.69910540501991
 30
0.0
 11
376.74679099256667
 21
489.69910074840777
 31
0.0
  0
ARC
  5
1017F
  8
0
 10
380.00915419473182
 20
491.81307805643672
 30
0.0
 40
3.887404496794713
 50
180.26034263625019
 51
212.94281634029551
  0
LINE
  5
10182
  8
0
 10
376.1217927341404
 20
491.79541438799708
 30
0.0
 11
376.12179273413989
 21
497.79062464805412
 31
0.0
  0
LINE
  5
10183
  8
0
 10
386.12179437326768
 20
486.79541904460967
 30
0.0
 11
386.12179437326768
 21
475.04062324734502
 31
0.0
  0
LINE
  5
10189
  8
0
 10
385.51622947468792
 20
313.66687250265193
 30
0.0
 11
385.51622947468792
 21
305.00661938784401
 31
0.0
  0
ARC
  5
1018A
  8
0
 10
384.47914104300759
 20
303.70453965243041
 30
0.0
 40
1.664621294018884
 50
3.1603918302393792
 51
51.463164967038779
  0
ARC
  5
1018B
  8
0
 10
384.61716357059282
 20
312.45656546427591
 30
0.0
 40
1.507701106668643
 50
306.60648530331048
 51
53.393514696689429
  0
ARC
  5
10194
  8
0
 10
382.25386627252328
 20
144.52117499454721
 30
0.0
 40
3.8874044967947472
 50
327.05718365970449
 51
359.73965736375629
  0
LINE
  5
10195
  8
0
 10
385.51622947468792
 20
142.40719768651829
 30
0.0
 11
385.51622947468792
 21
137.4072000148243
 31
0.0
  0
ARC
  5
10196
  8
0
 10
382.29987431203608
 20
139.50351481856691
 30
0.0
 40
3.8392025589576768
 50
326.90501016306541
 51
33.094989836934651
  0
LINE
  5
10198
  8
0
 10
386.12486467726148
 20
312.45656546427591
 30
0.0
 11
386.12486467726148
 21
334.2572013032746
 31
0.0
  0
LINE
  5
10199
  8
0
 10
376.18011930633111
 20
282.24471136906118
 30
0.0
 11
376.18011930633111
 21
303.79635012403702
 31
0.0
  0
LINE
  5
1019A
  8
0
 10
376.80511838432182
 20
313.66687250265193
 30
0.0
 11
376.80511838432182
 21
305.00661938784401
 31
0.0
  0
ARC
  5
1019B
  8
0
 10
377.84220681600209
 20
303.70453965243041
 30
0.0
 40
1.664621294018884
 50
128.5368350329469
 51
176.8396081697606
  0
ARC
  5
1019C
  8
0
 10
377.70418428841691
 20
312.45656546427591
 30
0.0
 40
1.507701106668643
 50
126.6064853032923
 51
233.39351469670771
  0
LINE
  5
1019D
  8
0
 10
376.19648318174808
 20
312.45656546427591
 30
0.0
 11
376.19648318174808
 21
334.2572013032746
 31
0.0
  0
LINE
  5
1019E
  8
0
 10
387.6412315925154
 20
100.99126239449831
 30
0.0
 11
388.64123361907332
 21
101.99126255841109
 31
0.0
  0
LINE
  5
1019F
  8
0
 10
388.64123361907332
 20
135.9912616121874
 30
0.0
 11
387.6412315925154
 21
136.99126363874529
 31
0.0
  0
LINE
  5
101A0
  8
0
 10
374.64123132429449
 20
136.99126363874529
 30
0.0
 11
373.64122929773657
 21
135.9912616121874
 31
0.0
  0
LINE
  5
101A1
  8
0
 10
373.64122929773657
 20
101.99126255841109
 30
0.0
 11
374.64123132429449
 21
100.99126239449831
 31
0.0
  0
LINE
  5
101A2
  8
0
 10
374.64123132429449
 20
100.99126239449831
 30
0.0
 11
387.6412315925154
 21
100.99126239449831
 31
0.0
  0
LINE
  5
101A3
  8
0
 10
387.6412315925154
 20
136.99126363874529
 30
0.0
 11
386.14122855267851
 21
136.99126363874529
 31
0.0
  0
LINE
  5
101A4
  8
0
 10
376.14123063884108
 20
136.99126363874529
 30
0.0
 11
374.64123132429449
 21
136.99126363874529
 31
0.0
  0
LINE
  5
101A5
  8
0
 10
391.64123224816649
 20
169.99125973464109
 30
0.0
 11
391.64123224816649
 21
183.71624992371659
 31
0.0
  0
LINE
  5
101A6
  8
0
 10
370.6412306686434
 20
183.71624992371659
 30
0.0
 11
370.6412306686434
 21
169.99125973464109
 31
0.0
  0
LINE
  5
101A7
  8
0
 10
370.79992803535788
 20
168.4162591505156
 30
0.0
 11
372.68101337156622
 21
159.15300444842441
 31
0.0
  0
LINE
  5
101A8
  8
0
 10
389.60144954524372
 20
159.15300444842441
 30
0.0
 11
391.48252743087141
 21
168.4162591505156
 31
0.0
  0
LINE
  5
101AA
  8
0
 10
386.14122855267851
 20
144.5030580266023
 30
0.0
 11
386.14122855267851
 21
154.42430100217419
 31
0.0
  0
LINE
  5
101AB
  8
0
 10
387.6412315925154
 20
100.99126239449831
 30
0.0
 11
387.6412315925154
 21
136.99126363874529
 31
0.0
  0
LINE
  5
101AC
  8
0
 10
388.64123361907332
 20
135.9912616121874
 30
0.0
 11
388.64123361907332
 21
101.99126255841109
 31
0.0
  0
LINE
  5
101AD
  8
0
 10
373.64122929773657
 20
104.2688305410847
 30
0.0
 11
373.64122929773657
 21
135.9912616121874
 31
0.0
  0
LINE
  5
101AE
  8
0
 10
373.64122929773657
 20
101.99126255841109
 30
0.0
 11
373.64122929773657
 21
104.2688305410847
 31
0.0
  0
LINE
  5
101AF
  8
0
 10
374.64123132429449
 20
103.4028048548207
 30
0.0
 11
374.64123132429449
 21
100.99126239449831
 31
0.0
  0
LINE
  5
101B0
  8
0
 10
374.64123132429449
 20
136.99126363874529
 30
0.0
 11
374.64123132429449
 21
103.4028048548207
 31
0.0
  0
POLYLINE
  5
101B1
  8
0
 66
     1
 10
0.0
 20
0.0
 30
0.0
 70
   128
  0
VERTEX
  5
1141D
  8
0
 10
381.14123332105009
 20
101.6438303436443
 30
0.0
  0
VERTEX
  5
1141E
  8
0
 10
382.26982491813033
 20
101.7052012416825
 30
0.0
  0
VERTEX
  5
1141F
  8
0
 10
383.3456515034232
 20
101.8864449966058
 30
0.0
  0
VERTEX
  5
11420
  8
0
 10
384.31839185557692
 20
102.1790861073241
 30
0.0
  0
VERTEX
  5
11421
  8
0
 10
385.14258253178929
 20
102.569441582571
 30
0.0
  0
VERTEX
  5
11422
  8
0
 10
385.77966677747099
 20
103.0392584312067
 30
0.0
  0
VERTEX
  5
11423
  8
0
 10
386.1998646219763
 20
103.5665686163411
 30
0.0
  0
VERTEX
  5
11424
  8
0
 10
386.31960749723612
 20
103.85234884232329
 30
0.0
  0
SEQEND
  5
11425
  8
0
  0
POLYLINE
  5
101B2
  8
0
 66
     1
 10
0.0
 20
0.0
 30
0.0
 70
   128
  0
VERTEX
  5
11426
  8
0
 10
375.9566127022299
 20
103.8558429959521
 30
0.0
  0
VERTEX
  5
11427
  8
0
 10
376.08259456954329
 20
103.5665686163411
 30
0.0
  0
VERTEX
  5
11428
  8
0
 10
376.5027924140486
 20
103.0392584312067
 30
0.0
  0
VERTEX
  5
11429
  8
0
 10
377.13987665973042
 20
102.569441582571
 30
0.0
  0
VERTEX
  5
1142A
  8
0
 10
377.96406733594267
 20
102.1790861073241
 30
0.0
  0
VERTEX
  5
1142B
  8
0
 10
378.9368151386771
 20
101.8864449966058
 30
0.0
  0
VERTEX
  5
1142C
  8
0
 10
380.01263427338932
 20
101.7052012416825
 30
0.0
  0
VERTEX
  5
1142D
  8
0
 10
381.14123332105009
 20
101.6438303436443
 30
0.0
  0
SEQEND
  5
1142E
  8
0
  0
POLYLINE
  5
101B3
  8
0
 66
     1
 10
0.0
 20
0.0
 30
0.0
 70
   128
  0
VERTEX
  5
1142F
  8
0
 10
381.14123332105009
 20
102.5188307198987
 30
0.0
  0
VERTEX
  5
11430
  8
0
 10
382.08551990590422
 20
102.58372527689789
 30
0.0
  0
VERTEX
  5
11431
  8
0
 10
382.95977103314732
 20
102.7735968041525
 30
0.0
  0
VERTEX
  5
11432
  8
0
 10
383.69915920100539
 20
103.0743627730116
 30
0.0
  0
VERTEX
  5
11433
  8
0
 10
384.2488257845435
 20
103.46371614516831
 30
0.0
  0
VERTEX
  5
11434
  8
0
 10
384.56802355847691
 20
103.9127821955189
 30
0.0
  0
VERTEX
  5
11435
  8
0
 10
384.63307457766859
 20
104.3882549661502
 30
0.0
  0
VERTEX
  5
11436
  8
0
 10
384.43914341531132
 20
104.8548699277744
 30
0.0
  0
VERTEX
  5
11437
  8
0
 10
384.00062459311812
 20
105.2780209961638
 30
0.0
  0
VERTEX
  5
11438
  8
0
 10
383.35003989539479
 20
105.6263253945217
 30
0.0
  0
VERTEX
  5
11439
  8
0
 10
382.53563183150618
 20
105.87395009727329
 30
0.0
  0
VERTEX
  5
1143A
  8
0
 10
381.61781715951292
 20
106.0025303545699
 30
0.0
  0
VERTEX
  5
1143B
  8
0
 10
380.66464948258732
 20
106.0025303545699
 30
0.0
  0
VERTEX
  5
1143C
  8
0
 10
379.74682736001341
 20
105.87395009727329
 30
0.0
  0
VERTEX
  5
1143D
  8
0
 10
378.93241929612492
 20
105.6263253945217
 30
0.0
  0
VERTEX
  5
1143E
  8
0
 10
378.28183459840147
 20
105.2780209961638
 30
0.0
  0
VERTEX
  5
1143F
  8
0
 10
377.84331577620833
 20
104.8548699277744
 30
0.0
  0
VERTEX
  5
11440
  8
0
 10
377.64939206443159
 20
104.3882549661502
 30
0.0
  0
VERTEX
  5
11441
  8
0
 10
377.7144356330428
 20
103.9127821955189
 30
0.0
  0
VERTEX
  5
11442
  8
0
 10
378.03363340697621
 20
103.46371614516831
 30
0.0
  0
VERTEX
  5
11443
  8
0
 10
378.5833074410948
 20
103.0743627730116
 30
0.0
  0
VERTEX
  5
11444
  8
0
 10
379.32268815837239
 20
102.7735968041525
 30
0.0
  0
VERTEX
  5
11445
  8
0
 10
380.19693928561537
 20
102.58372527689789
 30
0.0
  0
VERTEX
  5
11446
  8
0
 10
381.14123332105009
 20
102.5188307198987
 30
0.0
  0
SEQEND
  5
11447
  8
0
  0
POLYLINE
  5
101B4
  8
0
 66
     1
 10
0.0
 20
0.0
 30
0.0
 70
   128
  0
VERTEX
  5
11448
  8
0
 10
381.14123332105009
 20
103.8848555567965
 30
0.0
  0
VERTEX
  5
11449
  8
0
 10
381.91376912198399
 20
103.9460350680456
 30
0.0
  0
VERTEX
  5
1144A
  8
0
 10
382.61069643102019
 20
104.1235842663154
 30
0.0
  0
VERTEX
  5
1144B
  8
0
 10
383.16377538047169
 20
104.4001237410411
 30
0.0
  0
VERTEX
  5
1144C
  8
0
 10
383.51887005172102
 20
104.7485846015915
 30
0.0
  0
VERTEX
  5
1144D
  8
0
 10
383.6412309368643
 20
105.1348552960262
 30
0.0
  0
VERTEX
  5
1144E
  8
0
 10
383.51887005172102
 20
105.52112692178341
 30
0.0
  0
VERTEX
  5
1144F
  8
0
 10
383.48643767438261
 20
105.56786813915819
 30
0.0
  0
SEQEND
  5
11450
  8
0
  0
POLYLINE
  5
101B5
  8
0
 66
     1
 10
0.0
 20
0.0
 30
0.0
 70
   128
  0
VERTEX
  5
11451
  8
0
 10
378.79602151713698
 20
105.56786813915819
 30
0.0
  0
VERTEX
  5
11452
  8
0
 10
378.76358913979863
 20
105.52112692178341
 30
0.0
  0
VERTEX
  5
11453
  8
0
 10
378.64122825465529
 20
105.1348552960262
 30
0.0
  0
VERTEX
  5
11454
  8
0
 10
378.76358913979863
 20
104.7485846015915
 30
0.0
  0
VERTEX
  5
11455
  8
0
 10
379.11869126162861
 20
104.4001237410411
 30
0.0
  0
VERTEX
  5
11456
  8
0
 10
379.67177021108
 20
104.1235842663154
 30
0.0
  0
VERTEX
  5
11457
  8
0
 10
380.36869006953572
 20
103.9460350680456
 30
0.0
  0
VERTEX
  5
11458
  8
0
 10
381.14123332105009
 20
103.8848555567965
 30
0.0
  0
SEQEND
  5
11459
  8
0
  0
LINE
  5
101B6
  8
0
 10
370.64600649080609
 20
183.44202385426621
 30
0.0
 11
370.6412306686434
 21
183.71624992371659
 31
0.0
  0
POLYLINE
  5
101B7
  8
0
 66
     1
 10
0.0
 20
0.0
 30
0.0
 70
   128
  0
VERTEX
  5
1145A
  8
0
 10
391.64123224816649
 20
183.71624992371659
 30
0.0
  0
VERTEX
  5
1145B
  8
0
 10
391.63627761206959
 20
183.43694255829911
 30
0.0
  0
VERTEX
  5
1145C
  8
0
 10
391.6295720895323
 20
183.2879085946189
 30
0.0
  0
SEQEND
  5
1145D
  8
0
  0
POLYLINE
  5
101B8
  8
0
 66
     1
 10
0.0
 20
0.0
 30
0.0
 70
   128
  0
VERTEX
  5
1145E
  8
0
 10
391.04985731444691
 20
166.98264078379731
 30
0.0
  0
VERTEX
  5
1145F
  8
0
 10
390.40342259011601
 20
165.70799545527561
 30
0.0
  0
VERTEX
  5
11460
  8
0
 10
389.53988539777129
 20
164.533754150878
 30
0.0
  0
VERTEX
  5
11461
  8
0
 10
388.4794964154753
 20
163.4874244141684
 30
0.0
  0
VERTEX
  5
11462
  8
0
 10
387.24709587893813
 20
162.59354100705249
 30
0.0
  0
VERTEX
  5
11463
  8
0
 10
385.8715845902953
 20
161.87305496216871
 30
0.0
  0
VERTEX
  5
11464
  8
0
 10
384.38520121178959
 20
161.34284929514979
 30
0.0
  0
VERTEX
  5
11465
  8
0
 10
382.82277720771162
 20
161.015359025012
 30
0.0
  0
VERTEX
  5
11466
  8
0
 10
381.22093963227599
 20
160.89825824977021
 30
0.0
  0
VERTEX
  5
11467
  8
0
 10
379.61723196111052
 20
160.9942887830839
 30
0.0
  0
VERTEX
  5
11468
  8
0
 10
378.0492498239073
 20
161.30119309903239
 30
0.0
  0
VERTEX
  5
11469
  8
0
 10
376.55373948417042
 20
161.8117962885008
 30
0.0
  0
VERTEX
  5
1146A
  8
0
 10
375.16575592360829
 20
162.5141103673086
 30
0.0
  0
VERTEX
  5
1146B
  8
0
 10
373.91783210239743
 20
163.3916844534979
 30
0.0
  0
VERTEX
  5
1146C
  8
0
 10
372.8392189999613
 20
164.4239549446211
 30
0.0
  0
VERTEX
  5
1146D
  8
0
 10
371.9551964362654
 20
165.5867074537382
 30
0.0
  0
VERTEX
  5
1146E
  8
0
 10
371.28648820123999
 20
166.8527026581869
 30
0.0
  0
VERTEX
  5
1146F
  8
0
 10
370.84876659117072
 20
168.19226489544971
 30
0.0
  0
VERTEX
  5
11470
  8
0
 10
370.65229105553959
 20
169.573997418891
 30
0.0
  0
VERTEX
  5
11471
  8
0
 10
370.6412306686434
 20
169.99125973464109
 30
0.0
  0
SEQEND
  5
11472
  8
0
  0
ARC
  5
101B9
  8
0
 10
383.6581386819517
 20
169.9979888276649
 30
0.0
 40
7.9830964022507178
 50
337.80768475666179
 51
359.95170436927629
  0
LINE
  5
101BA
  8
0
 10
389.60144954524372
 20
159.15300444842441
 30
0.0
 11
389.24747991166441
 21
157.9801564025984
 31
0.0
  0
POLYLINE
  5
101C0
  8
0
 66
     1
 10
0.0
 20
0.0
 30
0.0
 70
   128
  0
VERTEX
  5
11473
  8
0
 10
391.04985731444691
 20
180.70763097287281
 30
0.0
  0
VERTEX
  5
11474
  8
0
 10
390.40342259011601
 20
179.43298564435111
 30
0.0
  0
VERTEX
  5
11475
  8
0
 10
389.53988539777129
 20
178.2587368893729
 30
0.0
  0
VERTEX
  5
11476
  8
0
 10
388.4794964154753
 20
177.2124146032439
 30
0.0
  0
VERTEX
  5
11477
  8
0
 10
387.24709587893813
 20
176.31853119612799
 30
0.0
  0
VERTEX
  5
11478
  8
0
 10
385.8715845902953
 20
175.59804515124421
 30
0.0
  0
VERTEX
  5
11479
  8
0
 10
384.38520121178959
 20
175.06783948422529
 30
0.0
  0
VERTEX
  5
1147A
  8
0
 10
382.82277720771162
 20
174.74034921408759
 30
0.0
  0
VERTEX
  5
1147B
  8
0
 10
381.22093963227599
 20
174.62324098826511
 30
0.0
  0
VERTEX
  5
1147C
  8
0
 10
379.61723196111052
 20
174.71927152157889
 30
0.0
  0
VERTEX
  5
1147D
  8
0
 10
378.0492498239073
 20
175.02618328810789
 30
0.0
  0
VERTEX
  5
1147E
  8
0
 10
376.55373948417042
 20
175.5367790269957
 30
0.0
  0
VERTEX
  5
1147F
  8
0
 10
375.16575592360829
 20
176.23910055638419
 30
0.0
  0
VERTEX
  5
11480
  8
0
 10
373.91783210239743
 20
177.1166746425734
 30
0.0
  0
VERTEX
  5
11481
  8
0
 10
372.8392189999613
 20
178.148937683116
 30
0.0
  0
VERTEX
  5
11482
  8
0
 10
371.9551964362654
 20
179.31169764281381
 30
0.0
  0
VERTEX
  5
11483
  8
0
 10
371.28648820123999
 20
180.57769284726251
 30
0.0
  0
VERTEX
  5
11484
  8
0
 10
370.84876659117072
 20
181.91725508452521
 30
0.0
  0
VERTEX
  5
11485
  8
0
 10
370.65229105553959
 20
183.2989801573859
 30
0.0
  0
VERTEX
  5
11486
  8
0
 10
370.64600649080609
 20
183.44202385426621
 30
0.0
  0
SEQEND
  5
11487
  8
0
  0
POLYLINE
  5
101C1
  8
0
 66
     1
 10
0.0
 20
0.0
 30
0.0
 70
   128
  0
VERTEX
  5
11488
  8
0
 10
391.6295720895323
 20
183.2879085946189
 30
0.0
  0
VERTEX
  5
11489
  8
0
 10
391.4640499909911
 20
182.05278859616379
 30
0.0
  0
VERTEX
  5
1148A
  8
0
 10
391.04985731444691
 20
180.70763097287281
 30
0.0
  0
SEQEND
  5
1148B
  8
0
  0
POLYLINE
  5
101C2
  8
0
 66
     1
 10
0.0
 20
0.0
 30
0.0
 70
   128
  0
VERTEX
  5
1148C
  8
0
 10
389.6979047616515
 20
181.97862551690201
 30
0.0
  0
VERTEX
  5
1148D
  8
0
 10
389.0874116381201
 20
180.7943631816016
 30
0.0
  0
VERTEX
  5
1148E
  8
0
 10
388.26016622386311
 20
179.7132764864073
 30
0.0
  0
VERTEX
  5
1148F
  8
0
 10
387.23873632750838
 20
178.76485482932191
 30
0.0
  0
VERTEX
  5
11490
  8
0
 10
386.05097966990797
 20
177.97495917559729
 30
0.0
  0
VERTEX
  5
11491
  8
0
 10
384.72929882607792
 20
177.36515150548081
 30
0.0
  0
VERTEX
  5
11492
  8
0
 10
383.30974715552662
 20
176.9520540642844
 30
0.0
  0
VERTEX
  5
11493
  8
0
 10
381.83104532561629
 20
176.74693212987049
 30
0.0
  0
VERTEX
  5
11494
  8
0
 10
380.33352332911818
 20
176.75539598942859
 30
0.0
  0
VERTEX
  5
11495
  8
0
 10
378.85803269944518
 20
176.97719977379899
 30
0.0
  0
VERTEX
  5
11496
  8
0
 10
377.44482147298191
 20
177.40630106211759
 30
0.0
  0
VERTEX
  5
11497
  8
0
 10
376.13244640431731
 20
178.0309949922667
 30
0.0
  0
VERTEX
  5
11498
  8
0
 10
374.95668890676831
 20
178.83424208642111
 30
0.0
  0
VERTEX
  5
11499
  8
0
 10
373.9496311803851
 20
179.7941227364646
 30
0.0
  0
VERTEX
  5
1149A
  8
0
 10
373.13874351582859
 20
180.8844630527602
 30
0.0
  0
VERTEX
  5
1149B
  8
0
 10
372.54614296160071
 20
182.07552031756501
 30
0.0
  0
VERTEX
  5
1149C
  8
0
 10
372.18799355230658
 20
183.33480254889591
 30
0.0
  0
VERTEX
  5
1149D
  8
0
 10
372.07406672439902
 20
184.62796257020099
 30
0.0
  0
VERTEX
  5
1149E
  8
0
 10
372.2074656446967
 20
185.91972933293439
 30
0.0
  0
VERTEX
  5
1149F
  8
0
 10
372.58455442986821
 20
187.17486159087281
 30
0.0
  0
VERTEX
  5
114A0
  8
0
 10
373.19505127868979
 20
188.35911647559271
 30
0.0
  0
VERTEX
  5
114A1
  8
0
 10
374.0222929676566
 20
189.4402031707869
 30
0.0
  0
VERTEX
  5
114A2
  8
0
 10
375.04372658930151
 20
190.38863227845289
 30
0.0
  0
VERTEX
  5
114A3
  8
0
 10
376.23147952161162
 20
191.17852048159699
 30
0.0
  0
VERTEX
  5
114A4
  8
0
 10
377.55316036544173
 20
191.78832815171339
 30
0.0
  0
VERTEX
  5
114A5
  8
0
 10
378.97271203599303
 20
192.20143304349051
 30
0.0
  0
VERTEX
  5
114A6
  8
0
 10
380.4514213164839
 20
192.4065475273238
 30
0.0
  0
VERTEX
  5
114A7
  8
0
 10
381.94893586240141
 20
192.39808366776569
 30
0.0
  0
VERTEX
  5
114A8
  8
0
 10
383.42442649207442
 20
192.1762798833953
 30
0.0
  0
VERTEX
  5
114A9
  8
0
 10
384.83763771853779
 20
191.7471785950766
 30
0.0
  0
VERTEX
  5
114AA
  8
0
 10
386.15002023778288
 20
191.12248466492761
 30
0.0
  0
VERTEX
  5
114AB
  8
0
 10
387.3257740100417
 20
190.31924502135379
 30
0.0
  0
VERTEX
  5
114AC
  8
0
 10
388.33282428584431
 20
189.35935692072971
 30
0.0
  0
VERTEX
  5
114AD
  8
0
 10
389.14371567569111
 20
188.26901660443411
 30
0.0
  0
VERTEX
  5
114AE
  8
0
 10
389.73631995520918
 20
187.07795933962919
 30
0.0
  0
VERTEX
  5
114AF
  8
0
 10
390.09446936450331
 20
185.8186771082984
 30
0.0
  0
VERTEX
  5
114B0
  8
0
 10
390.20839619241087
 20
184.52551708699329
 30
0.0
  0
VERTEX
  5
114B1
  8
0
 10
390.07499354682301
 20
183.2337503242598
 30
0.0
  0
VERTEX
  5
114B2
  8
0
 10
389.6979047616515
 20
181.97862551690201
 30
0.0
  0
SEQEND
  5
114B3
  8
0
  0
POLYLINE
  5
101C3
  8
0
 66
     1
 10
0.0
 20
0.0
 30
0.0
 70
   128
  0
VERTEX
  5
114B4
  8
0
 10
389.24747991166441
 20
157.9801564025984
 30
0.0
  0
VERTEX
  5
114B5
  8
0
 10
388.65055429540013
 20
156.8291385579214
 30
0.0
  0
VERTEX
  5
114B6
  8
0
 10
387.83760654530852
 20
155.7820414114104
 30
0.0
  0
VERTEX
  5
114B7
  8
0
 10
386.83200913272231
 20
154.8689913857088
 30
0.0
  0
VERTEX
  5
114B8
  8
0
 10
385.66270011267989
 20
154.11624805213069
 30
0.0
  0
VERTEX
  5
114B9
  8
0
 10
384.36331885657643
 20
153.5454739737616
 30
0.0
  0
VERTEX
  5
114BA
  8
0
 10
382.97124492726653
 20
153.1730865049467
 30
0.0
  0
VERTEX
  5
114BB
  8
0
 10
381.52651774487822
 20
153.0097958552943
 30
0.0
  0
VERTEX
  5
114BC
  8
0
 10
380.07071154914229
 20
153.06030334116079
 30
0.0
  0
VERTEX
  5
114BD
  8
0
 10
378.6457060535941
 20
153.32315609932999
 30
0.0
  0
VERTEX
  5
114BE
  8
0
 10
377.29248690209721
 20
153.79078806520559
 30
0.0
  0
VERTEX
  5
114BF
  8
0
 10
376.04999082885121
 20
154.44975094081019
 30
0.0
  0
VERTEX
  5
114C0
  8
0
 10
374.95395826897948
 20
155.28108672381501
 30
0.0
  0
VERTEX
  5
114C1
  8
0
 10
374.03592380485861
 20
156.2608790505038
 30
0.0
  0
VERTEX
  5
114C2
  8
0
 10
373.32229601941441
 20
157.36093864918811
 30
0.0
  0
VERTEX
  5
114C3
  8
0
 10
372.83360498748152
 20
158.54961917878251
 30
0.0
  0
VERTEX
  5
114C4
  8
0
 10
372.68101337156622
 20
159.15300444842441
 30
0.0
  0
SEQEND
  5
114C5
  8
0
  0
ARC
  5
101C4
  8
0
 10
381.16067392950481
 20
128.29471379613369
 30
0.0
 40
5.26766647428233
 50
180.1224146406106
 51
353.91906567400281
  0
POLYLINE
  5
101C5
  8
0
 66
     1
 10
0.0
 20
0.0
 30
0.0
  0
VERTEX
  5
114C6
  8
0
 10
375.89301947813192
 20
128.28345923230401
 30
0.0
  0
VERTEX
  5
114C7
  8
0
 10
375.97195588123901
 20
128.74780954274911
 30
0.0
  0
VERTEX
  5
114C8
  8
0
 10
376.14123063884108
 20
129.13323686600779
 30
0.0
  0
SEQEND
  5
114C9
  8
0
  0
POLYLINE
  5
101C6
  8
0
 66
     1
 10
0.0
 20
0.0
 30
0.0
  0
VERTEX
  5
114CA
  8
0
 10
386.14122855267851
 20
129.12186355472701
 30
0.0
  0
VERTEX
  5
114CB
  8
0
 10
386.31253023330282
 20
128.63584644361501
 30
0.0
  0
VERTEX
  5
114CC
  8
0
 10
386.39382833487161
 20
128.18890603980589
 30
0.0
  0
VERTEX
  5
114CD
  8
0
 10
386.40544160189887
 20
127.9393161103214
 30
0.0
  0
VERTEX
  5
114CE
  8
0
 10
386.39870055821439
 20
127.73669307858771
 30
0.0
  0
SEQEND
  5
114CF
  8
0
  0
ARC
  5
101C7
  8
0
 10
381.15746852380647
 20
100.103631675665
 30
0.0
 40
6.6015841972631231
 50
45.643134276683831
 51
134.3568657233161
  0
POLYLINE
  5
101C8
  8
0
 66
     1
 10
0.0
 20
0.0
 30
0.0
 70
   130
  0
VERTEX
  5
101C9
  8
0
 10
376.54213424130648
 20
104.8237591500383
 30
0.0
 42
0.0330645639365063
  0
VERTEX
  5
101CA
  8
0
 10
376.34174654043181
 20
104.6096998162063
 30
0.0
 42
0.0534029450941034
 70
     1
  0
VERTEX
  5
101CB
  8
0
 10
376.24213885060323
 20
104.45753764367301
 30
0.0
 42
0.0022725116356079
  0
VERTEX
  5
101CC
  8
0
 10
376.12790536245348
 20
104.23173899872489
 30
0.0
 42
0.0081267397579827
 70
     1
  0
VERTEX
  5
101CD
  8
0
 10
376.09727997444679
 20
104.1679435049561
 30
0.0
 42
0.0075709763335914
  0
VERTEX
  5
101CE
  8
0
 10
376.03372069249281
 20
104.0241400190455
 30
0.0
 42
0.0061886385880182
 70
     1
  0
VERTEX
  5
101CF
  8
0
 10
375.96083580489449
 20
103.8461460813927
 30
0.0
 42
0.041741166195616
  0
VERTEX
  5
101D0
  8
0
 10
375.91378025005361
 20
103.6900792511626
 30
0.0
 42
0.0255973459186232
 70
     1
  0
VERTEX
  5
101D1
  8
0
 10
375.8719433671867
 20
103.4278726216284
 30
0.0
 42
0.062329436276015
  0
VERTEX
  5
101D2
  8
0
 10
375.87546686805263
 20
103.2260671833576
 30
0.0
 42
0.0490673832137578
 70
     1
  0
VERTEX
  5
101D3
  8
0
 10
375.93632451223863
 20
102.97739406098179
 30
0.0
 42
0.062615755433705
  0
VERTEX
  5
101D4
  8
0
 10
376.05839084881518
 20
102.7329490662957
 30
0.0
 42
0.0549727270310949
 70
     1
  0
VERTEX
  5
101D5
  8
0
 10
376.25823543665501
 20
102.49473897915639
 30
0.0
 42
0.0326063070969975
  0
VERTEX
  5
101D6
  8
0
 10
376.51163814835991
 20
102.2822812400814
 30
0.0
 42
0.0400188333804338
 70
     1
  0
VERTEX
  5
101D7
  8
0
 10
376.74109922370138
 20
102.14079179808181
 30
0.0
 42
0.0230535181429928
  0
VERTEX
  5
101D8
  8
0
 10
377.13833871467801
 20
101.9603115364
 30
0.0
 42
0.0389792446868927
 70
     1
  0
VERTEX
  5
101D9
  8
0
 10
377.38492107253393
 20
101.8833759965798
 30
0.0
 42
0.0040346686785299
  0
VERTEX
  5
101DA
  8
0
 10
377.71894164831468
 20
101.809927376584
 30
0.0
 42
0.0026871982170036
 70
     1
  0
VERTEX
  5
101DB
  8
0
 10
378.2218863565227
 20
101.7064014980246
 30
0.0
 42
0.0025702997507533
  0
VERTEX
  5
101DC
  8
0
 10
379.0076965339199
 20
101.553245316808
 30
0.0
 42
0.0137542804434876
 70
     1
  0
VERTEX
  5
101DD
  8
0
 10
379.15542595766738
 20
101.5294288155053
 30
0.0
 42
0.0232286514494311
  0
VERTEX
  5
101DE
  8
0
 10
379.35497523532331
 20
101.5122480759964
 30
0.0
 42
0.0045402138624221
 70
     1
  0
VERTEX
  5
101DF
  8
0
 10
380.37868331112441
 20
101.4811622177012
 30
0.0
 42
0.0023443550594949
  0
VERTEX
  5
101E0
  8
0
 10
381.30131964591237
 20
101.46585654200059
 30
0.0
 42
0.0050381816205595
 70
     1
  0
VERTEX
  5
101E1
  8
0
 10
381.7307055542633
 20
101.4650739571118
 30
0.0
 42
0.0122013620699593
  0
VERTEX
  5
101E2
  8
0
 10
382.33756482125551
 20
101.48489813046351
 30
0.0
 42
0.0142005386284143
 70
     1
  0
VERTEX
  5
101E3
  8
0
 10
382.85739119014221
 20
101.5294288155053
 30
0.0
 42
0.00578807459948
  0
VERTEX
  5
101E4
  8
0
 10
383.1181886955805
 20
101.5623135716821
 30
0.0
 42
0.0022389299632512
 70
     1
  0
VERTEX
  5
101E5
  8
0
 10
383.79093079128688
 20
101.65813671625639
 30
0.0
 42
0.0061747940190622
  0
VERTEX
  5
101E6
  8
0
 10
384.34782079380278
 20
101.74704321809401
 30
0.0
 42
0.009081343957858
 70
     1
  0
VERTEX
  5
101E7
  8
0
 10
384.72447039243161
 20
101.8190211381863
 30
0.0
 42
0.0461730668744547
  0
VERTEX
  5
101E8
  8
0
 10
384.93844458514781
 20
101.8850392185295
 30
0.0
 42
0.0178432543456511
 70
     1
  0
VERTEX
  5
101E9
  8
0
 10
385.46486395884222
 20
102.12470353749239
 30
0.0
 42
0.032786670242374
  0
VERTEX
  5
101EA
  8
0
 10
385.80632918880877
 20
102.32406924496119
 30
0.0
 42
0.0398963572585907
 70
     1
  0
VERTEX
  5
101EB
  8
0
 10
386.06039604951911
 20
102.52691550033521
 30
0.0
 42
0.0763244188711707
  0
VERTEX
  5
101EC
  8
0
 10
386.2605317402199
 20
102.78217946527479
 30
0.0
 42
0.0903689666087665
 70
     1
  0
VERTEX
  5
101ED
  8
0
 10
386.3501164014092
 20
103.04174891937529
 30
0.0
 42
0.0299643716965418
  0
VERTEX
  5
101EE
  8
0
 10
386.37447548503769
 20
103.30528814106241
 30
0.0
 42
0.0337045200439564
 70
     1
  0
VERTEX
  5
101EF
  8
0
 10
386.36621038788331
 20
103.54049226179021
 30
0.0
 42
0.0114580119405067
  0
VERTEX
  5
101F0
  8
0
 10
386.34001047880753
 20
103.7482861202618
 30
0.0
 42
0.0226384315214432
 70
     1
  0
VERTEX
  5
101F1
  8
0
 10
386.31960749723612
 20
103.85234884232339
 30
0.0
 42
0.0403855571742279
  0
VERTEX
  5
101F2
  8
0
 10
386.29237723476081
 20
103.93462772995569
 30
0.0
 42
0.0084495726094169
 70
     1
  0
VERTEX
  5
101F3
  8
0
 10
386.12477719457092
 20
104.31273966629669
 30
0.0
 42
0.0422799398281421
  0
VERTEX
  5
101F4
  8
0
 10
386.00161218802901
 20
104.5285323871687
 30
0.0
 42
0.0280972886211138
 70
     1
  0
VERTEX
  5
101F5
  8
0
 10
385.77280280630657
 20
104.8237591500383
 30
0.0
  0
SEQEND
  5
101F6
  8
0
  0
POLYLINE
  5
101F7
  8
0
 66
     1
 10
0.0
 20
0.0
 30
0.0
 70
   128
  0
VERTEX
  5
114D0
  8
0
 10
391.64123224816649
 20
183.71624992371659
 30
0.0
  0
VERTEX
  5
114D1
  8
0
 10
391.57749488786288
 20
184.8430471315778
 30
0.0
  0
VERTEX
  5
114D2
  8
0
 10
391.35573213782351
 20
185.94173569461279
 30
0.0
  0
VERTEX
  5
114D3
  8
0
 10
390.90256703963502
 20
187.19462603378591
 30
0.0
  0
VERTEX
  5
114D4
  8
0
 10
390.40342259011601
 20
188.21129353092431
 30
0.0
  0
VERTEX
  5
114D5
  8
0
 10
389.53988539777129
 20
189.38554228590249
 30
0.0
  0
VERTEX
  5
114D6
  8
0
 10
388.4794964154753
 20
190.43186457203149
 30
0.0
  0
VERTEX
  5
114D7
  8
0
 10
387.24709587893813
 20
191.32574797914739
 30
0.0
  0
VERTEX
  5
114D8
  8
0
 10
385.8715845902953
 20
192.04623402403109
 30
0.0
  0
VERTEX
  5
114D9
  8
0
 10
384.38520121178959
 20
192.57643969105001
 30
0.0
  0
VERTEX
  5
114DA
  8
0
 10
382.82277720771162
 20
192.9039299611878
 30
0.0
  0
VERTEX
  5
114DB
  8
0
 10
381.22093963227599
 20
193.0210381870103
 30
0.0
  0
VERTEX
  5
114DC
  8
0
 10
379.61723196111052
 20
192.9250076536965
 30
0.0
  0
VERTEX
  5
114DD
  8
0
 10
378.0492498239073
 20
192.61809588716741
 30
0.0
  0
VERTEX
  5
114DE
  8
0
 10
376.55373948417042
 20
192.1075001482796
 30
0.0
  0
VERTEX
  5
114DF
  8
0
 10
375.16575592360829
 20
191.4051786188912
 30
0.0
  0
VERTEX
  5
114E0
  8
0
 10
373.91783210239743
 20
190.5276045327019
 30
0.0
  0
VERTEX
  5
114E1
  8
0
 10
372.8392189999613
 20
189.4953414921593
 30
0.0
  0
VERTEX
  5
114E2
  8
0
 10
371.9551964362654
 20
188.3325815324616
 30
0.0
  0
VERTEX
  5
114E3
  8
0
 10
371.28648820123999
 20
187.0665863280129
 30
0.0
  0
VERTEX
  5
114E4
  8
0
 10
370.84876659117072
 20
185.72702409075021
 30
0.0
  0
VERTEX
  5
114E5
  8
0
 10
370.65229105553959
 20
184.34529901788949
 30
0.0
  0
VERTEX
  5
114E6
  8
0
 10
370.6412306686434
 20
183.71624992371659
 30
0.0
  0
SEQEND
  5
114E7
  8
0
  0
LINE
  5
101F8
  8
1
 10
381.16067392950481
 20
199.31800062016831
 30
0.0
 11
381.16067392950481
 21
113.60652663353039
 31
0.0
  0
LINE
  5
102F4
  8
0
 10
386.13907667098829
 20
139.5047540615987
 30
0.0
 11
386.14122855267851
 21
126.5793754243068
 31
0.0
  0
ARC
  5
102F6
  8
0
 10
380.06748158648639
 20
144.52117499454721
 30
0.0
 40
3.8874044967947472
 50
180.26034263624371
 51
212.94281634029551
  0
LINE
  5
102F7
  8
0
 10
376.80511838432182
 20
142.40719768651829
 30
0.0
 11
376.80511838432182
 21
137.4072000148243
 31
0.0
  0
ARC
  5
102F8
  8
0
 10
380.02147354697348
 20
139.50351481856691
 30
0.0
 40
3.8392025589576768
 50
146.90501016308329
 51
213.0949898369166
  0
LINE
  5
102F9
  8
0
 10
376.18011930633111
 20
144.5030580266023
 30
0.0
 11
376.18011930633111
 21
154.42430100217419
 31
0.0
  0
LINE
  5
102FB
  8
0
 10
376.18227118802128
 20
139.5047540615987
 30
0.0
 11
376.18011930633111
 21
126.5793754243068
 31
0.0
  0
LINE
  5
1071D
  8
0
 10
575.65153244717055
 20
333.69390601713872
 30
0.0
 11
572.18483497261241
 21
344.41407602972021
 31
0.0
  0
ARC
  5
1071E
  8
0
 10
591.21551599884515
 20
350.56494423492381
 30
0.0
 40
20.0
 50
162.07978686061631
 51
197.92021313938369
  0
ARC
  5
1071F
  8
0
 10
587.06446251290436
 20
347.15136899522048
 30
0.0
 40
15.000000000000041
 50
197.92021313938369
 51
227.85750439527919
  0
CIRCLE
  5
10922
  8
0
 10
591.21551599884515
 20
329.96313516538407
 30
0.0
 40
2.4999999999996021
  0
CIRCLE
  5
10923
  8
0
 10
591.21551599884515
 20
329.96313516538407
 30
0.0
 40
2.066999999999779
  0
LINE
  5
10924
  8
0
 10
589.96551599986242
 20
329.2414473294852
 30
0.0
 11
589.96551599986276
 21
330.6848230012842
 31
0.0
  0
LINE
  5
10925
  8
0
 10
592.46551599782788
 20
329.2414473294852
 30
0.0
 11
592.46551599782788
 21
330.6848230012842
 31
0.0
  0
LINE
  5
10926
  8
0
 10
592.46551599782788
 20
330.68482300128312
 30
0.0
 11
591.21551599884515
 21
331.40651083718308
 31
0.0
  0
LINE
  5
10927
  8
0
 10
591.21551599884515
 20
331.40651083718308
 30
0.0
 11
589.96551599986276
 21
330.6848230012842
 31
0.0
  0
LINE
  5
10928
  8
0
 10
589.96551599986242
 20
329.2414473294852
 30
0.0
 11
591.21551599884515
 21
328.51975949358513
 31
0.0
  0
LINE
  5
10929
  8
0
 10
591.21551599884515
 20
328.51975949358513
 30
0.0
 11
591.21551599884515
 21
328.51975949358513
 31
0.0
  0
LINE
  5
1092A
  8
0
 10
591.21551599884515
 20
328.51975949358513
 30
0.0
 11
592.46551599782788
 21
329.24144732948508
 31
0.0
  0
ARC
  5
10B11
  8
0
 10
534.08316374517733
 20
234.10880737565321
 30
0.0
 40
1.750000000000052
 50
250.44823733197941
 51
329.99999999998488
  0
ARC
  5
10B12
  8
0
 10
518.92771917894981
 20
242.85880737565321
 30
0.0
 40
1.75000000000002
 50
150.00000000000199
 51
229.55176266801541
  0
ARC
  5
10B13
  8
0
 10
550.23042829030089
 20
279.576689971061
 30
0.0
 40
50.000000000000021
 50
229.55176266803389
 51
250.44823733196549
  0
ARC
  5
10B14
  8
0
 10
556.30790200357035
 20
274.91315834833262
 30
0.0
 40
1.0000000000000959
 50
335.71059313749788
 51
60.000000000001741
  0
ARC
  5
10B15
  8
0
 10
543.1529545770311
 20
282.50817078622038
 30
0.0
 40
0.9999999999999978
 50
59.999999999985143
 51
144.2894068624978
  0
LINE
  5
10B16
  8
0
 10
542.73962562633255
 20
260.80749613796428
 30
0.0
 11
531.13716155056386
 21
267.50618189537261
 31
0.0
  0
LINE
  5
10B17
  8
0
 10
549.32369503003713
 20
257.00618189537221
 30
0.0
 11
542.73962562633255
 21
260.80749613796428
 31
0.0
  0
LINE
  5
10B18
  8
0
 10
552.04541733566055
 20
278.52880555714631
 30
0.0
 11
543.6529545770311
 21
283.37419619000502
 31
0.0
  0
LINE
  5
10B19
  8
0
 10
556.80790200357035
 20
275.77918375211721
 30
0.0
 11
552.04541733566055
 21
278.52880555714631
 31
0.0
  0
LINE
  5
10B1A
  8
0
 10
554.81055530922299
 20
277.5097026729531
 30
0.0
 11
546.15030127137857
 21
282.5097026729531
 31
0.0
  0
LINE
  5
10B1B
  8
0
 10
551.83295440154507
 20
277.61166754889558
 30
0.0
 11
542.34097895210948
 21
283.09186212976869
 31
0.0
  0
LINE
  5
10B1C
  8
0
 10
557.21938134751304
 20
274.50181250167083
 30
0.0
 11
551.83295440154507
 21
277.61166754889558
 31
0.0
  0
LINE
  5
10B1D
  8
0
 10
529.01463879809558
 20
237.03512161824531
 30
0.0
 11
517.41217472232699
 21
243.73380737565321
 31
0.0
  0
LINE
  5
10B1E
  8
0
 10
535.59870820180015
 20
233.23380737565321
 30
0.0
 11
529.01463879809558
 21
237.03512161824531
 31
0.0
  0
LINE
  5
10B1F
  8
0
 10
527.81178678956474
 20
235.74236797460389
 30
0.0
 11
517.79238776040279
 21
241.52707070120911
 31
0.0
  0
LINE
  5
10B20
  8
0
 10
533.49751166323063
 20
232.4597131882546
 30
0.0
 11
527.81178678956474
 21
235.74236797460389
 31
0.0
  0
LINE
  5
10B21
  8
0
 10
578.2009404408974
 20
338.023038129616
 30
0.0
 11
546.15030127137891
 21
282.5097026729531
 31
0.0
  0
LINE
  5
10B22
  8
0
 10
546.15030127137891
 20
282.5097026729531
 30
0.0
 11
546.33331397327038
 21
281.82668997106111
 31
0.0
  0
LINE
  5
10B23
  8
0
 10
554.12754260733061
 20
277.326689971061
 30
0.0
 11
554.81055530922265
 21
277.5097026729531
 31
0.0
  0
LINE
  5
10B24
  8
0
 10
554.81055530922265
 20
277.5097026729531
 30
0.0
 11
586.88707967992877
 21
333.06787261323518
 31
0.0
  0
LINE
  5
10B25
  8
0
 10
542.34097895210948
 20
283.09186212976869
 30
0.0
 11
531.13716155056386
 21
267.50618189537261
 31
0.0
  0
LINE
  5
10B26
  8
0
 10
531.13716155056386
 20
267.50618189537261
 30
0.0
 11
517.41217472232745
 21
243.73380737565321
 31
0.0
  0
LINE
  5
10B27
  8
0
 10
535.59870820180015
 20
233.23380737565321
 30
0.0
 11
549.32369503003667
 21
257.00618189537181
 31
0.0
  0
LINE
  5
10B28
  8
0
 10
549.32369503003667
 20
257.00618189537181
 30
0.0
 11
557.21938134751315
 21
274.50181250167083
 31
0.0
  0
LINE
  5
10B29
  8
1
 10
522.73042829030157
 20
231.9452927629163
 30
0.0
 11
591.21551599884515
 21
350.56494423492381
 31
0.0
  0
LINE
  5
10B2A
  8
0
 10
561.86650670044571
 20
305.81754458575199
 30
0.0
 11
565.86650557414703
 21
312.74574846629628
 31
0.0
  0
LINE
  5
10B2B
  8
0
 10
565.86650557414737
 20
312.74574846629611
 30
0.0
 11
571.06265867171521
 21
309.74574640899408
 31
0.0
  0
LINE
  5
10B2C
  8
0
 10
561.86650670044605
 20
305.81754458575182
 30
0.0
 11
567.06265979801378
 21
302.81754252845002
 31
0.0
  0
LINE
  5
10B2D
  8
0
 10
567.06265979801378
 20
302.81754252844979
 30
0.0
 11
571.06265867171521
 21
309.74574640899408
 31
0.0
  0
ARC
  5
1113C
  8
0
 10
189.7435326024339
 20
234.10880737565321
 30
0.0
 40
1.750000000000052
 50
210.00000000001509
 51
289.55176266802061
  0
ARC
  5
1113D
  8
0
 10
204.89897716866139
 20
242.85880737565321
 30
0.0
 40
1.75000000000002
 50
310.4482373319866
 51
29.999999999995751
  0
ARC
  5
1113E
  8
0
 10
173.59626805731031
 20
279.57668997106111
 30
0.0
 40
50.000000000000021
 50
289.55176266803443
 51
310.44823733196932
  0
ARC
  5
1113F
  8
0
 10
167.51879434404091
 20
274.91315834833267
 30
0.0
 40
1.0000000000000959
 50
119.9999999999999
 51
204.289406862503
  0
ARC
  5
11140
  8
0
 10
180.67374177057999
 20
282.50817078622049
 30
0.0
 40
0.9999999999999978
 50
35.710593137502123
 51
120.00000000001501
  0
LINE
  5
11141
  8
0
 10
181.08707072127851
 20
260.80749613796428
 30
0.0
 11
192.6895347970472
 21
267.50618189537272
 31
0.0
  0
LINE
  5
11142
  8
0
 10
174.5030013175741
 20
257.00618189537221
 30
0.0
 11
181.08707072127851
 21
260.80749613796428
 31
0.0
  0
LINE
  5
11143
  8
0
 10
171.78127901195049
 20
278.52880555714643
 30
0.0
 11
180.17374177057999
 21
283.37419619000502
 31
0.0
  0
LINE
  5
11144
  8
0
 10
167.01879434404071
 20
275.77918375211721
 30
0.0
 11
171.78127901195049
 21
278.52880555714643
 31
0.0
  0
LINE
  5
11145
  8
0
 10
169.01614103838821
 20
277.50970267295321
 30
0.0
 11
177.6763950762325
 21
282.5097026729531
 31
0.0
  0
LINE
  5
11146
  8
0
 10
171.993741946066
 20
277.61166754889558
 30
0.0
 11
181.48571739550161
 21
283.09186212976869
 31
0.0
  0
LINE
  5
11147
  8
0
 10
166.6073150000982
 20
274.50181250167088
 30
0.0
 11
171.993741946066
 21
277.61166754889558
 31
0.0
  0
LINE
  5
11148
  8
0
 10
194.81205754951549
 20
237.03512161824531
 30
0.0
 11
206.41452162528421
 21
243.73380737565321
 31
0.0
  0
LINE
  5
11149
  8
0
 10
188.227988145811
 20
233.23380737565321
 30
0.0
 11
194.81205754951549
 21
237.03512161824531
 31
0.0
  0
LINE
  5
1114A
  8
0
 10
196.0149095580465
 20
235.74236797460389
 30
0.0
 11
206.0343085872085
 21
241.5270707012092
 31
0.0
  0
LINE
  5
1114B
  8
0
 10
190.32918468438061
 20
232.45971318825471
 30
0.0
 11
196.0149095580465
 21
235.74236797460389
 31
0.0
  0
LINE
  5
1114C
  8
0
 10
148.15721919857421
 20
333.6384150906182
 30
0.0
 11
177.6763950762323
 21
282.5097026729531
 31
0.0
  0
LINE
  5
1114D
  8
0
 10
177.6763950762323
 20
282.5097026729531
 30
0.0
 11
177.49338237434071
 21
281.82668997106111
 31
0.0
  0
LINE
  5
1114E
  8
0
 10
169.69915374028059
 20
277.32668997106111
 30
0.0
 11
169.01614103838841
 21
277.50970267295321
 31
0.0
  0
LINE
  5
1114F
  8
0
 10
169.01614103838841
 20
277.50970267295321
 30
0.0
 11
144.0116088303887
 21
320.81882287669953
 31
0.0
  0
LINE
  5
11150
  8
0
 10
181.48571739550161
 20
283.09186212976869
 30
0.0
 11
192.6895347970472
 21
267.50618189537272
 31
0.0
  0
LINE
  5
11151
  8
0
 10
192.6895347970472
 20
267.50618189537272
 30
0.0
 11
206.41452162528381
 21
243.73380737565321
 31
0.0
  0
LINE
  5
11152
  8
0
 10
188.227988145811
 20
233.23380737565321
 30
0.0
 11
174.50300131757439
 21
257.00618189537181
 31
0.0
  0
LINE
  5
11153
  8
0
 10
174.50300131757439
 20
257.00618189537181
 30
0.0
 11
166.60731500009811
 21
274.50181250167088
 31
0.0
  0
LINE
  5
11154
  8
1
 10
201.09626805730949
 20
231.94529276291641
 30
0.0
 11
132.61118034876611
 21
350.56494423492393
 31
0.0
  0
LINE
  5
11155
  8
0
 10
161.96018964716549
 20
305.8175445857521
 30
0.0
 11
157.96019077346421
 21
312.74574846629639
 31
0.0
  0
LINE
  5
11156
  8
0
 10
157.96019077346369
 20
312.74574846629622
 30
0.0
 11
152.76403767589599
 21
309.74574640899408
 31
0.0
  0
LINE
  5
11157
  8
0
 10
161.96018964716501
 20
305.81754458575188
 30
0.0
 11
156.76403654959731
 21
302.81754252845008
 31
0.0
  0
LINE
  5
11158
  8
0
 10
156.76403654959731
 20
302.81754252844979
 30
0.0
 11
152.76403767589599
 21
309.74574640899408
 31
0.0
  0
TEXT
  5
111B5
  8
0
 62
     3
 10
0.0
 20
0.0
 30
0.0
 40
10.0
  1
QLRCF-12L
  7
STANDARD1
  0
ENDSEC
  0
EOF
