  0
SECTION
  2
HEADER
  9
$ACADVER
  1
AC1009
  9
$INSBASE
 10
0.0
 20
0.0
 30
0.0
  9
$EXTMIN
 10
0.0
 20
-2.960436562073669
 30
0.0
  9
$EXTMAX
 10
292.5013879034585216
 20
282.5027740045312044
 30
0.0
  9
$LIMMIN
 10
0.0
 20
0.0
  9
$LIMMAX
 10
420.0
 20
297.0
  9
$ORTHOMODE
 70
     0
  9
$REGENMODE
 70
     1
  9
$FILLMODE
 70
     1
  9
$QTEXTMODE
 70
     0
  9
$MIRRTEXT
 70
     0
  9
$DRAGMODE
 70
     2
  9
$LTSCALE
 40
10.0
  9
$OSMODE
 70
    37
  9
$ATTMODE
 70
     1
  9
$TEXTSIZE
 40
2.5
  9
$TRACEWID
 40
1.0
  9
$TEXTSTYLE
  7
STANDARD
  9
$CLAYER
  8
0
  9
$CELTYPE
  6
BYLAYER
  9
$CECOLOR
 62
   256
  9
$DIMSCALE
 40
1.0
  9
$DIMASZ
 40
2.5
  9
$DIMEXO
 40
0.625
  9
$DIMDLI
 40
3.75
  9
$DIMRND
 40
0.0
  9
$DIMDLE
 40
0.0
  9
$DIMEXE
 40
1.25
  9
$DIMTP
 40
0.0
  9
$DIMTM
 40
0.0
  9
$DIMTXT
 40
2.5
  9
$DIMCEN
 40
2.5
  9
$DIMTSZ
 40
0.0
  9
$DIMTOL
 70
     0
  9
$DIMLIM
 70
     0
  9
$DIMTIH
 70
     0
  9
$DIMTOH
 70
     0
  9
$DIMSE1
 70
     0
  9
$DIMSE2
 70
     0
  9
$DIMTAD
 70
     1
  9
$DIMZIN
 70
     8
  9
$DIMBLK
  1

  9
$DIMASO
 70
     1
  9
$DIMSHO
 70
     1
  9
$DIMPOST
  1

  9
$DIMAPOST
  1

  9
$DIMALT
 70
     0
  9
$DIMALTD
 70
     3
  9
$DIMALTF
 40
0.03937007874016
  9
$DIMLFAC
 40
1.0
  9
$DIMTOFL
 70
     1
  9
$DIMTVP
 40
0.0
  9
$DIMTIX
 70
     0
  9
$DIMSOXD
 70
     0
  9
$DIMSAH
 70
     0
  9
$DIMBLK1
  1

  9
$DIMBLK2
  1

  9
$DIMSTYLE
  2
ISO-25
  9
$DIMCLRD
 70
     0
  9
$DIMCLRE
 70
     0
  9
$DIMCLRT
 70
     0
  9
$DIMTFAC
 40
1.0
  9
$DIMGAP
 40
0.625
  9
$LUNITS
 70
     2
  9
$LUPREC
 70
     1
  9
$SKETCHINC
 40
1.0
  9
$FILLETRAD
 40
0.0
  9
$AUNITS
 70
     0
  9
$AUPREC
 70
     1
  9
$MENU
  1
.
  9
$ELEVATION
 40
0.0
  9
$PELEVATION
 40
0.0
  9
$THICKNESS
 40
0.0
  9
$LIMCHECK
 70
     0
  9
$BLIPMODE
 70
     0
  9
$CHAMFERA
 40
0.0
  9
$CHAMFERB
 40
0.0
  9
$SKPOLY
 70
     0
  9
$TDCREATE
 40
2454083.4444560189731419
  9
$TDUPDATE
 40
2460671.6140972222201526
  9
$TDINDWG
 40
2.6290868171000001
  9
$TDUSRTIMER
 40
2.6290868171000001
  9
$USRTIMER
 70
     1
  9
$ANGBASE
 50
0.0
  9
$ANGDIR
 70
     0
  9
$PDMODE
 70
     0
  9
$PDSIZE
 40
0.0
  9
$PLINEWID
 40
0.0
  9
$COORDS
 70
     1
  9
$SPLFRAME
 70
     0
  9
$SPLINETYPE
 70
     6
  9
$SPLINESEGS
 70
     8
  9
$ATTDIA
 70
     1
  9
$ATTREQ
 70
     1
  9
$HANDLING
 70
     1
  9
$HANDSEED
  5
126A0
  9
$SURFTAB1
 70
     6
  9
$SURFTAB2
 70
     6
  9
$SURFTYPE
 70
     6
  9
$SURFU
 70
     6
  9
$SURFV
 70
     6
  9
$UCSNAME
  2

  9
$UCSORG
 10
0.0
 20
0.0
 30
0.0
  9
$UCSXDIR
 10
1.0
 20
0.0
 30
0.0
  9
$UCSYDIR
 10
0.0
 20
1.0
 30
0.0
  9
$PUCSNAME
  2

  9
$PUCSORG
 10
0.0
 20
0.0
 30
0.0
  9
$PUCSXDIR
 10
1.0
 20
0.0
 30
0.0
  9
$PUCSYDIR
 10
0.0
 20
1.0
 30
0.0
  9
$USERI1
 70
     0
  9
$USERI2
 70
     0
  9
$USERI3
 70
     0
  9
$USERI4
 70
     0
  9
$USERI5
 70
     0
  9
$USERR1
 40
0.0
  9
$USERR2
 40
0.0
  9
$USERR3
 40
0.0
  9
$USERR4
 40
0.0
  9
$USERR5
 40
0.0
  9
$WORLDVIEW
 70
     1
  9
$SHADEDGE
 70
     3
  9
$SHADEDIF
 70
    70
  9
$TILEMODE
 70
     1
  9
$MAXACTVP
 70
    64
  9
$PLIMCHECK
 70
     0
  9
$PEXTMIN
 10
0.0
 20
0.0
 30
0.0
  9
$PEXTMAX
 10
0.0
 20
0.0
 30
0.0
  9
$PLIMMIN
 10
0.0
 20
0.0
  9
$PLIMMAX
 10
12.0
 20
9.0
  9
$UNITMODE
 70
     0
  9
$VISRETAIN
 70
     1
  9
$PLINEGEN
 70
     0
  9
$PSLTSCALE
 70
     1
  0
ENDSEC
  0
SECTION
  2
TABLES
  0
TABLE
  2
VPORT
 70
     1
  0
VPORT
  2
*ACTIVE
 70
     0
 10
0.0
 20
0.0
 11
1.0
 21
1.0
 12
188.9589173309568082
 22
139.7742299939619954
 13
0.0
 23
0.0
 14
10.0
 24
10.0
 15
10.0
 25
10.0
 16
0.0
 26
0.0
 36
1.0
 17
0.0
 27
0.0
 37
0.0
 40
287.7626364155768215
 41
2.3485221674876842
 42
50.0
 43
0.0
 44
0.0
 50
0.0
 51
0.0
 71
     0
 72
  1000
 73
     1
 74
     3
 75
     0
 76
     0
 77
     0
 78
     0
  0
ENDTAB
  0
TABLE
  2
LTYPE
 70
     3
  0
LTYPE
  2
CONTINUOUS
 70
     0
  3
Solid line
 72
    65
 73
     0
 40
0.0
  0
LTYPE
  2
CENTER
 70
     0
  3
____ _ ____ _ ____ _ ____ _ ____ _ ____ _ ____
 72
    65
 73
     4
 40
2.0
 49
1.25
 49
-0.25
 49
0.25
 49
-0.25
  0
LTYPE
  2
HIDDEN
 70
     0
  3
Hidden __ __ __ __ __ __ __ __ __ __ __ __ __ __
 72
    65
 73
     2
 40
1.905
 49
1.27
 49
-0.635
  0
ENDTAB
  0
TABLE
  2
LAYER
 70
     5
  0
LAYER
  2
0
 70
     0
 62
     7
  6
CONTINUOUS
  0
LAYER
  2
DEFPOINTS
 70
     0
 62
     7
  6
CONTINUOUS
  0
LAYER
  2
1
 70
     0
 62
     1
  6
CENTER
  0
LAYER
  2
3
 70
     0
 62
     3
  6
CONTINUOUS
  0
LAYER
  2
2
 70
     0
 62
     2
  6
HIDDEN
  0
ENDTAB
  0
TABLE
  2
STYLE
 70
     2
  0
STYLE
  2
STANDARD
 70
     0
 40
0.0
 41
1.0
 50
0.0
 71
     0
 42
2.5
  3
txt
  4

  0
STYLE
  2
STANDARD1
 70
     0
 40
0.0
 41
1.0
 50
0.0
 71
     0
 42
3.0
  3
txt
  4

  0
ENDTAB
  0
TABLE
  2
VIEW
 70
     3
  0
VIEW
  2
OLE1
 70
     0
 40
17.336203194614189
 10
1078.2627039085309661
 20
377.6744486595430885
 41
31.0749116297020009
 11
0.0
 21
0.0
 31
1.0
 12
0.0
 22
0.0
 32
0.0
 42
50.0
 43
0.0
 44
0.0
 50
0.0
 71
     0
  0
VIEW
  2
OLE2
 70
     0
 40
50.523198253338478
 10
1031.7677389415230209
 20
579.9283567158205415
 41
90.5621550086675455
 11
0.0
 21
0.0
 31
1.0
 12
0.0
 22
0.0
 32
0.0
 42
50.0
 43
0.0
 44
0.0
 50
0.0
 71
     0
  0
VIEW
  2
OLE3
 70
     0
 40
95.502301876216066
 10
202.0430959360805048
 20
425.5599226159864088
 41
146.7053432435849061
 11
0.0
 21
0.0
 31
1.0
 12
0.0
 22
0.0
 32
0.0
 42
50.0
 43
0.0
 44
0.0
 50
0.0
 71
     0
  0
ENDTAB
  0
TABLE
  2
UCS
 70
     0
  0
ENDTAB
  0
TABLE
  2
APPID
 70
    44
  0
APPID
  2
ACAD
 70
     0
  0
APPID
  2
_FTCNV
 70
     0
  0
APPID
  2
DCO15
 70
     0
  0
APPID
  2
GENIUS_GENOREF_13
 70
     0
  0
APPID
  2
GENIUS_GENOENT_13
 70
     0
  0
APPID
  2
GENIUS_GENBH_13
 70
     0
  0
APPID
  2
GENIUS_GENOBJ_13
 70
     0
  0
APPID
  2
GENIUS_GENODEF_13
 70
     0
  0
APPID
  2
GENIUS_GENOLIS_13
 70
     0
  0
APPID
  2
GENIUS_GENOBJ-NBEHI-BHF_13
 70
     0
  0
APPID
  2
GENIUS_GENOBJ-NBEHI-BHB_13
 70
     0
  0
APPID
  2
GENIUS_GENOBJ-F-PART_13
 70
     0
  0
APPID
  2
GENIUS_GEFSTDP_13
 70
     0
  0
APPID
  2
GENIUS_GENOBJ-N-RSSYM_13
 70
     0
  0
APPID
  2
GENIUS_GENSYMENT_13
 70
     0
  0
APPID
  2
GENIUS_GENOBJ-N-TIT_13
 70
     0
  0
APPID
  2
GENIUS_GENTITLE_13
 70
     0
  0
APPID
  2
GENIUS_GENZVEED_13
 70
     0
  0
APPID
  2
GENIUS_GENOBJ-N-LEADER_13
 70
     0
  0
APPID
  2
GENIUS_GENOBJ-N-FIL_13
 70
     0
  0
APPID
  2
GENIUS_GENOBJ-N-SEC_13
 70
     0
  0
APPID
  2
GENIUS_GENOBJ-N-CRS_13
 70
     0
  0
APPID
  2
GENIUS_GENOBJ-N-ZOO_13
 70
     0
  0
APPID
  2
GENIUS_GENZOO_13
 70
     0
  0
APPID
  2
GENIUS_GENOBJ-F-TOL_13
 70
     0
  0
APPID
  2
GENIUS_GENFIL_13
 70
     0
  0
APPID
  2
GENIUS_GENOBJ-N-CHA_13
 70
     0
  0
APPID
  2
_CALL_MAC$
 70
     0
  0
APPID
  2
ASM_BASE
 70
     0
  0
APPID
  2
ASM_EXPLO_VER_2_00
 70
     0
  0
APPID
  2
ASM_CADM_VER_12_00
 70
     0
  0
APPID
  2
ASM_BASEFORO
 70
     0
  0
APPID
  2
ASM_BASETRAVI
 70
     0
  0
APPID
  2
ASM_BASETRAVI1
 70
     0
  0
APPID
  2
ASM_GRUPPI
 70
     0
  0
APPID
  2
ASM_CADM_ALBERO
 70
     0
  0
APPID
  2
ASM_GOLE
 70
     0
  0
APPID
  2
ACAD_MLEADERVER
 70
     0
  0
APPID
  2
ACAD_EXEMPT_FROM_CAD_STANDARDS
 70
     0
  0
APPID
  2
ACAD_DSTYLE_DIMJAG
 70
     0
  0
APPID
  2
ACAD_DSTYLE_DIMTALN
 70
     0
  0
APPID
  2
ACAD_NAV_VCDISPLAY
 70
     0
  0
APPID
  2
ACAECLAYERSTANDARD
 70
     0
  0
APPID
  2
ACCMTRANSPARENCY
 70
     0
  0
ENDTAB
  0
TABLE
  2
DIMSTYLE
 70
     2
  0
DIMSTYLE
  2
ISO-25
 70
     0
  3

  4

  5

  6

  7

 40
1.0
 41
2.5
 42
0.625
 43
3.75
 44
1.25
 45
0.0
 46
0.0
 47
0.0
 48
0.0
140
2.5
141
2.5
142
0.0
143
0.03937007874016
144
1.0
145
0.0
146
1.0
147
0.625
 71
     0
 72
     0
 73
     0
 74
     0
 75
     0
 76
     0
 77
     1
 78
     8
170
     0
171
     3
172
     1
173
     0
174
     0
175
     0
176
     0
177
     0
178
     0
  0
DIMSTYLE
  2
STANDARD
 70
     0
  3

  4

  5

  6

  7

 40
1.0
 41
0.18
 42
0.0625
 43
0.38
 44
0.18
 45
0.0
 46
0.0
 47
0.0
 48
0.0
140
0.18
141
0.09
142
0.0
143
25.3999999999999986
144
1.0
145
0.0
146
1.0
147
0.09
 71
     0
 72
     0
 73
     1
 74
     1
 75
     0
 76
     0
 77
     0
 78
     0
170
     0
171
     2
172
     0
173
     0
174
     0
175
     0
176
     0
177
     0
178
     0
  0
ENDTAB
  0
ENDSEC
  0
SECTION
  2
BLOCKS
  0
BLOCK
  8
0
  2
$MODEL_SPACE
 70
     0
 10
0.0
 20
0.0
 30
0.0
  3
$MODEL_SPACE
  1

  0
ENDBLK
  5
21
  8
0
  0
BLOCK
 67
     1
  8
0
  2
$PAPER_SPACE
 70
     0
 10
0.0
 20
0.0
 30
0.0
  3
$PAPER_SPACE
  1

  0
ENDBLK
  5
53
 67
     1
  8
0
  0
ENDSEC
  0
SECTION
  2
ENTITIES
  0
TEXT
  5
C317
  8
0
 62
     3
 10
0.0
 20
0.0
 30
0.0
 40
10.0
  1
QLRCW40L-050
  7
STANDARD1
  0
LINE
  5
12299
  8
0
 10
128.7035348286478893
 20
274.8135672756636723
 30
0.0
 11
115.6755016930380009
 21
282.3353057135192898
 31
0.0
  0
LINE
  5
1229A
  8
0
 10
108.6755010203719962
 20
270.2109488954454832
 30
0.0
 11
121.7035341559817994
 21
262.6892104575898088
 31
0.0
  0
ARC
  5
1229B
  8
0
 10
115.0505015223253054
 20
281.2527736631058133
 30
0.0
 40
1.250000341425334
 50
60.0
 51
135.989594055442609
  0
ARC
  5
1229C
  8
0
 10
109.3005011910846065
 20
271.2934809458590735
 30
0.0
 40
1.25000034142531
 50
164.0104059445579878
 51
240.0000000000036096
  0
LINE
  5
1229D
  8
0
 10
121.7035341559816999
 20
262.6892104575899225
 30
0.0
 11
131.1718034467153018
 21
258.8185645957780139
 31
0.0
  0
LINE
  5
1229E
  8
0
 10
136.7897471193967931
 20
268.549128470922426
 30
0.0
 11
128.703534828647804
 21
274.8135672756637859
 31
0.0
  0
ARC
  5
1229F
  8
0
 10
132.1318261224421917
 20
264.7515338679514798
 30
0.0
 40
25.0000017071462395
 50
135.9895940554430922
 51
149.9999999999986073
  0
ARC
  5
122A0
  8
0
 10
132.1316563476854924
 20
264.7512398094469859
 30
0.0
 40
25.0000017071462786
 50
149.9999999999986073
 51
164.0104059445559983
  0
LINE
  5
122A1
  8
0
 10
110.4811895493993035
 20
277.2515347215247061
 30
0.0
 11
110.4810197746425047
 21
277.2512406630202122
 31
0.0
  0
ARC
  5
122A2
  8
0
 10
136.1773205676907139
 20
267.758600976929074
 30
0.0
 40
0.9999999999971011
 50
330.0001884308823037
 51
52.2348339815746527
  0
ARC
  5
122A3
  8
0
 10
131.5502070630506068
 20
259.7442052945042974
 30
0.0
 40
0.9999999999970487
 50
247.7651660184262994
 51
329.9998115691232101
  0
LINE
  5
122A4
  8
0
 10
140.1939203391621049
 20
264.7154877162101911
 30
0.0
 11
136.7298187240243976
 21
266.7154877162100775
 31
0.0
  0
LINE
  5
122A5
  8
0
 10
160.0294372515238024
 20
253.2634466873427925
 30
0.0
 11
147.1221235694376048
 21
260.7154877162101911
 31
0.0
  0
LINE
  5
122A6
  8
0
 10
143.1221235694376901
 20
253.787284485934606
 30
0.0
 11
156.0274701753997988
 21
246.3363791489969969
 31
0.0
  0
LINE
  5
122A7
  8
0
 10
132.7298187240243976
 20
259.787284485934606
 30
0.0
 11
136.1939203391621902
 21
257.7872844859347197
 31
0.0
  0
CIRCLE
  5
122A8
  8
0
 10
183.2500000000009095
 20
225.7119669386291037
 30
0.0
 40
1.700000000000057
  0
CIRCLE
  5
122A9
  8
0
 10
166.7500000000009095
 20
254.2908052635154945
 30
0.0
 40
1.7000000000000219
  0
CIRCLE
  5
122AA
  8
0
 10
175.0000000000009095
 20
240.0013861010723986
 30
0.0
 40
18.9999999999999787
  0
LINE
  5
122AB
  8
0
 10
176.0000000000009095
 20
259.5013861010722849
 30
0.0
 11
174.0000000000009095
 21
259.5013861010722849
 31
0.0
  0
LINE
  5
122AC
  8
0
 10
176.0000000000007958
 20
259.9763704565106082
 30
0.0
 11
176.0000000000009095
 21
259.5013861010722849
 31
0.0
  0
ARC
  5
122AD
  8
0
 10
175.0000000000009095
 20
240.0013861010723986
 30
0.0
 40
20.0000000000000284
 50
272.8659839825995164
 51
87.1340160174004836
  0
LINE
  5
122AE
  8
0
 10
176.0000000000009095
 20
220.5013861010723133
 30
0.0
 11
176.0000000000009095
 21
220.0264017456341037
 31
0.0
  0
LINE
  5
122AF
  8
0
 10
174.0000000000009095
 20
220.5013861010723133
 30
0.0
 11
176.0000000000009095
 21
220.5013861010723133
 31
0.0
  0
LINE
  5
122B0
  8
0
 10
174.0000000000009095
 20
220.0264017456341037
 30
0.0
 11
174.0000000000009095
 21
220.5013861010723133
 31
0.0
  0
ARC
  5
122B1
  8
0
 10
175.0000000000009095
 20
240.0013861010723986
 30
0.0
 40
20.0000000000000284
 50
92.8659839825995022
 51
267.1340160174004836
  0
LINE
  5
122B2
  8
0
 10
174.0000000000009095
 20
259.5013861010722849
 30
0.0
 11
174.0000000000009095
 21
259.9763704565106082
 31
0.0
  0
LINE
  5
122B3
  8
0
 10
166.7500000000009095
 20
253.1361047251363061
 30
0.0
 11
165.7500000000009095
 21
253.7134549943259003
 31
0.0
  0
LINE
  5
122B4
  8
0
 10
167.7500000000009095
 20
253.7134549943259003
 30
0.0
 11
166.7500000000009095
 21
253.1361047251363061
 31
0.0
  0
LINE
  5
122B5
  8
0
 10
167.7500000000009095
 20
254.8681555327052024
 30
0.0
 11
167.7500000000009095
 21
253.7134549943259003
 31
0.0
  0
LINE
  5
122B6
  8
0
 10
166.7500000000009095
 20
255.4455058018947966
 30
0.0
 11
167.7500000000009095
 21
254.8681555327052024
 31
0.0
  0
LINE
  5
122B7
  8
0
 10
165.7500000000009095
 20
254.8681555327052024
 30
0.0
 11
166.7500000000009095
 21
255.4455058018947966
 31
0.0
  0
LINE
  5
122B8
  8
0
 10
165.7500000000009095
 20
253.7134549943259003
 30
0.0
 11
165.7500000000009095
 21
254.8681555327052024
 31
0.0
  0
LINE
  5
122B9
  8
0
 10
183.2500000000009095
 20
226.8666674770084057
 30
0.0
 11
184.2500000000009095
 21
226.2893172078188968
 31
0.0
  0
LINE
  5
122BA
  8
0
 10
182.2500000000009948
 20
226.2893172078188968
 30
0.0
 11
183.2500000000009095
 21
226.8666674770084057
 31
0.0
  0
LINE
  5
122BB
  8
0
 10
182.2500000000009095
 20
225.1346166694395095
 30
0.0
 11
182.2500000000009948
 21
226.2893172078188968
 31
0.0
  0
LINE
  5
122BC
  8
0
 10
183.2500000000009095
 20
224.5572664002498868
 30
0.0
 11
182.2500000000009095
 21
225.1346166694395095
 31
0.0
  0
LINE
  5
122BD
  8
0
 10
184.2500000000009095
 20
225.1346166694395095
 30
0.0
 11
183.2500000000009095
 21
224.5572664002498868
 31
0.0
  0
LINE
  5
122BE
  8
0
 10
184.2500000000009095
 20
226.2893172078188968
 30
0.0
 11
184.2500000000009095
 21
225.1346166694395095
 31
0.0
  0
LINE
  5
122BF
  8
0
 10
121.7035341559817994
 20
262.6892104575899225
 30
0.0
 11
128.703534828647804
 21
274.8135672756636723
 31
0.0
  0
LINE
  5
122C0
  8
0
 10
132.4162308273571966
 20
259.2442024548620907
 30
0.0
 11
137.0433476158374049
 21
267.2586038250648812
 31
0.0
  0
LINE
  5
122C1
  8
0
 10
146.8721235694378038
 20
260.2824750143179813
 30
0.0
 11
147.1221235694376901
 21
260.7154877162101911
 31
0.0
  0
LINE
  5
122C2
  8
0
 10
139.9439203391621902
 20
264.2824750143179244
 30
0.0
 11
140.1939203391621902
 21
264.7154877162101911
 31
0.0
  0
LINE
  5
122C3
  8
0
 10
146.8721235694378038
 20
260.2824750143179813
 30
0.0
 11
139.9439203391621902
 21
264.2824750143179244
 31
0.0
  0
LINE
  5
122C4
  8
0
 10
143.1221235694378038
 20
253.7872844859346912
 30
0.0
 11
143.3721235694378038
 21
254.2202971878269011
 31
0.0
  0
LINE
  5
122C5
  8
0
 10
136.4439203391623039
 20
258.2202971878268158
 30
0.0
 11
143.3721235694378038
 21
254.2202971878269011
 31
0.0
  0
LINE
  5
122C6
  8
0
 10
136.1939203391623039
 20
257.7872844859347197
 30
0.0
 11
136.4439203391623039
 21
258.2202971878268158
 31
0.0
  0
CIRCLE
  5
122C7
  8
0
 10
175.0000000000009095
 20
240.0013861010723986
 30
0.0
 40
4.0
  0
CIRCLE
  5
122C8
  8
0
 10
175.0000000000009095
 20
240.0013861010723986
 30
0.0
 40
13.5000000000000302
  0
LINE
  5
122C9
  8
0
 10
176.0000000000009095
 20
220.0013861010723986
 30
0.0
 11
176.0000000000009095
 21
220.0263812585930054
 31
0.0
  0
LINE
  5
122CA
  8
0
 10
174.0000000000009095
 20
220.0263812585930054
 30
0.0
 11
174.0000000000009095
 21
220.0013861010723986
 31
0.0
  0
LINE
  5
122CB
  8
0
 10
174.0000000000009095
 20
220.0013861010723986
 30
0.0
 11
152.9758655107638106
 21
220.0013861010723986
 31
0.0
  0
ARC
  5
122CC
  8
0
 10
175.0000000000009095
 20
240.0013861010723986
 30
0.0
 40
29.7500000000000284
 50
157.7270359158216877
 51
222.2424226219623904
  0
POLYLINE
  5
122CD
  8
0
 66
     1
 10
0.0
 20
0.0
 30
0.0
 70
   128
  0
VERTEX
  5
1266B
  8
0
 10
151.4696871347028093
 20
258.205420721485325
 30
0.0
  0
VERTEX
  5
1266C
  8
0
 10
151.9169931326021015
 20
258.769371980213009
 30
0.0
  0
VERTEX
  5
1266D
  8
0
 10
152.9758655107638106
 20
260.0013861010723986
 30
0.0
  0
SEQEND
  5
1266E
  8
0
  0
LINE
  5
122CE
  8
0
 10
176.0000000000009095
 20
259.976390943551678
 30
0.0
 11
176.0000000000009095
 21
260.0013861010723986
 31
0.0
  0
LINE
  5
122CF
  8
0
 10
176.0000000000009095
 20
260.0013861010723986
 30
0.0
 11
197.0241344892378947
 21
260.0013861010723986
 31
0.0
  0
ARC
  5
122D0
  8
0
 10
175.0000000000009095
 20
240.0013861010723986
 30
0.0
 40
29.7499999999999893
 50
317.7575773780419013
 51
42.2424226219623975
  0
LINE
  5
122D1
  8
0
 10
197.0241344892378947
 20
220.0013861010723986
 30
0.0
 11
176.0000000000009095
 21
220.0013861010723986
 31
0.0
  0
CIRCLE
  5
122D2
  8
0
 10
150.0000000000009095
 20
240.0013861010723986
 30
0.0
 40
2.75
  0
CIRCLE
  5
122D3
  8
0
 10
200.0000000000009095
 20
240.0013861010723986
 30
0.0
 40
2.75
  0
LINE
  5
122D4
  8
0
 10
152.9758655107638106
 20
260.0013861010723986
 30
0.0
 11
174.0000000000009095
 21
260.0013861010723986
 31
0.0
  0
LINE
  5
122D5
  8
0
 10
174.0000000000009095
 20
260.0013861010723986
 30
0.0
 11
174.0000000000009095
 21
259.976390943551678
 31
0.0
  0
LINE
  5
122D6
  8
0
 10
155.0000000000007958
 20
172.7213861010725111
 30
0.0
 11
155.0000000000007958
 21
148.7213861010723974
 31
0.0
  0
LINE
  5
122D7
  8
0
 10
195.0000000000007958
 20
148.7213861010723974
 30
0.0
 11
195.0000000000007958
 21
172.7213861010725111
 31
0.0
  0
LINE
  5
122D8
  8
0
 10
195.0000000000007958
 20
172.7213861010725111
 30
0.0
 11
194.0000000000007958
 21
173.7213861010725111
 31
0.0
  0
LINE
  5
122D9
  8
0
 10
156.0000000000009095
 20
173.7213861010725111
 30
0.0
 11
155.0000000000009095
 21
172.7213861010725111
 31
0.0
  0
LINE
  5
122DA
  8
0
 10
155.0000000000007958
 20
169.7213861010725111
 30
0.0
 11
134.7298187240243124
 21
169.7213861010725111
 31
0.0
  0
LINE
  5
122DB
  8
0
 10
134.7298187240243124
 20
161.7213861010725111
 30
0.0
 11
155.0000000000007958
 21
161.7213861010725111
 31
0.0
  0
LINE
  5
122DC
  8
0
 10
125.4790880563619027
 20
158.7431133670295083
 30
0.0
 11
134.2019244620364873
 21
160.1208804746163992
 31
0.0
  0
LINE
  5
122DD
  8
0
 10
134.201924462036601
 20
171.3218917275287083
 30
0.0
 11
125.4810741922168944
 21
172.6993451260736094
 31
0.0
  0
ARC
  5
122DE
  8
0
 10
125.2002466697711043
 20
170.9213867737387886
 30
0.0
 40
1.8
 50
81.0243155042831518
 51
90.0
  0
LINE
  5
122DF
  8
0
 10
125.2002466697711043
 20
172.7213867737388
 30
0.0
 11
112.1755013567049986
 21
172.7213867737389137
 31
0.0
  0
LINE
  5
122E0
  8
0
 10
112.1755013567048991
 20
158.7213854284069043
 30
0.0
 11
125.2035344923148017
 21
158.7213854284067907
 31
0.0
  0
LINE
  5
122E1
  8
0
 10
145.2500000000007958
 20
148.0013861010723986
 30
0.0
 11
145.2500000000007958
 21
140.0013861010723986
 31
0.0
  0
LINE
  5
122E2
  8
0
 10
204.7500000000009095
 20
140.001386101071887
 30
0.0
 11
204.7500000000009095
 21
148.001386101071887
 31
0.0
  0
LINE
  5
122E3
  8
0
 10
193.5000000000009095
 20
148.0013861010723986
 30
0.0
 11
193.5000000000009095
 21
148.7213861010723974
 31
0.0
  0
LINE
  5
122E4
  8
0
 10
156.5000000000007958
 20
148.7213861010723974
 30
0.0
 11
156.5000000000007958
 21
148.0013861010723986
 31
0.0
  0
LINE
  5
122E5
  8
0
 10
189.0000000000007958
 20
134.5013861010723986
 30
0.0
 11
189.0000000000007958
 21
140.0013861010723986
 31
0.0
  0
LINE
  5
122E6
  8
0
 10
161.0000000000007958
 20
140.0013861010723986
 30
0.0
 11
161.0000000000007958
 21
134.5013861010723986
 31
0.0
  0
LINE
  5
122E7
  8
0
 10
161.0000000000007958
 20
134.5013861010723986
 30
0.0
 11
162.1547005383800979
 21
132.5013861010723986
 31
0.0
  0
LINE
  5
122E8
  8
0
 10
187.8452994616216074
 20
132.5013861010723986
 30
0.0
 11
189.0000000000007958
 21
134.5013861010723986
 31
0.0
  0
LINE
  5
122E9
  8
0
 10
188.5000000000009095
 20
173.7213861010725111
 30
0.0
 11
188.5000000000009095
 21
180.0013861010723986
 31
0.0
  0
LINE
  5
122EA
  8
0
 10
161.5000000000007958
 20
180.0013861010723986
 30
0.0
 11
161.5000000000007958
 21
173.7213861010725111
 31
0.0
  0
LINE
  5
122EB
  8
0
 10
155.0000000000007958
 20
172.7213861010723974
 30
0.0
 11
174.0000000000009095
 21
172.7213861010723974
 31
0.0
  0
LINE
  5
122EC
  8
0
 10
155.0000000000007958
 20
148.7213861010723974
 30
0.0
 11
174.0000000000009095
 21
148.7213861010723122
 31
0.0
  0
LINE
  5
122ED
  8
0
 10
174.0000000000009095
 20
148.7213861010723122
 30
0.0
 11
174.0000000000009095
 21
172.7213861010723974
 31
0.0
  0
LINE
  5
122EE
  8
0
 10
176.0000000000009095
 20
172.7213861010723974
 30
0.0
 11
176.0000000000009095
 21
148.7213861010723122
 31
0.0
  0
LINE
  5
122EF
  8
0
 10
176.0000000000009095
 20
172.7213861010723974
 30
0.0
 11
195.0000000000009095
 21
172.7213861010725111
 31
0.0
  0
LINE
  5
122F0
  8
0
 10
195.0000000000007958
 20
148.7213861010723974
 30
0.0
 11
176.0000000000009095
 21
148.7213861010723122
 31
0.0
  0
LINE
  5
122F1
  8
0
 10
158.5455173280965084
 20
173.7213861010723974
 30
0.0
 11
156.0000000000007958
 21
173.7213861010725111
 31
0.0
  0
LINE
  5
122F2
  8
0
 10
194.0000000000007958
 20
173.7213861010725111
 30
0.0
 11
158.5455173280965084
 21
173.7213861010723974
 31
0.0
  0
LINE
  5
122F3
  8
0
 10
174.0000000000009095
 20
173.1957619113057092
 30
0.0
 11
176.0000000000009095
 21
173.1957619113057092
 31
0.0
  0
LINE
  5
122F4
  8
0
 10
176.0000000000009095
 20
173.1957619113057092
 30
0.0
 11
176.0000000000009095
 21
172.7213861010723974
 31
0.0
  0
LINE
  5
122F5
  8
0
 10
174.0000000000009095
 20
172.7213861010723974
 30
0.0
 11
174.0000000000009095
 21
173.1957619113057092
 31
0.0
  0
LINE
  5
122F6
  8
0
 10
176.0000000000009095
 20
148.7213861010723122
 30
0.0
 11
174.0000000000009095
 21
148.7213861010723122
 31
0.0
  0
ARC
  5
122F7
  8
0
 10
150.6836152425412934
 20
165.7213861010725111
 30
0.0
 40
7.5635911104357421
 50
165.1654880350226051
 51
194.8345119649777075
  0
LINE
  5
122F8
  8
0
 10
136.4439203391621902
 20
167.6578777741761996
 30
0.0
 11
143.3721235694376901
 21
167.6578777741761996
 31
0.0
  0
ARC
  5
122F9
  8
0
 10
143.7554120122678114
 20
165.7213861010725111
 30
0.0
 40
7.5635911104377751
 50
165.1654880350259873
 51
194.8345119649744106
  0
LINE
  5
122FA
  8
0
 10
143.3721235694376901
 20
163.7848944279687942
 30
0.0
 11
136.4439203391621902
 21
163.7848944279687942
 31
0.0
  0
POLYLINE
  5
122FB
  8
0
 66
     1
 10
0.0
 20
0.0
 30
0.0
 70
   128
  0
VERTEX
  5
1266F
  8
0
 10
134.7298187240243976
 20
169.7213861010725111
 30
0.0
  0
VERTEX
  5
12670
  8
0
 10
134.3396380799921985
 20
169.6445272226854968
 30
0.0
  0
VERTEX
  5
12671
  8
0
 10
133.9644518592942859
 20
169.4169042311177122
 30
0.0
  0
VERTEX
  5
12672
  8
0
 10
133.6186782579852093
 20
169.0472645502827049
 30
0.0
  0
VERTEX
  5
12673
  8
0
 10
133.3156051616512912
 20
168.5498132258186956
 30
0.0
  0
VERTEX
  5
12674
  8
0
 10
133.0668794994192865
 20
167.9436670331508878
 30
0.0
  0
VERTEX
  5
12675
  8
0
 10
132.8820596590018113
 20
167.2521198305329051
 30
0.0
  0
VERTEX
  5
12676
  8
0
 10
132.7682481632178906
 20
166.5017473891369946
 30
0.0
  0
VERTEX
  5
12677
  8
0
 10
132.7298187240243976
 20
165.7213861010725111
 30
0.0
  0
VERTEX
  5
12678
  8
0
 10
132.7682481632178906
 20
164.9410248130079992
 30
0.0
  0
VERTEX
  5
12679
  8
0
 10
132.8820596590018113
 20
164.1906523716122024
 30
0.0
  0
VERTEX
  5
1267A
  8
0
 10
133.0668794994192865
 20
163.499105168994106
 30
0.0
  0
VERTEX
  5
1267B
  8
0
 10
133.3156051616512912
 20
162.8929589763262982
 30
0.0
  0
VERTEX
  5
1267C
  8
0
 10
133.6186782579852093
 20
162.3955076518622889
 30
0.0
  0
VERTEX
  5
1267D
  8
0
 10
133.9644518592942006
 20
162.02586797102731
 30
0.0
  0
VERTEX
  5
1267E
  8
0
 10
134.3396380799921133
 20
161.7982449794596107
 30
0.0
  0
VERTEX
  5
1267F
  8
0
 10
134.7298187240243976
 20
161.7213861010725111
 30
0.0
  0
VERTEX
  5
12680
  8
0
 10
134.7298187240243976
 20
161.7213861010725111
 30
0.0
  0
SEQEND
  5
12681
  8
0
  0
LINE
  5
122FC
  8
0
 10
136.4439203391621902
 20
167.6578777741761996
 30
0.0
 11
136.4439203391621902
 21
163.7848944279687942
 31
0.0
  0
LINE
  5
122FD
  8
0
 10
134.201924462036601
 20
171.3218917275287083
 30
0.0
 11
134.2247234449995119
 21
171.3181037361295864
 31
0.0
  0
LINE
  5
122FE
  8
0
 10
204.7500000000009095
 20
148.001386101071887
 30
0.0
 11
145.2500000000007958
 21
148.0013861010723986
 31
0.0
  0
LINE
  5
122FF
  8
0
 10
152.9758655107638106
 20
148.0013861010723986
 30
0.0
 11
152.9758655107638106
 21
140.0013861010723986
 31
0.0
  0
LINE
  5
12300
  8
0
 10
145.2500000000007958
 20
140.0013861010723986
 30
0.0
 11
204.7500000000009095
 21
140.001386101071887
 31
0.0
  0
LINE
  5
12301
  8
0
 10
174.0000000000007958
 20
140.0013861010723986
 30
0.0
 11
174.0000000000007958
 21
148.0013861010723986
 31
0.0
  0
LINE
  5
12302
  8
0
 10
197.0241344892378947
 20
140.0013861010723986
 30
0.0
 11
197.0241344892378947
 21
148.0013861010723986
 31
0.0
  0
LINE
  5
12303
  8
0
 10
176.0000000000007958
 20
148.0013861010723986
 30
0.0
 11
176.0000000000007958
 21
140.0013861010723986
 31
0.0
  0
LINE
  5
12304
  8
0
 10
189.0000000000007958
 20
134.5013861010723986
 30
0.0
 11
161.0000000000007958
 21
134.5013861010723986
 31
0.0
  0
LINE
  5
12305
  8
0
 10
187.8452994616216074
 20
132.5013861010723986
 30
0.0
 11
162.1547005383800979
 21
132.5013861010723986
 31
0.0
  0
LINE
  5
12306
  8
0
 10
161.5000000000007958
 20
180.0013861010723986
 30
0.0
 11
188.5000000000009095
 21
180.0013861010723986
 31
0.0
  0
LINE
  5
12307
  8
0
 10
21.2499972344457397
 20
172.7213867737388
 30
0.0
 11
13.7282587965900706
 21
172.7213867737389137
 31
0.0
  0
LINE
  5
12308
  8
0
 10
13.7282587965899499
 20
158.7213854284069043
 30
0.0
 11
21.2499972344456296
 21
158.7213854284067907
 31
0.0
  0
LINE
  5
12309
  8
0
 10
21.9732357219314203
 20
158.8656128745112142
 30
0.0
 11
27.4666644098616111
 21
160.2623898039198878
 31
0.0
  0
LINE
  5
1230A
  8
0
 10
27.4666644098616608
 20
171.180382398225106
 30
0.0
 11
21.9732357219306209
 21
172.5771593276334102
 31
0.0
  0
LINE
  5
1230B
  8
0
 10
40.000584160861699
 20
169.7213861010725111
 30
0.0
 11
29.7704055791188011
 21
169.7213861010725111
 31
0.0
  0
LINE
  5
1230C
  8
0
 10
29.7626359125491184
 20
161.7213861010725111
 30
0.0
 11
40.0013595097008192
 21
161.7213861010725111
 31
0.0
  0
LINE
  5
1230D
  8
0
 10
69.5128120948834152
 20
173.2085740061889965
 30
0.0
 11
69.0000000000000568
 21
173.7213861010723974
 31
0.0
  0
LINE
  5
1230E
  8
0
 10
31.0000000000001705
 20
173.7213861010725964
 30
0.0
 11
30.4871879051167411
 21
173.2085740061891954
 31
0.0
  0
LINE
  5
1230F
  8
0
 10
68.5000000000000568
 20
148.0013861010723986
 30
0.0
 11
68.5000000000000568
 21
148.7213861010723974
 31
0.0
  0
LINE
  5
12310
  8
0
 10
31.5
 20
148.7213861010725111
 30
0.0
 11
31.5
 21
148.0013861010725122
 31
0.0
  0
LINE
  5
12311
  8
0
 10
64.0
 20
134.5013861010723986
 30
0.0
 11
64.0
 21
140.0013861010723986
 31
0.0
  0
LINE
  5
12312
  8
0
 10
36.0
 20
140.0013861010725122
 30
0.0
 11
35.9999999999999432
 21
134.5013861010725122
 31
0.0
  0
LINE
  5
12313
  8
0
 10
36.0
 20
134.5013861010725122
 30
0.0
 11
37.1547005383792524
 21
132.5013861010725122
 31
0.0
  0
LINE
  5
12314
  8
0
 10
62.8452994616206979
 20
132.5013861010723986
 30
0.0
 11
64.0
 21
134.5013861010723986
 31
0.0
  0
LINE
  5
12315
  8
0
 10
63.5000000000001208
 20
173.7213861010723974
 30
0.0
 11
63.5000000000001705
 21
180.0013861010723986
 31
0.0
  0
LINE
  5
12316
  8
0
 10
36.5000000000001066
 20
180.0013861010725122
 30
0.0
 11
36.5000000000001066
 21
173.7213861010725111
 31
0.0
  0
LINE
  5
12317
  8
0
 10
13.6903084066978504
 20
158.7215225946987971
 30
0.0
 11
13.7282587965900102
 21
158.7213854284069043
 31
0.0
  0
LINE
  5
12318
  8
0
 10
27.4666644098616111
 20
160.2623898039198878
 30
0.0
 11
27.63491107149963
 21
160.3133056464068886
 31
0.0
  0
LINE
  5
12319
  8
0
 10
27.5321475793264199
 20
171.161446849534002
 30
0.0
 11
27.4666644098616608
 21
171.180382398225106
 31
0.0
  0
ARC
  5
1231A
  8
0
 10
31.6796904284793186
 20
165.7213861010725111
 30
0.0
 40
4.535578191459507
 50
334.7254742863751744
 51
25.2745257136252199
  0
LINE
  5
1231B
  8
0
 10
31.7810889132455792
 20
167.6578777741761996
 30
0.0
 11
35.7810889132455827
 21
167.6578777741761996
 31
0.0
  0
ARC
  5
1231C
  8
0
 10
27.6796904284793186
 20
165.7213861010725111
 30
0.0
 40
4.535578191459507
 50
334.7254742863751744
 51
25.2745257136252199
  0
LINE
  5
1231D
  8
0
 10
35.7810889132455827
 20
163.7848944279687942
 30
0.0
 11
31.7810889132455792
 21
163.7848944279687942
 31
0.0
  0
LINE
  5
1231E
  8
0
 10
35.7810889132455827
 20
167.6578777741761996
 30
0.0
 11
35.7810889132455827
 21
163.7848944279687942
 31
0.0
  0
LINE
  5
1231F
  8
0
 10
30.0250156445619112
 20
172.7213861010725111
 30
0.0
 11
30.0250156445619112
 21
169.7213861010725111
 31
0.0
  0
LINE
  5
12320
  8
0
 10
30.0250156445619112
 20
161.7213861010725111
 30
0.0
 11
30.0250156445618508
 21
148.7213861010725111
 31
0.0
  0
LINE
  5
12321
  8
0
 10
30.0250156445619112
 20
172.7213861010725111
 30
0.0
 11
69.9749843554382664
 21
172.7213861010723974
 31
0.0
  0
LINE
  5
12322
  8
0
 10
69.9749843554381528
 20
148.7213861010723122
 30
0.0
 11
69.9749843554382664
 21
172.7213861010723974
 31
0.0
  0
LINE
  5
12323
  8
0
 10
30.0250156445618508
 20
148.7213861010725111
 30
0.0
 11
69.9749843554381528
 21
148.7213861010723122
 31
0.0
  0
LINE
  5
12324
  8
0
 10
69.0000000000001137
 20
173.7213861010723974
 30
0.0
 11
31.0000000000001705
 21
173.7213861010725964
 31
0.0
  0
LINE
  5
12325
  8
0
 10
69.9749843554382664
 20
172.7213861010723974
 30
0.0
 11
69.5000000000001137
 21
173.1957619113057092
 31
0.0
  0
LINE
  5
12326
  8
0
 10
30.5000000000001101
 20
173.1957619113059081
 30
0.0
 11
30.0250156445619112
 21
172.7213861010725111
 31
0.0
  0
LINE
  5
12327
  8
0
 10
70.0000000000000568
 20
148.0013861010723986
 30
0.0
 11
30.0
 21
148.0013861010725122
 31
0.0
  0
LINE
  5
12328
  8
0
 10
70.0000000000000568
 20
148.0013861010723986
 30
0.0
 11
70.0
 21
140.0013861010723986
 31
0.0
  0
LINE
  5
12329
  8
0
 10
30.0
 20
140.0013861010725122
 30
0.0
 11
70.0
 21
140.0013861010723986
 31
0.0
  0
LINE
  5
1232A
  8
0
 10
30.0
 20
140.0013861010725122
 30
0.0
 11
30.0
 21
148.0013861010725122
 31
0.0
  0
LINE
  5
1232B
  8
0
 10
64.0
 20
134.5013861010723986
 30
0.0
 11
35.9999999999999432
 21
134.5013861010725122
 31
0.0
  0
LINE
  5
1232C
  8
0
 10
62.8452994616206979
 20
132.5013861010723986
 30
0.0
 11
37.1547005383792524
 21
132.5013861010725122
 31
0.0
  0
LINE
  5
1232D
  8
0
 10
36.5000000000001066
 20
180.0013861010725122
 30
0.0
 11
63.5000000000001705
 21
180.0013861010723986
 31
0.0
  0
LINE
  5
1232E
  8
0
 10
269.5128120948830883
 20
173.2085740061891102
 30
0.0
 11
268.9999999999997726
 21
173.7213861010725111
 31
0.0
  0
LINE
  5
1232F
  8
0
 10
230.999999999999801
 20
173.7213861010723974
 30
0.0
 11
230.4871879051164001
 21
173.2085740061889965
 31
0.0
  0
LINE
  5
12330
  8
0
 10
269.9749843554379254
 20
161.7213861010725111
 30
0.0
 11
273.2499999999997726
 21
161.7213861010725111
 31
0.0
  0
LINE
  5
12331
  8
0
 10
273.2499999999997726
 20
169.7213861010725111
 30
0.0
 11
269.9749843554378117
 21
169.7213861010725111
 31
0.0
  0
LINE
  5
12332
  8
0
 10
277.3181844461453238
 20
172.5233371312988879
 30
0.0
 11
272.5333355901382788
 21
171.180382398225106
 31
0.0
  0
LINE
  5
12333
  8
0
 10
272.5333355901383925
 20
160.2623898039198025
 30
0.0
 11
277.3181844461453807
 21
158.9194350708461059
 31
0.0
  0
LINE
  5
12334
  8
0
 10
278.582534474740612
 20
158.7213854284067907
 30
0.0
 11
286.2717412034101017
 21
158.7213854284069043
 31
0.0
  0
LINE
  5
12335
  8
0
 10
286.2717412034098743
 20
172.7213867737389137
 30
0.0
 11
278.5825344745754819
 21
172.7213867737388
 31
0.0
  0
LINE
  5
12336
  8
0
 10
268.5
 20
148.0013861010725122
 30
0.0
 11
268.5
 21
148.7213861010725111
 31
0.0
  0
LINE
  5
12337
  8
0
 10
231.4999999999998863
 20
148.7213861010723122
 30
0.0
 11
231.4999999999998863
 21
148.0013861010723133
 31
0.0
  0
LINE
  5
12338
  8
0
 10
264.0
 20
134.5013861010725122
 30
0.0
 11
263.9999999999997726
 21
140.0013861010725122
 31
0.0
  0
LINE
  5
12339
  8
0
 10
235.9999999999998863
 20
140.0013861010723986
 30
0.0
 11
235.9999999999998863
 21
134.5013861010723986
 31
0.0
  0
LINE
  5
1233A
  8
0
 10
235.9999999999998863
 20
134.5013861010723986
 30
0.0
 11
237.1547005383793021
 21
132.5013861010723986
 31
0.0
  0
LINE
  5
1233B
  8
0
 10
262.8452994616205842
 20
132.5013861010725122
 30
0.0
 11
264.0
 21
134.5013861010725122
 31
0.0
  0
LINE
  5
1233C
  8
0
 10
263.4999999999997726
 20
173.7213861010725111
 30
0.0
 11
263.4999999999997726
 21
180.0013861010723986
 31
0.0
  0
LINE
  5
1233D
  8
0
 10
236.499999999999801
 20
180.0013861010723986
 30
0.0
 11
236.499999999999801
 21
173.7213861010723122
 31
0.0
  0
LINE
  5
1233E
  8
0
 10
230.0250156445615914
 20
172.7213861010723122
 30
0.0
 11
230.0250156445617051
 21
148.7213861010723122
 31
0.0
  0
LINE
  5
1233F
  8
0
 10
230.0250156445615914
 20
172.7213861010723122
 30
0.0
 11
269.9749843554379254
 21
172.7213861010725111
 31
0.0
  0
LINE
  5
12340
  8
0
 10
269.9749843554379822
 20
148.7213861010725111
 30
0.0
 11
269.9749843554379254
 21
172.7213861010725111
 31
0.0
  0
LINE
  5
12341
  8
0
 10
269.9749843554379822
 20
148.7213861010725111
 30
0.0
 11
230.0250156445617051
 21
148.7213861010723122
 31
0.0
  0
LINE
  5
12342
  8
0
 10
268.9999999999997726
 20
173.7213861010725111
 30
0.0
 11
230.999999999999801
 21
173.7213861010723122
 31
0.0
  0
LINE
  5
12343
  8
0
 10
269.9749843554379254
 20
172.7213861010725111
 30
0.0
 11
269.4999999999997726
 21
173.1957619113057945
 31
0.0
  0
LINE
  5
12344
  8
0
 10
230.499999999999801
 20
173.1957619113057092
 30
0.0
 11
230.0250156445615914
 21
172.7213861010723122
 31
0.0
  0
ARC
  5
12345
  8
0
 10
266.1796904284802281
 20
165.7213861010723974
 30
0.0
 40
4.5355781914584794
 50
334.7254742863685237
 51
25.2745257136319808
  0
LINE
  5
12346
  8
0
 10
274.2810889132452985
 20
163.7848944279687942
 30
0.0
 11
270.2810889132454122
 21
163.7848944279687942
 31
0.0
  0
ARC
  5
12347
  8
0
 10
270.1796904284802281
 20
165.7213861010723974
 30
0.0
 40
4.5355781914584794
 50
334.7254742863685237
 51
25.2745257136319808
  0
LINE
  5
12348
  8
0
 10
270.2810889132454122
 20
167.6578777741761996
 30
0.0
 11
274.2810889132452985
 21
167.6578777741761996
 31
0.0
  0
LINE
  5
1234B
  8
0
 10
274.2810889132452985
 20
163.7848944279687942
 30
0.0
 11
274.2810889132452985
 21
167.6578777741761996
 31
0.0
  0
LINE
  5
1234C
  8
0
 10
272.4634085780223245
 20
171.160121359531388
 30
0.0
 11
272.5333355901382788
 21
171.180382398225106
 31
0.0
  0
LINE
  5
1234D
  8
0
 10
286.3272408824229842
 20
158.7216787882753977
 30
0.0
 11
286.2717412034098743
 21
158.7213854284069043
 31
0.0
  0
LINE
  5
1234E
  8
0
 10
269.9999999999997726
 20
148.0013861010725122
 30
0.0
 11
229.9999999999998863
 21
148.0013861010723133
 31
0.0
  0
LINE
  5
1234F
  8
0
 10
269.9999999999997726
 20
148.0013861010725122
 30
0.0
 11
269.9999999999997726
 21
140.0013861010725122
 31
0.0
  0
LINE
  5
12350
  8
0
 10
229.9999999999998863
 20
140.0013861010723986
 30
0.0
 11
269.9999999999997726
 21
140.0013861010725122
 31
0.0
  0
LINE
  5
12351
  8
0
 10
229.9999999999998863
 20
140.0013861010723986
 30
0.0
 11
229.9999999999998863
 21
148.0013861010723133
 31
0.0
  0
LINE
  5
12352
  8
0
 10
264.0
 20
134.5013861010725122
 30
0.0
 11
235.9999999999998863
 21
134.5013861010723986
 31
0.0
  0
LINE
  5
12353
  8
0
 10
262.8452994616205842
 20
132.5013861010725122
 30
0.0
 11
237.1547005383793021
 21
132.5013861010723986
 31
0.0
  0
LINE
  5
12354
  8
0
 10
236.499999999999801
 20
180.0013861010723986
 30
0.0
 11
263.4999999999997726
 21
180.0013861010723986
 31
0.0
  0
ARC
  5
12355
  8
0
 10
14.5336523563778997
 20
165.721386101072909
 30
0.0
 40
7.0461811077683647
 50
96.5633750397266368
 51
263.4366249602733774
  0
ARC
  5
12356
  8
0
 10
20.2300646679122984
 20
165.7213861010721985
 30
0.0
 40
7.0739148890554482
 50
278.2899247114552281
 51
81.7100752886204305
  0
ARC
  5
12357
  8
0
 10
25.4157795905031207
 20
165.716841344455986
 30
0.0
 40
5.8414675014109987
 50
292.3270429819153264
 51
68.7584403593068885
  0
ARC
  5
12358
  8
0
 10
39.6518465163579208
 20
165.7204348316026881
 30
0.0
 40
4.014293223180375
 50
274.9949035385678826
 51
84.6762799412183256
  0
ARC
  5
12359
  8
0
 10
112.2060958895318947
 20
169.7107339791068057
 30
0.0
 40
3.0108082428585679
 50
90.5822249822886931
 51
141.7873779790500919
  0
ARC
  5
1235A
  8
0
 10
112.2060958895318947
 20
161.7320382230381881
 30
0.0
 40
3.0108082428585679
 50
218.2126220209497944
 51
269.4177750177112216
  0
ARC
  5
1235B
  8
0
 10
118.5109617338580961
 20
165.7213861010710048
 30
0.0
 40
10.4604600854746099
 50
145.9843857082946101
 51
214.0156142916239048
  0
ARC
  5
1235C
  8
0
 10
125.2002466697711043
 20
170.9213867737387886
 30
0.0
 40
1.8
 50
81.0243155042831518
 51
90.0
  0
ARC
  5
1235D
  8
0
 10
132.1639942414562938
 20
165.7213861010650078
 30
0.0
 40
10.4604600854746099
 50
145.9843857079100076
 51
214.0156142916239048
  0
ARC
  5
1235E
  8
0
 10
125.8591283971302062
 20
169.710733979108312
 30
0.0
 40
3.0108082428585679
 50
97.1029948278215329
 51
141.7873779790500919
  0
ARC
  5
1235F
  8
0
 10
133.5489971422742883
 20
168.4002168312561025
 30
0.0
 40
2.995107681841727
 50
26.1746678483871413
 51
76.9612479090468611
  0
ARC
  5
12360
  8
0
 10
133.5489971422742883
 20
163.042555370889005
 30
0.0
 40
2.995107681841727
 50
283.0387520909563932
 51
333.8253321516128267
  0
ARC
  5
12361
  8
0
 10
125.2002466697727954
 20
160.5213854284023967
 30
0.0
 40
1.8
 50
270.000000000019611
 51
278.9756844957365729
  0
ARC
  5
12362
  8
0
 10
125.2002466697727954
 20
160.5213854284023967
 30
0.0
 40
1.8
 50
270.000000000019611
 51
278.9756844957365729
  0
ARC
  5
12363
  8
0
 10
125.8591283971302062
 20
161.7320382230323048
 30
0.0
 40
3.0108082428585679
 50
218.2126220209497944
 51
262.8970051718666809
  0
ARC
  5
12364
  8
0
 10
273.8423756183112232
 20
166.5843486167970866
 30
0.0
 40
4.7788191339897788
 50
105.897986324264707
 51
138.9706031364358125
  0
ARC
  5
12365
  8
0
 10
273.8742165897364202
 20
164.9307630113698053
 30
0.0
 40
4.8571257199211288
 50
221.5973668822531124
 51
253.9745260742751043
  0
ARC
  5
12366
  8
0
 10
286.2507254245034005
 20
166.9853076036172013
 30
0.0
 40
5.7361176686734057
 50
54.432832583405883
 51
89.7900813410856955
  0
ARC
  5
12367
  8
0
 10
286.2507254245034005
 20
164.4574645985277073
 30
0.0
 40
5.7361176686734057
 50
270.2099186589143187
 51
305.5671674165940885
  0
ARC
  5
12368
  8
0
 10
285.0111849608408079
 20
165.7213861010723974
 30
0.0
 40
7.490202942617727
 50
307.6568114767380848
 51
52.3431885232619578
  0
ARC
  5
12369
  8
0
 10
278.5615186956360958
 20
166.9853076036172013
 30
0.0
 40
5.7361176686734057
 50
54.432832583405883
 51
89.7900813410856955
  0
ARC
  5
1236A
  8
0
 10
278.5615186956360958
 20
164.4574645985277925
 30
0.0
 40
5.7361176686734057
 50
270.2099186589143187
 51
305.5671674165940885
  0
ARC
  5
1236B
  8
0
 10
277.3219782319733895
 20
165.7213861010723974
 30
0.0
 40
7.490202942617727
 50
307.6568114767380848
 51
52.3431885232619578
  0
ARC
  5
1236C
  8
0
 10
278.9805190780567727
 20
165.3969550287320089
 30
0.0
 40
6.6874226151233023
 50
255.6067202820478883
 51
266.5881743793215719
  0
ARC
  5
1236D
  8
0
 10
278.9805190780567727
 20
166.0458171734128996
 30
0.0
 40
6.6874226151233023
 50
93.4118256206784139
 51
104.3932797179520975
  0
LINE
  5
1236E
  8
1
 10
49.9999999999999432
 20
127.5013861010723986
 30
0.0
 11
50.0000000000001705
 21
185.0013861010723986
 31
0.0
  0
LINE
  5
1236F
  8
1
 10
175.0000000000007958
 20
127.5013861010723986
 30
0.0
 11
175.0000000000011084
 21
185.0013861010723986
 31
0.0
  0
LINE
  5
12370
  8
1
 10
250.0
 20
127.5013861010723986
 30
0.0
 11
250.000000000000199
 21
185.0013861010723986
 31
0.0
  0
LINE
  5
12371
  8
1
 10
209.7500000000009095
 20
240.0013861010723986
 30
0.0
 11
140.2500000000009095
 21
240.0013861010723986
 31
0.0
  0
LINE
  5
12372
  8
1
 10
175.0000000000009095
 20
265.0013861010723986
 30
0.0
 11
175.0000000000009095
 21
215.0013861010721996
 31
0.0
  0
LINE
  5
12373
  8
1
 10
150.0000000000009095
 20
245.7513861010723986
 30
0.0
 11
150.0000000000009095
 21
234.2513861010725122
 31
0.0
  0
LINE
  5
12374
  8
1
 10
200.0000000000009095
 20
245.7513861010723986
 30
0.0
 11
200.0000000000009095
 21
234.2513861010725122
 31
0.0
  0
LINE
  5
12375
  8
1
 10
175.0000000000009095
 20
240.0013861010723986
 30
0.0
 11
107.8831133380459022
 21
278.7515347215247061
 31
0.0
  0
LINE
  5
12376
  8
1
 10
149.9999999999998863
 20
151.0013861010723986
 30
0.0
 11
150.0
 21
137.001386101071887
 31
0.0
  0
LINE
  5
12377
  8
1
 10
200.0
 20
151.001386101071887
 30
0.0
 11
200.0
 21
137.001386101071887
 31
0.0
  0
ARC
  5
12378
  8
0
 10
14.5336523563778997
 20
165.721386101072909
 30
0.0
 40
7.0461811077683647
 50
276.5633750397265089
 51
83.4366249602734058
  0
LINE
  5
12379
  8
1
 10
291.6246101909038089
 20
165.721386101072909
 30
0.0
 11
261.0870657949507745
 21
165.7061251523657859
 31
0.0
  0
LINE
  5
1237A
  8
1
 10
105.0505016483835021
 20
165.7213861010725111
 30
0.0
 11
163.3086718357720883
 21
165.7213861010725111
 31
0.0
  0
LINE
  5
1237B
  8
1
 10
4.4874712486095509
 20
165.721386101072909
 30
0.0
 11
46.6661108623021121
 21
165.7003075871186866
 31
0.0
  0
LINE
  5
1259F
  8
0
 10
128.7035365268563112
 20
37.6892066836697381
 30
0.0
 11
115.675537713657107
 21
30.1674880618668304
 31
0.0
  0
LINE
  5
125A0
  8
0
 10
108.6755377136568939
 20
42.2918437148489303
 30
0.0
 11
121.703536526856297
 21
49.8135623366518416
 31
0.0
  0
ARC
  5
125A1
  8
0
 10
115.050503391560099
 20
31.2500000000000391
 30
0.0
 40
1.250000000000016
 50
224.0110666483653006
 51
300.0018166019218029
  0
ARC
  5
125A2
  8
0
 10
109.3005033909317945
 20
41.209292144609222
 30
0.0
 40
1.250000000000016
 50
119.9981833980719017
 51
195.9889333516343015
  0
LINE
  5
125A3
  8
0
 10
121.703536526856297
 20
49.8135623366517422
 30
0.0
 11
131.1718058175891883
 21
53.6842081984634589
 31
0.0
  0
LINE
  5
125A4
  8
0
 10
136.7897488176049023
 20
43.9536454884106718
 30
0.0
 11
128.7035365268563112
 21
37.6892066836696813
 31
0.0
  0
ARC
  5
125A5
  8
0
 10
132.1318270094886032
 20
47.7512388463213711
 30
0.0
 40
25.0000013657072095
 50
209.9999999999976126
 51
224.0104389797824922
  0
ARC
  5
125A6
  8
0
 10
132.1316572347247131
 20
47.7515329048379229
 30
0.0
 40
25.0000013657071989
 50
195.9895610202214868
 51
209.9999999999976126
  0
LINE
  5
125A7
  8
0
 10
110.4811907321406039
 20
35.2512381634677183
 30
0.0
 11
110.4810209573769981
 21
35.2515322219842773
 31
0.0
  0
ARC
  5
125A8
  8
0
 10
136.1773222658968052
 20
44.7441729824063827
 30
0.0
 40
1.0000000000000051
 50
307.7651660184299089
 51
29.9996072235486508
  0
ARC
  5
125A9
  8
0
 10
131.5502094339254882
 20
52.7585674997344611
 30
0.0
 40
1.000000000000004
 50
30.0003927764532108
 51
112.2348339815702047
  0
LINE
  5
125AA
  8
0
 10
132.416231410068491
 20
53.2585734365367784
 30
0.0
 11
133.3548023977859032
 21
51.632946535521107
 31
0.0
  0
LINE
  5
125AB
  8
0
 10
136.1048023977859032
 20
46.869806814706763
 30
0.0
 11
137.0433510972821978
 21
45.2441670455806104
 31
0.0
  0
LINE
  5
125AC
  8
0
 10
140.1939203391625028
 20
47.787284485934542
 30
0.0
 11
137.1628314259168064
 21
46.0372844859345278
 31
0.0
  0
LINE
  5
125AD
  8
0
 10
151.4696871347032072
 20
54.2973514806594721
 30
0.0
 11
147.1221235694378038
 21
51.7872844859345705
 31
0.0
  0
LINE
  5
125AE
  8
0
 10
143.1221235694378038
 20
58.7154877162100632
 30
0.0
 11
147.4696871347028946
 21
61.2255547109349507
 31
0.0
  0
LINE
  5
125AF
  8
0
 10
133.1628314259168064
 20
52.9654877162100206
 30
0.0
 11
136.1939203391623039
 21
54.7154877162100277
 31
0.0
  0
LINE
  5
125B0
  8
0
 10
137.1628314259168064
 20
46.0372844859345278
 30
0.0
 11
136.4798187240245966
 21
46.220297187826759
 31
0.0
  0
LINE
  5
125B1
  8
0
 10
132.9798187240245966
 20
52.2824750143177965
 30
0.0
 11
133.1628314259168064
 21
52.9654877162100206
 31
0.0
  0
ARC
  5
125B2
  8
0
 10
165.7151314745296133
 20
77.6152121114801048
 30
0.0
 40
1.9999999999999349
 50
200.4713410900301085
 51
252.0310670361106986
  0
LINE
  5
125B3
  8
0
 10
165.0981289442455875
 20
75.7127642468533537
 30
0.0
 11
165.2723690211628025
 21
75.6562546465990664
 31
0.0
  0
ARC
  5
125B4
  8
0
 10
165.9356467412181928
 20
77.7013861010727709
 30
0.0
 40
2.1499999999999471
 50
252.0310670360968004
 51
27.8956730944385711
  0
ARC
  5
125B5
  8
0
 10
169.7359909303391987
 20
79.7131972363975621
 30
0.0
 40
2.1500000000002371
 50
122.7512153556958054
 51
207.8956708480758095
  0
ARC
  5
125B6
  8
0
 10
174.3750000000005969
 20
72.501386101072768
 30
0.0
 40
10.7249999999999996
 50
237.2487846443077046
 51
122.7512153556840957
  0
ARC
  5
125B7
  8
0
 10
169.7359909303389998
 20
65.2895749657479172
 30
0.0
 40
2.150000000000114
 50
152.104328028742799
 51
237.2487846443042088
  0
ARC
  5
125B8
  8
0
 10
165.9356467412181928
 20
67.3013861010727794
 30
0.0
 40
2.1500000000000079
 50
332.1043280287428274
 51
107.9689329639031996
  0
LINE
  5
125B9
  8
0
 10
165.2723690211628025
 20
69.3465175555464839
 30
0.0
 11
165.0981289442455875
 21
69.2900079552921824
 31
0.0
  0
ARC
  5
125BA
  8
0
 10
165.7151314745296133
 20
67.3875600906653034
 30
0.0
 40
2.0000000000000782
 50
107.9689329638893014
 51
159.5286589099652872
  0
CIRCLE
  5
125BB
  8
0
 10
165.9356467412181928
 20
67.3013861010727794
 30
0.0
 40
1.0
  0
CIRCLE
  5
125BC
  8
0
 10
165.9356467412185054
 20
77.7013861010727993
 30
0.0
 40
1.000000000000028
  0
CIRCLE
  5
125BD
  8
0
 10
175.0000000000007958
 20
72.501386101072768
 30
0.0
 40
4.0000000000000142
  0
POLYLINE
  5
125BE
  8
0
 66
     1
 10
0.0
 20
0.0
 30
0.0
 70
   128
  0
VERTEX
  5
12682
  8
0
 10
165.5980009286031134
 20
78.6791618708328855
 30
0.0
  0
VERTEX
  5
12683
  8
0
 10
165.0604894999829924
 20
77.7709810589453951
 30
0.0
  0
VERTEX
  5
12684
  8
0
 10
164.9402736811059071
 20
77.5376949070274151
 30
0.0
  0
SEQEND
  5
12685
  8
0
  0
ARC
  5
125BF
  8
0
 10
175.0000000000007958
 20
72.501386101072768
 30
0.0
 40
11.2499999999999893
 50
161.0917176136179876
 51
198.9082823863849967
  0
POLYLINE
  5
125C0
  8
0
 66
     1
 10
0.0
 20
0.0
 30
0.0
 70
   128
  0
VERTEX
  5
12686
  8
0
 10
164.9232709446685874
 20
67.4991834317053758
 30
0.0
  0
VERTEX
  5
12687
  8
0
 10
165.0604894999829924
 20
67.2317911432000841
 30
0.0
  0
VERTEX
  5
12688
  8
0
 10
165.5649465048340119
 20
66.3742117487841909
 30
0.0
  0
SEQEND
  5
12689
  8
0
  0
LINE
  5
125C1
  8
0
 10
128.7035365268561122
 20
37.6892066836696102
 30
0.0
 11
121.703536526856098
 21
49.8135623366516995
 31
0.0
  0
LINE
  5
125C2
  8
0
 10
137.0433510972821978
 20
45.244167045580582
 30
0.0
 11
132.4162314500528055
 21
53.2585733672817412
 31
0.0
  0
LINE
  5
125C4
  8
0
 10
140.1939203391625028
 20
47.787284485934542
 30
0.0
 11
139.9439203391625028
 21
48.2202971878267732
 31
0.0
  0
LINE
  5
125C5
  8
0
 10
139.9439203391625028
 20
48.2202971878267732
 30
0.0
 11
146.8721235694378038
 21
52.2202971878268016
 31
0.0
  0
LINE
  5
125C6
  8
0
 10
147.1221235694378038
 20
51.7872844859345705
 30
0.0
 11
146.8721235694378038
 21
52.2202971878268016
 31
0.0
  0
LINE
  5
125C7
  8
0
 10
136.4439203391625028
 20
54.2824750143178321
 30
0.0
 11
136.1939203391625028
 21
54.7154877162100277
 31
0.0
  0
LINE
  5
125C8
  8
0
 10
143.3721235694378038
 20
58.2824750143178605
 30
0.0
 11
143.1221235694378038
 21
58.7154877162100632
 31
0.0
  0
LINE
  5
125C9
  8
0
 10
143.3721235694378038
 20
58.2824750143178605
 30
0.0
 11
136.4439203391625028
 21
54.2824750143178321
 31
0.0
  0
CIRCLE
  5
125CB
  8
0
 10
175.0000000000007958
 20
72.501386101072768
 30
0.0
 40
12.8452994616207405
  0
CIRCLE
  5
125CC
  8
0
 10
175.0000000000007958
 20
72.501386101072768
 30
0.0
 40
14.0
  0
CIRCLE
  5
125CD
  8
0
 10
175.0000000000007958
 20
72.501386101072768
 30
0.0
 40
12.4999999999999698
  0
CIRCLE
  5
125CE
  8
0
 10
175.0000000000007958
 20
72.501386101072768
 30
0.0
 40
11.9999999999999805
  0
LINE
  5
125CF
  8
0
 10
176.0000000000007958
 20
92.5013861010724838
 30
0.0
 11
176.0000000000007958
 21
92.0013861010724838
 31
0.0
  0
LINE
  5
125D0
  8
0
 10
176.0000000000007958
 20
92.0013861010724838
 30
0.0
 11
174.0000000000007958
 21
92.0013861010724838
 31
0.0
  0
LINE
  5
125D1
  8
0
 10
174.0000000000007958
 20
92.0013861010724838
 30
0.0
 11
174.0000000000007958
 21
92.5013861010724838
 31
0.0
  0
LINE
  5
125D2
  8
0
 10
174.0000000000007958
 20
92.5013861010724838
 30
0.0
 11
153.6560898615095141
 21
92.5013861010724838
 31
0.0
  0
LINE
  5
125D3
  8
0
 10
153.6560898615095141
 20
52.5013861010724767
 30
0.0
 11
174.0000000000007958
 21
52.5013861010724767
 31
0.0
  0
LINE
  5
125D4
  8
0
 10
174.0000000000007958
 20
52.5013861010724767
 30
0.0
 11
174.0000000000007958
 21
53.0013861010724767
 31
0.0
  0
LINE
  5
125D5
  8
0
 10
174.0000000000007958
 20
53.0013861010724767
 30
0.0
 11
176.0000000000007958
 21
53.0013861010724767
 31
0.0
  0
LINE
  5
125D6
  8
0
 10
176.0000000000007958
 20
53.0013861010724767
 30
0.0
 11
176.0000000000007958
 21
52.5013861010724767
 31
0.0
  0
LINE
  5
125D7
  8
0
 10
176.0000000000007958
 20
52.5013861010724767
 30
0.0
 11
196.3439101384923902
 21
52.5013861010724767
 31
0.0
  0
LINE
  5
125D8
  8
0
 10
196.3439101384923902
 20
92.5013861010724838
 30
0.0
 11
176.0000000000007958
 21
92.5013861010724838
 31
0.0
  0
ARC
  5
125D9
  8
0
 10
175.0000000000007958
 20
72.5013861010724838
 30
0.0
 40
29.7500000000000107
 50
317.757577378042015
 51
42.2424226219580419
  0
LINE
  5
125DA
  8
0
 10
197.0241344892380937
 20
92.5013861010724838
 30
0.0
 11
196.3439101384923902
 21
92.5013861010724838
 31
0.0
  0
LINE
  5
125DB
  8
0
 10
196.3439101384923902
 20
52.5013861010724767
 30
0.0
 11
197.0241344892380937
 21
52.5013861010724767
 31
0.0
  0
LINE
  5
125DC
  8
0
 10
153.6560898615095141
 20
92.5013861010724838
 30
0.0
 11
152.9758655107638106
 21
92.5013861010724838
 31
0.0
  0
ARC
  5
125DD
  8
0
 10
175.0000000000007958
 20
72.5013861010724838
 30
0.0
 40
29.7499999999999893
 50
137.7575773780419013
 51
222.242422621956905
  0
LINE
  5
125DE
  8
0
 10
152.9758655107638106
 20
52.5013861010724767
 30
0.0
 11
153.6560898615095141
 21
52.5013861010724767
 31
0.0
  0
CIRCLE
  5
125DF
  8
0
 10
200.0000000000007958
 20
72.5013861010724838
 30
0.0
 40
2.75
  0
CIRCLE
  5
125E0
  8
0
 10
150.0000000000007958
 20
72.5013861010724838
 30
0.0
 40
2.75
  0
LINE
  5
125E1
  8
1
 10
209.7500000000009095
 20
72.5013861010724696
 30
0.0
 11
140.2500000000007958
 21
72.5013861010724838
 31
0.0
  0
LINE
  5
125E2
  8
1
 10
175.0000000000007958
 20
47.501386101072562
 30
0.0
 11
175.0000000000007958
 21
97.5013861010727112
 31
0.0
  0
LINE
  5
125E3
  8
1
 10
150.0000000000007958
 20
66.751386101072498
 30
0.0
 11
150.0000000000007958
 21
78.2513861010724838
 31
0.0
  0
LINE
  5
125E4
  8
1
 10
200.0000000000007958
 20
66.7513861010724554
 30
0.0
 11
200.0000000000007958
 21
78.2513861010724696
 31
0.0
  0
LINE
  5
125E5
  8
1
 10
175.0000000000007958
 20
72.5013861010726117
 30
0.0
 11
107.8831133380459022
 21
33.751237480620297
 31
0.0
  0
POLYLINE
  5
125FF
  8
0
 66
     1
 10
0.0
 20
0.0
 30
0.0
  0
VERTEX
  5
1268A
  8
0
 10
273.2499999999997726
 20
161.7213861010725111
 30
0.0
  0
VERTEX
  5
1268B
  8
0
 10
273.9258126995936777
 20
161.7982449794596107
 30
0.0
  0
VERTEX
  5
1268C
  8
0
 10
274.2555693770539165
 20
161.8917430626104021
 30
0.0
  0
VERTEX
  5
1268D
  8
0
 10
274.5756542961422042
 20
162.02586797102731
 30
0.0
  0
VERTEX
  5
1268E
  8
0
 10
275.1745517415254767
 20
162.3955076518622889
 30
0.0
  0
VERTEX
  5
1268F
  8
0
 10
275.6994897427829869
 20
162.8929589763262982
 30
0.0
  0
VERTEX
  5
12690
  8
0
 10
276.1302952269151092
 20
163.499105168994106
 30
0.0
  0
VERTEX
  5
12691
  8
0
 10
276.4504125807649757
 20
164.1906523716120887
 30
0.0
  0
VERTEX
  5
12692
  8
0
 10
276.6475398739481193
 20
164.9410248130079992
 30
0.0
  0
VERTEX
  5
12693
  8
0
 10
276.714101615137622
 20
165.7213861010725111
 30
0.0
  0
SEQEND
  5
12694
  8
0
  0
POLYLINE
  5
12600
  8
0
 66
     1
 10
0.0
 20
0.0
 30
0.0
  0
VERTEX
  5
12695
  8
0
 10
276.714101615137622
 20
165.7213861010725111
 30
0.0
  0
VERTEX
  5
12696
  8
0
 10
276.6475398739481193
 20
166.5017473891369946
 30
0.0
  0
VERTEX
  5
12697
  8
0
 10
276.4504125807649757
 20
167.2521198305329051
 30
0.0
  0
VERTEX
  5
12698
  8
0
 10
276.1302952269151092
 20
167.9436670331508878
 30
0.0
  0
VERTEX
  5
12699
  8
0
 10
275.6994897427829869
 20
168.5498132258186956
 30
0.0
  0
VERTEX
  5
1269A
  8
0
 10
275.1745517415255904
 20
169.0472645502825912
 30
0.0
  0
VERTEX
  5
1269B
  8
0
 10
274.5756542961423179
 20
169.4169042311175986
 30
0.0
  0
VERTEX
  5
1269C
  8
0
 10
274.2555693770539165
 20
169.5510291395345064
 30
0.0
  0
VERTEX
  5
1269D
  8
0
 10
273.9258126995936777
 20
169.6445272226854115
 30
0.0
  0
VERTEX
  5
1269E
  8
0
 10
273.2499999999997726
 20
169.7213861010725111
 30
0.0
  0
SEQEND
  5
1269F
  8
0
  0
ENDSEC
  0
EOF
