  0
SECTION
  2
HEADER
  9
$ACADVER
  1
AC1009
  9
$INSBASE
 10
0.0
 20
0.0
 30
0.0
  9
$EXTMIN
 10
0.0
 20
-2.960436562073669
 30
0.0
  9
$EXTMAX
 10
456.00000000000023
 20
413.45172093340119
 30
0.0
  9
$LIMMIN
 10
0.0
 20
0.0
  9
$LIMMAX
 10
385.0
 20
270.0
  9
$ORTHOMODE
 70
     0
  9
$REGENMODE
 70
     1
  9
$FILLMODE
 70
     1
  9
$QTEXTMODE
 70
     0
  9
$MIRRTEXT
 70
     0
  9
$DRAGMODE
 70
     2
  9
$LTSCALE
 40
3.0
  9
$OSMODE
 70
    37
  9
$ATTMODE
 70
     1
  9
$TEXTSIZE
 40
0.2
  9
$TRACEWID
 40
0.05
  9
$TEXTSTYLE
  7
STANDARD
  9
$CLAYER
  8
0
  9
$CELTYPE
  6
BYLAYER
  9
$CECOLOR
 62
   256
  9
$DIMSCALE
 40
1.0
  9
$DIMASZ
 40
3.0
  9
$DIMEXO
 40
1.0
  9
$DIMDLI
 40
6.0
  9
$DIMRND
 40
0.0
  9
$DIMDLE
 40
0.0
  9
$DIMEXE
 40
1.0
  9
$DIMTP
 40
495.0
  9
$DIMTM
 40
0.0
  9
$DIMTXT
 40
3.0
  9
$DIMCEN
 40
0.0
  9
$DIMTSZ
 40
0.0
  9
$DIMTOL
 70
     0
  9
$DIMLIM
 70
     0
  9
$DIMTIH
 70
     0
  9
$DIMTOH
 70
     0
  9
$DIMSE1
 70
     0
  9
$DIMSE2
 70
     0
  9
$DIMTAD
 70
     1
  9
$DIMZIN
 70
     0
  9
$DIMBLK
  1

  9
$DIMASO
 70
     0
  9
$DIMSHO
 70
     0
  9
$DIMPOST
  1

  9
$DIMAPOST
  1

  9
$DIMALT
 70
     0
  9
$DIMALTD
 70
     2
  9
$DIMALTF
 40
25.399999999999999
  9
$DIMLFAC
 40
1.0
  9
$DIMTOFL
 70
     1
  9
$DIMTVP
 40
0.0
  9
$DIMTIX
 70
     1
  9
$DIMSOXD
 70
     0
  9
$DIMSAH
 70
     0
  9
$DIMBLK1
  1

  9
$DIMBLK2
  1

  9
$DIMSTYLE
  2
STANDARD
  9
$DIMCLRD
 70
     0
  9
$DIMCLRE
 70
     0
  9
$DIMCLRT
 70
     4
  9
$DIMTFAC
 40
1.0
  9
$DIMGAP
 40
1.0
  9
$LUNITS
 70
     2
  9
$LUPREC
 70
     1
  9
$SKETCHINC
 40
0.1
  9
$FILLETRAD
 40
15.0
  9
$AUNITS
 70
     0
  9
$AUPREC
 70
     1
  9
$MENU
  1
E:\r13\win\SUPPORT\ACAD
  9
$ELEVATION
 40
0.0
  9
$PELEVATION
 40
0.0
  9
$THICKNESS
 40
0.0
  9
$LIMCHECK
 70
     0
  9
$BLIPMODE
 70
     0
  9
$CHAMFERA
 40
0.0
  9
$CHAMFERB
 40
0.0
  9
$SKPOLY
 70
     0
  9
$TDCREATE
 40
2450653.5278402781
  9
$TDUPDATE
 40
2457906.6017231829
  9
$TDINDWG
 40
0.6163059838
  9
$TDUSRTIMER
 40
0.6163059838
  9
$USRTIMER
 70
     1
  9
$ANGBASE
 50
0.0
  9
$ANGDIR
 70
     0
  9
$PDMODE
 70
     0
  9
$PDSIZE
 40
0.0
  9
$PLINEWID
 40
0.0
  9
$COORDS
 70
     1
  9
$SPLFRAME
 70
     0
  9
$SPLINETYPE
 70
     6
  9
$SPLINESEGS
 70
     8
  9
$ATTDIA
 70
     0
  9
$ATTREQ
 70
     1
  9
$HANDLING
 70
     1
  9
$HANDSEED
  5
9D58
  9
$SURFTAB1
 70
     6
  9
$SURFTAB2
 70
     6
  9
$SURFTYPE
 70
     6
  9
$SURFU
 70
     6
  9
$SURFV
 70
     6
  9
$UCSNAME
  2

  9
$UCSORG
 10
0.0
 20
0.0
 30
0.0
  9
$UCSXDIR
 10
1.0
 20
0.0
 30
0.0
  9
$UCSYDIR
 10
0.0
 20
1.0
 30
0.0
  9
$PUCSNAME
  2

  9
$PUCSORG
 10
0.0
 20
0.0
 30
0.0
  9
$PUCSXDIR
 10
1.0
 20
0.0
 30
0.0
  9
$PUCSYDIR
 10
0.0
 20
1.0
 30
0.0
  9
$USERI1
 70
     3
  9
$USERI2
 70
     1
  9
$USERI3
 70
     0
  9
$USERI4
 70
     0
  9
$USERI5
 70
     0
  9
$USERR1
 40
1.0
  9
$USERR2
 40
3.0
  9
$USERR3
 40
3.0
  9
$USERR4
 40
3.0
  9
$USERR5
 40
10.0
  9
$WORLDVIEW
 70
     1
  9
$SHADEDGE
 70
     3
  9
$SHADEDIF
 70
    70
  9
$TILEMODE
 70
     1
  9
$MAXACTVP
 70
    16
  9
$PLIMCHECK
 70
     0
  9
$PEXTMIN
 10
1.0000000000000000E+020
 20
1.0000000000000000E+020
 30
1.0000000000000000E+020
  9
$PEXTMAX
 10
-1.0000000000000000E+020
 20
-1.0000000000000000E+020
 30
-1.0000000000000000E+020
  9
$PLIMMIN
 10
0.0
 20
0.0
  9
$PLIMMAX
 10
12.0
 20
9.0
  9
$UNITMODE
 70
     0
  9
$VISRETAIN
 70
     0
  9
$PLINEGEN
 70
     0
  9
$PSLTSCALE
 70
     0
  0
ENDSEC
  0
SECTION
  2
TABLES
  0
TABLE
  2
VPORT
 70
     1
  0
VPORT
  2
*ACTIVE
 70
     0
 10
0.0
 20
0.0
 11
1.0
 21
1.0
 12
494.67444332508131
 22
205.2574222421361
 13
0.0
 23
0.0
 14
5.0
 24
5.0
 15
10.0
 25
10.0
 16
0.0
 26
0.0
 36
1.0
 17
0.0
 27
0.0
 37
0.0
 40
420.09622732301568
 41
2.6019575856443709
 42
50.0
 43
0.0
 44
0.0
 50
0.0
 51
0.0
 71
     0
 72
  1000
 73
     1
 74
     0
 75
     0
 76
     0
 77
     0
 78
     0
  0
ENDTAB
  0
TABLE
  2
LTYPE
 70
     4
  0
LTYPE
  2
CONTINUOUS
 70
     0
  3
Solid Line
 72
    65
 73
     0
 40
0.0
  0
LTYPE
  2
CENTER
 70
     0
  3
____ _ ____ _ ____ _ ____ _ ____ _ ____ _ ____
 72
    65
 73
     4
 40
2.0
 49
1.25
 49
-0.25
 49
0.25
 49
-0.25
  0
LTYPE
  2
PHANTOM
 70
     0
  3
Phantom ______  __  __  ______  __  __  ______
 72
    65
 73
     6
 40
2.5
 49
1.25
 49
-0.25
 49
0.25
 49
-0.25
 49
0.25
 49
-0.25
  0
LTYPE
  2
PHANTOM2
 70
     0
  3
___ _ _ ___ _ _ ___ _ _ ___ _ _
 72
    65
 73
     6
 40
1.25
 49
0.625
 49
-0.125
 49
0.125
 49
-0.125
 49
0.125
 49
-0.125
  0
ENDTAB
  0
TABLE
  2
LAYER
 70
     5
  0
LAYER
  2
0
 70
     0
 62
     7
  6
CONTINUOUS
  0
LAYER
  2
1
 70
     0
 62
     1
  6
CENTER
  0
LAYER
  2
5
 70
     0
 62
     3
  6
PHANTOM
  0
LAYER
  2
3
 70
     0
 62
     3
  6
CONTINUOUS
  0
LAYER
  2
DEFPOINTS
 70
     0
 62
     7
  6
CONTINUOUS
  0
ENDTAB
  0
TABLE
  2
STYLE
 70
     2
  0
STYLE
  2
STANDARD
 70
     0
 40
0.0
 41
1.0
 50
0.0
 71
     0
 42
0.2
  3
simplex
  4
bigfont
  0
STYLE
  2
STANDARD1
 70
     0
 40
0.0
 41
1.0
 50
0.0
 71
     0
 42
3.0
  3
txt
  4

  0
ENDTAB
  0
TABLE
  2
VIEW
 70
     0
  0
ENDTAB
  0
TABLE
  2
UCS
 70
     0
  0
ENDTAB
  0
TABLE
  2
APPID
 70
     6
  0
APPID
  2
ACAD
 70
     0
  0
APPID
  2
ACAD_MLEADERVER
 70
     0
  0
APPID
  2
ACAD_NAV_VCDISPLAY
 70
     0
  0
APPID
  2
ACAD_EXEMPT_FROM_CAD_STANDARDS
 70
     0
  0
APPID
  2
ACAD_DSTYLE_DIMJAG
 70
     0
  0
APPID
  2
ACAD_DSTYLE_DIMTALN
 70
     0
  0
ENDTAB
  0
TABLE
  2
DIMSTYLE
 70
     1
  0
DIMSTYLE
  2
STANDARD
 70
     0
  3

  4

  5

  6

  7

 40
1.0
 41
0.18
 42
0.0625
 43
0.38
 44
0.18
 45
0.0
 46
0.0
 47
0.0
 48
0.0
140
0.18
141
0.09
142
0.0
143
25.399999999999999
144
1.0
145
0.0
146
1.0
147
0.09
 71
     0
 72
     0
 73
     1
 74
     1
 75
     0
 76
     0
 77
     0
 78
     0
170
     0
171
     2
172
     0
173
     0
174
     0
175
     0
176
     0
177
     0
178
     0
  0
ENDTAB
  0
ENDSEC
  0
SECTION
  2
BLOCKS
  0
BLOCK
  8
0
  2
$MODEL_SPACE
 70
     0
 10
0.0
 20
0.0
 30
0.0
  3
$MODEL_SPACE
  1

  0
ENDBLK
  5
82A
  8
0
  0
BLOCK
 67
     1
  8
0
  2
$PAPER_SPACE
 70
     0
 10
0.0
 20
0.0
 30
0.0
  3
$PAPER_SPACE
  1

  0
ENDBLK
  5
828
 67
     1
  8
0
  0
ENDSEC
  0
SECTION
  2
ENTITIES
  0
TEXT
  5
925
  8
0
 62
     3
 10
0.0
 20
0.0
 30
0.0
 40
10.0
  1
QLSC-08L
  7
STANDARD1
  0
LINE
  5
819C
  8
0
 10
265.99999980999991
 20
118.0000002682
 30
0.0
 11
265.99999980999991
 21
106.1999998240999
 31
0.0
  0
LINE
  5
819D
  8
0
 10
274.00000018999992
 20
106.1999998240999
 30
0.0
 11
274.00000018999992
 21
118.0000002682
 31
0.0
  0
LINE
  5
819E
  8
0
 10
265.99999980999991
 20
106.1999998240999
 30
0.0
 11
267.20000009979992
 21
105.0
 31
0.0
  0
LINE
  5
819F
  8
0
 10
272.79999990020002
 20
105.0
 30
0.0
 11
274.00000018999992
 21
106.1999998240999
 31
0.0
  0
LINE
  5
81A6
  8
0
 10
279.99999977649992
 20
135.99999949330001
 30
0.0
 11
279.99999977649992
 21
137.80000016089991
 31
0.0
  0
LINE
  5
81A7
  8
0
 10
260.00000022349991
 20
137.80000016089991
 30
0.0
 11
260.00000022349991
 21
135.99999949330001
 31
0.0
  0
LINE
  5
81A8
  8
0
 10
260.00000022349991
 20
135.99999949330001
 30
0.0
 11
260.19999988379999
 21
135.7999998331
 31
0.0
  0
LINE
  5
81A9
  8
0
 10
279.8000001161999
 20
135.7999998331
 30
0.0
 11
279.99999977649992
 21
135.99999949330001
 31
0.0
  0
LINE
  5
81AA
  8
0
 10
279.99999977649992
 20
137.80000016089991
 30
0.0
 11
279.8000001161999
 21
137.9999998211
 31
0.0
  0
LINE
  5
81AB
  8
0
 10
260.19999988379999
 20
137.9999998211
 30
0.0
 11
260.00000022349991
 21
137.80000016089991
 31
0.0
  0
ARC
  5
81AC
  8
0
 10
260.84999999999991
 20
135.4000002681999
 30
0.0
 40
0.4000000000000057
 50
14.477523207244261
 51
90.0
  0
ARC
  5
81AD
  8
0
 10
279.14999999999992
 20
135.4000002681999
 30
0.0
 40
0.4000000000000057
 50
90.0
 51
165.5224767927557
  0
LINE
  5
81B1
  8
0
 10
265.99999980999991
 20
106.1999998240999
 30
0.0
 11
274.00000018999992
 21
106.1999998240999
 31
0.0
  0
LINE
  5
81B2
  8
0
 10
272.79999990020002
 20
105.0
 30
0.0
 11
267.20000009979992
 21
105.0
 31
0.0
  0
ARC
  5
81B5
  8
0
 10
248.2030358888999
 20
137.00000026820001
 30
0.0
 40
1.000000000000002
 50
56.920940212402208
 51
90.0
  0
POLYLINE
  5
81B6
  8
0
 66
     1
 10
0.0
 20
0.0
 30
0.0
 70
   128
  0
VERTEX
  5
9B29
  8
0
 10
241.4999999851
 20
131.25000011169999
 30
0.0
  0
VERTEX
  5
9B2A
  8
0
 10
241.5169854461999
 20
131.2669846414999
 30
0.0
  0
VERTEX
  5
9B2B
  8
0
 10
241.56736068430001
 20
131.31736174220001
 30
0.0
  0
VERTEX
  5
9B2C
  8
0
 10
241.64941951629999
 20
131.3994196429
 30
0.0
  0
VERTEX
  5
9B2D
  8
0
 10
241.76036983729989
 20
131.51037089519991
 30
0.0
  0
VERTEX
  5
9B2E
  8
0
 10
241.89644724129991
 20
131.64644643659989
 30
0.0
  0
SEQEND
  5
9B2F
  8
0
  0
ARC
  5
81B7
  8
0
 10
241.54287407099989
 20
132.00000023469991
 30
0.0
 40
0.5000142747000008
 50
315.00156966270077
 51
44.998430337299247
  0
POLYLINE
  5
81B8
  8
0
 66
     1
 10
0.0
 20
0.0
 30
0.0
 70
   128
  0
VERTEX
  5
9B30
  8
0
 10
241.89644724129991
 20
132.3535540327
 30
0.0
  0
VERTEX
  5
9B31
  8
0
 10
241.76036983729989
 20
132.48962957409989
 30
0.0
  0
VERTEX
  5
9B32
  8
0
 10
241.64941951629999
 20
132.60058082640001
 30
0.0
  0
VERTEX
  5
9B33
  8
0
 10
241.56736068430001
 20
132.68263872709991
 30
0.0
  0
VERTEX
  5
9B34
  8
0
 10
241.5169854461999
 20
132.73301582779999
 30
0.0
  0
VERTEX
  5
9B35
  8
0
 10
241.4999999851
 20
132.75000035759999
 30
0.0
  0
SEQEND
  5
9B36
  8
0
  0
LINE
  5
81B9
  8
0
 10
241.4999999851
 20
132.75000035759999
 30
0.0
 11
241.4999999851
 21
133.25000043950001
 31
0.0
  0
POLYLINE
  5
81BA
  8
0
 66
     1
 10
0.0
 20
0.0
 30
0.0
 70
   128
  0
VERTEX
  5
9B37
  8
0
 10
241.4999999851
 20
133.25000043950001
 30
0.0
  0
VERTEX
  5
9B38
  8
0
 10
241.5169854461999
 20
133.26698496930001
 30
0.0
  0
VERTEX
  5
9B39
  8
0
 10
241.56736068430001
 20
133.31736207
 30
0.0
  0
VERTEX
  5
9B3A
  8
0
 10
241.64941951629999
 20
133.39941997080001
 30
0.0
  0
VERTEX
  5
9B3B
  8
0
 10
241.76036983729989
 20
133.51037122310001
 30
0.0
  0
VERTEX
  5
9B3C
  8
0
 10
241.89644724129991
 20
133.64644676439991
 30
0.0
  0
SEQEND
  5
9B3D
  8
0
  0
ARC
  5
81BB
  8
0
 10
241.54287474869989
 20
134.00000009679991
 30
0.0
 40
0.5000134661557359
 50
315.00155247739713
 51
44.998447522602937
  0
POLYLINE
  5
81BC
  8
0
 66
     1
 10
0.0
 20
0.0
 30
0.0
 70
   128
  0
VERTEX
  5
9B3E
  8
0
 10
241.89644724129991
 20
134.35355342919991
 30
0.0
  0
VERTEX
  5
9B3F
  8
0
 10
241.76036983729989
 20
134.48962897059999
 30
0.0
  0
VERTEX
  5
9B40
  8
0
 10
241.64941951629999
 20
134.60058115419989
 30
0.0
  0
VERTEX
  5
9B41
  8
0
 10
241.56736068430001
 20
134.68263812359999
 30
0.0
  0
VERTEX
  5
9B42
  8
0
 10
241.5169854461999
 20
134.73301522429989
 30
0.0
  0
VERTEX
  5
9B43
  8
0
 10
241.4999999851
 20
134.75000068540001
 30
0.0
  0
SEQEND
  5
9B44
  8
0
  0
LINE
  5
81BD
  8
0
 10
241.4999999851
 20
134.75000068540001
 30
0.0
 11
241.4999999851
 21
135.24999983599989
 31
0.0
  0
POLYLINE
  5
81BE
  8
0
 66
     1
 10
0.0
 20
0.0
 30
0.0
 70
   128
  0
VERTEX
  5
9B45
  8
0
 10
241.4999999851
 20
135.24999983599989
 30
0.0
  0
VERTEX
  5
9B46
  8
0
 10
241.5169854461999
 20
135.26698529719991
 30
0.0
  0
VERTEX
  5
9B47
  8
0
 10
241.56736068430001
 20
135.3173623978999
 30
0.0
  0
VERTEX
  5
9B48
  8
0
 10
241.64941951629999
 20
135.3994193673
 30
0.0
  0
VERTEX
  5
9B49
  8
0
 10
241.76036983729989
 20
135.51037155089989
 30
0.0
  0
VERTEX
  5
9B4A
  8
0
 10
241.89644724129991
 20
135.64644709230001
 30
0.0
  0
SEQEND
  5
9B4B
  8
0
  0
ARC
  5
81BF
  8
0
 10
241.54287474869989
 20
136.00000042459999
 30
0.0
 40
0.5000134661557359
 50
315.00155247739713
 51
44.998447522602937
  0
POLYLINE
  5
81C0
  8
0
 66
     1
 10
0.0
 20
0.0
 30
0.0
 70
   128
  0
VERTEX
  5
9B4C
  8
0
 10
241.89644724129991
 20
136.35355375699999
 30
0.0
  0
VERTEX
  5
9B4D
  8
0
 10
241.76036983729989
 20
136.4896292983999
 30
0.0
  0
VERTEX
  5
9B4E
  8
0
 10
241.64941951629999
 20
136.600581482
 30
0.0
  0
VERTEX
  5
9B4F
  8
0
 10
241.56736068430001
 20
136.6826384513999
 30
0.0
  0
VERTEX
  5
9B50
  8
0
 10
241.5169854461999
 20
136.7330155521
 30
0.0
  0
VERTEX
  5
9B51
  8
0
 10
241.4999999851
 20
136.75000101320001
 30
0.0
  0
SEQEND
  5
9B52
  8
0
  0
LINE
  5
81C1
  8
0
 10
241.4999999851
 20
136.75000101320001
 30
0.0
 11
241.4999999851
 21
137.25000016390001
 31
0.0
  0
LINE
  5
81C2
  8
0
 10
241.4999999851
 20
137.25000016390001
 30
0.0
 11
242.0555283128999
 21
137.80552849169999
 31
0.0
  0
POLYLINE
  5
81C5
  8
0
 66
     1
 10
0.0
 20
0.0
 30
0.0
 70
   128
  0
VERTEX
  5
9B53
  8
0
 10
241.9878733157999
 20
130.26212763039999
 30
0.0
  0
VERTEX
  5
9B54
  8
0
 10
241.8225523828998
 20
130.42744763189989
 30
0.0
  0
VERTEX
  5
9B55
  8
0
 10
241.6860521584999
 20
130.56394785639989
 30
0.0
  0
VERTEX
  5
9B56
  8
0
 10
241.58418223259989
 20
130.6658187136
 30
0.0
  0
VERTEX
  5
9B57
  8
0
 10
241.5212713926999
 20
130.7287286221999
 30
0.0
  0
VERTEX
  5
9B58
  8
0
 10
241.4999999851
 20
130.75000002979999
 30
0.0
  0
SEQEND
  5
9B59
  8
0
  0
LINE
  5
81C6
  8
0
 10
241.4999999851
 20
130.75000002979999
 30
0.0
 11
241.4999999851
 21
131.25000011169999
 31
0.0
  0
LINE
  5
81C7
  8
0
 10
242.0555283128999
 20
137.80552849169999
 30
0.0
 11
242.2499996423999
 21
137.9999998211
 31
0.0
  0
LINE
  5
81C8
  8
0
 10
242.2499996423999
 20
137.9999998211
 30
0.0
 11
248.20303589109989
 21
137.9999998211
 31
0.0
  0
LINE
  5
81C9
  8
0
 10
248.74883189799991
 20
137.83791802819991
 30
0.0
 11
255.3873876854999
 21
133.51375471799989
 31
0.0
  0
ARC
  5
81CA
  8
0
 10
253.75
 20
131.00000026820001
 30
0.0
 40
3.0
 50
0.0
 51
56.920940212302057
  0
LINE
  5
81CC
  8
0
 10
242.99999982194871
 20
130.00000037250001
 30
0.0
 11
242.2499996423999
 21
130.00000037250001
 31
0.0
  0
POLYLINE
  5
81CD
  8
0
 66
     1
 10
0.0
 20
0.0
 30
0.0
 70
   128
  0
VERTEX
  5
9B5A
  8
0
 10
242.2499996423999
 20
130.00000037250001
 30
0.0
  0
VERTEX
  5
9B5B
  8
0
 10
242.16471284629989
 20
130.08528716859999
 30
0.0
  0
VERTEX
  5
9B5C
  8
0
 10
242.07726910709991
 20
130.17273090779989
 30
0.0
  0
VERTEX
  5
9B5D
  8
0
 10
241.9878733157999
 20
130.26212763039999
 30
0.0
  0
SEQEND
  5
9B5E
  8
0
  0
POLYLINE
  5
81CE
  8
0
 66
     1
 10
0.0
 20
0.0
 30
0.0
 70
   128
  0
VERTEX
  5
9B5F
  8
0
 10
256.75000015649999
 20
131.00000053639991
 30
0.0
  0
VERTEX
  5
9B60
  8
0
 10
256.69120576229989
 20
130.40897950530001
 30
0.0
  0
VERTEX
  5
9B61
  8
0
 10
256.5467734634999
 20
129.9146176502
 30
0.0
  0
SEQEND
  5
9B62
  8
0
  0
POLYLINE
  5
81CF
  8
0
 66
     1
 10
0.0
 20
0.0
 30
0.0
 70
   128
  0
VERTEX
  5
9B63
  8
0
 10
256.5467734634999
 20
129.9146176502
 30
0.0
  0
VERTEX
  5
9B64
  8
0
 10
256.46168224510001
 20
129.69535544510001
 30
0.0
  0
VERTEX
  5
9B65
  8
0
 10
256.39389965679987
 20
129.5206961408
 30
0.0
  0
VERTEX
  5
9B66
  8
0
 10
256.34611628949989
 20
129.3975715711
 30
0.0
  0
VERTEX
  5
9B67
  8
0
 10
256.32023017850003
 20
129.3308683857
 30
0.0
  0
SEQEND
  5
9B68
  8
0
  0
ARC
  5
81D3
  8
0
 10
242.99999982194871
 20
129.5000001944486
 30
0.0
 40
0.5000001780513285
 50
0.0000084512807423
 51
89.999979596827828
  0
ARC
  5
81D4
  8
0
 10
248.54579357579999
 20
124.5000002682
 30
0.0
 40
5.499999999999992
 50
270.0
 51
338.78956992189887
  0
LINE
  5
81D5
  8
0
 10
256.32018359867601
 20
129.33074874732119
 30
0.0
 11
253.6732130497999
 21
122.51013193279999
 31
0.0
  0
LINE
  5
81D9
  8
0
 10
248.5457942635
 20
119.00000031569991
 30
0.0
 11
247.49999910589989
 21
119.00000031569991
 31
0.0
  0
ARC
  5
81DA
  8
0
 10
247.5
 20
123.0000002682
 30
0.0
 40
4.0
 50
180.0
 51
270.0
  0
LINE
  5
81DB
  8
0
 10
243.50000031289991
 20
123.00000015640001
 30
0.0
 11
243.50000031289991
 21
129.50000029050051
 31
0.0
  0
LINE
  5
81DF
  8
0
 10
279.8000001161999
 20
135.7999998331
 30
0.0
 11
260.19999988379999
 21
135.7999998331
 31
0.0
  0
LINE
  5
81E0
  8
0
 10
260.19999988379999
 20
137.9999998211
 30
0.0
 11
279.8000001161999
 21
137.9999998211
 31
0.0
  0
LINE
  5
81E7
  8
0
 10
250.77072575689999
 20
120.5703220515999
 30
0.0
 11
250.077650398
 21
121.7707647196999
 31
0.0
  0
LINE
  5
81E8
  8
0
 10
250.4486967622999
 20
123.4500906615999
 30
0.0
 11
250.80164007839991
 21
123.4501521289
 31
0.0
  0
ARC
  5
81E9
  8
0
 10
250.80157637169989
 20
123.8101522337999
 30
0.0
 40
0.3600000000000221
 50
270.01000000069888
 51
19.392003866300438
  0
ARC
  5
81EA
  8
0
 10
248.5
 20
123.00000026950001
 30
0.0
 40
2.8000000000000389
 50
19.392003866300438
 51
64.620621008902305
  0
ARC
  5
81EB
  8
0
 10
249.5972415775
 20
125.3129336711999
 30
0.0
 40
0.2400000000000219
 50
64.620621008902305
 51
160.00000000000051
  0
LINE
  5
81EC
  8
0
 10
249.3717153369999
 20
125.3950186259999
 30
0.0
 11
249.18404079969989
 21
124.8793853632999
 31
0.0
  0
LINE
  5
81ED
  8
0
 10
247.81595960259989
 20
124.8793853632999
 30
0.0
 11
247.62828506529991
 21
125.3950186259999
 31
0.0
  0
ARC
  5
81EE
  8
0
 10
247.40275842249989
 20
125.3129336711999
 30
0.0
 40
0.2400000000000158
 50
19.99999999999951
 51
115.3793789910976
  0
ARC
  5
81EF
  8
0
 10
248.5
 20
123.00000026950001
 30
0.0
 40
2.8000000000000682
 50
115.3793789910976
 51
160.6079961337995
  0
ARC
  5
81F0
  8
0
 10
246.19842362829991
 20
123.8101522337999
 30
0.0
 40
0.3599999999942414
 50
160.60799613309899
 51
269.98999999999802
  0
LINE
  5
81F1
  8
0
 10
246.19836032389989
 20
123.4501521289
 30
0.0
 11
246.5513036399999
 21
123.4500906615999
 31
0.0
  0
LINE
  5
81F2
  8
0
 10
246.92235000429989
 20
121.7707647196999
 30
0.0
 11
246.22927464540001
 21
120.5703220515999
 31
0.0
  0
ARC
  5
81F3
  8
0
 10
246.10803042079991
 20
120.6403219994
 30
0.0
 40
0.1400000000000044
 50
224.6106345888989
 51
329.99999999999801
  0
ARC
  5
81F4
  8
0
 10
248.5
 20
123.0000002682
 30
0.0
 40
3.5000000000000688
 50
315.38936541110098
 51
224.6106345888989
  0
ARC
  5
81F5
  8
0
 10
250.89196957919989
 20
120.6403219994
 30
0.0
 40
0.1399999999999944
 50
210.0000000000019
 51
315.38936541110098
  0
CIRCLE
  5
81F6
  8
0
 10
248.5
 20
123.0000002682
 30
0.0
 40
1.5
  0
CIRCLE
  5
81F7
  8
0
 10
248.5
 20
123.0000002682
 30
0.0
 40
2.0
  0
LINE
  5
81F9
  8
0
 10
254.63949057357129
 20
125.0000004842
 30
0.0
 11
287.0000009238999
 21
125.0000004842
 31
0.0
  0
ARC
  5
81FA
  8
0
 10
286.99999963126203
 20
124.50000011546361
 30
0.0
 40
0.5000003687380519
 50
0.0000175022832113
 51
89.999851874708256
  0
ARC
  5
81FC
  8
0
 10
258.0
 20
124.5000002682
 30
0.0
 40
0.5
 50
90.0
 51
180.0
  0
LINE
  5
81FD
  8
0
 10
287.50000007449989
 20
124.5000004023
 30
0.0
 11
287.50000007449989
 21
118.50000029189989
 31
0.0
  0
LINE
  5
8201
  8
0
 10
257.4999998136999
 20
118.50000029189989
 30
0.0
 11
257.4999998136999
 21
124.5000004023
 31
0.0
  0
LINE
  5
8204
  8
0
 10
257.99999989569989
 20
118.0000002682
 30
0.0
 11
257.4999998136999
 21
118.50000029189989
 31
0.0
  0
LINE
  5
8205
  8
0
 10
287.50000007449989
 20
118.50000029189989
 30
0.0
 11
287.0000009238999
 21
118.0000002682
 31
0.0
  0
LINE
  5
8208
  8
0
 10
257.99999989569989
 20
118.0000002682
 30
0.0
 11
256.49999964979997
 21
118.0000002682
 31
0.0
  0
LINE
  5
820B
  8
0
 10
243.50000031289991
 20
118.50000029189989
 30
0.0
 11
243.50000031289991
 21
123.00000015640001
 31
0.0
  0
LINE
  5
820E
  8
0
 10
287.0000009238999
 20
118.0000002682
 30
0.0
 11
243.99999946359989
 21
118.0000002682
 31
0.0
  0
LINE
  5
820F
  8
0
 10
243.99999946359989
 20
118.0000002682
 30
0.0
 11
243.50000031289991
 21
118.50000029189989
 31
0.0
  0
LINE
  5
8238
  8
0
 10
279.49999969449988
 20
118.0000002682
 30
0.0
 11
279.49999969449988
 21
125.0000004842
 31
0.0
  0
LINE
  5
8239
  8
0
 10
261.49999953809993
 20
125.0000004842
 30
0.0
 11
261.49999953809993
 21
118.0000002682
 31
0.0
  0
ARC
  5
8248
  8
0
 10
292.9622800791999
 20
220.9708341229003
 30
0.0
 40
10.00000000000065
 50
290.1035767467996
 51
73.101785443999404
  0
ARC
  5
8249
  8
0
 10
292.9622800791999
 20
220.9708341229003
 30
0.0
 40
10.000000000000879
 50
136.3858696780047
 51
290.1035767467996
  0
LINE
  5
824A
  8
0
 10
296.61237318079998
 20
230.67658604100041
 30
0.0
 11
296.72873810790003
 21
230.23440761900039
 31
0.0
  0
LINE
  5
824B
  8
0
 10
285.12385777100002
 20
227.18043440940031
 30
0.0
 11
285.00749284389991
 21
227.62261283140029
 31
0.0
  0
LINE
  5
824C
  8
0
 10
256.75
 20
292.72586037730031
 30
0.0
 11
256.75
 21
323.72586037730031
 31
0.0
  0
LINE
  5
824D
  8
0
 10
286.55236981379988
 20
229.61080565820029
 30
0.0
 11
270.39683414210901
 21
291.00068873230981
 31
0.0
  0
LINE
  5
824E
  8
0
 10
278.02553366251988
 20
293.44663518609099
 30
0.0
 11
294.28895670510002
 21
231.64678779790029
 31
0.0
  0
CIRCLE
  5
8256
  8
0
 10
270.0
 20
308.22586037730031
 30
0.0
 40
6.5000000000000266
  0
LINE
  5
8257
  8
0
 10
271.73205080759999
 20
311.22586037730031
 30
0.0
 11
268.2679491923999
 21
311.22586037730031
 31
0.0
  0
LINE
  5
8258
  8
0
 10
266.53589838489989
 20
308.22586037730031
 30
0.0
 11
268.2679491923999
 21
311.22586037730031
 31
0.0
  0
LINE
  5
8259
  8
0
 10
266.53589838489989
 20
308.22586037730031
 30
0.0
 11
268.2679491923999
 21
305.22586037730031
 31
0.0
  0
LINE
  5
825A
  8
0
 10
268.2679491923999
 20
305.22586037730031
 30
0.0
 11
271.73205080759999
 21
305.22586037730031
 31
0.0
  0
LINE
  5
825B
  8
0
 10
273.46410161509988
 20
308.22586037730031
 30
0.0
 11
271.73205080759999
 21
305.22586037730031
 31
0.0
  0
LINE
  5
825C
  8
0
 10
273.46410161509988
 20
308.22586037730031
 30
0.0
 11
271.73205080759999
 21
311.22586037730031
 31
0.0
  0
ARC
  5
825D
  8
0
 10
293.70954461769998
 20
218.13128218380041
 30
0.0
 40
12.594293473556579
 50
80.1270901580003
 51
129.36056496389801
  0
POLYLINE
  5
825E
  8
0
 66
     1
 10
0.0
 20
0.0
 30
0.0
 70
   128
  0
VERTEX
  5
9B69
  8
0
 10
296.61237318079998
 20
230.67658604100041
 30
0.0
  0
VERTEX
  5
9B6A
  8
0
 10
296.59679282780002
 20
230.7277837914003
 30
0.0
  0
VERTEX
  5
9B6B
  8
0
 10
296.41385100479988
 20
231.01919988660029
 30
0.0
  0
VERTEX
  5
9B6C
  8
0
 10
296.0857706493
 20
231.26219431210029
 30
0.0
  0
VERTEX
  5
9B6D
  8
0
 10
295.6210488703
 20
231.45047364010031
 30
0.0
  0
VERTEX
  5
9B6E
  8
0
 10
295.03172171779988
 20
231.57916153480039
 30
0.0
  0
VERTEX
  5
9B6F
  8
0
 10
294.33305245539992
 20
231.64492504730029
 30
0.0
  0
VERTEX
  5
9B70
  8
0
 10
293.54313624999992
 20
231.6460609372003
 30
0.0
  0
VERTEX
  5
9B71
  8
0
 10
292.68243151649989
 20
231.5825397855003
 30
0.0
  0
VERTEX
  5
9B72
  8
0
 10
291.77323005519997
 20
231.45600675680029
 30
0.0
  0
VERTEX
  5
9B73
  8
0
 10
290.83907970659988
 20
231.26973899000029
 30
0.0
  0
VERTEX
  5
9B74
  8
0
 10
289.90417447390001
 20
231.0285607224003
 30
0.0
  0
VERTEX
  5
9B75
  8
0
 10
288.9927279115999
 20
230.7387183444003
 30
0.0
  0
VERTEX
  5
9B76
  8
0
 10
288.12834600679992
 20
230.40771862150029
 30
0.0
  0
VERTEX
  5
9B77
  8
0
 10
287.3334157969
 20
230.0441342725004
 30
0.0
  0
VERTEX
  5
9B78
  8
0
 10
286.6285255567999
 20
229.6573819411004
 30
0.0
  0
VERTEX
  5
9B79
  8
0
 10
286.0319315733999
 20
229.2574783096004
 30
0.0
  0
VERTEX
  5
9B7A
  8
0
 10
285.55908531739988
 20
228.8547806719003
 30
0.0
  0
VERTEX
  5
9B7B
  8
0
 10
285.2222332586
 20
228.45971868540039
 30
0.0
  0
VERTEX
  5
9B7C
  8
0
 10
285.0300996883999
 20
228.08252424790041
 30
0.0
  0
VERTEX
  5
9B7D
  8
0
 10
284.98766076530001
 20
227.7329664973004
 30
0.0
  0
VERTEX
  5
9B7E
  8
0
 10
285.00749284389991
 20
227.62261283140029
 30
0.0
  0
SEQEND
  5
9B7F
  8
0
  0
LINE
  5
825F
  8
0
 10
242.25
 20
303.97586037730031
 30
0.0
 11
242.25
 21
292.72586037730031
 31
0.0
  0
LINE
  5
8260
  8
0
 10
241.5
 20
303.22586037730031
 30
0.0
 11
243.5
 21
305.22586037730031
 31
0.0
  0
LINE
  5
8261
  8
0
 10
243.5
 20
305.22586037730031
 30
0.0
 11
243.5
 21
311.22586037730031
 31
0.0
  0
LINE
  5
8262
  8
0
 10
243.5
 20
311.22586037730031
 30
0.0
 11
241.5
 21
313.22586037730042
 31
0.0
  0
LINE
  5
8263
  8
0
 10
242.25
 20
323.72586037730031
 30
0.0
 11
242.25
 21
312.47586037730031
 31
0.0
  0
ARC
  5
8266
  8
0
 10
241.75
 20
323.72586037730031
 30
0.0
 40
0.5000000000000285
 50
0.0
 51
52.333994758699873
  0
ARC
  5
8267
  8
0
 10
242.5
 20
323.22586037730031
 30
0.0
 40
0.9999999999979818
 50
90.0
 51
116.389514986303
  0
ARC
  5
8268
  8
0
 10
242.5
 20
323.22586037730031
 30
0.0
 40
1.000000000000026
 50
116.389514986303
 51
180.0
  0
LINE
  5
826A
  8
0
 10
241.5
 20
323.22586037730031
 30
0.0
 11
241.5
 21
313.22586037730031
 31
0.0
  0
ARC
  5
826B
  8
0
 10
241.75
 20
292.72586037730031
 30
0.0
 40
0.5
 50
307.66600524130013
 51
0.0
  0
ARC
  5
826C
  8
0
 10
242.5
 20
293.22586037730031
 30
0.0
 40
1.0
 50
180.0
 51
243.6104850136968
  0
LINE
  5
826D
  8
0
 10
241.5
 20
303.22586037730031
 30
0.0
 11
241.5
 21
293.22586037730031
 31
0.0
  0
ARC
  5
8271
  8
0
 10
242.5
 20
293.22586037730031
 30
0.0
 40
1.0000000000057401
 50
243.61048501379881
 51
269.99999999989581
  0
POLYLINE
  5
8278
  8
0
 66
     1
 10
0.0
 20
0.0
 30
0.0
 70
   128
  0
VERTEX
  5
9B80
  8
0
 10
253.78018605529991
 20
314.22586037730031
 30
0.0
  0
VERTEX
  5
9B81
  8
0
 10
253.7088076254999
 20
314.87290799010032
 30
0.0
  0
VERTEX
  5
9B82
  8
0
 10
253.4995366581
 20
315.47586037730031
 30
0.0
  0
VERTEX
  5
9B83
  8
0
 10
253.16663462369991
 20
315.99362733030028
 30
0.0
  0
VERTEX
  5
9B84
  8
0
 10
252.73278824580001
 20
316.39092388680029
 30
0.0
  0
VERTEX
  5
9B85
  8
0
 10
252.22756343809991
 20
316.64067494300031
 30
0.0
  0
VERTEX
  5
9B86
  8
0
 10
251.68539043629991
 20
316.72586037730031
 30
0.0
  0
VERTEX
  5
9B87
  8
0
 10
251.14321743439999
 20
316.64067494300031
 30
0.0
  0
VERTEX
  5
9B88
  8
0
 10
250.6379926267
 20
316.39092388680029
 30
0.0
  0
VERTEX
  5
9B89
  8
0
 10
250.2041462487999
 20
315.99362733030028
 30
0.0
  0
VERTEX
  5
9B8A
  8
0
 10
249.87124421439989
 20
315.47586037730031
 30
0.0
  0
VERTEX
  5
9B8B
  8
0
 10
249.66197324699991
 20
314.87290799010032
 30
0.0
  0
VERTEX
  5
9B8C
  8
0
 10
249.5905948171999
 20
314.22586037730031
 30
0.0
  0
SEQEND
  5
9B8D
  8
0
  0
LINE
  5
8279
  8
0
 10
249.5905948171999
 20
314.22586037730031
 30
0.0
 11
249.5905948171999
 21
302.22586037730031
 31
0.0
  0
POLYLINE
  5
827A
  8
0
 66
     1
 10
0.0
 20
0.0
 30
0.0
 70
   128
  0
VERTEX
  5
9B8E
  8
0
 10
249.5905948171999
 20
302.22586037730031
 30
0.0
  0
VERTEX
  5
9B8F
  8
0
 10
249.66197324699991
 20
301.57881276460029
 30
0.0
  0
VERTEX
  5
9B90
  8
0
 10
249.87124421439989
 20
300.97586037730031
 30
0.0
  0
VERTEX
  5
9B91
  8
0
 10
250.2041462487999
 20
300.45809342430027
 30
0.0
  0
VERTEX
  5
9B92
  8
0
 10
250.6379926267
 20
300.06079686780032
 30
0.0
  0
VERTEX
  5
9B93
  8
0
 10
251.14321743439999
 20
299.81104581160031
 30
0.0
  0
VERTEX
  5
9B94
  8
0
 10
251.68539043629991
 20
299.72586037730031
 30
0.0
  0
VERTEX
  5
9B95
  8
0
 10
252.22756343809991
 20
299.81104581160031
 30
0.0
  0
VERTEX
  5
9B96
  8
0
 10
252.73278824580001
 20
300.06079686780032
 30
0.0
  0
VERTEX
  5
9B97
  8
0
 10
253.16663462369991
 20
300.45809342430027
 30
0.0
  0
VERTEX
  5
9B98
  8
0
 10
253.4995366581
 20
300.97586037730031
 30
0.0
  0
VERTEX
  5
9B99
  8
0
 10
253.7088076254999
 20
301.57881276460029
 30
0.0
  0
VERTEX
  5
9B9A
  8
0
 10
253.78018605529991
 20
302.22586037730031
 30
0.0
  0
SEQEND
  5
9B9B
  8
0
  0
LINE
  5
827B
  8
0
 10
253.78018605529991
 20
302.22586037730031
 30
0.0
 11
253.78018605529991
 21
314.22586037730031
 31
0.0
  0
ARC
  5
827C
  8
0
 10
256.25
 20
323.72586037730031
 30
0.0
 40
0.5
 50
0.0
 51
90.0
  0
LINE
  5
827D
  8
0
 10
242.5
 20
324.22586037730031
 30
0.0
 11
256.25
 21
324.22586037730031
 31
0.0
  0
ARC
  5
827E
  8
0
 10
256.25
 20
292.72586037730031
 30
0.0
 40
0.5000000000000285
 50
270.0
 51
0.0
  0
LINE
  5
827F
  8
0
 10
256.25
 20
292.22586037730031
 30
0.0
 11
242.5
 21
292.22586037730031
 31
0.0
  0
CIRCLE
  5
8282
  8
0
 10
270.0
 20
308.22586037730031
 30
0.0
 40
9.9999999999999964
  0
CIRCLE
  5
8284
  8
0
 10
270.0
 20
308.22586037730031
 30
0.0
 40
6.749999999999992
  0
POLYLINE
  5
8287
  8
0
 66
     1
 10
0.0
 20
0.0
 30
0.0
 70
   128
  0
VERTEX
  5
9B9C
  8
0
 10
261.71047514459991
 20
292.57377282630029
 30
0.0
  0
VERTEX
  5
9B9D
  8
0
 10
264.28883219309989
 20
291.60266763130028
 30
0.0
  0
VERTEX
  5
9B9E
  8
0
 10
266.96647396449998
 20
291.04959997870031
 30
0.0
  0
VERTEX
  5
9B9F
  8
0
 10
269.67661111509989
 20
290.92164151760039
 30
0.0
  0
VERTEX
  5
9BA0
  8
0
 10
272.3526999474999
 20
291.2153524385003
 30
0.0
  0
VERTEX
  5
9BA1
  8
0
 10
274.9300517463999
 20
291.91706942360031
 30
0.0
  0
VERTEX
  5
9BA2
  8
0
 10
277.3473551434999
 20
293.0033828521004
 30
0.0
  0
VERTEX
  5
9BA3
  8
0
 10
279.54814571460003
 20
294.44180286970033
 30
0.0
  0
VERTEX
  5
9BA4
  8
0
 10
281.48220889369992
 20
296.19163858350032
 30
0.0
  0
VERTEX
  5
9BA5
  8
0
 10
283.1066657744999
 20
298.20524079610033
 30
0.0
  0
VERTEX
  5
9BA6
  8
0
 10
284.3868726671999
 20
300.4292854884003
 30
0.0
  0
VERTEX
  5
9BA7
  8
0
 10
285.2971287247999
 20
302.8061385358003
 30
0.0
  0
VERTEX
  5
9BA8
  8
0
 10
285.82123258119992
 20
305.2753148232004
 30
0.0
  0
VERTEX
  5
9BA9
  8
0
 10
285.95280798309989
 20
307.77503995600028
 30
0.0
  0
VERTEX
  5
9BAA
  8
0
 10
285.69518598249988
 20
310.24382994350032
 30
0.0
  0
VERTEX
  5
9BAB
  8
0
 10
285.06110677399988
 20
312.62194052290027
 30
0.0
  0
VERTEX
  5
9BAC
  8
0
 10
284.07170229399992
 20
314.8523255141003
 30
0.0
  0
VERTEX
  5
9BAD
  8
0
 10
282.75915628009989
 20
316.88461035100028
 30
0.0
  0
VERTEX
  5
9BAE
  8
0
 10
281.15906789209998
 20
318.67076146640028
 30
0.0
  0
VERTEX
  5
9BAF
  8
0
 10
279.31621275859987
 20
320.17238658770032
 30
0.0
  0
VERTEX
  5
9BB0
  8
0
 10
277.28023240249991
 20
321.3584549737003
 30
0.0
  0
VERTEX
  5
9BB1
  8
0
 10
275.10337201149991
 20
322.20322065700032
 30
0.0
  0
VERTEX
  5
9BB2
  8
0
 10
272.84192398249991
 20
322.69514703040028
 30
0.0
  0
VERTEX
  5
9BB3
  8
0
 10
270.55255871790001
 20
322.82609022500031
 30
0.0
  0
VERTEX
  5
9BB4
  8
0
 10
268.29158299509987
 20
322.60030081080032
 30
0.0
  0
VERTEX
  5
9BB5
  8
0
 10
266.11348943849998
 20
322.03073944500028
 30
0.0
  0
VERTEX
  5
9BB6
  8
0
 10
264.0710469707999
 20
321.13536183970041
 30
0.0
  0
VERTEX
  5
9BB7
  8
0
 10
262.21001107839987
 20
319.94457967860041
 30
0.0
  0
VERTEX
  5
9BB8
  8
0
 10
260.57399491429987
 20
318.49144125060042
 30
0.0
  0
VERTEX
  5
9BB9
  8
0
 10
259.19819905299988
 20
316.81684165750028
 30
0.0
  0
VERTEX
  5
9BBA
  8
0
 10
258.11032894919992
 20
314.96653393080032
 30
0.0
  0
VERTEX
  5
9BBB
  8
0
 10
257.33382587929992
 20
312.98831580440032
 30
0.0
  0
VERTEX
  5
9BBC
  8
0
 10
256.87884756409989
 20
310.93361674970032
 30
0.0
  0
SEQEND
  5
9BBD
  8
0
  0
LINE
  5
828A
  8
0
 10
256.87884721860001
 20
310.93361429140032
 30
0.0
 11
261.71047514979989
 21
292.5737728239003
 31
0.0
  0
ARC
  5
828B
  8
0
 10
279.5
 20
316.22586037730031
 30
0.0
 40
8.0
 50
0.0
 51
90.0
  0
LINE
  5
828C
  8
0
 10
261.5
 20
292.22586037730031
 30
0.0
 11
262.6342087624999
 21
292.22586037730031
 31
0.0
  0
LINE
  5
828D
  8
0
 10
278.34679622200349
 20
292.22586037730031
 30
0.0
 11
279.5
 21
292.22586037730031
 31
0.0
  0
ARC
  5
828E
  8
0
 10
261.5
 20
320.22586037730031
 30
0.0
 40
4.0
 50
90.0
 51
180.0
  0
LINE
  5
828F
  8
0
 10
257.5
 20
316.72586037730031
 30
0.0
 11
257.5
 21
320.22586037730031
 31
0.0
  0
LINE
  5
8290
  8
0
 10
287.5
 20
316.22586037730031
 30
0.0
 11
287.5
 21
300.22586037730031
 31
0.0
  0
ARC
  5
8291
  8
0
 10
256.5
 20
316.72586037730031
 30
0.0
 40
1.0
 50
284.47751218589627
 51
0.0
  0
LINE
  5
8292
  8
0
 10
257.5
 20
296.22586037730031
 30
0.0
 11
257.5
 21
299.72586037730031
 31
0.0
  0
ARC
  5
8293
  8
0
 10
279.5
 20
300.22586037730031
 30
0.0
 40
8.0000000000000853
 50
270.0
 51
0.0
  0
ARC
  5
8294
  8
0
 10
256.5
 20
299.72586037730031
 30
0.0
 40
1.0000000000000071
 50
0.0
 51
75.522487814103712
  0
ARC
  5
8295
  8
0
 10
261.5
 20
296.22586037730031
 30
0.0
 40
4.0000000000000284
 50
180.0
 51
270.0
  0
LINE
  5
8296
  8
0
 10
279.5
 20
324.22586037730031
 30
0.0
 11
261.5
 21
324.22586037730031
 31
0.0
  0
LINE
  5
8298
  8
0
 10
248.2030358888999
 20
292.22586037730031
 30
0.0
 11
248.2030358888999
 21
324.22586037730031
 31
0.0
  0
POLYLINE
  5
829A
  8
0
 66
     1
 10
0.0
 20
0.0
 30
0.0
 70
   128
  0
VERTEX
  5
9BBE
  8
0
 10
248.47593376819989
 20
324.22586037730031
 30
0.0
  0
VERTEX
  5
9BBF
  8
0
 10
248.52917350339999
 20
324.21625301750032
 30
0.0
  0
VERTEX
  5
9BC0
  8
0
 10
248.5803672653999
 20
324.18780014360033
 30
0.0
  0
VERTEX
  5
9BC1
  8
0
 10
248.6275477067
 20
324.14159518350033
 30
0.0
  0
VERTEX
  5
9BC2
  8
0
 10
248.66890170929989
 20
324.07941376790029
 30
0.0
  0
VERTEX
  5
9BC3
  8
0
 10
248.7028400621999
 20
324.00364549380032
 30
0.0
  0
VERTEX
  5
9BC4
  8
0
 10
248.72805853349999
 20
323.91720209350029
 30
0.0
  0
VERTEX
  5
9BC5
  8
0
 10
248.74358799139989
 20
323.82340553830028
 30
0.0
  0
VERTEX
  5
9BC6
  8
0
 10
248.7488316475999
 20
323.72586037730031
 30
0.0
  0
SEQEND
  5
9BC7
  8
0
  0
LINE
  5
829D
  8
0
 10
248.7488316475999
 20
323.72586037730031
 30
0.0
 11
248.7488316475999
 21
292.72586037730031
 31
0.0
  0
POLYLINE
  5
82A0
  8
0
 66
     1
 10
0.0
 20
0.0
 30
0.0
 70
   128
  0
VERTEX
  5
9BC8
  8
0
 10
248.7488316475999
 20
292.72586037730031
 30
0.0
  0
VERTEX
  5
9BC9
  8
0
 10
248.74358799139989
 20
292.62831521630028
 30
0.0
  0
VERTEX
  5
9BCA
  8
0
 10
248.72805853349999
 20
292.53451866110032
 30
0.0
  0
VERTEX
  5
9BCB
  8
0
 10
248.7028400621999
 20
292.44807526080029
 30
0.0
  0
VERTEX
  5
9BCC
  8
0
 10
248.66890170929989
 20
292.37230698670032
 30
0.0
  0
VERTEX
  5
9BCD
  8
0
 10
248.6275477067
 20
292.31012557120027
 30
0.0
  0
VERTEX
  5
9BCE
  8
0
 10
248.5803672653999
 20
292.26392061110027
 30
0.0
  0
VERTEX
  5
9BCF
  8
0
 10
248.52917350339999
 20
292.23546773710029
 30
0.0
  0
VERTEX
  5
9BD0
  8
0
 10
248.47593376819989
 20
292.22586037730031
 30
0.0
  0
SEQEND
  5
9BD1
  8
0
  0
LINE
  5
82A1
  8
0
 10
255.3873872762999
 20
292.72586037730031
 30
0.0
 11
255.3873872762999
 21
323.72586037730031
 31
0.0
  0
POLYLINE
  5
82A4
  8
0
 66
     1
 10
0.0
 20
0.0
 30
0.0
 70
   128
  0
VERTEX
  5
9BD2
  8
0
 10
255.3873872762999
 20
323.72586037730031
 30
0.0
  0
VERTEX
  5
9BD3
  8
0
 10
255.38214361999979
 20
323.82340553830028
 30
0.0
  0
VERTEX
  5
9BD4
  8
0
 10
255.36661416210001
 20
323.91720209350029
 30
0.0
  0
VERTEX
  5
9BD5
  8
0
 10
255.3413956908999
 20
324.00364549380032
 30
0.0
  0
VERTEX
  5
9BD6
  8
0
 10
255.30745733799989
 20
324.07941376790029
 30
0.0
  0
VERTEX
  5
9BD7
  8
0
 10
255.2661033352999
 20
324.14159518350033
 30
0.0
  0
VERTEX
  5
9BD8
  8
0
 10
255.2189228940999
 20
324.18780014360033
 30
0.0
  0
VERTEX
  5
9BD9
  8
0
 10
255.16772913209991
 20
324.21625301750032
 30
0.0
  0
VERTEX
  5
9BDA
  8
0
 10
255.1144893968999
 20
324.22586037730031
 30
0.0
  0
SEQEND
  5
9BDB
  8
0
  0
POLYLINE
  5
82A5
  8
0
 66
     1
 10
0.0
 20
0.0
 30
0.0
 70
   128
  0
VERTEX
  5
9BDC
  8
0
 10
255.1144893968999
 20
292.22586037730031
 30
0.0
  0
VERTEX
  5
9BDD
  8
0
 10
255.16772913209991
 20
292.23546773710029
 30
0.0
  0
VERTEX
  5
9BDE
  8
0
 10
255.2189228940999
 20
292.26392061110027
 30
0.0
  0
VERTEX
  5
9BDF
  8
0
 10
255.2661033352999
 20
292.31012557120027
 30
0.0
  0
VERTEX
  5
9BE0
  8
0
 10
255.30745733799989
 20
292.37230698670032
 30
0.0
  0
VERTEX
  5
9BE1
  8
0
 10
255.3413956908999
 20
292.44807526080029
 30
0.0
  0
VERTEX
  5
9BE2
  8
0
 10
255.36661416210001
 20
292.53451866110032
 30
0.0
  0
VERTEX
  5
9BE3
  8
0
 10
255.38214361999979
 20
292.62831521630028
 30
0.0
  0
VERTEX
  5
9BE4
  8
0
 10
255.3873872762999
 20
292.72586037730031
 30
0.0
  0
SEQEND
  5
9BE5
  8
0
  0
LINE
  5
87F1
  8
0
 10
96.0
 20
118.0
 30
0.0
 11
96.0
 21
106.2
 31
0.0
  0
LINE
  5
87F2
  8
0
 10
104.0
 20
106.2
 30
0.0
 11
104.0
 21
118.0
 31
0.0
  0
LINE
  5
87F3
  8
0
 10
96.0
 20
106.2
 30
0.0
 11
97.199999999999974
 21
105.0
 31
0.0
  0
LINE
  5
87F4
  8
0
 10
102.8
 20
105.0
 30
0.0
 11
104.0
 21
106.2
 31
0.0
  0
LINE
  5
8807
  8
0
 10
113.09999999999999
 20
126.5
 30
0.0
 11
112.5
 21
126.5
 31
0.0
  0
LINE
  5
8808
  8
0
 10
112.5
 20
120.5003217312
 30
0.0
 11
113.09999999999999
 21
120.5003217312
 31
0.0
  0
LINE
  5
8809
  8
0
 10
87.500000000000057
 20
126.5
 30
0.0
 11
86.900000000000034
 21
126.5
 31
0.0
  0
LINE
  5
880A
  8
0
 10
86.900000000000034
 20
120.5003217312
 30
0.0
 11
87.500000000000057
 21
120.5003217312
 31
0.0
  0
LINE
  5
8815
  8
0
 10
86.000000000000057
 20
125.0
 30
0.0
 11
85.500000000000057
 21
124.5
 31
0.0
  0
LINE
  5
8816
  8
0
 10
85.500000000000057
 20
121.5
 30
0.0
 11
86.000000000000057
 21
121.0
 31
0.0
  0
LINE
  5
8818
  8
0
 10
86.000000000000057
 20
121.0
 30
0.0
 11
86.800000000000011
 21
121.0
 31
0.0
  0
LINE
  5
8819
  8
0
 10
101.5
 20
125.0
 30
0.0
 11
98.499999999999986
 21
125.0
 31
0.0
  0
LINE
  5
881E
  8
0
 10
98.500000000000014
 20
121.0
 30
0.0
 11
101.5
 21
121.0
 31
0.0
  0
LINE
  5
8820
  8
0
 10
113.2
 20
121.0
 30
0.0
 11
114.0
 21
121.0
 31
0.0
  0
LINE
  5
8821
  8
0
 10
114.0
 20
121.0
 30
0.0
 11
114.5
 21
121.5
 31
0.0
  0
LINE
  5
8822
  8
0
 10
114.5
 20
124.5
 30
0.0
 11
114.0
 21
125.0
 31
0.0
  0
LINE
  5
8823
  8
0
 10
86.900000000000034
 20
124.5
 30
0.0
 11
86.800000000000011
 21
124.5
 31
0.0
  0
LINE
  5
8824
  8
0
 10
86.800000000000011
 20
121.5
 30
0.0
 11
86.900000000000034
 21
121.5
 31
0.0
  0
LINE
  5
8825
  8
0
 10
113.2
 20
124.5
 30
0.0
 11
113.09999999999999
 21
124.5
 31
0.0
  0
LINE
  5
8826
  8
0
 10
113.09999999999999
 20
121.5
 30
0.0
 11
113.2
 21
121.5
 31
0.0
  0
LINE
  5
8827
  8
0
 10
102.0
 20
128.0
 30
0.0
 11
101.5
 21
128.0
 31
0.0
  0
LINE
  5
8828
  8
0
 10
96.0
 20
106.2
 30
0.0
 11
104.0
 21
106.2
 31
0.0
  0
LINE
  5
8829
  8
0
 10
102.8
 20
105.0
 30
0.0
 11
97.199999999999974
 21
105.0
 31
0.0
  0
ARC
  5
882E
  8
0
 10
85.000000000000057
 20
138.25
 30
0.0
 40
1.0000000000000511
 50
206.38951498629859
 51
270.0
  0
ARC
  5
882F
  8
0
 10
84.500000000000057
 20
137.5
 30
0.0
 40
0.5
 50
90.0
 51
142.33399475869859
  0
LINE
  5
8831
  8
0
 10
95.0
 20
137.25
 30
0.0
 11
95.750000000000014
 21
138.0
 31
0.0
  0
LINE
  5
8832
  8
0
 10
85.000000000000057
 20
137.25
 30
0.0
 11
95.0
 21
137.25
 31
0.0
  0
ARC
  5
8833
  8
0
 10
85.000000000000057
 20
132.25
 30
0.0
 40
1.000000000000022
 50
217.1248166585014
 51
270.0
  0
LINE
  5
8834
  8
0
 10
95.0
 20
131.25
 30
0.0
 11
95.396446609400016
 21
131.64644660939999
 31
0.0
  0
LINE
  5
8835
  8
0
 10
85.000000000000057
 20
131.25
 30
0.0
 11
95.0
 21
131.25
 31
0.0
  0
ARC
  5
8836
  8
0
 10
85.000000000000057
 20
136.25
 30
0.0
 40
1.00000000000004
 50
217.1248166585014
 51
270.0
  0
LINE
  5
8837
  8
0
 10
95.0
 20
135.25
 30
0.0
 11
95.396446609400016
 21
135.64644660939999
 31
0.0
  0
LINE
  5
8838
  8
0
 10
85.000000000000057
 20
135.25
 30
0.0
 11
95.0
 21
135.25
 31
0.0
  0
ARC
  5
8839
  8
0
 10
85.000000000000057
 20
131.75
 30
0.0
 40
1.0000000000000131
 50
90.0
 51
142.8751833414986
  0
LINE
  5
883A
  8
0
 10
85.000000000000057
 20
132.75
 30
0.0
 11
95.0
 21
132.75
 31
0.0
  0
LINE
  5
883B
  8
0
 10
95.396446609400016
 20
132.3535533905999
 30
0.0
 11
95.0
 21
132.75
 31
0.0
  0
ARC
  5
883C
  8
0
 10
85.000000000000057
 20
134.25
 30
0.0
 40
1.0000000000000251
 50
217.1248166585014
 51
270.0
  0
LINE
  5
883D
  8
0
 10
95.0
 20
133.25
 30
0.0
 11
95.396446609400016
 21
133.64644660939999
 31
0.0
  0
LINE
  5
883E
  8
0
 10
85.000000000000057
 20
133.25
 30
0.0
 11
95.0
 21
133.25
 31
0.0
  0
ARC
  5
883F
  8
0
 10
85.000000000000057
 20
129.75
 30
0.0
 40
1.0000000000000191
 50
90.0
 51
149.19435206169999
  0
ARC
  5
8840
  8
0
 10
85.999999999799968
 20
130.99999999990001
 30
0.0
 40
1.9999999997762929
 50
179.99999999879981
 51
201.6500269591005
  0
LINE
  5
8841
  8
0
 10
84.000000000000057
 20
131.0
 30
0.0
 11
84.000000000000057
 21
137.5
 31
0.0
  0
ARC
  5
8842
  8
0
 10
84.500000000000057
 20
137.5
 30
0.0
 40
0.4999999999997038
 50
142.33399475869859
 51
180.0
  0
ARC
  5
8843
  8
0
 10
85.000000000000057
 20
135.75
 30
0.0
 40
1.0000000000000111
 50
90.0
 51
142.8751833414986
  0
ARC
  5
8844
  8
0
 10
84.759845748000032
 20
136.0
 30
0.0
 40
0.6598761637025675
 50
147.6026674767981
 51
212.39733252320019
  0
ARC
  5
8845
  8
0
 10
85.000000000000057
 20
133.75
 30
0.0
 40
1.0
 50
90.0
 51
142.8751833414986
  0
ARC
  5
8846
  8
0
 10
84.759845748000032
 20
134.0
 30
0.0
 40
0.6598761637019031
 50
147.6026674767981
 51
212.3973325233014
  0
ARC
  5
8847
  8
0
 10
84.759845748000032
 20
132.0
 30
0.0
 40
0.6598761637019676
 50
147.6026674767981
 51
212.39733252320019
  0
LINE
  5
8848
  8
0
 10
95.0
 20
134.75
 30
0.0
 11
95.0
 21
135.25
 31
0.0
  0
LINE
  5
8849
  8
0
 10
85.000000000000057
 20
134.75
 30
0.0
 11
95.0
 21
134.75
 31
0.0
  0
LINE
  5
884A
  8
0
 10
95.0
 20
132.75
 30
0.0
 11
95.0
 21
133.25
 31
0.0
  0
ARC
  5
884B
  8
0
 10
86.000000000000057
 20
131.0
 30
0.0
 40
2.0000000000000528
 50
201.65002695790039
 51
210.00000000000179
  0
LINE
  5
884C
  8
0
 10
85.000000000000057
 20
130.75
 30
0.0
 11
95.0
 21
130.75
 31
0.0
  0
LINE
  5
884D
  8
0
 10
95.750000000000014
 20
130.0
 30
0.0
 11
95.0
 21
130.75
 31
0.0
  0
LINE
  5
884E
  8
0
 10
84.267949192399954
 20
130.0
 30
0.0
 11
95.750000000000014
 21
130.0
 31
0.0
  0
LINE
  5
884F
  8
0
 10
95.396446609400016
 20
134.35355339060001
 30
0.0
 11
95.0
 21
134.75
 31
0.0
  0
LINE
  5
8850
  8
0
 10
95.0
 20
136.75
 30
0.0
 11
95.0
 21
137.25
 31
0.0
  0
LINE
  5
8851
  8
0
 10
85.000000000000057
 20
136.75
 30
0.0
 11
95.0
 21
136.75
 31
0.0
  0
LINE
  5
8852
  8
0
 10
95.0
 20
130.75
 30
0.0
 11
95.0
 21
131.25
 31
0.0
  0
LINE
  5
8853
  8
0
 10
95.396446609400016
 20
136.35355339060001
 30
0.0
 11
95.0
 21
136.75
 31
0.0
  0
ARC
  5
8854
  8
0
 10
95.042893218800032
 20
132.0
 30
0.0
 40
0.5000000000000318
 50
314.99999999999989
 51
45.000000000000078
  0
ARC
  5
8855
  8
0
 10
95.042893218800032
 20
134.0
 30
0.0
 40
0.5000000000000419
 50
314.99999999999989
 51
45.000000000000078
  0
ARC
  5
8856
  8
0
 10
95.042893218800032
 20
136.0
 30
0.0
 40
0.5000000000000215
 50
314.99999999999989
 51
45.000000000000078
  0
LINE
  5
8858
  8
0
 10
97.0
 20
138.0
 30
0.0
 11
97.0
 21
129.5
 31
0.0
  0
ARC
  5
8859
  8
0
 10
96.5
 20
129.5
 30
0.0
 40
0.5
 50
0.0
 51
90.0
  0
LINE
  5
885A
  8
0
 10
96.5
 20
130.0
 30
0.0
 11
95.750000000000014
 21
130.0
 31
0.0
  0
LINE
  5
885B
  8
0
 10
104.6035533906
 20
131.64644660939999
 30
0.0
 11
105.0
 21
131.25
 31
0.0
  0
LINE
  5
885C
  8
0
 10
105.0
 20
130.75
 30
0.0
 11
105.0
 21
131.25
 31
0.0
  0
LINE
  5
885D
  8
0
 10
105.0
 20
130.75
 30
0.0
 11
104.25
 21
130.0
 31
0.0
  0
LINE
  5
885E
  8
0
 10
104.25
 20
130.0
 30
0.0
 11
103.5
 21
130.0
 31
0.0
  0
ARC
  5
885F
  8
0
 10
103.5
 20
129.5
 30
0.0
 40
0.5000000000000036
 50
90.0
 51
180.0
  0
LINE
  5
8860
  8
0
 10
103.0
 20
129.5
 30
0.0
 11
103.0
 21
138.0
 31
0.0
  0
LINE
  5
8862
  8
0
 10
104.25
 20
138.0
 30
0.0
 11
105.0
 21
137.25
 31
0.0
  0
LINE
  5
8863
  8
0
 10
105.0
 20
136.75
 30
0.0
 11
105.0
 21
137.25
 31
0.0
  0
LINE
  5
8864
  8
0
 10
105.0
 20
136.75
 30
0.0
 11
104.6035533906
 21
136.35355339060001
 31
0.0
  0
ARC
  5
8865
  8
0
 10
104.9571067812
 20
136.0
 30
0.0
 40
0.5000000000000103
 50
134.99999999999989
 51
225.00000000000011
  0
LINE
  5
8866
  8
0
 10
104.6035533906
 20
135.64644660939999
 30
0.0
 11
105.0
 21
135.25
 31
0.0
  0
LINE
  5
8867
  8
0
 10
105.0
 20
134.75
 30
0.0
 11
105.0
 21
135.25
 31
0.0
  0
LINE
  5
8868
  8
0
 10
105.0
 20
134.75
 30
0.0
 11
104.6035533906
 21
134.35355339060001
 31
0.0
  0
ARC
  5
8869
  8
0
 10
104.9571067812
 20
134.0
 30
0.0
 40
0.4999999999999952
 50
134.99999999999989
 51
225.00000000000011
  0
LINE
  5
886A
  8
0
 10
104.6035533906
 20
133.64644660939999
 30
0.0
 11
105.0
 21
133.25
 31
0.0
  0
LINE
  5
886B
  8
0
 10
105.0
 20
132.75
 30
0.0
 11
105.0
 21
133.25
 31
0.0
  0
LINE
  5
886C
  8
0
 10
105.0
 20
132.75
 30
0.0
 11
104.6035533906
 21
132.3535533905999
 31
0.0
  0
ARC
  5
886D
  8
0
 10
104.9571067812
 20
132.0
 30
0.0
 40
0.5000000000000002
 50
134.99999999999989
 51
225.00000000000011
  0
ARC
  5
886E
  8
0
 10
115.0
 20
134.25
 30
0.0
 40
1.0000000000000731
 50
270.0
 51
322.87518334149729
  0
LINE
  5
886F
  8
0
 10
105.0
 20
133.25
 30
0.0
 11
115.0
 21
133.25
 31
0.0
  0
ARC
  5
8870
  8
0
 10
115.0
 20
136.25
 30
0.0
 40
1.0000000000000751
 50
270.0
 51
322.87518334149729
  0
LINE
  5
8871
  8
0
 10
105.0
 20
135.25
 30
0.0
 11
115.0
 21
135.25
 31
0.0
  0
LINE
  5
8872
  8
0
 10
105.0
 20
132.75
 30
0.0
 11
115.0
 21
132.75
 31
0.0
  0
LINE
  5
8873
  8
0
 10
105.0
 20
134.75
 30
0.0
 11
115.0
 21
134.75
 31
0.0
  0
ARC
  5
8874
  8
0
 10
115.5
 20
137.5
 30
0.0
 40
0.499999999999999
 50
37.666005241301413
 51
90.0
  0
ARC
  5
8875
  8
0
 10
115.0
 20
138.25
 30
0.0
 40
1.0000000000000151
 50
270.0
 51
333.61048501370112
  0
LINE
  5
8876
  8
0
 10
105.0
 20
137.25
 30
0.0
 11
115.0
 21
137.25
 31
0.0
  0
LINE
  5
8877
  8
0
 10
84.500000000000057
 20
138.0
 30
0.0
 11
115.5
 21
138.0
 31
0.0
  0
ARC
  5
8878
  8
0
 10
115.0
 20
129.75
 30
0.0
 40
1.0
 50
30.805647938299948
 51
90.0
  0
ARC
  5
8879
  8
0
 10
114.0
 20
131.0
 30
0.0
 40
2.0000000000000231
 50
329.9999999999979
 51
338.34997304209958
  0
LINE
  5
887A
  8
0
 10
104.25
 20
130.0
 30
0.0
 11
115.7320508076
 21
130.0
 31
0.0
  0
LINE
  5
887B
  8
0
 10
105.0
 20
130.75
 30
0.0
 11
115.0
 21
130.75
 31
0.0
  0
LINE
  5
887C
  8
0
 10
105.0
 20
131.25
 30
0.0
 11
115.0
 21
131.25
 31
0.0
  0
LINE
  5
887D
  8
0
 10
105.0
 20
136.75
 30
0.0
 11
115.0
 21
136.75
 31
0.0
  0
ARC
  5
887E
  8
0
 10
115.0
 20
135.75
 30
0.0
 40
1.0000000000000131
 50
37.124816658501338
 51
90.0
  0
ARC
  5
887F
  8
0
 10
115.0
 20
132.25
 30
0.0
 40
1.0000000000000551
 50
270.0
 51
322.87518334149729
  0
ARC
  5
8880
  8
0
 10
115.0
 20
131.75
 30
0.0
 40
1.0000000000000131
 50
37.124816658501338
 51
90.0
  0
ARC
  5
8881
  8
0
 10
115.0
 20
133.75
 30
0.0
 40
0.9999999999999857
 50
37.124816658501338
 51
90.0
  0
ARC
  5
8882
  8
0
 10
115.240154252
 20
132.0
 30
0.0
 40
0.6598761637022435
 50
327.6026674767981
 51
32.397332523200248
  0
ARC
  5
8883
  8
0
 10
115.240154252
 20
134.0
 30
0.0
 40
0.6598761637029285
 50
327.6026674767981
 51
32.397332523200248
  0
ARC
  5
8884
  8
0
 10
115.240154252
 20
136.0
 30
0.0
 40
0.6598761637026847
 50
327.6026674767981
 51
32.397332523200248
  0
ARC
  5
8885
  8
0
 10
115.5
 20
137.5
 30
0.0
 40
0.500000000000385
 50
0.0
 51
37.666005241301413
  0
LINE
  5
8886
  8
0
 10
116.0
 20
131.0
 30
0.0
 11
116.0
 21
137.5
 31
0.0
  0
ARC
  5
8887
  8
0
 10
114.0000000002
 20
130.99999999990001
 30
0.0
 40
1.9999999997675879
 50
338.34997304080002
 51
0.0000000012994983
  0
ARC
  5
8888
  8
0
 10
114.0
 20
131.0
 30
0.0
 40
2.0000000000576721
 50
323.13010235430193
 51
329.99999999990172
  0
ARC
  5
8889
  8
0
 10
86.000000000000057
 20
131.0
 30
0.0
 40
1.9999999999859699
 50
210.00000000000179
 51
216.8698976459026
  0
ARC
  5
888A
  8
0
 10
114.0
 20
131.0
 30
0.0
 40
2.0000000000000302
 50
277.18075578150422
 51
323.13010235419841
  0
ARC
  5
888B
  8
0
 10
86.000000000000057
 20
131.0
 30
0.0
 40
1.999999999999996
 50
216.86989764580159
 51
262.81924421849578
  0
ARC
  5
888C
  8
0
 10
85.500000000000057
 20
127.0313730334
 30
0.0
 40
2.0
 50
0.0
 51
82.819244218495768
  0
ARC
  5
888D
  8
0
 10
114.5
 20
127.0313730334
 30
0.0
 40
2.0000000000000049
 50
97.18075578149768
 51
180.0
  0
LINE
  5
888E
  8
0
 10
107.5
 20
126.3
 30
0.0
 11
107.5
 21
118.5
 31
0.0
  0
ARC
  5
888F
  8
0
 10
107.0
 20
126.3
 30
0.0
 40
0.5
 50
0.0
 51
90.0
  0
LINE
  5
8890
  8
0
 10
102.0
 20
126.8
 30
0.0
 11
107.0
 21
126.8
 31
0.0
  0
LINE
  5
8891
  8
0
 10
102.0
 20
130.0
 30
0.0
 11
102.0
 21
126.8
 31
0.0
  0
LINE
  5
8892
  8
0
 10
102.0
 20
130.0
 30
0.0
 11
100.0
 21
130.0
 31
0.0
  0
LINE
  5
8893
  8
0
 10
100.0
 20
130.0
 30
0.0
 11
100.0
 21
126.8
 31
0.0
  0
LINE
  5
8894
  8
0
 10
93.0
 20
126.8
 30
0.0
 11
100.0
 21
126.8
 31
0.0
  0
ARC
  5
8895
  8
0
 10
93.0
 20
126.3
 30
0.0
 40
0.5000000000000071
 50
90.0
 51
180.0
  0
LINE
  5
8898
  8
0
 10
87.500000000000057
 20
119.5
 30
0.0
 11
87.500000000000057
 21
127.0313730334
 31
0.0
  0
LINE
  5
889A
  8
0
 10
92.5
 20
119.0
 30
0.0
 11
88.000000000000057
 21
119.0
 31
0.0
  0
ARC
  5
889B
  8
0
 10
88.000000000000057
 20
119.5
 30
0.0
 40
0.5000000000000036
 50
180.0
 51
270.0
  0
LINE
  5
889F
  8
0
 10
112.0
 20
119.0
 30
0.0
 11
107.5
 21
119.0
 31
0.0
  0
LINE
  5
88A1
  8
0
 10
112.5
 20
127.0313730334
 30
0.0
 11
112.5
 21
119.5
 31
0.0
  0
ARC
  5
88A3
  8
0
 10
112.0
 20
119.5
 30
0.0
 40
0.5
 50
270.0
 51
0.0
  0
LINE
  5
88A4
  8
0
 10
98.500000000000014
 20
126.7
 30
0.0
 11
101.5
 21
126.6999999999999
 31
0.0
  0
LINE
  5
88B4
  8
0
 10
98.500000000000014
 20
125.5
 30
0.0
 11
101.5
 21
125.5
 31
0.0
  0
LINE
  5
88B5
  8
0
 10
113.09999999999999
 20
120.5003217312
 30
0.0
 11
113.09999999999999
 21
126.5
 31
0.0
  0
LINE
  5
88B7
  8
0
 10
86.900000000000034
 20
126.5
 30
0.0
 11
86.900000000000034
 21
120.5003217312
 31
0.0
  0
LINE
  5
88BD
  8
0
 10
85.500000000000057
 20
121.5
 30
0.0
 11
85.500000000000057
 21
124.5
 31
0.0
  0
LINE
  5
88BE
  8
0
 10
86.800000000000011
 20
125.0
 30
0.0
 11
86.800000000000011
 21
121.0
 31
0.0
  0
LINE
  5
88C1
  8
0
 10
113.2
 20
125.0
 30
0.0
 11
113.2
 21
121.0
 31
0.0
  0
LINE
  5
88C2
  8
0
 10
114.5
 20
124.5
 30
0.0
 11
114.5
 21
121.5
 31
0.0
  0
LINE
  5
88C5
  8
0
 10
92.5
 20
118.5
 30
0.0
 11
93.0
 21
118.0
 31
0.0
  0
LINE
  5
88C7
  8
0
 10
92.5
 20
118.5
 30
0.0
 11
92.5
 21
126.3
 31
0.0
  0
LINE
  5
88C9
  8
0
 10
98.500000000000014
 20
118.5
 30
0.0
 11
98.500000000000014
 21
126.8
 31
0.0
  0
LINE
  5
88CB
  8
0
 10
98.500000000000014
 20
118.5
 30
0.0
 11
98.0
 21
118.0
 31
0.0
  0
LINE
  5
88CD
  8
0
 10
101.5
 20
128.0
 30
0.0
 11
101.5
 21
118.5
 31
0.0
  0
LINE
  5
88D1
  8
0
 10
102.0
 20
118.0
 30
0.0
 11
101.5
 21
118.5
 31
0.0
  0
LINE
  5
88D5
  8
0
 10
107.0
 20
118.0
 30
0.0
 11
107.5
 21
118.5
 31
0.0
  0
LINE
  5
88D7
  8
0
 10
99.0
 20
118.0
 30
0.0
 11
98.0
 21
118.0
 31
0.0
  0
LINE
  5
88E1
  8
0
 10
84.000000000000057
 20
118.5
 30
0.0
 11
84.000000000000057
 21
124.5
 31
0.0
  0
LINE
  5
88E2
  8
0
 10
84.000000000000057
 20
118.5
 30
0.0
 11
84.500000000000057
 21
118.0
 31
0.0
  0
ARC
  5
88E4
  8
0
 10
84.500000000000057
 20
124.5
 30
0.0
 40
0.5
 50
90.0
 51
180.0
  0
LINE
  5
88EB
  8
0
 10
116.0
 20
124.5
 30
0.0
 11
116.0
 21
118.5
 31
0.0
  0
LINE
  5
88ED
  8
0
 10
115.5
 20
118.0
 30
0.0
 11
116.0
 21
118.5
 31
0.0
  0
LINE
  5
88EE
  8
0
 10
115.5
 20
118.0
 30
0.0
 11
84.500000000000057
 21
118.0
 31
0.0
  0
ARC
  5
88EF
  8
0
 10
115.5
 20
124.5
 30
0.0
 40
0.5000000000000147
 50
0.0
 51
90.0
  0
LINE
  5
88F6
  8
0
 10
85.000000000000057
 20
130.75
 30
0.0
 11
85.000000000000057
 21
131.25
 31
0.0
  0
LINE
  5
88F7
  8
0
 10
85.000000000000057
 20
136.75
 30
0.0
 11
85.000000000000057
 21
137.25
 31
0.0
  0
LINE
  5
88F8
  8
0
 10
85.000000000000057
 20
134.75
 30
0.0
 11
85.000000000000057
 21
135.25
 31
0.0
  0
LINE
  5
88F9
  8
0
 10
85.000000000000057
 20
132.75
 30
0.0
 11
85.000000000000057
 21
133.25
 31
0.0
  0
LINE
  5
88FE
  8
0
 10
115.0
 20
132.75
 30
0.0
 11
115.0
 21
133.25
 31
0.0
  0
LINE
  5
88FF
  8
0
 10
115.0
 20
134.75
 30
0.0
 11
115.0
 21
135.25
 31
0.0
  0
LINE
  5
8900
  8
0
 10
115.0
 20
130.75
 30
0.0
 11
115.0
 21
131.25
 31
0.0
  0
LINE
  5
8901
  8
0
 10
115.0
 20
136.75
 30
0.0
 11
115.0
 21
137.25
 31
0.0
  0
ARC
  5
8906
  8
0
 10
111.3724744931
 20
146.5567778228
 30
0.0
 40
17.281827881229809
 50
279.37713407800288
 51
284.15953111160428
  0
ARC
  5
8909
  8
0
 10
88.505435363599986
 20
145.9707473718
 30
0.0
 40
16.683754675991889
 50
255.7546975539978
 51
260.70863725639708
  0
LINE
  5
890A
  8
0
 10
85.894817552500001
 20
129.5
 30
0.0
 11
85.811758881699973
 21
129.50588244369999
 31
0.0
  0
LINE
  5
890C
  8
0
 10
114.1882411183
 20
129.50588244369999
 30
0.0
 11
114.1051824475
 21
129.5
 31
0.0
  0
LINE
  5
890E
  8
0
 10
97.0
 20
129.5
 30
0.0
 11
85.894817552500001
 21
129.5
 31
0.0
  0
LINE
  5
890F
  8
0
 10
114.1051824475
 20
129.5
 30
0.0
 11
103.0
 21
129.5
 31
0.0
  0
LINE
  5
8938
  8
0
 10
436.0
 20
118.0
 30
0.0
 11
436.0
 21
106.2
 31
0.0
  0
LINE
  5
8939
  8
0
 10
444.0
 20
106.2
 30
0.0
 11
444.0
 21
118.0
 31
0.0
  0
LINE
  5
893A
  8
0
 10
436.0
 20
106.2
 30
0.0
 11
437.19999999999982
 21
105.0
 31
0.0
  0
LINE
  5
893B
  8
0
 10
442.7999999999999
 20
105.0
 30
0.0
 11
444.0
 21
106.2
 31
0.0
  0
LINE
  5
8948
  8
0
 10
450.0
 20
136.0
 30
0.0
 11
450.0
 21
137.80000000000001
 31
0.0
  0
LINE
  5
8949
  8
0
 10
430.0
 20
137.80000000000001
 30
0.0
 11
430.0
 21
136.0
 31
0.0
  0
LINE
  5
894A
  8
0
 10
450.0
 20
137.80000000000001
 30
0.0
 11
449.7999999999999
 21
138.0
 31
0.0
  0
LINE
  5
894B
  8
0
 10
430.19999999999987
 20
138.0
 30
0.0
 11
430.0
 21
137.80000000000001
 31
0.0
  0
LINE
  5
894C
  8
0
 10
430.0
 20
136.0
 30
0.0
 11
430.19999999999987
 21
135.80000000000001
 31
0.0
  0
LINE
  5
894D
  8
0
 10
449.7999999999999
 20
135.80000000000001
 30
0.0
 11
450.0
 21
136.0
 31
0.0
  0
ARC
  5
894E
  8
0
 10
430.84999999999991
 20
135.40000000000001
 30
0.0
 40
0.4000000000000341
 50
14.47751218592791
 51
90.0
  0
ARC
  5
894F
  8
0
 10
449.14999999999981
 20
135.40000000000001
 30
0.0
 40
0.4000000000000057
 50
90.0
 51
165.52248781406811
  0
LINE
  5
8957
  8
0
 10
436.0
 20
106.2
 30
0.0
 11
444.0
 21
106.2
 31
0.0
  0
LINE
  5
8958
  8
0
 10
442.7999999999999
 20
105.0
 30
0.0
 11
437.19999999999982
 21
105.0
 31
0.0
  0
POLYLINE
  5
895B
  8
0
 66
     1
 10
0.0
 20
0.0
 30
0.0
 70
   128
  0
VERTEX
  5
9BE6
  8
0
 10
455.5954967752001
 20
129.79401905470019
 30
0.0
  0
VERTEX
  5
9BE7
  8
0
 10
455.88911568390029
 20
130.34330986560019
 30
0.0
  0
VERTEX
  5
9BE8
  8
0
 10
456.00000000000023
 20
131.0000000000002
 30
0.0
  0
SEQEND
  5
9BE9
  8
0
  0
LINE
  5
895C
  8
0
 10
456.00000000000023
 20
131.0000000000002
 30
0.0
 11
456.00000000000011
 21
137.5000000000002
 31
0.0
  0
ARC
  5
895D
  8
0
 10
454.00000000000023
 20
131.0000000000002
 30
0.0
 40
2.0000000000000231
 50
287.56753871210378
 51
322.91562395299792
  0
LINE
  5
895E
  8
0
 10
424.0
 20
137.5
 30
0.0
 11
424.0
 21
135.5
 31
0.0
  0
ARC
  5
8962
  8
0
 10
455.49999999999989
 20
137.5
 30
0.0
 40
0.5
 50
0.0
 51
90.0
  0
LINE
  5
8963
  8
0
 10
456.0
 20
137.41895912379999
 30
0.0
 11
456.0
 21
137.5
 31
0.0
  0
ARC
  5
8966
  8
0
 10
424.5
 20
137.5
 30
0.0
 40
0.5
 50
90.0
 51
180.0
  0
LINE
  5
896F
  8
0
 10
424.5
 20
138.0
 30
0.0
 11
455.49999999999989
 21
138.0
 31
0.0
  0
LINE
  5
8970
  8
0
 10
449.7999999999999
 20
135.80000000000001
 30
0.0
 11
430.19999999999987
 21
135.80000000000001
 31
0.0
  0
LINE
  5
8977
  8
0
 10
456.0
 20
124.5
 30
0.0
 11
456.0
 21
118.5
 31
0.0
  0
ARC
  5
897A
  8
0
 10
455.49999999999989
 20
124.5
 30
0.0
 40
0.5
 50
0.0
 51
90.0
  0
LINE
  5
897B
  8
0
 10
456.0
 20
118.5
 30
0.0
 11
455.49999999999989
 21
118.0
 31
0.0
  0
LINE
  5
8981
  8
0
 10
424.0
 20
118.5
 30
0.0
 11
424.0
 21
124.5
 31
0.0
  0
LINE
  5
8982
  8
0
 10
455.49999999999989
 20
118.0
 30
0.0
 11
424.5
 21
118.0
 31
0.0
  0
LINE
  5
8983
  8
0
 10
424.0
 20
118.5
 30
0.0
 11
424.5
 21
118.0
 31
0.0
  0
ARC
  5
8985
  8
0
 10
424.5
 20
124.5
 30
0.0
 40
0.5
 50
90.0
 51
180.0
  0
LINE
  5
899B
  8
0
 10
448.0
 20
118.0
 30
0.0
 11
448.0
 21
125.0
 31
0.0
  0
LINE
  5
89A1
  8
0
 10
432.0
 20
125.0
 30
0.0
 11
432.0
 21
118.0
 31
0.0
  0
LINE
  5
89A3
  8
0
 10
244.0
 20
129.01568651669999
 30
0.0
 11
255.854101157
 21
129.01568651669999
 31
0.0
  0
ARC
  5
89A4
  8
0
 10
243.99819517271229
 20
129.51407693886969
 30
0.0
 40
0.4983936901413754
 50
181.61847918155149
 51
270.20748500010899
  0
ARC
  5
89A5
  8
0
 10
255.85858264710009
 20
129.51133393730001
 30
0.0
 40
0.4956676803418838
 50
269.4819634634992
 51
338.64858999580048
  0
LINE
  5
89B2
  8
3
 10
273.32349980999999
 20
105.5234997066385
 30
0.0
 11
273.32349980999999
 21
118.0000002682
 31
0.0
  0
LINE
  5
89B3
  8
3
 10
266.67649980999988
 20
105.52350008663841
 30
0.0
 11
266.67649981
 21
118.0000002682
 31
0.0
  0
LINE
  5
89B4
  8
3
 10
103.32349981
 20
105.5234997066385
 30
0.0
 11
103.32349981
 21
118.0000002682
 31
0.0
  0
LINE
  5
89B5
  8
3
 10
96.676499809999896
 20
105.52350008663841
 30
0.0
 11
96.676499809999996
 21
118.0000002682
 31
0.0
  0
LINE
  5
89B6
  8
3
 10
443.32349980999999
 20
105.5234997066385
 30
0.0
 11
443.32349980999999
 21
118.0000002682
 31
0.0
  0
LINE
  5
89B7
  8
3
 10
436.67649980999983
 20
105.52350008663841
 30
0.0
 11
436.67649980999988
 21
118.0000002682
 31
0.0
  0
ARC
  5
89B8
  8
5
 10
270.0
 20
398.45172093340028
 30
0.0
 40
10.00000000000056
 50
301.6420421169986
 51
0.0
  0
ARC
  5
89B9
  8
5
 10
270.0
 20
398.45172093340028
 30
0.0
 40
10.000000000000909
 50
0.0
 51
238.35795788300129
  0
LINE
  5
89BA
  8
5
 10
276.0
 20
389.99448734640021
 30
0.0
 11
276.0
 21
390.45172093340028
 31
0.0
  0
LINE
  5
89BB
  8
5
 10
264.0
 20
390.45172093340028
 30
0.0
 11
264.0
 21
389.99448734640021
 31
0.0
  0
LINE
  5
89BC
  8
5
 10
274.0
 20
388.46492676610029
 30
0.0
 11
274.0
 21
324.98485842411162
 31
0.0
  0
LINE
  5
89BD
  8
5
 10
266.0
 20
324.56093576190841
 30
0.0
 11
266.0
 21
388.46492676610029
 31
0.0
  0
ARC
  5
89BE
  8
5
 10
270.0
 20
401.42032492040022
 30
0.0
 40
12.62373033942294
 50
245.4444645259986
 51
294.55553547400137
  0
POLYLINE
  5
89BF
  8
5
 66
     1
 10
0.0
 20
0.0
 30
0.0
 70
   128
  0
VERTEX
  5
9BEA
  8
5
 10
276.0
 20
389.99448734640021
 30
0.0
  0
VERTEX
  5
9BEB
  8
5
 10
275.97175008499988
 20
389.79558537910032
 30
0.0
  0
VERTEX
  5
9BEC
  8
5
 10
275.8072533989
 20
389.4785232395003
 30
0.0
  0
VERTEX
  5
9BED
  8
5
 10
275.4997628608001
 20
389.1741658486003
 30
0.0
  0
VERTEX
  5
9BEE
  8
5
 10
275.0568499085
 20
388.8900074955003
 30
0.0
  0
VERTEX
  5
9BEF
  8
5
 10
274.48942052870012
 20
388.63304510190028
 30
0.0
  0
VERTEX
  5
9BF0
  8
5
 10
273.81144671599998
 20
388.40960593460028
 30
0.0
  0
VERTEX
  5
9BF1
  8
5
 10
273.03962243569998
 20
388.2251918077003
 30
0.0
  0
VERTEX
  5
9BF2
  8
5
 10
272.19295256300012
 20
388.08434360890033
 30
0.0
  0
VERTEX
  5
9BF3
  8
5
 10
271.29228492030012
 20
387.9905294883003
 30
0.0
  0
VERTEX
  5
9BF4
  8
5
 10
270.35979693399997
 20
387.9460594609003
 30
0.0
  0
VERTEX
  5
9BF5
  8
5
 10
269.41844955300007
 20
387.95202852640028
 30
0.0
  0
VERTEX
  5
9BF6
  8
5
 10
268.4914218742
 20
388.00828970660029
 30
0.0
  0
VERTEX
  5
9BF7
  8
5
 10
267.60154039539998
 20
388.11345766450029
 30
0.0
  0
VERTEX
  5
9BF8
  8
5
 10
266.77071695220002
 20
388.26494281590033
 30
0.0
  0
VERTEX
  5
9BF9
  8
5
 10
266.01940917500002
 20
388.45901509370032
 30
0.0
  0
VERTEX
  5
9BFA
  8
5
 10
265.36611675469999
 20
388.69089579430027
 30
0.0
  0
VERTEX
  5
9BFB
  8
5
 10
264.82692591889997
 20
388.95487524530029
 30
0.0
  0
VERTEX
  5
9BFC
  8
5
 10
264.41511333540012
 20
389.24445339650032
 30
0.0
  0
VERTEX
  5
9BFD
  8
5
 10
264.14081919680012
 20
389.55249987270031
 30
0.0
  0
VERTEX
  5
9BFE
  8
5
 10
264.01079753509998
 20
389.87142954750033
 30
0.0
  0
VERTEX
  5
9BFF
  8
5
 10
264.0
 20
389.99448734640021
 30
0.0
  0
SEQEND
  5
9C00
  8
5
  0
ARC
  5
89C2
  8
5
 10
270.0
 20
217.99999982110029
 30
0.0
 40
10.00000000000105
 50
121.6420421169986
 51
180.0
  0
ARC
  5
89C3
  8
5
 10
270.0
 20
217.99999982110029
 30
0.0
 40
10.000000000000311
 50
180.0
 51
58.357957883001319
  0
LINE
  5
89C4
  8
5
 10
264.0
 20
226.4572334082003
 30
0.0
 11
264.0
 21
225.99999982110029
 31
0.0
  0
LINE
  5
89C5
  8
5
 10
276.0
 20
225.99999982110029
 30
0.0
 11
276.0
 21
226.4572334082003
 31
0.0
  0
LINE
  5
89C7
  8
5
 10
274.0
 20
291.8907849926922
 30
0.0
 11
274.0
 21
227.9867939885003
 31
0.0
  0
ARC
  5
89C8
  8
5
 10
272.35867111229987
 20
221.54790653160029
 30
0.0
 40
5.7440083701637414
 50
59.82209341609753
 51
76.527764160502002
  0
ARC
  5
89C9
  8
5
 10
270.09144632179999
 20
214.34017038830029
 30
0.0
 40
13.292010174967521
 50
74.261460508699003
 51
113.6758043057999
  0
POLYLINE
  5
89CA
  8
5
 66
     1
 10
0.0
 20
0.0
 30
0.0
 70
   128
  0
VERTEX
  5
9C01
  8
5
 10
273.69687657610001
 20
228.07354923210031
 30
0.0
  0
VERTEX
  5
9C02
  8
5
 10
274.39063852750007
 20
227.8558529859003
 30
0.0
  0
VERTEX
  5
9C03
  8
5
 10
274.97628838680009
 20
227.6037180839003
 30
0.0
  0
VERTEX
  5
9C04
  8
5
 10
275.43940551050002
 20
227.32335292420029
 30
0.0
  0
VERTEX
  5
9C05
  8
5
 10
275.76858641830012
 20
227.02166102760029
 30
0.0
  0
VERTEX
  5
9C06
  8
5
 10
275.95572558359999
 20
226.7060710498003
 30
0.0
  0
VERTEX
  5
9C07
  8
5
 10
276.0
 20
226.4572334082003
 30
0.0
  0
SEQEND
  5
9C08
  8
5
  0
POLYLINE
  5
89CB
  8
5
 66
     1
 10
0.0
 20
0.0
 30
0.0
 70
   128
  0
VERTEX
  5
9C09
  8
5
 10
264.0
 20
226.4572334082003
 30
0.0
  0
VERTEX
  5
9C0A
  8
5
 10
264.00378498089992
 20
226.53011295310031
 30
0.0
  0
VERTEX
  5
9C0B
  8
5
 10
264.11094225950001
 20
226.85003560330031
 30
0.0
  0
VERTEX
  5
9C0C
  8
5
 10
264.36310768430002
 20
227.16028615970029
 30
0.0
  0
VERTEX
  5
9C0D
  8
5
 10
264.75407210560002
 20
227.45322522420031
 30
0.0
  0
VERTEX
  5
9C0E
  8
5
 10
265.27420868199999
 20
227.7216396646003
 30
0.0
  0
VERTEX
  5
9C0F
  8
5
 10
265.91070992459998
 20
227.9589202267004
 30
0.0
  0
VERTEX
  5
9C10
  8
5
 10
266.64790306050003
 20
228.15922427550029
 30
0.0
  0
VERTEX
  5
9C11
  8
5
 10
267.4676359479999
 20
228.3176196605003
 30
0.0
  0
VERTEX
  5
9C12
  8
5
 10
268.34972404280001
 20
228.4302061618003
 30
0.0
  0
VERTEX
  5
9C13
  8
5
 10
269.27244740869997
 20
228.49421152590031
 30
0.0
  0
VERTEX
  5
9C14
  8
5
 10
270.21308553400002
 20
228.50805972850031
 30
0.0
  0
VERTEX
  5
9C15
  8
5
 10
271.14847678630002
 20
228.4714097807003
 30
0.0
  0
VERTEX
  5
9C16
  8
5
 10
272.05558872850008
 20
228.3851641260004
 30
0.0
  0
VERTEX
  5
9C17
  8
5
 10
272.91208525409991
 20
228.25144641850031
 30
0.0
  0
VERTEX
  5
9C18
  8
5
 10
273.69687657610001
 20
228.07354923210031
 30
0.0
  0
SEQEND
  5
9C19
  8
5
  0
POLYLINE
  5
89D4
  8
5
 66
     1
 10
0.0
 20
0.0
 30
0.0
 70
   128
  0
VERTEX
  5
9C1A
  8
5
 10
244.59114156665001
 20
138.66702608759999
 30
0.0
  0
VERTEX
  5
9C1B
  8
5
 10
244.66808371245
 20
138.7218828499
 30
0.0
  0
VERTEX
  5
9C1C
  8
5
 10
244.73075799644991
 20
138.76656584439999
 30
0.0
  0
VERTEX
  5
9C1D
  8
5
 10
244.77707639334989
 20
138.79958868019989
 30
0.0
  0
VERTEX
  5
9C1E
  8
5
 10
244.80549849565
 20
138.8198523968
 30
0.0
  0
VERTEX
  5
9C1F
  8
5
 10
244.81507994234991
 20
138.82668271659989
 30
0.0
  0
SEQEND
  5
9C20
  8
5
  0
LINE
  5
89D5
  8
5
 10
244.81507994234991
 20
138.82668271659989
 30
0.0
 11
250.68624548615
 21
137.84279443319991
 31
0.0
  0
LINE
  5
89D6
  8
5
 10
244.2329058723225
 20
130.8126883518467
 30
0.0
 11
243.49287942055
 21
130.9367022662999
 31
0.0
  0
POLYLINE
  5
89D7
  8
5
 66
     1
 10
0.0
 20
0.0
 30
0.0
 70
   128
  0
VERTEX
  5
9C21
  8
5
 10
243.49287942055
 20
130.9367022662999
 30
0.0
  0
VERTEX
  5
9C22
  8
5
 10
243.42286072674989
 20
131.03491116309999
 30
0.0
  0
VERTEX
  5
9C23
  8
5
 10
243.35107065734999
 20
131.13560575989999
 30
0.0
  0
VERTEX
  5
9C24
  8
5
 10
243.27767871315001
 20
131.238547638
 30
0.0
  0
SEQEND
  5
9C25
  8
5
  0
ARC
  5
89D8
  8
5
 10
250.52097088815
 20
136.8565461707999
 30
0.0
 40
0.9999999999999987
 50
47.407725903901742
 51
80.486785691599096
  0
ARC
  5
89D9
  8
5
 10
255.00000000004999
 20
130.02228622070001
 30
0.0
 40
3.0000000000000031
 50
350.48678569159932
 51
47.407725903901742
  0
POLYLINE
  5
89DA
  8
5
 66
     1
 10
0.0
 20
0.0
 30
0.0
 70
   128
  0
VERTEX
  5
9C26
  8
5
 10
257.95874230565011
 20
129.52646102750001
 30
0.0
  0
VERTEX
  5
9C27
  8
5
 10
257.80307639385001
 20
128.95328506819999
 30
0.0
  0
VERTEX
  5
9C28
  8
5
 10
257.57892474534992
 20
128.48959352819989
 30
0.0
  0
SEQEND
  5
9C29
  8
5
  0
POLYLINE
  5
89DB
  8
5
 66
     1
 10
0.0
 20
0.0
 30
0.0
 70
   128
  0
VERTEX
  5
9C2A
  8
5
 10
242.95978665355
 20
132.29346789420001
 30
0.0
  0
VERTEX
  5
9C2B
  8
5
 10
242.97934442754999
 20
132.30741165570001
 30
0.0
  0
VERTEX
  5
9C2C
  8
5
 10
243.03735464815
 20
132.3487698285999
 30
0.0
  0
VERTEX
  5
9C2D
  8
5
 10
243.13184663654999
 20
132.41613704709999
 30
0.0
  0
VERTEX
  5
9C2E
  8
5
 10
243.25960919265
 20
132.50722505149989
 30
0.0
  0
VERTEX
  5
9C2F
  8
5
 10
243.41630421574999
 20
132.61893905699989
 30
0.0
  0
SEQEND
  5
9C30
  8
5
  0
ARC
  5
89DC
  8
5
 10
243.1260653844499
 20
133.02606019460001
 30
0.0
 40
0.499986199762911
 50
305.48527327660258
 51
35.488475991101048
  0
POLYLINE
  5
89DD
  8
5
 66
     1
 10
0.0
 20
0.0
 30
0.0
 70
   128
  0
VERTEX
  5
9C31
  8
5
 10
243.5331702977499
 20
133.31632178269999
 30
0.0
  0
VERTEX
  5
9C32
  8
5
 10
243.42145629225001
 20
133.47301587460001
 30
0.0
  0
VERTEX
  5
9C33
  8
5
 10
243.33036921914999
 20
133.60077936199991
 30
0.0
  0
VERTEX
  5
9C34
  8
5
 10
243.26300106945001
 20
133.69527041910001
 30
0.0
  0
VERTEX
  5
9C35
  8
5
 10
243.22164289654989
 20
133.75328063960001
 30
0.0
  0
VERTEX
  5
9C36
  8
5
 10
243.20769913494999
 20
133.77283841369999
 30
0.0
  0
SEQEND
  5
9C37
  8
5
  0
LINE
  5
89DE
  8
5
 10
243.20769913494999
 20
133.77283841369999
 30
0.0
 11
243.29033724964989
 21
134.26596254110001
 31
0.0
  0
POLYLINE
  5
89DF
  8
5
 66
     1
 10
0.0
 20
0.0
 30
0.0
 70
   128
  0
VERTEX
  5
9C38
  8
5
 10
243.29033724964989
 20
134.26596254110001
 30
0.0
  0
VERTEX
  5
9C39
  8
5
 10
243.30989502364989
 20
134.2799063027
 30
0.0
  0
VERTEX
  5
9C3A
  8
5
 10
243.36790524425001
 20
134.3212644754999
 30
0.0
  0
VERTEX
  5
9C3B
  8
5
 10
243.46239723265001
 20
134.3886326253
 30
0.0
  0
VERTEX
  5
9C3C
  8
5
 10
243.59015978874999
 20
134.4797196984
 30
0.0
  0
VERTEX
  5
9C3D
  8
5
 10
243.74685481185
 20
134.5914337038999
 30
0.0
  0
SEQEND
  5
9C3E
  8
5
  0
ARC
  5
89E0
  8
5
 10
243.45661280965001
 20
134.99855576050001
 30
0.0
 40
0.4999887888073883
 50
305.48550802460369
 51
35.488266187400377
  0
POLYLINE
  5
89E1
  8
5
 66
     1
 10
0.0
 20
0.0
 30
0.0
 70
   128
  0
VERTEX
  5
9C3F
  8
5
 10
243.86372089385
 20
135.28881736100001
 30
0.0
  0
VERTEX
  5
9C40
  8
5
 10
243.75200688835
 20
135.4455105214999
 30
0.0
  0
VERTEX
  5
9C41
  8
5
 10
243.6609179526499
 20
135.57327494019989
 30
0.0
  0
VERTEX
  5
9C42
  8
5
 10
243.59355166555
 20
135.66776506599999
 30
0.0
  0
VERTEX
  5
9C43
  8
5
 10
243.55219349264999
 20
135.72577528650001
 30
0.0
  0
VERTEX
  5
9C44
  8
5
 10
243.53824973105
 20
135.74533492320001
 30
0.0
  0
SEQEND
  5
9C45
  8
5
  0
LINE
  5
89E2
  8
5
 10
243.53824973105
 20
135.74533492320001
 30
0.0
 11
243.62088784574999
 21
136.23845718800001
 31
0.0
  0
POLYLINE
  5
89E3
  8
5
 66
     1
 10
0.0
 20
0.0
 30
0.0
 70
   128
  0
VERTEX
  5
9C46
  8
5
 10
243.62088784574999
 20
136.23845718800001
 30
0.0
  0
VERTEX
  5
9C47
  8
5
 10
243.64044561985
 20
136.2524009496
 30
0.0
  0
VERTEX
  5
9C48
  8
5
 10
243.69845584034999
 20
136.29375912250001
 30
0.0
  0
VERTEX
  5
9C49
  8
5
 10
243.79294596615
 20
136.36112727219989
 30
0.0
  0
VERTEX
  5
9C4A
  8
5
 10
243.92071038485011
 20
136.45221434529989
 30
0.0
  0
VERTEX
  5
9C4B
  8
5
 10
244.07740354534999
 20
136.5639302134
 30
0.0
  0
SEQEND
  5
9C4C
  8
5
  0
ARC
  5
89E4
  8
5
 10
243.78712859834999
 20
136.97105810309989
 30
0.0
 40
0.5000126632831077
 50
305.48819393999747
 51
35.485232679897557
  0
POLYLINE
  5
89E5
  8
5
 66
     1
 10
0.0
 20
0.0
 30
0.0
 70
   128
  0
VERTEX
  5
9C4D
  8
5
 10
244.19427148995001
 20
137.26131200789999
 30
0.0
  0
VERTEX
  5
9C4E
  8
5
 10
244.08255748445001
 20
137.418007031
 30
0.0
  0
VERTEX
  5
9C4F
  8
5
 10
243.99146854874999
 20
137.54576958710001
 30
0.0
  0
VERTEX
  5
9C50
  8
5
 10
243.92410226165001
 20
137.64026157550001
 30
0.0
  0
VERTEX
  5
9C51
  8
5
 10
243.88274408875
 20
137.69827179609999
 30
0.0
  0
VERTEX
  5
9C52
  8
5
 10
243.86880032715001
 20
137.71782957010001
 30
0.0
  0
SEQEND
  5
9C53
  8
5
  0
LINE
  5
89E6
  8
5
 10
243.86880032715001
 20
137.71782957010001
 30
0.0
 11
243.95143657924999
 21
138.2109536975
 31
0.0
  0
POLYLINE
  5
89E7
  8
5
 66
     1
 10
0.0
 20
0.0
 30
0.0
 70
   128
  0
VERTEX
  5
9C54
  8
5
 10
243.95143657924999
 20
138.2109536975
 30
0.0
  0
VERTEX
  5
9C55
  8
5
 10
243.97109307344999
 20
138.22496637699999
 30
0.0
  0
VERTEX
  5
9C56
  8
5
 10
244.02939386665
 20
138.26653130349999
 30
0.0
  0
VERTEX
  5
9C57
  8
5
 10
244.12434406574991
 20
138.33422541609991
 30
0.0
  0
VERTEX
  5
9C58
  8
5
 10
244.25270639355
 20
138.42574089760001
 30
0.0
  0
VERTEX
  5
9C59
  8
5
 10
244.41009618344989
 20
138.5379522293
 30
0.0
  0
VERTEX
  5
9C5A
  8
5
 10
244.59114156665001
 20
138.66702608759999
 30
0.0
  0
SEQEND
  5
9C5B
  8
5
  0
POLYLINE
  5
89E8
  8
5
 66
     1
 10
0.0
 20
0.0
 30
0.0
 70
   128
  0
VERTEX
  5
9C5C
  8
5
 10
243.27767871315001
 20
131.238547638
 30
0.0
  0
VERTEX
  5
9C5D
  8
5
 10
243.14195521175
 20
131.42891742290001
 30
0.0
  0
VERTEX
  5
9C5E
  8
5
 10
243.02989289165001
 20
131.58609952769999
 30
0.0
  0
VERTEX
  5
9C5F
  8
5
 10
242.94626012444991
 20
131.70340705660001
 30
0.0
  0
VERTEX
  5
9C60
  8
5
 10
242.89461269975001
 20
131.77584905169999
 30
0.0
  0
VERTEX
  5
9C61
  8
5
 10
242.87714853884989
 20
131.80034376680001
 30
0.0
  0
SEQEND
  5
9C62
  8
5
  0
LINE
  5
89E9
  8
5
 10
242.87714853884989
 20
131.80034376680001
 30
0.0
 11
242.95978665355
 21
132.29346789420001
 31
0.0
  0
LINE
  5
89EA
  8
5
 10
251.1977483332501
 20
137.5927343219
 30
0.0
 11
257.03033011405
 21
132.23085135220001
 31
0.0
  0
POLYLINE
  5
89EB
  8
5
 66
     1
 10
0.0
 20
0.0
 30
0.0
 70
   128
  0
VERTEX
  5
9C63
  8
5
 10
257.57892474534992
 20
128.48959352819989
 30
0.0
  0
VERTEX
  5
9C64
  8
5
 10
257.45876457545
 20
128.2874099165
 30
0.0
  0
VERTEX
  5
9C65
  8
5
 10
257.36304696644987
 20
128.12635537229991
 30
0.0
  0
VERTEX
  5
9C66
  8
5
 10
257.29557171465001
 20
128.01282156249999
 30
0.0
  0
VERTEX
  5
9C67
  8
5
 10
257.25901730355002
 20
127.95131329439999
 30
0.0
  0
SEQEND
  5
9C68
  8
5
  0
ARC
  5
89EE
  8
5
 10
244.14992666164991
 20
130.3196219763999
 30
0.0
 40
0.4999999999999952
 50
350.48678569159932
 51
80.447084370415595
  0
LINE
  5
89EF
  8
5
 10
257.25901730361909
 20
127.9513132943969
 30
0.0
 11
253.52110385895
 21
121.6618656367
 31
0.0
  0
ARC
  5
89F0
  8
5
 10
248.79307640754999
 20
124.4718029963999
 30
0.0
 40
5.5000000000000018
 50
260.4867856915991
 51
329.2763556135003
  0
ARC
  5
89F1
  8
5
 10
247.51375249015001
 20
123.1652753397999
 30
0.0
 40
4.0000000000000089
 50
170.48678569159929
 51
260.4867856915991
  0
LINE
  5
89F2
  8
5
 10
247.88406349715001
 20
119.0474416547999
 30
0.0
 11
246.8526516854499
 21
119.22028534579999
 31
0.0
  0
LINE
  5
89F3
  8
5
 10
243.56876172125001
 20
123.8263757154
 30
0.0
 11
244.64303964743249
 21
130.236911732724
 31
0.0
  0
LINE
  5
89F4
  8
5
 10
245.05612857634989
 20
129.6766936034
 30
0.0
 11
256.74720712005001
 21
127.71750662469999
 31
0.0
  0
ARC
  5
89F5
  8
5
 10
245.13672427405029
 20
130.1685316639915
 30
0.0
 40
0.4983977772408613
 50
172.10568760102279
 51
260.69385941852448
  0
ARC
  5
89F6
  8
5
 10
256.83354525055
 20
128.20559739270001
 30
0.0
 40
0.4956681052807725
 50
259.968745046599
 51
329.13527784119998
  0
POLYLINE
  5
89F7
  8
5
 66
     1
 10
0.0
 20
0.0
 30
0.0
 70
   128
  0
VERTEX
  5
9C69
  8
5
 10
239.41863372915009
 20
128.88143725689989
 30
0.0
  0
VERTEX
  5
9C6A
  8
5
 10
239.43000145255019
 20
128.90259690580001
 30
0.0
  0
VERTEX
  5
9C6B
  8
5
 10
239.46371346705021
 20
128.9653596654
 30
0.0
  0
VERTEX
  5
9C6C
  8
5
 10
239.5186279713501
 20
129.06759094439991
 30
0.0
  0
VERTEX
  5
9C6D
  8
5
 10
239.59287859495009
 20
129.20582063489991
 30
0.0
  0
VERTEX
  5
9C6E
  8
5
 10
239.68394331635011
 20
129.37535114580001
 30
0.0
  0
SEQEND
  5
9C6F
  8
5
  0
ARC
  5
89F8
  8
5
 10
239.24348451185011
 20
129.61195961370001
 30
0.0
 40
0.4999875252810044
 50
331.75591385160033
 51
61.758744784099591
  0
POLYLINE
  5
89F9
  8
5
 66
     1
 10
0.0
 20
0.0
 30
0.0
 70
   128
  0
VERTEX
  5
9C70
  8
5
 10
239.4800712167501
 20
130.05243010809991
 30
0.0
  0
VERTEX
  5
9C71
  8
5
 10
239.31054070585009
 20
130.14349482950001
 30
0.0
  0
VERTEX
  5
9C72
  8
5
 10
239.17231194675011
 20
130.21774545310001
 30
0.0
  0
VERTEX
  5
9C73
  8
5
 10
239.07008066764999
 20
130.27265995740001
 30
0.0
  0
VERTEX
  5
9C74
  8
5
 10
239.00731697675019
 20
130.30637290320001
 30
0.0
  0
VERTEX
  5
9C75
  8
5
 10
238.98615732785009
 20
130.31773876389991
 30
0.0
  0
SEQEND
  5
9C76
  8
5
  0
LINE
  5
89FA
  8
5
 10
238.98615732785009
 20
130.31773876389991
 30
0.0
 11
238.84199790655009
 21
130.79650655379999
 31
0.0
  0
POLYLINE
  5
89FB
  8
5
 66
     1
 10
0.0
 20
0.0
 30
0.0
 70
   128
  0
VERTEX
  5
9C77
  8
5
 10
238.84199790655009
 20
130.79650655379999
 30
0.0
  0
VERTEX
  5
9C78
  8
5
 10
238.85336562985
 20
130.81766713409991
 30
0.0
  0
VERTEX
  5
9C79
  8
5
 10
238.8870776444501
 20
130.88042896239989
 30
0.0
  0
VERTEX
  5
9C7A
  8
5
 10
238.94199214875019
 20
130.98266117270001
 30
0.0
  0
VERTEX
  5
9C7B
  8
5
 10
239.0162427723501
 20
131.12088993189991
 30
0.0
  0
VERTEX
  5
9C7C
  8
5
 10
239.1073074936501
 20
131.29042044280001
 30
0.0
  0
SEQEND
  5
9C7D
  8
5
  0
ARC
  5
89FC
  8
5
 10
238.6668486892502
 20
131.5270289106
 30
0.0
 40
0.4999875252810044
 50
331.75591385160033
 51
61.758744784099591
  0
POLYLINE
  5
89FD
  8
5
 66
     1
 10
0.0
 20
0.0
 30
0.0
 70
   128
  0
VERTEX
  5
9C7E
  8
5
 10
238.90343539415011
 20
131.9674994051
 30
0.0
  0
VERTEX
  5
9C7F
  8
5
 10
238.73390674584999
 20
132.0585641264999
 30
0.0
  0
VERTEX
  5
9C80
  8
5
 10
238.5956761240501
 20
132.13281474999991
 30
0.0
  0
VERTEX
  5
9C81
  8
5
 10
238.4934429823501
 20
132.1877292543
 30
0.0
  0
VERTEX
  5
9C82
  8
5
 10
238.43068301675009
 20
132.22144220019999
 30
0.0
  0
VERTEX
  5
9C83
  8
5
 10
238.4095233678502
 20
132.23280899220001
 30
0.0
  0
SEQEND
  5
9C84
  8
5
  0
LINE
  5
89FE
  8
5
 10
238.4095233678502
 20
132.23280899220001
 30
0.0
 11
238.26536208384999
 21
132.71157585079999
 31
0.0
  0
POLYLINE
  5
89FF
  8
5
 66
     1
 10
0.0
 20
0.0
 30
0.0
 70
   128
  0
VERTEX
  5
9C85
  8
5
 10
238.26536208384999
 20
132.71157585079999
 30
0.0
  0
VERTEX
  5
9C86
  8
5
 10
238.27672794455009
 20
132.73273643100001
 30
0.0
  0
VERTEX
  5
9C87
  8
5
 10
238.31044182175009
 20
132.7954982592999
 30
0.0
  0
VERTEX
  5
9C88
  8
5
 10
238.36535632605009
 20
132.89773046970001
 30
0.0
  0
VERTEX
  5
9C89
  8
5
 10
238.4396088122501
 20
133.03595922880001
 30
0.0
  0
VERTEX
  5
9C8A
  8
5
 10
238.53066980835001
 20
133.20548973969991
 30
0.0
  0
SEQEND
  5
9C8B
  8
5
  0
ARC
  5
8A00
  8
5
 10
238.09023312495009
 20
133.44210551910001
 30
0.0
 40
0.4999714983440486
 50
331.75397607670152
 51
61.76039352250146
  0
POLYLINE
  5
8A01
  8
5
 66
     1
 10
0.0
 20
0.0
 30
0.0
 70
   128
  0
VERTEX
  5
9C8C
  8
5
 10
238.3267995714501
 20
133.8825687021
 30
0.0
  0
VERTEX
  5
9C8D
  8
5
 10
238.15726906055011
 20
133.9736334234
 30
0.0
  0
VERTEX
  5
9C8E
  8
5
 10
238.01904216405001
 20
134.04788404699991
 30
0.0
  0
VERTEX
  5
9C8F
  8
5
 10
237.91680902235009
 20
134.10279855129991
 30
0.0
  0
VERTEX
  5
9C90
  8
5
 10
237.85404533145021
 20
134.1365124285
 30
0.0
  0
VERTEX
  5
9C91
  8
5
 10
237.83288568255011
 20
134.14787828920001
 30
0.0
  0
SEQEND
  5
9C92
  8
5
  0
LINE
  5
8A02
  8
5
 10
237.83288568255011
 20
134.14787828920001
 30
0.0
 11
237.6887281238501
 21
134.62664514779999
 31
0.0
  0
POLYLINE
  5
8A03
  8
5
 66
     1
 10
0.0
 20
0.0
 30
0.0
 70
   128
  0
VERTEX
  5
9C93
  8
5
 10
237.6887281238501
 20
134.62664514779999
 30
0.0
  0
VERTEX
  5
9C94
  8
5
 10
237.7001498639502
 20
134.64791283010001
 30
0.0
  0
VERTEX
  5
9C95
  8
5
 10
237.73403137915011
 20
134.71098758279999
 30
0.0
  0
VERTEX
  5
9C96
  8
5
 10
237.78921410435009
 20
134.81371618799989
 30
0.0
  0
VERTEX
  5
9C97
  8
5
 10
237.86381304265001
 20
134.95259314769999
 30
0.0
  0
VERTEX
  5
9C98
  8
5
 10
237.95528009535019
 20
135.12287616730001
 30
0.0
  0
VERTEX
  5
9C99
  8
5
 10
238.06049719445011
 20
135.3187519311999
 30
0.0
  0
SEQEND
  5
9C9A
  8
5
  0
POLYLINE
  5
8A04
  8
5
 66
     1
 10
0.0
 20
0.0
 30
0.0
 70
   128
  0
VERTEX
  5
9C9B
  8
5
 10
240.17060965295011
 20
128.0761766432999
 30
0.0
  0
VERTEX
  5
9C9C
  8
5
 10
239.9646458029502
 20
128.18681217729991
 30
0.0
  0
VERTEX
  5
9C9D
  8
5
 10
239.79458816344999
 20
128.2781600207
 30
0.0
  0
VERTEX
  5
9C9E
  8
5
 10
239.6676712482502
 20
128.3463337645
 30
0.0
  0
VERTEX
  5
9C9F
  8
5
 10
239.58929486565009
 20
128.3884342014
 30
0.0
  0
VERTEX
  5
9CA0
  8
5
 10
239.56279315055011
 20
128.40266946700001
 30
0.0
  0
SEQEND
  5
9CA1
  8
5
  0
LINE
  5
8A05
  8
5
 10
239.56279315055011
 20
128.40266946700001
 30
0.0
 11
239.41863372915009
 21
128.88143725689989
 31
0.0
  0
POLYLINE
  5
8A06
  8
5
 66
     1
 10
0.0
 20
0.0
 30
0.0
 70
   128
  0
VERTEX
  5
9CA2
  8
5
 10
238.06049719445011
 20
135.3187519311999
 30
0.0
  0
VERTEX
  5
9CA3
  8
5
 10
238.1052118539501
 20
135.40199726819989
 30
0.0
  0
VERTEX
  5
9CA4
  8
5
 10
238.14163401715021
 20
135.46980500219991
 30
0.0
  0
VERTEX
  5
9CA5
  8
5
 10
238.16855296485011
 20
135.5199194699
 30
0.0
  0
VERTEX
  5
9CA6
  8
5
 10
238.18507090205009
 20
135.55066987869989
 30
0.0
  0
VERTEX
  5
9CA7
  8
5
 10
238.19064021105009
 20
135.56103549889991
 30
0.0
  0
SEQEND
  5
9CA8
  8
5
  0
LINE
  5
8A07
  8
5
 10
238.19064021105009
 20
135.56103549889991
 30
0.0
 11
243.89087826005019
 21
137.27740153670001
 31
0.0
  0
ARC
  5
8A08
  8
5
 10
244.1791963865501
 20
136.31986677719999
 30
0.0
 40
1.000000000000002
 50
73.678216232798093
 51
106.7572760204974
  0
LINE
  5
8A09
  8
5
 10
241.21600068501269
 20
128.11719558144529
 30
0.0
 11
240.4971835016502
 21
127.9007564485
 31
0.0
  0
POLYLINE
  5
8A0A
  8
5
 66
     1
 10
0.0
 20
0.0
 30
0.0
 70
   128
  0
VERTEX
  5
9CA9
  8
5
 10
240.4971835016502
 20
127.9007564485
 30
0.0
  0
VERTEX
  5
9CAA
  8
5
 10
240.39092890915009
 20
127.9578316211
 30
0.0
  0
VERTEX
  5
9CAB
  8
5
 10
240.28198465705009
 20
128.01635127509991
 30
0.0
  0
VERTEX
  5
9CAC
  8
5
 10
240.17060965295011
 20
128.0761766432999
 30
0.0
  0
SEQEND
  5
9CAD
  8
5
  0
LINE
  5
8A0B
  8
5
 10
244.4602274149502
 20
137.2795659302999
 30
0.0
 11
252.06361010665009
 21
135.05304187530001
 31
0.0
  0
POLYLINE
  5
8A0C
  8
5
 66
     1
 10
0.0
 20
0.0
 30
0.0
 70
   128
  0
VERTEX
  5
9CAE
  8
5
 10
254.0931184589501
 20
133.03890034549991
 30
0.0
  0
VERTEX
  5
9CAF
  8
5
 10
254.20722410075021
 20
132.4560265243
 30
0.0
  0
VERTEX
  5
9CB0
  8
5
 10
254.2114578932501
 20
131.9410153851
 30
0.0
  0
SEQEND
  5
9CB1
  8
5
  0
ARC
  5
8A0D
  8
5
 10
251.2205145168501
 20
132.17394711579999
 30
0.0
 40
2.9999999999999711
 50
16.757276020500591
 51
73.678216232798093
  0
POLYLINE
  5
8A0E
  8
5
 66
     1
 10
0.0
 20
0.0
 30
0.0
 70
   128
  0
VERTEX
  5
9CB2
  8
5
 10
254.2114578932501
 20
131.9410153851
 30
0.0
  0
VERTEX
  5
9CB3
  8
5
 10
254.19319652015011
 20
131.70653071250001
 30
0.0
  0
VERTEX
  5
9CB4
  8
5
 10
254.17864926154999
 20
131.5197455883
 30
0.0
  0
VERTEX
  5
9CB5
  8
5
 10
254.1683954000502
 20
131.3880724087
 30
0.0
  0
VERTEX
  5
9CB6
  8
5
 10
254.16283912955009
 20
131.31673868739989
 30
0.0
  0
SEQEND
  5
9CB7
  8
5
  0
ARC
  5
8A11
  8
5
 10
241.3594927041502
 20
127.63822789939999
 30
0.0
 40
0.5000000000000112
 50
16.757276020500591
 51
106.6774806561112
  0
ARC
  5
8A12
  8
5
 10
248.11137213785011
 20
124.44950550669989
 30
0.0
 40
5.4999999999999876
 50
286.7572760204975
 51
355.5468459423987
  0
LINE
  5
8A13
  8
5
 10
254.16283912954131
 20
131.31673868740279
 30
0.0
 11
253.5947677492502
 21
124.0224638207999
 31
0.0
  0
ARC
  5
8A14
  8
5
 10
247.5424652450501
 20
122.7116823999
 30
0.0
 40
4.0000000000000062
 50
196.75727602050051
 51
286.7572760204975
  0
LINE
  5
8A15
  8
5
 10
249.69712130725009
 20
119.1830643405999
 30
0.0
 11
248.69573719795
 21
118.8815433601
 31
0.0
  0
LINE
  5
8A16
  8
5
 10
243.71232695875
 20
121.5584108325999
 30
0.0
 11
241.83787875391019
 21
127.7836472495395
 31
0.0
  0
LINE
  5
8A17
  8
5
 10
242.45666384694999
 20
127.4627992137999
 30
0.0
 11
253.80737751715009
 21
130.88054817170001
 31
0.0
  0
ARC
  5
8A18
  8
5
 10
242.31123976308839
 20
127.93950377833001
 30
0.0
 40
0.4983928230231094
 50
198.37569218205061
 51
286.9649158054861
  0
ARC
  5
8A19
  8
5
 10
253.66876518125011
 20
131.35643868019989
 30
0.0
 40
0.4956663755068828
 50
286.23922451239719
 51
355.40602067219982
  0
LINE
  5
8A1F
  8
1
 10
270.0
 20
142.9999998211
 30
0.0
 11
270.0
 21
100.0
 31
0.0
  0
LINE
  5
8A20
  8
1
 10
100.0
 20
142.9999998211
 30
0.0
 11
100.0
 21
100.0
 31
0.0
  0
LINE
  5
8A21
  8
1
 10
440.0
 20
142.9999998211
 30
0.0
 11
440.0
 21
100.0
 31
0.0
  0
LINE
  5
8A26
  8
1
 10
292.5
 20
308.22586037730031
 30
0.0
 11
236.5
 21
308.22586037730031
 31
0.0
  0
LINE
  5
8A2B
  8
1
 10
270.0
 20
413.45172093340119
 30
0.0
 11
270.0
 21
202.9999998211
 31
0.0
  0
LINE
  5
8A46
  8
1
 10
248.5
 20
129.0000002682273
 30
0.0
 11
248.5
 21
117.0000002681727
 31
0.0
  0
LINE
  5
8A47
  8
1
 10
242.49999999997269
 20
123.0000002682
 30
0.0
 11
254.50000000002731
 21
123.0000002682
 31
0.0
  0
LINE
  5
8F5C
  8
1
 10
297.23445674922101
 20
206.58548407267031
 30
0.0
 11
270.0
 21
308.22586037730031
 31
0.0
  0
LINE
  5
98A5
  8
5
 10
266.0
 20
227.9867939885003
 30
0.0
 11
266.0
 21
291.4668623304471
 31
0.0
  0
ARC
  5
98A6
  8
0
 10
187.25502625440001
 20
145.982926593
 30
0.0
 40
10.0
 50
237.49435765240241
 51
163.7545623606965
  0
LINE
  5
98A7
  8
0
 10
181.18970830489999
 20
137.2892898236999
 30
0.0
 11
182.09846000639999
 21
137.63130996710001
 31
0.0
  0
LINE
  5
98A8
  8
0
 10
177.87156527869999
 20
148.8622209257
 30
0.0
 11
176.96281357730001
 21
148.5202007824
 31
0.0
  0
LINE
  5
98A9
  8
0
 10
117.31261348699999
 20
126.25
 30
0.0
 11
142.72410997130001
 21
126.25
 31
0.0
  0
LINE
  5
98AA
  8
0
 10
142.72410997130001
 20
134.25
 30
0.0
 11
117.31261348699999
 21
134.25
 31
0.0
  0
ARC
  5
98AB
  8
0
 10
142.71918205279991
 20
145.27196861179999
 30
0.0
 40
19.021969250126439
 50
270.01484330740089
 51
290.64283194019907
  0
ARC
  5
98AC
  8
0
 10
142.71892480849999
 20
145.27338224999991
 30
0.0
 40
11.023383469511939
 50
270.0269507052007
 51
290.65482589109729
  0
LINE
  5
98AD
  8
0
 10
177.48554569160001
 20
146.5799782606
 30
0.0
 11
146.60728217689999
 21
134.9585550537
 31
0.0
  0
LINE
  5
98AE
  8
0
 10
149.42521199539999
 20
127.4712810812
 30
0.0
 11
180.30347551
 21
139.0927042882
 31
0.0
  0
LINE
  5
98AF
  8
0
 10
117.31261348699999
 20
125.5
 30
0.0
 11
117.31261348699999
 21
135.0
 31
0.0
  0
LINE
  5
98B0
  8
0
 10
85.396340387899954
 20
129.0932763511999
 30
0.0
 11
85.396340387899954
 21
125.5
 31
0.0
  0
LINE
  5
98B1
  8
0
 10
117.3131903438
 20
135.0
 30
0.0
 11
116.8131704621
 21
135.5
 31
0.0
  0
LINE
  5
98B2
  8
0
 10
116.81317046140001
 20
125.0
 30
0.0
 11
117.313190343
 21
125.5
 31
0.0
  0
LINE
  5
98B3
  8
0
 10
85.396205262999956
 20
125.5
 30
0.0
 11
85.89616090100003
 21
125.0
 31
0.0
  0
POLYLINE
  5
98B4
  8
0
 66
     1
 10
0.0
 20
0.0
 30
0.0
 70
   128
  0
VERTEX
  5
9CB8
  8
0
 10
180.5244700815
 20
145.6415755063
 30
0.0
  0
VERTEX
  5
9CB9
  8
0
 10
180.12524281149999
 20
146.4293476016
 30
0.0
  0
VERTEX
  5
9CBA
  8
0
 10
179.72238365379991
 20
147.13469249089991
 30
0.0
  0
VERTEX
  5
9CBB
  8
0
 10
179.32632644890001
 20
147.73934211189999
 30
0.0
  0
VERTEX
  5
9CBC
  8
0
 10
178.94732887049989
 20
148.22763635710001
 30
0.0
  0
VERTEX
  5
9CBD
  8
0
 10
178.59520675670001
 20
148.58692866199999
 30
0.0
  0
VERTEX
  5
9CBE
  8
0
 10
178.27907988530001
 20
148.8079135447999
 30
0.0
  0
VERTEX
  5
9CBF
  8
0
 10
178.00713577619999
 20
148.8848676129
 30
0.0
  0
VERTEX
  5
9CC0
  8
0
 10
177.87156527869999
 20
148.8622209257
 30
0.0
  0
SEQEND
  5
9CC1
  8
0
  0
POLYLINE
  5
98B5
  8
0
 66
     1
 10
0.0
 20
0.0
 30
0.0
 70
   128
  0
VERTEX
  5
9CC2
  8
0
 10
182.09846000639999
 20
137.63130996710001
 30
0.0
  0
VERTEX
  5
9CC3
  8
0
 10
182.27291444729991
 20
137.76661507179989
 30
0.0
  0
VERTEX
  5
9CC4
  8
0
 10
182.40653132720001
 20
138.05019472699991
 30
0.0
  0
VERTEX
  5
9CC5
  8
0
 10
182.47743214510001
 20
138.4683628343
 30
0.0
  0
VERTEX
  5
9CC6
  8
0
 10
182.4837806072
 20
139.01028905920001
 30
0.0
  0
VERTEX
  5
9CC7
  8
0
 10
182.42541229139999
 20
139.6619377971999
 30
0.0
  0
VERTEX
  5
9CC8
  8
0
 10
182.30383890670001
 20
140.40643168829999
 30
0.0
  0
VERTEX
  5
9CC9
  8
0
 10
182.1222091397
 20
141.22448873179991
 30
0.0
  0
VERTEX
  5
9CCA
  8
0
 10
181.88522710609999
 20
142.09492167999991
 30
0.0
  0
VERTEX
  5
9CCB
  8
0
 10
181.59903051599991
 20
142.99518677660001
 30
0.0
  0
VERTEX
  5
9CCC
  8
0
 10
181.2710317108
 20
143.90196762869999
 30
0.0
  0
VERTEX
  5
9CCD
  8
0
 10
180.90972568719991
 20
144.79177908839989
 30
0.0
  0
VERTEX
  5
9CCE
  8
0
 10
180.5244700815
 20
145.6415755063
 30
0.0
  0
SEQEND
  5
9CCF
  8
0
  0
POLYLINE
  5
98B6
  8
0
 66
     1
 10
0.0
 20
0.0
 30
0.0
 70
   128
  0
VERTEX
  5
9CD0
  8
0
 10
179.61571838
 20
145.29955536299991
 30
0.0
  0
VERTEX
  5
9CD1
  8
0
 10
179.21649110999999
 20
146.0873274583
 30
0.0
  0
VERTEX
  5
9CD2
  8
0
 10
178.8136319523
 20
146.7926723475
 30
0.0
  0
VERTEX
  5
9CD3
  8
0
 10
178.4175747475
 20
147.39732196849999
 30
0.0
  0
VERTEX
  5
9CD4
  8
0
 10
178.03857716900001
 20
147.88561621379989
 30
0.0
  0
VERTEX
  5
9CD5
  8
0
 10
177.68645505520001
 20
148.2449085186999
 30
0.0
  0
VERTEX
  5
9CD6
  8
0
 10
177.37032818380001
 20
148.46589340139991
 30
0.0
  0
VERTEX
  5
9CD7
  8
0
 10
177.09838407480001
 20
148.54284746959999
 30
0.0
  0
VERTEX
  5
9CD8
  8
0
 10
176.8776659376
 20
148.4737776531
 30
0.0
  0
VERTEX
  5
9CD9
  8
0
 10
176.71389025619999
 20
148.26047282409999
 30
0.0
  0
VERTEX
  5
9CDA
  8
0
 10
176.61129873460001
 20
147.90845746549991
 30
0.0
  0
VERTEX
  5
9CDB
  8
0
 10
176.57254843940001
 20
147.4268485902999
 30
0.0
  0
VERTEX
  5
9CDC
  8
0
 10
176.59864298279999
 20
146.82811961519991
 30
0.0
  0
VERTEX
  5
9CDD
  8
0
 10
176.66633186819999
 20
146.27165682489999
 30
0.0
  0
SEQEND
  5
9CDE
  8
0
  0
POLYLINE
  5
98B7
  8
0
 66
     1
 10
0.0
 20
0.0
 30
0.0
 70
   128
  0
VERTEX
  5
9CDF
  8
0
 10
179.48426168669999
 20
138.78438285249999
 30
0.0
  0
VERTEX
  5
9CE0
  8
0
 10
179.53841716249991
 20
138.70086154840001
 30
0.0
  0
VERTEX
  5
9CE1
  8
0
 10
179.92720527419999
 20
138.1526118104
 30
0.0
  0
VERTEX
  5
9CE2
  8
0
 10
180.29395437469989
 20
137.72743983359999
 30
0.0
  0
VERTEX
  5
9CE3
  8
0
 10
180.62916585479999
 20
137.43635734889989
 30
0.0
  0
VERTEX
  5
9CE4
  8
0
 10
180.92415791339999
 20
137.2869032399
 30
0.0
  0
VERTEX
  5
9CE5
  8
0
 10
181.171290411
 20
137.2829482892999
 30
0.0
  0
VERTEX
  5
9CE6
  8
0
 10
181.36416274589999
 20
137.4245949285
 30
0.0
  0
VERTEX
  5
9CE7
  8
0
 10
181.49777962580001
 20
137.70817458370001
 30
0.0
  0
VERTEX
  5
9CE8
  8
0
 10
181.5686804437
 20
138.12634269099999
 30
0.0
  0
VERTEX
  5
9CE9
  8
0
 10
181.57502890570001
 20
138.66826891589989
 30
0.0
  0
VERTEX
  5
9CEA
  8
0
 10
181.51666058989991
 20
139.31991765390001
 30
0.0
  0
VERTEX
  5
9CEB
  8
0
 10
181.39508720520001
 20
140.06441154500001
 30
0.0
  0
VERTEX
  5
9CEC
  8
0
 10
181.21345743820001
 20
140.8824685884999
 30
0.0
  0
VERTEX
  5
9CED
  8
0
 10
180.9764754046
 20
141.75290153669991
 30
0.0
  0
VERTEX
  5
9CEE
  8
0
 10
180.6902788145
 20
142.6531666333
 30
0.0
  0
VERTEX
  5
9CEF
  8
0
 10
180.36228000930001
 20
143.55994748539999
 30
0.0
  0
VERTEX
  5
9CF0
  8
0
 10
180.0009739857
 20
144.4497589451
 30
0.0
  0
VERTEX
  5
9CF1
  8
0
 10
179.61571838
 20
145.29955536299991
 30
0.0
  0
SEQEND
  5
9CF2
  8
0
  0
POLYLINE
  5
98B8
  8
0
 66
     1
 10
0.0
 20
0.0
 30
0.0
 70
   128
  0
VERTEX
  5
9CF3
  8
0
 10
180.30347551
 20
139.0927042882
 30
0.0
  0
VERTEX
  5
9CF4
  8
0
 10
180.3907233525
 20
139.14979451209999
 30
0.0
  0
VERTEX
  5
9CF5
  8
0
 10
180.5064032084
 20
139.36369015759999
 30
0.0
  0
VERTEX
  5
9CF6
  8
0
 10
180.56013893549999
 20
139.71103783800001
 30
0.0
  0
VERTEX
  5
9CF7
  8
0
 10
180.54986549969999
 20
140.17848917680001
 30
0.0
  0
VERTEX
  5
9CF8
  8
0
 10
180.47597770350001
 20
140.7480802812
 30
0.0
  0
VERTEX
  5
9CF9
  8
0
 10
180.34131501339999
 20
141.39792208439991
 30
0.0
  0
VERTEX
  5
9CFA
  8
0
 10
180.15105244119999
 20
142.10304153049989
 30
0.0
  0
VERTEX
  5
9CFB
  8
0
 10
179.9125016707001
 20
142.8363412743999
 30
0.0
  0
VERTEX
  5
9CFC
  8
0
 10
179.6348300741999
 20
143.56964101829999
 30
0.0
  0
VERTEX
  5
9CFD
  8
0
 10
179.32870841559989
 20
144.27476046439989
 30
0.0
  0
VERTEX
  5
9CFE
  8
0
 10
179.00590077850001
 20
144.92460226759999
 30
0.0
  0
VERTEX
  5
9CFF
  8
0
 10
178.67881247930001
 20
145.49419337200001
 30
0.0
  0
VERTEX
  5
9D00
  8
0
 10
178.3600133379
 20
145.96164471079999
 30
0.0
  0
VERTEX
  5
9D01
  8
0
 10
178.06175462659991
 20
146.30899239120001
 30
0.0
  0
VERTEX
  5
9D02
  8
0
 10
177.7954982604
 20
146.52288803670001
 30
0.0
  0
VERTEX
  5
9D03
  8
0
 10
177.57147632210001
 20
146.59511175750001
 30
0.0
  0
VERTEX
  5
9D04
  8
0
 10
177.48554569160001
 20
146.5799782606
 30
0.0
  0
SEQEND
  5
9D05
  8
0
  0
LINE
  5
98B9
  8
0
 10
115.65208755339989
 20
125.5
 30
0.0
 11
115.65208755339989
 21
129.87353056169999
 31
0.0
  0
LINE
  5
98BA
  8
0
 10
116.0
 20
135.5
 30
0.0
 11
116.81323888190001
 21
135.5
 31
0.0
  0
LINE
  5
98BB
  8
0
 10
113.09999999999999
 20
125.0
 30
0.0
 11
116.8132500540999
 21
125.0
 31
0.0
  0
LINE
  5
98BC
  8
0
 10
115.2967197279999
 20
124.9999781704
 30
0.0
 11
115.65217416519999
 21
125.4999965127999
 31
0.0
  0
LINE
  5
98BD
  8
0
 10
84.500000000000014
 20
125.0
 30
0.0
 11
86.899999999999963
 21
125.0
 31
0.0
  0
ARC
  5
98C0
  8
0
 10
352.74497374550009
 20
145.982926593
 30
0.0
 40
10.00000000000003
 50
13.897649508802431
 51
69.375539993396927
  0
ARC
  5
98C1
  8
0
 10
352.74497374550009
 20
145.982926593
 30
0.0
 40
10.000000000000909
 50
69.375539993396927
 51
304.85343047810352
  0
LINE
  5
98C2
  8
0
 10
363.03718642270002
 20
148.5202007824
 30
0.0
 11
362.34569508179999
 21
148.78045225389999
 31
0.0
  0
LINE
  5
98C3
  8
0
 10
358.11880035410007
 20
137.54954129519999
 30
0.0
 11
358.81029169499999
 21
137.2892898236999
 31
0.0
  0
LINE
  5
98C4
  8
0
 10
360.51573831330001
 20
138.78438285249999
 30
0.0
 11
390.57478800460001
 21
127.4712810812
 31
0.0
  0
LINE
  5
98C5
  8
0
 10
393.39271782300011
 20
134.9585550537
 30
0.0
 11
363.33366813169999
 21
146.27165682489999
 31
0.0
  0
ARC
  5
98C6
  8
0
 10
397.27981208499989
 20
145.26645990879999
 30
0.0
 40
11.01646060692352
 50
249.338621723198
 51
269.9796016804998
  0
ARC
  5
98C7
  8
0
 10
397.28025223150001
 20
145.2688645611999
 30
0.0
 40
19.018865061478071
 50
249.355466221
 51
269.98685853139938
  0
LINE
  5
98C8
  8
0
 10
424.05306559107618
 20
134.25
 30
0.0
 11
397.27589002859997
 21
134.25
 31
0.0
  0
LINE
  5
98C9
  8
0
 10
397.27589002859997
 20
126.25
 30
0.0
 11
424.0165148089373
 21
126.25
 31
0.0
  0
LINE
  5
98CA
  8
0
 10
422.68738651299998
 20
135.0
 30
0.0
 11
422.68738651299992
 21
134.25
 31
0.0
  0
LINE
  5
98CB
  8
0
 10
422.68738651299992
 20
126.25
 30
0.0
 11
422.68738651299998
 21
125.5
 31
0.0
  0
LINE
  5
98CC
  8
0
 10
454.603659612
 20
125.5
 30
0.0
 11
454.603659612
 21
135.0
 31
0.0
  0
LINE
  5
98CD
  8
0
 10
454.603659612
 20
135.0
 30
0.0
 11
454.10370397399998
 21
135.5
 31
0.0
  0
LINE
  5
98CE
  8
0
 10
423.18740639459992
 20
135.5
 30
0.0
 11
422.68738651299998
 21
135.0
 31
0.0
  0
LINE
  5
98CF
  8
0
 10
454.10370397409997
 20
125.0
 30
0.0
 11
454.603659612
 21
125.5
 31
0.0
  0
LINE
  5
98D0
  8
0
 10
422.68738651299998
 20
125.5
 30
0.0
 11
423.18740639459992
 21
125.0
 31
0.0
  0
POLYLINE
  5
98D1
  8
0
 66
     1
 10
0.0
 20
0.0
 30
0.0
 70
   128
  0
VERTEX
  5
9D06
  8
0
 10
362.4522371038999
 20
148.3848087909
 30
0.0
  0
VERTEX
  5
9D07
  8
0
 10
362.47994956389999
 20
148.2504776088
 30
0.0
  0
VERTEX
  5
9D08
  8
0
 10
362.51869985910002
 20
147.76886873359999
 30
0.0
  0
VERTEX
  5
9D09
  8
0
 10
362.49260531570002
 20
147.1701397585
 30
0.0
  0
VERTEX
  5
9D0A
  8
0
 10
362.40234176860002
 20
146.46979744969991
 30
0.0
  0
VERTEX
  5
9D0B
  8
0
 10
362.25024699620002
 20
145.6859803049
 30
0.0
  0
VERTEX
  5
9D0C
  8
0
 10
362.0402601734001
 20
144.83898877649989
 30
0.0
  0
VERTEX
  5
9D0D
  8
0
 10
361.77781984839999
 20
143.95075950029999
 30
0.0
  0
VERTEX
  5
9D0E
  8
0
 10
361.46972308789998
 20
143.04429714779991
 30
0.0
  0
VERTEX
  5
9D0F
  8
0
 10
361.12394943610002
 20
142.1430786178999
 30
0.0
  0
VERTEX
  5
9D10
  8
0
 10
360.749454249
 20
141.2704449972
 30
0.0
  0
VERTEX
  5
9D11
  8
0
 10
360.3559367551
 20
140.44899703789989
 30
0.0
  0
VERTEX
  5
9D12
  8
0
 10
359.95358885100012
 20
139.70000981090001
 30
0.0
  0
VERTEX
  5
9D13
  8
0
 10
359.55283113590002
 20
139.04288169179989
 30
0.0
  0
VERTEX
  5
9D14
  8
0
 10
359.16404302429999
 20
138.49463195370001
 30
0.0
  0
VERTEX
  5
9D15
  8
0
 10
358.7972939238
 20
138.06945997689999
 30
0.0
  0
VERTEX
  5
9D16
  8
0
 10
358.46208244370001
 20
137.77837749220001
 30
0.0
  0
VERTEX
  5
9D17
  8
0
 10
358.45976446620011
 20
137.77676019089989
 30
0.0
  0
SEQEND
  5
9D18
  8
0
  0
POLYLINE
  5
98D2
  8
0
 66
     1
 10
0.0
 20
0.0
 30
0.0
 70
   128
  0
VERTEX
  5
9D19
  8
0
 10
363.03718642270002
 20
148.5202007824
 30
0.0
  0
VERTEX
  5
9D1A
  8
0
 10
363.12233406230001
 20
148.4737776531
 30
0.0
  0
VERTEX
  5
9D1B
  8
0
 10
363.28610974380013
 20
148.26047282409999
 30
0.0
  0
VERTEX
  5
9D1C
  8
0
 10
363.38870126540002
 20
147.90845746549991
 30
0.0
  0
VERTEX
  5
9D1D
  8
0
 10
363.42745156059999
 20
147.4268485902999
 30
0.0
  0
VERTEX
  5
9D1E
  8
0
 10
363.4013570172001
 20
146.82811961519991
 30
0.0
  0
VERTEX
  5
9D1F
  8
0
 10
363.31109347
 20
146.1277773063
 30
0.0
  0
VERTEX
  5
9D20
  8
0
 10
363.15899869769999
 20
145.34396016159991
 30
0.0
  0
VERTEX
  5
9D21
  8
0
 10
362.94901187480008
 20
144.4969686332
 30
0.0
  0
VERTEX
  5
9D22
  8
0
 10
362.68657154990012
 20
143.6087393569
 30
0.0
  0
VERTEX
  5
9D23
  8
0
 10
362.37847478940012
 20
142.70227700449999
 30
0.0
  0
VERTEX
  5
9D24
  8
0
 10
362.03270113759999
 20
141.80105847460001
 30
0.0
  0
VERTEX
  5
9D25
  8
0
 10
361.65820595040009
 20
140.9284248539
 30
0.0
  0
VERTEX
  5
9D26
  8
0
 10
361.26468845660003
 20
140.10697689459991
 30
0.0
  0
VERTEX
  5
9D27
  8
0
 10
360.86234055249992
 20
139.35798966760001
 30
0.0
  0
VERTEX
  5
9D28
  8
0
 10
360.46158283739999
 20
138.70086154840001
 30
0.0
  0
VERTEX
  5
9D29
  8
0
 10
360.07279472570002
 20
138.1526118104
 30
0.0
  0
VERTEX
  5
9D2A
  8
0
 10
359.70604562530002
 20
137.72743983359999
 30
0.0
  0
VERTEX
  5
9D2B
  8
0
 10
359.37083414519998
 20
137.43635734889989
 30
0.0
  0
VERTEX
  5
9D2C
  8
0
 10
359.07584208659989
 20
137.2869032399
 30
0.0
  0
VERTEX
  5
9D2D
  8
0
 10
358.82870958889993
 20
137.2829482892999
 30
0.0
  0
VERTEX
  5
9D2E
  8
0
 10
358.81029169499999
 20
137.2892898236999
 30
0.0
  0
SEQEND
  5
9D2F
  8
0
  0
LINE
  5
98D3
  8
0
 10
423.18740639459992
 20
135.5
 30
0.0
 11
454.10370397399993
 21
135.49999999999989
 31
0.0
  0
LINE
  5
98D4
  8
0
 10
455.49999999999989
 20
125.0
 30
0.0
 11
423.18740639459992
 21
125.0
 31
0.0
  0
POLYLINE
  5
98D5
  8
0
 66
     1
 10
0.0
 20
0.0
 30
0.0
 70
   128
  0
VERTEX
  5
9D30
  8
0
 10
423.00872701627651
 20
134.25
 30
0.0
  0
VERTEX
  5
9D31
  8
0
 10
423.01543720270001
 20
134.28468842899991
 30
0.0
  0
VERTEX
  5
9D32
  8
0
 10
423.31961523040002
 20
134.70707523530001
 30
0.0
  0
VERTEX
  5
9D33
  8
0
 10
423.68746235459992
 20
134.64512602120001
 30
0.0
  0
VERTEX
  5
9D34
  8
0
 10
424.08847007480011
 20
134.21173657290001
 30
0.0
  0
VERTEX
  5
9D35
  8
0
 10
424.50152018989991
 20
133.42028331430001
 30
0.0
  0
VERTEX
  5
9D36
  8
0
 10
424.86678684459991
 20
132.25398024789999
 30
0.0
  0
VERTEX
  5
9D37
  8
0
 10
425.07412641180002
 20
130.77727487530001
 30
0.0
  0
VERTEX
  5
9D38
  8
0
 10
425.02818088859988
 20
129.19040129499999
 30
0.0
  0
VERTEX
  5
9D39
  8
0
 10
424.72734702209988
 20
127.71782567939999
 30
0.0
  0
VERTEX
  5
9D3A
  8
0
 10
424.25028307539998
 20
126.5530956923
 30
0.0
  0
VERTEX
  5
9D3B
  8
0
 10
423.74285369239999
 20
125.89518064480001
 30
0.0
  0
VERTEX
  5
9D3C
  8
0
 10
423.34103883829988
 20
125.7842666809
 30
0.0
  0
VERTEX
  5
9D3D
  8
0
 10
423.06577793339989
 20
126.0912905632
 30
0.0
  0
VERTEX
  5
9D3E
  8
0
 10
423.0220015688368
 20
126.25
 30
0.0
  0
SEQEND
  5
9D3F
  8
0
  0
CIRCLE
  5
98D6
  8
0
 10
292.96228007924992
 20
145.98292686120001
 30
0.0
 40
9.9999999999999982
  0
LINE
  5
98D8
  8
0
 10
285.91420918704989
 20
128.92277028410001
 30
0.0
 11
290.98842710255002
 21
136.17966651919991
 31
0.0
  0
ARC
  5
98D9
  8
0
 10
281.03323831774992
 20
132.0348991306
 30
0.0
 40
5.7887151064662001
 50
272.08058724949689
 51
327.47823354950339
  0
LINE
  5
98DA
  8
0
 10
275.08995540445
 20
126.2500002235
 30
0.0
 11
281.24339830134988
 21
126.2500002235
 31
0.0
  0
LINE
  5
98DB
  8
0
 10
279.87745262685002
 20
134.24999967219989
 30
0.0
 11
275.08995540445
 21
134.24999967219989
 31
0.0
  0
LINE
  5
98DC
  8
0
 10
285.95811732114993
 20
125.5000001006
 30
0.0
 11
285.95811732114993
 21
128.98556377739999
 31
0.0
  0
POLYLINE
  5
98DD
  8
0
 66
     1
 10
0.0
 20
0.0
 30
0.0
 70
   128
  0
VERTEX
  5
9D40
  8
0
 10
285.45797567814992
 20
125.0000004843
 30
0.0
  0
VERTEX
  5
9D41
  8
0
 10
285.70797525344989
 20
125.2500000596
 30
0.0
  0
VERTEX
  5
9D42
  8
0
 10
285.9579738974499
 20
125.5000001006
 30
0.0
  0
SEQEND
  5
9D43
  8
0
  0
ARC
  5
98DE
  8
0
 10
275.15692822094991
 20
130.31477024049991
 30
0.0
 40
3.9357992883203661
 50
90.975010323996855
 51
180.94294237679719
  0
ARC
  5
98DF
  8
0
 10
275.15693009064989
 20
130.18523146329991
 30
0.0
 40
3.9358011279899059
 50
179.05708438939899
 51
269.02496290979701
  0
POLYLINE
  5
98E0
  8
0
 66
     1
 10
0.0
 20
0.0
 30
0.0
 70
   128
  0
VERTEX
  5
9D44
  8
0
 10
270.22813487154991
 20
130.24999994780001
 30
0.0
  0
VERTEX
  5
9D45
  8
0
 10
270.50273828674989
 20
128.6328495665999
 30
0.0
  0
VERTEX
  5
9D46
  8
0
 10
270.84081961545002
 20
127.8841751814
 30
0.0
  0
VERTEX
  5
9D47
  8
0
 10
271.30324566274987
 20
127.2070375457
 30
0.0
  0
VERTEX
  5
9D48
  8
0
 10
271.85061444064991
 20
126.6544922440999
 30
0.0
  0
VERTEX
  5
9D49
  8
0
 10
272.48639797794988
 20
126.21531218290001
 30
0.0
  0
VERTEX
  5
9D4A
  8
0
 10
273.7629497237499
 20
125.7929252647
 30
0.0
  0
VERTEX
  5
9D4B
  8
0
 10
274.91959089414991
 20
125.854874514
 30
0.0
  0
VERTEX
  5
9D4C
  8
0
 10
275.84640307354988
 20
126.2500002235
 30
0.0
  0
SEQEND
  5
9D4D
  8
0
  0
POLYLINE
  5
98E1
  8
0
 66
     1
 10
0.0
 20
0.0
 30
0.0
 70
   128
  0
VERTEX
  5
9D4E
  8
0
 10
275.85004966704992
 20
134.24999967219989
 30
0.0
  0
VERTEX
  5
9D4F
  8
0
 10
275.71880862114989
 20
134.3386206031
 30
0.0
  0
VERTEX
  5
9D50
  8
0
 10
275.0721061416499
 20
134.60482053460001
 30
0.0
  0
VERTEX
  5
9D51
  8
0
 10
273.8390008267499
 20
134.71573360260001
 30
0.0
  0
VERTEX
  5
9D52
  8
0
 10
272.73106922394987
 20
134.4087100774
 30
0.0
  0
VERTEX
  5
9D53
  8
0
 10
271.7451548483499
 20
133.7545695901
 30
0.0
  0
VERTEX
  5
9D54
  8
0
 10
270.91511709614991
 20
132.74458751079999
 30
0.0
  0
VERTEX
  5
9D55
  8
0
 10
270.36164204354992
 20
131.3868477195
 30
0.0
  0
VERTEX
  5
9D56
  8
0
 10
270.22813487154991
 20
130.24999994780001
 30
0.0
  0
SEQEND
  5
9D57
  8
0
  0
LINE
  5
98E2
  8
0
 10
261.71047471464988
 20
125.5000001006
 30
0.0
 11
261.71047471464988
 21
135.00000119209989
 31
0.0
  0
LINE
  5
98E3
  8
0
 10
256.87884677204988
 20
125.5000001006
 30
0.0
 11
256.87884677204988
 21
135.00000119209989
 31
0.0
  0
LINE
  5
98E4
  8
0
 10
261.71051476154992
 20
135.00001981849991
 30
0.0
 11
262.13400203734989
 21
135.50002269449999
 31
0.0
  0
LINE
  5
98E5
  8
0
 10
257.38881945614992
 20
135.49961663779999
 30
0.0
 11
256.87999695544988
 21
134.99998442829991
 31
0.0
  0
LINE
  5
98E6
  8
0
 10
262.13400203734989
 20
124.9999785981999
 30
0.0
 11
261.7105017230499
 21
125.499996841
 31
0.0
  0
LINE
  5
98E7
  8
0
 10
256.87999695544988
 20
125.5000163986999
 30
0.0
 11
257.38881945614992
 21
125.00038418919991
 31
0.0
  0
LINE
  5
98E8
  8
0
 10
257.38823179154991
 20
135.50000034269999
 30
0.0
 11
280.75148641374199
 21
135.50000034269991
 31
0.0
  0
LINE
  5
993C
  8
0
 10
284.43219091740002
 20
140.76396405700001
 30
0.0
 11
279.35797393320001
 21
133.50706689059999
 31
0.0
  0
ENDSEC
  0
EOF
