  0
SECTION
  2
HEADER
  9
$ACADVER
  1
AC1009
  9
$INSBASE
 10
0.0
 20
0.0
 30
0.0
  9
$EXTMIN
 10
0.0
 20
-2.960436562073669
 30
0.0
  9
$EXTMAX
 10
517.24058866308053
 20
413.45172093340119
 30
0.0
  9
$LIMMIN
 10
0.0
 20
0.0
  9
$LIMMAX
 10
385.0
 20
270.0
  9
$ORTHOMODE
 70
     1
  9
$REGENMODE
 70
     1
  9
$FILLMODE
 70
     1
  9
$QTEXTMODE
 70
     0
  9
$MIRRTEXT
 70
     0
  9
$DRAGMODE
 70
     2
  9
$LTSCALE
 40
3.0
  9
$OSMODE
 70
    37
  9
$ATTMODE
 70
     1
  9
$TEXTSIZE
 40
0.2
  9
$TRACEWID
 40
0.05
  9
$TEXTSTYLE
  7
STANDARD
  9
$CLAYER
  8
0
  9
$CELTYPE
  6
BYLAYER
  9
$CECOLOR
 62
   256
  9
$DIMSCALE
 40
1.0
  9
$DIMASZ
 40
3.0
  9
$DIMEXO
 40
1.0
  9
$DIMDLI
 40
6.0
  9
$DIMRND
 40
0.0
  9
$DIMDLE
 40
0.0
  9
$DIMEXE
 40
1.0
  9
$DIMTP
 40
495.0
  9
$DIMTM
 40
0.0
  9
$DIMTXT
 40
3.0
  9
$DIMCEN
 40
0.0
  9
$DIMTSZ
 40
0.0
  9
$DIMTOL
 70
     0
  9
$DIMLIM
 70
     0
  9
$DIMTIH
 70
     0
  9
$DIMTOH
 70
     0
  9
$DIMSE1
 70
     0
  9
$DIMSE2
 70
     0
  9
$DIMTAD
 70
     1
  9
$DIMZIN
 70
     0
  9
$DIMBLK
  1

  9
$DIMASO
 70
     0
  9
$DIMSHO
 70
     0
  9
$DIMPOST
  1

  9
$DIMAPOST
  1

  9
$DIMALT
 70
     0
  9
$DIMALTD
 70
     2
  9
$DIMALTF
 40
25.399999999999999
  9
$DIMLFAC
 40
1.0
  9
$DIMTOFL
 70
     1
  9
$DIMTVP
 40
0.0
  9
$DIMTIX
 70
     1
  9
$DIMSOXD
 70
     0
  9
$DIMSAH
 70
     0
  9
$DIMBLK1
  1

  9
$DIMBLK2
  1

  9
$DIMSTYLE
  2
STANDARD
  9
$DIMCLRD
 70
     0
  9
$DIMCLRE
 70
     0
  9
$DIMCLRT
 70
     4
  9
$DIMTFAC
 40
1.0
  9
$DIMGAP
 40
1.0
  9
$LUNITS
 70
     2
  9
$LUPREC
 70
     1
  9
$SKETCHINC
 40
0.1
  9
$FILLETRAD
 40
15.0
  9
$AUNITS
 70
     0
  9
$AUPREC
 70
     1
  9
$MENU
  1
E:\r13\win\SUPPORT\ACAD
  9
$ELEVATION
 40
0.0
  9
$PELEVATION
 40
0.0
  9
$THICKNESS
 40
0.0
  9
$LIMCHECK
 70
     0
  9
$BLIPMODE
 70
     0
  9
$CHAMFERA
 40
0.0
  9
$CHAMFERB
 40
0.0
  9
$SKPOLY
 70
     0
  9
$TDCREATE
 40
2450653.5278402781
  9
$TDUPDATE
 40
2457906.6017290172
  9
$TDINDWG
 40
0.5957839931
  9
$TDUSRTIMER
 40
0.5957839931
  9
$USRTIMER
 70
     1
  9
$ANGBASE
 50
0.0
  9
$ANGDIR
 70
     0
  9
$PDMODE
 70
     0
  9
$PDSIZE
 40
0.0
  9
$PLINEWID
 40
0.0
  9
$COORDS
 70
     1
  9
$SPLFRAME
 70
     0
  9
$SPLINETYPE
 70
     6
  9
$SPLINESEGS
 70
     8
  9
$ATTDIA
 70
     0
  9
$ATTREQ
 70
     1
  9
$HANDLING
 70
     1
  9
$HANDSEED
  5
9416
  9
$SURFTAB1
 70
     6
  9
$SURFTAB2
 70
     6
  9
$SURFTYPE
 70
     6
  9
$SURFU
 70
     6
  9
$SURFV
 70
     6
  9
$UCSNAME
  2

  9
$UCSORG
 10
0.0
 20
0.0
 30
0.0
  9
$UCSXDIR
 10
1.0
 20
0.0
 30
0.0
  9
$UCSYDIR
 10
0.0
 20
1.0
 30
0.0
  9
$PUCSNAME
  2

  9
$PUCSORG
 10
0.0
 20
0.0
 30
0.0
  9
$PUCSXDIR
 10
1.0
 20
0.0
 30
0.0
  9
$PUCSYDIR
 10
0.0
 20
1.0
 30
0.0
  9
$USERI1
 70
     3
  9
$USERI2
 70
     1
  9
$USERI3
 70
     0
  9
$USERI4
 70
     0
  9
$USERI5
 70
     0
  9
$USERR1
 40
1.0
  9
$USERR2
 40
3.0
  9
$USERR3
 40
3.0
  9
$USERR4
 40
3.0
  9
$USERR5
 40
10.0
  9
$WORLDVIEW
 70
     1
  9
$SHADEDGE
 70
     3
  9
$SHADEDIF
 70
    70
  9
$TILEMODE
 70
     1
  9
$MAXACTVP
 70
    16
  9
$PLIMCHECK
 70
     0
  9
$PEXTMIN
 10
1.0000000000000000E+020
 20
1.0000000000000000E+020
 30
1.0000000000000000E+020
  9
$PEXTMAX
 10
-1.0000000000000000E+020
 20
-1.0000000000000000E+020
 30
-1.0000000000000000E+020
  9
$PLIMMIN
 10
0.0
 20
0.0
  9
$PLIMMAX
 10
12.0
 20
9.0
  9
$UNITMODE
 70
     0
  9
$VISRETAIN
 70
     0
  9
$PLINEGEN
 70
     0
  9
$PSLTSCALE
 70
     0
  0
ENDSEC
  0
SECTION
  2
TABLES
  0
TABLE
  2
VPORT
 70
     1
  0
VPORT
  2
*ACTIVE
 70
     0
 10
0.0
 20
0.0
 11
1.0
 21
1.0
 12
525.3124970162396
 22
205.2297653219857
 13
0.0
 23
0.0
 14
5.0
 24
5.0
 15
10.0
 25
10.0
 16
0.0
 26
0.0
 36
1.0
 17
0.0
 27
0.0
 37
0.0
 40
420.09693776947518
 41
2.6019575856443709
 42
50.0
 43
0.0
 44
0.0
 50
0.0
 51
0.0
 71
     0
 72
  1000
 73
     1
 74
     0
 75
     0
 76
     0
 77
     0
 78
     0
  0
ENDTAB
  0
TABLE
  2
LTYPE
 70
     4
  0
LTYPE
  2
CONTINUOUS
 70
     0
  3
Solid Line
 72
    65
 73
     0
 40
0.0
  0
LTYPE
  2
CENTER
 70
     0
  3
____ _ ____ _ ____ _ ____ _ ____ _ ____ _ ____
 72
    65
 73
     4
 40
2.0
 49
1.25
 49
-0.25
 49
0.25
 49
-0.25
  0
LTYPE
  2
PHANTOM
 70
     0
  3
Phantom ______  __  __  ______  __  __  ______
 72
    65
 73
     6
 40
2.5
 49
1.25
 49
-0.25
 49
0.25
 49
-0.25
 49
0.25
 49
-0.25
  0
LTYPE
  2
PHANTOM2
 70
     0
  3
___ _ _ ___ _ _ ___ _ _ ___ _ _
 72
    65
 73
     6
 40
1.25
 49
0.625
 49
-0.125
 49
0.125
 49
-0.125
 49
0.125
 49
-0.125
  0
ENDTAB
  0
TABLE
  2
LAYER
 70
     5
  0
LAYER
  2
0
 70
     0
 62
     7
  6
CONTINUOUS
  0
LAYER
  2
1
 70
     0
 62
     1
  6
CENTER
  0
LAYER
  2
5
 70
     0
 62
     3
  6
PHANTOM
  0
LAYER
  2
3
 70
     0
 62
     3
  6
CONTINUOUS
  0
LAYER
  2
DEFPOINTS
 70
     0
 62
     7
  6
CONTINUOUS
  0
ENDTAB
  0
TABLE
  2
STYLE
 70
     2
  0
STYLE
  2
STANDARD
 70
     0
 40
0.0
 41
1.0
 50
0.0
 71
     0
 42
0.2
  3
simplex
  4
bigfont
  0
STYLE
  2
STANDARD1
 70
     0
 40
0.0
 41
1.0
 50
0.0
 71
     0
 42
3.0
  3
txt
  4

  0
ENDTAB
  0
TABLE
  2
VIEW
 70
     0
  0
ENDTAB
  0
TABLE
  2
UCS
 70
     0
  0
ENDTAB
  0
TABLE
  2
APPID
 70
     6
  0
APPID
  2
ACAD
 70
     0
  0
APPID
  2
ACAD_MLEADERVER
 70
     0
  0
APPID
  2
ACAD_NAV_VCDISPLAY
 70
     0
  0
APPID
  2
ACAD_EXEMPT_FROM_CAD_STANDARDS
 70
     0
  0
APPID
  2
ACAD_DSTYLE_DIMJAG
 70
     0
  0
APPID
  2
ACAD_DSTYLE_DIMTALN
 70
     0
  0
ENDTAB
  0
TABLE
  2
DIMSTYLE
 70
     1
  0
DIMSTYLE
  2
STANDARD
 70
     0
  3

  4

  5

  6

  7

 40
1.0
 41
0.18
 42
0.0625
 43
0.38
 44
0.18
 45
0.0
 46
0.0
 47
0.0
 48
0.0
140
0.18
141
0.09
142
0.0
143
25.399999999999999
144
1.0
145
0.0
146
1.0
147
0.09
 71
     0
 72
     0
 73
     1
 74
     1
 75
     0
 76
     0
 77
     0
 78
     0
170
     0
171
     2
172
     0
173
     0
174
     0
175
     0
176
     0
177
     0
178
     0
  0
ENDTAB
  0
ENDSEC
  0
SECTION
  2
BLOCKS
  0
BLOCK
  8
0
  2
$MODEL_SPACE
 70
     0
 10
0.0
 20
0.0
 30
0.0
  3
$MODEL_SPACE
  1

  0
ENDBLK
  5
82A
  8
0
  0
BLOCK
 67
     1
  8
0
  2
$PAPER_SPACE
 70
     0
 10
0.0
 20
0.0
 30
0.0
  3
$PAPER_SPACE
  1

  0
ENDBLK
  5
828
 67
     1
  8
0
  0
ENDSEC
  0
SECTION
  2
ENTITIES
  0
TEXT
  5
925
  8
0
 62
     3
 10
0.0
 20
0.0
 30
0.0
 40
10.0
  1
QLSC-08R
  7
STANDARD1
  0
LINE
  5
819C
  8
0
 10
265.99999980999991
 20
118.0000002682
 30
0.0
 11
265.99999980999991
 21
106.1999998240999
 31
0.0
  0
LINE
  5
819D
  8
0
 10
274.00000018999992
 20
106.1999998240999
 30
0.0
 11
274.00000018999992
 21
118.0000002682
 31
0.0
  0
LINE
  5
819E
  8
0
 10
265.99999980999991
 20
106.1999998240999
 30
0.0
 11
267.20000009979992
 21
105.0
 31
0.0
  0
LINE
  5
819F
  8
0
 10
272.79999990020002
 20
105.0
 30
0.0
 11
274.00000018999992
 21
106.1999998240999
 31
0.0
  0
POLYLINE
  5
81A0
  8
0
 66
     1
 10
0.0
 20
0.0
 30
0.0
 70
   128
  0
VERTEX
  5
91D4
  8
0
 10
283.59877642240002
 20
142.47225739059991
 30
0.0
  0
VERTEX
  5
91D5
  8
0
 10
284.11261409519989
 20
141.3263823092
 30
0.0
  0
VERTEX
  5
91D6
  8
0
 10
284.43219091739991
 20
140.76396405689991
 30
0.0
  0
SEQEND
  5
91D7
  8
0
  0
ARC
  5
81A1
  8
0
 10
292.9622800791999
 20
145.98292686120001
 30
0.0
 40
10.0
 50
258.61589868970071
 51
200.55258337529941
  0
LINE
  5
81A4
  8
0
 10
287.48398505149999
 20
145.12848995620001
 30
0.0
 11
280.75148675589992
 21
135.50000034269999
 31
0.0
  0
LINE
  5
81A5
  8
0
 10
285.95811732110002
 20
128.98556377729989
 30
0.0
 11
294.0402203052999
 21
140.5441942811
 31
0.0
  0
LINE
  5
81A6
  8
0
 10
279.99999977649992
 20
135.99999949330001
 30
0.0
 11
279.99999977649992
 21
137.80000016089991
 31
0.0
  0
LINE
  5
81A7
  8
0
 10
260.00000022349991
 20
137.80000016089991
 30
0.0
 11
260.00000022349991
 21
135.99999949330001
 31
0.0
  0
LINE
  5
81A8
  8
0
 10
260.00000022349991
 20
135.99999949330001
 30
0.0
 11
260.19999988379999
 21
135.7999998331
 31
0.0
  0
LINE
  5
81A9
  8
0
 10
279.8000001161999
 20
135.7999998331
 30
0.0
 11
279.99999977649992
 21
135.99999949330001
 31
0.0
  0
LINE
  5
81AA
  8
0
 10
279.99999977649992
 20
137.80000016089991
 30
0.0
 11
279.8000001161999
 21
137.9999998211
 31
0.0
  0
LINE
  5
81AB
  8
0
 10
260.19999988379999
 20
137.9999998211
 30
0.0
 11
260.00000022349991
 21
137.80000016089991
 31
0.0
  0
ARC
  5
81AC
  8
0
 10
260.84999999999991
 20
135.4000002681999
 30
0.0
 40
0.4000000000000057
 50
14.477523207244261
 51
90.0
  0
ARC
  5
81AD
  8
0
 10
279.14999999999992
 20
135.4000002681999
 30
0.0
 40
0.4000000000000057
 50
90.0
 51
165.5224767927557
  0
LINE
  5
81AE
  8
0
 10
285.95811732110002
 20
125.5000001004999
 30
0.0
 11
285.95811732110002
 21
135.0000011921
 31
0.0
  0
POLYLINE
  5
81AF
  8
0
 66
     1
 10
0.0
 20
0.0
 30
0.0
 70
   128
  0
VERTEX
  5
91D8
  8
0
 10
285.4579756780999
 20
125.0000004842
 30
0.0
  0
VERTEX
  5
91D9
  8
0
 10
285.70797525350002
 20
125.2500000596
 30
0.0
  0
VERTEX
  5
91DA
  8
0
 10
285.95797389749981
 20
125.5000001004999
 30
0.0
  0
SEQEND
  5
91DB
  8
0
  0
POLYLINE
  5
81B0
  8
0
 66
     1
 10
0.0
 20
0.0
 30
0.0
 70
   128
  0
VERTEX
  5
91DC
  8
0
 10
285.95797389749981
 20
135.0000011921
 30
0.0
  0
VERTEX
  5
91DD
  8
0
 10
285.70797525350002
 20
135.24999983599989
 30
0.0
  0
VERTEX
  5
91DE
  8
0
 10
285.4579756780999
 20
135.50000034269999
 30
0.0
  0
SEQEND
  5
91DF
  8
0
  0
LINE
  5
81B1
  8
0
 10
265.99999980999991
 20
106.1999998240999
 30
0.0
 11
274.00000018999992
 21
106.1999998240999
 31
0.0
  0
LINE
  5
81B2
  8
0
 10
272.79999990020002
 20
105.0
 30
0.0
 11
267.20000009979992
 21
105.0
 31
0.0
  0
POLYLINE
  5
81B3
  8
0
 66
     1
 10
0.0
 20
0.0
 30
0.0
 70
   128
  0
VERTEX
  5
91E0
  8
0
 10
295.84066987039989
 20
139.6362777054
 30
0.0
  0
VERTEX
  5
91E1
  8
0
 10
296.07982046900003
 20
139.9782966077
 30
0.0
  0
VERTEX
  5
91E2
  8
0
 10
296.48598700759999
 20
140.75757145879999
 30
0.0
  0
VERTEX
  5
91E3
  8
0
 10
296.7513394355999
 20
141.60131432110001
 30
0.0
  0
VERTEX
  5
91E4
  8
0
 10
296.86900831759999
 20
142.48767450449989
 30
0.0
  0
VERTEX
  5
91E5
  8
0
 10
296.83594264089987
 20
143.39369304469989
 30
0.0
  0
VERTEX
  5
91E6
  8
0
 10
296.65300108489993
 20
144.29590620100001
 30
0.0
  0
VERTEX
  5
91E7
  8
0
 10
296.32492035629991
 20
145.17094895240001
 30
0.0
  0
VERTEX
  5
91E8
  8
0
 10
295.86019784209998
 20
145.99615477020001
 30
0.0
  0
VERTEX
  5
91E9
  8
0
 10
295.27087181809998
 20
146.75015352659989
 30
0.0
  0
VERTEX
  5
91EA
  8
0
 10
294.57220293580002
 20
147.41341724989991
 30
0.0
  0
VERTEX
  5
91EB
  8
0
 10
293.78228679299991
 20
147.96876490109989
 30
0.0
  0
VERTEX
  5
91EC
  8
0
 10
292.92158082129993
 20
148.40181685979991
 30
0.0
  0
VERTEX
  5
91ED
  8
0
 10
292.01237902049991
 20
148.70135441420001
 30
0.0
  0
VERTEX
  5
91EE
  8
0
 10
291.07822895049992
 20
148.85962150989999
 30
0.0
  0
VERTEX
  5
91EF
  8
0
 10
290.14332450929987
 20
148.87252032750001
 30
0.0
  0
VERTEX
  5
91F0
  8
0
 10
289.23187822099999
 20
148.7397118657
 30
0.0
  0
VERTEX
  5
91F1
  8
0
 10
288.36749538779998
 20
148.46464201799989
 30
0.0
  0
VERTEX
  5
91F2
  8
0
 10
287.57256500419999
 20
148.05442981420001
 30
0.0
  0
VERTEX
  5
91F3
  8
0
 10
286.86767488719988
 20
147.51970164470001
 30
0.0
  0
VERTEX
  5
91F4
  8
0
 10
286.2710808217999
 20
146.87430813899999
 30
0.0
  0
VERTEX
  5
91F5
  8
0
 10
286.03193208579989
 20
146.53228737410001
 30
0.0
  0
SEQEND
  5
91F6
  8
0
  0
POLYLINE
  5
81B4
  8
0
 66
     1
 10
0.0
 20
0.0
 30
0.0
 70
   128
  0
VERTEX
  5
91F7
  8
0
 10
291.75919339059988
 20
137.2819799184
 30
0.0
  0
VERTEX
  5
91F8
  8
0
 10
292.1758447586999
 20
137.3273092508
 30
0.0
  0
VERTEX
  5
91F9
  8
0
 10
293.06664735079988
 20
137.53191150719999
 30
0.0
  0
VERTEX
  5
91FA
  8
0
 10
293.89900200070002
 20
137.87566825740001
 30
0.0
  0
VERTEX
  5
91FB
  8
0
 10
294.65135231609997
 20
138.34967419499989
 30
0.0
  0
VERTEX
  5
91FC
  8
0
 10
295.30421130359991
 20
138.94165448839999
 30
0.0
  0
VERTEX
  5
91FD
  8
0
 10
295.84066987039989
 20
139.6362777054
 30
0.0
  0
VERTEX
  5
91FE
  8
0
 10
296.24683640899991
 20
140.4155506937999
 30
0.0
  0
VERTEX
  5
91FF
  8
0
 10
296.5121906995999
 20
141.25929355619999
 30
0.0
  0
VERTEX
  5
9200
  8
0
 10
296.62985771889998
 20
142.14565373950001
 30
0.0
  0
VERTEX
  5
9201
  8
0
 10
296.59679204230002
 20
143.0516722797999
 30
0.0
  0
VERTEX
  5
9202
  8
0
 10
296.41385048629991
 20
143.9538872986999
 30
0.0
  0
VERTEX
  5
9203
  8
0
 10
296.08576975759991
 20
144.82892818740001
 30
0.0
  0
VERTEX
  5
9204
  8
0
 10
295.62104910609992
 20
145.65413586790001
 30
0.0
  0
VERTEX
  5
9205
  8
0
 10
295.03172121940003
 20
146.4081327616999
 30
0.0
  0
VERTEX
  5
9206
  8
0
 10
294.33305233719989
 20
147.07139648489999
 30
0.0
  0
VERTEX
  5
9207
  8
0
 10
293.5431361942999
 20
147.62674599879989
 30
0.0
  0
VERTEX
  5
9208
  8
0
 10
292.68243208529998
 20
148.05979609490001
 30
0.0
  0
VERTEX
  5
9209
  8
0
 10
291.77323028450002
 20
148.35933551190001
 30
0.0
  0
VERTEX
  5
920A
  8
0
 10
290.83908021449997
 20
148.5176026076
 30
0.0
  0
VERTEX
  5
920B
  8
0
 10
289.90417391059992
 20
148.5304995626
 30
0.0
  0
VERTEX
  5
920C
  8
0
 10
288.99272762239991
 20
148.3976929634
 30
0.0
  0
VERTEX
  5
920D
  8
0
 10
288.12834665179992
 20
148.12262125309991
 30
0.0
  0
VERTEX
  5
920E
  8
0
 10
287.33341626819993
 20
147.71240904919989
 30
0.0
  0
VERTEX
  5
920F
  8
0
 10
286.62852615119999
 20
147.1776827423999
 30
0.0
  0
VERTEX
  5
9210
  8
0
 10
286.03193208579989
 20
146.53228737410001
 30
0.0
  0
VERTEX
  5
9211
  8
0
 10
285.55908564479989
 20
145.79294204710001
 30
0.0
  0
VERTEX
  5
9212
  8
0
 10
285.22223372009989
 20
144.97879289089991
 30
0.0
  0
VERTEX
  5
9213
  8
0
 10
285.03010001029998
 20
144.11092877379991
 30
0.0
  0
VERTEX
  5
9214
  8
0
 10
284.98766057189999
 20
143.2118243724
 30
0.0
  0
VERTEX
  5
9215
  8
0
 10
285.09601529690002
 20
142.30476647610001
 30
0.0
  0
VERTEX
  5
9216
  8
0
 10
285.20295720550001
 20
141.86627559359999
 30
0.0
  0
SEQEND
  5
9217
  8
0
  0
ARC
  5
81B5
  8
0
 10
248.2030358888999
 20
137.00000026820001
 30
0.0
 40
1.000000000000002
 50
56.920940212402208
 51
90.0
  0
POLYLINE
  5
81B6
  8
0
 66
     1
 10
0.0
 20
0.0
 30
0.0
 70
   128
  0
VERTEX
  5
9218
  8
0
 10
241.4999999851
 20
131.25000011169999
 30
0.0
  0
VERTEX
  5
9219
  8
0
 10
241.5169854461999
 20
131.2669846414999
 30
0.0
  0
VERTEX
  5
921A
  8
0
 10
241.56736068430001
 20
131.31736174220001
 30
0.0
  0
VERTEX
  5
921B
  8
0
 10
241.64941951629999
 20
131.3994196429
 30
0.0
  0
VERTEX
  5
921C
  8
0
 10
241.76036983729989
 20
131.51037089519991
 30
0.0
  0
VERTEX
  5
921D
  8
0
 10
241.89644724129991
 20
131.64644643659989
 30
0.0
  0
SEQEND
  5
921E
  8
0
  0
ARC
  5
81B7
  8
0
 10
241.54287407099989
 20
132.00000023469991
 30
0.0
 40
0.5000142747000008
 50
315.00156966270077
 51
44.998430337299247
  0
POLYLINE
  5
81B8
  8
0
 66
     1
 10
0.0
 20
0.0
 30
0.0
 70
   128
  0
VERTEX
  5
921F
  8
0
 10
241.89644724129991
 20
132.3535540327
 30
0.0
  0
VERTEX
  5
9220
  8
0
 10
241.76036983729989
 20
132.48962957409989
 30
0.0
  0
VERTEX
  5
9221
  8
0
 10
241.64941951629999
 20
132.60058082640001
 30
0.0
  0
VERTEX
  5
9222
  8
0
 10
241.56736068430001
 20
132.68263872709991
 30
0.0
  0
VERTEX
  5
9223
  8
0
 10
241.5169854461999
 20
132.73301582779999
 30
0.0
  0
VERTEX
  5
9224
  8
0
 10
241.4999999851
 20
132.75000035759999
 30
0.0
  0
SEQEND
  5
9225
  8
0
  0
LINE
  5
81B9
  8
0
 10
241.4999999851
 20
132.75000035759999
 30
0.0
 11
241.4999999851
 21
133.25000043950001
 31
0.0
  0
POLYLINE
  5
81BA
  8
0
 66
     1
 10
0.0
 20
0.0
 30
0.0
 70
   128
  0
VERTEX
  5
9226
  8
0
 10
241.4999999851
 20
133.25000043950001
 30
0.0
  0
VERTEX
  5
9227
  8
0
 10
241.5169854461999
 20
133.26698496930001
 30
0.0
  0
VERTEX
  5
9228
  8
0
 10
241.56736068430001
 20
133.31736207
 30
0.0
  0
VERTEX
  5
9229
  8
0
 10
241.64941951629999
 20
133.39941997080001
 30
0.0
  0
VERTEX
  5
922A
  8
0
 10
241.76036983729989
 20
133.51037122310001
 30
0.0
  0
VERTEX
  5
922B
  8
0
 10
241.89644724129991
 20
133.64644676439991
 30
0.0
  0
SEQEND
  5
922C
  8
0
  0
ARC
  5
81BB
  8
0
 10
241.54287474869989
 20
134.00000009679991
 30
0.0
 40
0.5000134661557359
 50
315.00155247739713
 51
44.998447522602937
  0
POLYLINE
  5
81BC
  8
0
 66
     1
 10
0.0
 20
0.0
 30
0.0
 70
   128
  0
VERTEX
  5
922D
  8
0
 10
241.89644724129991
 20
134.35355342919991
 30
0.0
  0
VERTEX
  5
922E
  8
0
 10
241.76036983729989
 20
134.48962897059999
 30
0.0
  0
VERTEX
  5
922F
  8
0
 10
241.64941951629999
 20
134.60058115419989
 30
0.0
  0
VERTEX
  5
9230
  8
0
 10
241.56736068430001
 20
134.68263812359999
 30
0.0
  0
VERTEX
  5
9231
  8
0
 10
241.5169854461999
 20
134.73301522429989
 30
0.0
  0
VERTEX
  5
9232
  8
0
 10
241.4999999851
 20
134.75000068540001
 30
0.0
  0
SEQEND
  5
9233
  8
0
  0
LINE
  5
81BD
  8
0
 10
241.4999999851
 20
134.75000068540001
 30
0.0
 11
241.4999999851
 21
135.24999983599989
 31
0.0
  0
POLYLINE
  5
81BE
  8
0
 66
     1
 10
0.0
 20
0.0
 30
0.0
 70
   128
  0
VERTEX
  5
9234
  8
0
 10
241.4999999851
 20
135.24999983599989
 30
0.0
  0
VERTEX
  5
9235
  8
0
 10
241.5169854461999
 20
135.26698529719991
 30
0.0
  0
VERTEX
  5
9236
  8
0
 10
241.56736068430001
 20
135.3173623978999
 30
0.0
  0
VERTEX
  5
9237
  8
0
 10
241.64941951629999
 20
135.3994193673
 30
0.0
  0
VERTEX
  5
9238
  8
0
 10
241.76036983729989
 20
135.51037155089989
 30
0.0
  0
VERTEX
  5
9239
  8
0
 10
241.89644724129991
 20
135.64644709230001
 30
0.0
  0
SEQEND
  5
923A
  8
0
  0
ARC
  5
81BF
  8
0
 10
241.54287474869989
 20
136.00000042459999
 30
0.0
 40
0.5000134661557359
 50
315.00155247739713
 51
44.998447522602937
  0
POLYLINE
  5
81C0
  8
0
 66
     1
 10
0.0
 20
0.0
 30
0.0
 70
   128
  0
VERTEX
  5
923B
  8
0
 10
241.89644724129991
 20
136.35355375699999
 30
0.0
  0
VERTEX
  5
923C
  8
0
 10
241.76036983729989
 20
136.4896292983999
 30
0.0
  0
VERTEX
  5
923D
  8
0
 10
241.64941951629999
 20
136.600581482
 30
0.0
  0
VERTEX
  5
923E
  8
0
 10
241.56736068430001
 20
136.6826384513999
 30
0.0
  0
VERTEX
  5
923F
  8
0
 10
241.5169854461999
 20
136.7330155521
 30
0.0
  0
VERTEX
  5
9240
  8
0
 10
241.4999999851
 20
136.75000101320001
 30
0.0
  0
SEQEND
  5
9241
  8
0
  0
LINE
  5
81C1
  8
0
 10
241.4999999851
 20
136.75000101320001
 30
0.0
 11
241.4999999851
 21
137.25000016390001
 31
0.0
  0
LINE
  5
81C2
  8
0
 10
241.4999999851
 20
137.25000016390001
 30
0.0
 11
242.0555283128999
 21
137.80552849169999
 31
0.0
  0
POLYLINE
  5
81C5
  8
0
 66
     1
 10
0.0
 20
0.0
 30
0.0
 70
   128
  0
VERTEX
  5
9242
  8
0
 10
241.9878733157999
 20
130.26212763039999
 30
0.0
  0
VERTEX
  5
9243
  8
0
 10
241.8225523828998
 20
130.42744763189989
 30
0.0
  0
VERTEX
  5
9244
  8
0
 10
241.6860521584999
 20
130.56394785639989
 30
0.0
  0
VERTEX
  5
9245
  8
0
 10
241.58418223259989
 20
130.6658187136
 30
0.0
  0
VERTEX
  5
9246
  8
0
 10
241.5212713926999
 20
130.7287286221999
 30
0.0
  0
VERTEX
  5
9247
  8
0
 10
241.4999999851
 20
130.75000002979999
 30
0.0
  0
SEQEND
  5
9248
  8
0
  0
LINE
  5
81C6
  8
0
 10
241.4999999851
 20
130.75000002979999
 30
0.0
 11
241.4999999851
 21
131.25000011169999
 31
0.0
  0
LINE
  5
81C7
  8
0
 10
242.0555283128999
 20
137.80552849169999
 30
0.0
 11
242.2499996423999
 21
137.9999998211
 31
0.0
  0
LINE
  5
81C8
  8
0
 10
242.2499996423999
 20
137.9999998211
 30
0.0
 11
248.20303589109989
 21
137.9999998211
 31
0.0
  0
LINE
  5
81C9
  8
0
 10
248.74883189799991
 20
137.83791802819991
 30
0.0
 11
255.3873876854999
 21
133.51375471799989
 31
0.0
  0
ARC
  5
81CA
  8
0
 10
253.75
 20
131.00000026820001
 30
0.0
 40
3.0
 50
0.0
 51
56.920940212302057
  0
LINE
  5
81CC
  8
0
 10
242.99999982194871
 20
130.00000037250001
 30
0.0
 11
242.2499996423999
 21
130.00000037250001
 31
0.0
  0
POLYLINE
  5
81CD
  8
0
 66
     1
 10
0.0
 20
0.0
 30
0.0
 70
   128
  0
VERTEX
  5
9249
  8
0
 10
242.2499996423999
 20
130.00000037250001
 30
0.0
  0
VERTEX
  5
924A
  8
0
 10
242.16471284629989
 20
130.08528716859999
 30
0.0
  0
VERTEX
  5
924B
  8
0
 10
242.07726910709991
 20
130.17273090779989
 30
0.0
  0
VERTEX
  5
924C
  8
0
 10
241.9878733157999
 20
130.26212763039999
 30
0.0
  0
SEQEND
  5
924D
  8
0
  0
POLYLINE
  5
81CE
  8
0
 66
     1
 10
0.0
 20
0.0
 30
0.0
 70
   128
  0
VERTEX
  5
924E
  8
0
 10
256.75000015649999
 20
131.00000053639991
 30
0.0
  0
VERTEX
  5
924F
  8
0
 10
256.69120576229989
 20
130.40897950530001
 30
0.0
  0
VERTEX
  5
9250
  8
0
 10
256.5467734634999
 20
129.9146176502
 30
0.0
  0
SEQEND
  5
9251
  8
0
  0
POLYLINE
  5
81CF
  8
0
 66
     1
 10
0.0
 20
0.0
 30
0.0
 70
   128
  0
VERTEX
  5
9252
  8
0
 10
256.5467734634999
 20
129.9146176502
 30
0.0
  0
VERTEX
  5
9253
  8
0
 10
256.46168224510001
 20
129.69535544510001
 30
0.0
  0
VERTEX
  5
9254
  8
0
 10
256.39389965679987
 20
129.5206961408
 30
0.0
  0
VERTEX
  5
9255
  8
0
 10
256.34611628949989
 20
129.3975715711
 30
0.0
  0
VERTEX
  5
9256
  8
0
 10
256.32023017850003
 20
129.3308683857
 30
0.0
  0
SEQEND
  5
9257
  8
0
  0
ARC
  5
81D3
  8
0
 10
242.99999982194871
 20
129.5000001944486
 30
0.0
 40
0.5000001780513285
 50
0.0000084512807423
 51
89.999979596827828
  0
ARC
  5
81D4
  8
0
 10
248.54579357579999
 20
124.5000002682
 30
0.0
 40
5.499999999999992
 50
270.0
 51
338.78956992189887
  0
LINE
  5
81D5
  8
0
 10
256.32018359867601
 20
129.33074874732119
 30
0.0
 11
253.6732130497999
 21
122.51013193279999
 31
0.0
  0
LINE
  5
81D9
  8
0
 10
248.5457942635
 20
119.00000031569991
 30
0.0
 11
247.49999910589989
 21
119.00000031569991
 31
0.0
  0
ARC
  5
81DA
  8
0
 10
247.5
 20
123.0000002682
 30
0.0
 40
4.0
 50
180.0
 51
270.0
  0
LINE
  5
81DB
  8
0
 10
243.50000031289991
 20
123.00000015640001
 30
0.0
 11
243.50000031289991
 21
129.50000029050051
 31
0.0
  0
ARC
  5
81DC
  8
0
 10
290.5961946747999
 20
142.5990686138
 30
0.0
 40
4.0104639465947756
 50
329.17762873629931
 51
140.89781375849751
  0
LINE
  5
81DF
  8
0
 10
279.8000001161999
 20
135.7999998331
 30
0.0
 11
260.19999988379999
 21
135.7999998331
 31
0.0
  0
LINE
  5
81E0
  8
0
 10
260.19999988379999
 20
137.9999998211
 30
0.0
 11
279.8000001161999
 21
137.9999998211
 31
0.0
  0
LINE
  5
81E3
  8
0
 10
256.87884677199992
 20
135.0000011921
 30
0.0
 11
256.87884677199992
 21
125.5000001004999
 31
0.0
  0
LINE
  5
81E4
  8
0
 10
257.38881945610001
 20
125.0003841891
 30
0.0
 11
256.87999695539997
 21
125.5000163987
 31
0.0
  0
LINE
  5
81E5
  8
0
 10
257.38972377030001
 20
135.50000034269999
 30
0.0
 11
285.45642502610002
 21
135.50000034269999
 31
0.0
  0
LINE
  5
81E6
  8
0
 10
256.87999695539997
 20
134.99998442820001
 30
0.0
 11
257.38881945610001
 21
135.49961663779999
 31
0.0
  0
LINE
  5
81E7
  8
0
 10
250.77072575689999
 20
120.5703220515999
 30
0.0
 11
250.077650398
 21
121.7707647196999
 31
0.0
  0
LINE
  5
81E8
  8
0
 10
250.4486967622999
 20
123.4500906615999
 30
0.0
 11
250.80164007839991
 21
123.4501521289
 31
0.0
  0
ARC
  5
81E9
  8
0
 10
250.80157637169989
 20
123.8101522337999
 30
0.0
 40
0.3600000000000221
 50
270.01000000069888
 51
19.392003866300438
  0
ARC
  5
81EA
  8
0
 10
248.5
 20
123.00000026950001
 30
0.0
 40
2.8000000000000389
 50
19.392003866300438
 51
64.620621008902305
  0
ARC
  5
81EB
  8
0
 10
249.5972415775
 20
125.3129336711999
 30
0.0
 40
0.2400000000000219
 50
64.620621008902305
 51
160.00000000000051
  0
LINE
  5
81EC
  8
0
 10
249.3717153369999
 20
125.3950186259999
 30
0.0
 11
249.18404079969989
 21
124.8793853632999
 31
0.0
  0
LINE
  5
81ED
  8
0
 10
247.81595960259989
 20
124.8793853632999
 30
0.0
 11
247.62828506529991
 21
125.3950186259999
 31
0.0
  0
ARC
  5
81EE
  8
0
 10
247.40275842249989
 20
125.3129336711999
 30
0.0
 40
0.2400000000000158
 50
19.99999999999951
 51
115.3793789910976
  0
ARC
  5
81EF
  8
0
 10
248.5
 20
123.00000026950001
 30
0.0
 40
2.8000000000000682
 50
115.3793789910976
 51
160.6079961337995
  0
ARC
  5
81F0
  8
0
 10
246.19842362829991
 20
123.8101522337999
 30
0.0
 40
0.3599999999942414
 50
160.60799613309899
 51
269.98999999999802
  0
LINE
  5
81F1
  8
0
 10
246.19836032389989
 20
123.4501521289
 30
0.0
 11
246.5513036399999
 21
123.4500906615999
 31
0.0
  0
LINE
  5
81F2
  8
0
 10
246.92235000429989
 20
121.7707647196999
 30
0.0
 11
246.22927464540001
 21
120.5703220515999
 31
0.0
  0
ARC
  5
81F3
  8
0
 10
246.10803042079991
 20
120.6403219994
 30
0.0
 40
0.1400000000000044
 50
224.6106345888989
 51
329.99999999999801
  0
ARC
  5
81F4
  8
0
 10
248.5
 20
123.0000002682
 30
0.0
 40
3.5000000000000688
 50
315.38936541110098
 51
224.6106345888989
  0
ARC
  5
81F5
  8
0
 10
250.89196957919989
 20
120.6403219994
 30
0.0
 40
0.1399999999999944
 50
210.0000000000019
 51
315.38936541110098
  0
CIRCLE
  5
81F6
  8
0
 10
248.5
 20
123.0000002682
 30
0.0
 40
1.5
  0
CIRCLE
  5
81F7
  8
0
 10
248.5
 20
123.0000002682
 30
0.0
 40
2.0
  0
LINE
  5
81F9
  8
0
 10
254.63949057357129
 20
125.0000004842
 30
0.0
 11
287.0000009238999
 21
125.0000004842
 31
0.0
  0
ARC
  5
81FA
  8
0
 10
286.99999963126203
 20
124.50000011546361
 30
0.0
 40
0.5000003687380519
 50
0.0000175022832113
 51
89.999851874708256
  0
ARC
  5
81FC
  8
0
 10
258.0
 20
124.5000002682
 30
0.0
 40
0.5
 50
90.0
 51
180.0
  0
LINE
  5
81FD
  8
0
 10
287.50000007449989
 20
124.5000004023
 30
0.0
 11
287.50000007449989
 21
118.50000029189989
 31
0.0
  0
LINE
  5
8201
  8
0
 10
257.4999998136999
 20
118.50000029189989
 30
0.0
 11
257.4999998136999
 21
124.5000004023
 31
0.0
  0
LINE
  5
8204
  8
0
 10
257.99999989569989
 20
118.0000002682
 30
0.0
 11
257.4999998136999
 21
118.50000029189989
 31
0.0
  0
LINE
  5
8205
  8
0
 10
287.50000007449989
 20
118.50000029189989
 30
0.0
 11
287.0000009238999
 21
118.0000002682
 31
0.0
  0
LINE
  5
8208
  8
0
 10
257.99999989569989
 20
118.0000002682
 30
0.0
 11
256.49999964979997
 21
118.0000002682
 31
0.0
  0
LINE
  5
820B
  8
0
 10
243.50000031289991
 20
118.50000029189989
 30
0.0
 11
243.50000031289991
 21
123.00000015640001
 31
0.0
  0
LINE
  5
820E
  8
0
 10
287.0000009238999
 20
118.0000002682
 30
0.0
 11
243.99999946359989
 21
118.0000002682
 31
0.0
  0
LINE
  5
820F
  8
0
 10
243.99999946359989
 20
118.0000002682
 30
0.0
 11
243.50000031289991
 21
118.50000029189989
 31
0.0
  0
LINE
  5
8238
  8
0
 10
279.49999969449988
 20
118.0000002682
 30
0.0
 11
279.49999969449988
 21
125.0000004842
 31
0.0
  0
LINE
  5
8239
  8
0
 10
261.49999953809993
 20
125.0000004842
 30
0.0
 11
261.49999953809993
 21
118.0000002682
 31
0.0
  0
ARC
  5
8248
  8
0
 10
292.9622800791999
 20
395.48088663170029
 30
0.0
 40
10.00000000000065
 50
286.89821455600008
 51
69.896423253199828
  0
ARC
  5
8249
  8
0
 10
292.9622800791999
 20
395.48088663170029
 30
0.0
 40
10.000000000000879
 50
69.896423253199828
 51
223.61413032199729
  0
LINE
  5
824A
  8
0
 10
296.61237318079998
 20
385.77513471360021
 30
0.0
 11
296.72873810790003
 21
386.21731313560019
 31
0.0
  0
LINE
  5
824B
  8
0
 10
285.12385777100002
 20
389.27128634520028
 30
0.0
 11
285.00749284389991
 21
388.8291079232003
 31
0.0
  0
LINE
  5
824C
  8
0
 10
256.75
 20
292.72586037730031
 30
0.0
 11
256.75
 21
323.72586037730031
 31
0.0
  0
LINE
  5
824D
  8
0
 10
286.55236981379988
 20
386.84091509640029
 30
0.0
 11
270.39683414210901
 21
325.45103202229092
 31
0.0
  0
LINE
  5
824E
  8
0
 10
278.02553366251988
 20
323.00508556850963
 30
0.0
 11
294.28895670510002
 21
384.80493295670021
 31
0.0
  0
CIRCLE
  5
8256
  8
0
 10
270.0
 20
308.22586037730031
 30
0.0
 40
6.5000000000000266
  0
LINE
  5
8257
  8
0
 10
271.73205080759999
 20
311.22586037730031
 30
0.0
 11
268.2679491923999
 21
311.22586037730031
 31
0.0
  0
LINE
  5
8258
  8
0
 10
266.53589838489989
 20
308.22586037730031
 30
0.0
 11
268.2679491923999
 21
311.22586037730031
 31
0.0
  0
LINE
  5
8259
  8
0
 10
266.53589838489989
 20
308.22586037730031
 30
0.0
 11
268.2679491923999
 21
305.22586037730031
 31
0.0
  0
LINE
  5
825A
  8
0
 10
268.2679491923999
 20
305.22586037730031
 30
0.0
 11
271.73205080759999
 21
305.22586037730031
 31
0.0
  0
LINE
  5
825B
  8
0
 10
273.46410161509988
 20
308.22586037730031
 30
0.0
 11
271.73205080759999
 21
305.22586037730031
 31
0.0
  0
LINE
  5
825C
  8
0
 10
273.46410161509988
 20
308.22586037730031
 30
0.0
 11
271.73205080759999
 21
311.22586037730031
 31
0.0
  0
ARC
  5
825D
  8
0
 10
293.70954461769998
 20
398.32043857080032
 30
0.0
 40
12.594293473556579
 50
230.6394350361013
 51
279.87290984200013
  0
POLYLINE
  5
825E
  8
0
 66
     1
 10
0.0
 20
0.0
 30
0.0
 70
   128
  0
VERTEX
  5
9258
  8
0
 10
296.61237318079998
 20
385.77513471360021
 30
0.0
  0
VERTEX
  5
9259
  8
0
 10
296.59679282780002
 20
385.72393696320029
 30
0.0
  0
VERTEX
  5
925A
  8
0
 10
296.41385100479988
 20
385.43252086800032
 30
0.0
  0
VERTEX
  5
925B
  8
0
 10
296.0857706493
 20
385.18952644250032
 30
0.0
  0
VERTEX
  5
925C
  8
0
 10
295.6210488703
 20
385.0012471145003
 30
0.0
  0
VERTEX
  5
925D
  8
0
 10
295.03172171779988
 20
384.87255921980028
 30
0.0
  0
VERTEX
  5
925E
  8
0
 10
294.33305245539992
 20
384.8067957073003
 30
0.0
  0
VERTEX
  5
925F
  8
0
 10
293.54313624999992
 20
384.80565981740028
 30
0.0
  0
VERTEX
  5
9260
  8
0
 10
292.68243151649989
 20
384.86918096910028
 30
0.0
  0
VERTEX
  5
9261
  8
0
 10
291.77323005519997
 20
384.99571399780029
 30
0.0
  0
VERTEX
  5
9262
  8
0
 10
290.83907970659988
 20
385.18198176460032
 30
0.0
  0
VERTEX
  5
9263
  8
0
 10
289.90417447390001
 20
385.42316003220031
 30
0.0
  0
VERTEX
  5
9264
  8
0
 10
288.9927279115999
 20
385.71300241020032
 30
0.0
  0
VERTEX
  5
9265
  8
0
 10
288.12834600679992
 20
386.04400213310032
 30
0.0
  0
VERTEX
  5
9266
  8
0
 10
287.3334157969
 20
386.40758648210033
 30
0.0
  0
VERTEX
  5
9267
  8
0
 10
286.6285255567999
 20
386.7943388135003
 30
0.0
  0
VERTEX
  5
9268
  8
0
 10
286.0319315733999
 20
387.19424244500033
 30
0.0
  0
VERTEX
  5
9269
  8
0
 10
285.55908531739988
 20
387.59694008270031
 30
0.0
  0
VERTEX
  5
926A
  8
0
 10
285.2222332586
 20
387.99200206920028
 30
0.0
  0
VERTEX
  5
926B
  8
0
 10
285.0300996883999
 20
388.36919650670018
 30
0.0
  0
VERTEX
  5
926C
  8
0
 10
284.98766076530001
 20
388.71875425730019
 30
0.0
  0
VERTEX
  5
926D
  8
0
 10
285.00749284389991
 20
388.8291079232003
 30
0.0
  0
SEQEND
  5
926E
  8
0
  0
LINE
  5
825F
  8
0
 10
242.25
 20
303.97586037730031
 30
0.0
 11
242.25
 21
292.72586037730031
 31
0.0
  0
LINE
  5
8260
  8
0
 10
241.5
 20
303.22586037730031
 30
0.0
 11
243.5
 21
305.22586037730031
 31
0.0
  0
LINE
  5
8261
  8
0
 10
243.5
 20
305.22586037730031
 30
0.0
 11
243.5
 21
311.22586037730031
 31
0.0
  0
LINE
  5
8262
  8
0
 10
243.5
 20
311.22586037730031
 30
0.0
 11
241.5
 21
313.22586037730042
 31
0.0
  0
LINE
  5
8263
  8
0
 10
242.25
 20
323.72586037730031
 30
0.0
 11
242.25
 21
312.47586037730031
 31
0.0
  0
ARC
  5
8266
  8
0
 10
241.75
 20
323.72586037730031
 30
0.0
 40
0.5000000000000285
 50
0.0
 51
52.333994758699873
  0
ARC
  5
8267
  8
0
 10
242.5
 20
323.22586037730031
 30
0.0
 40
0.9999999999979818
 50
90.0
 51
116.389514986303
  0
ARC
  5
8268
  8
0
 10
242.5
 20
323.22586037730031
 30
0.0
 40
1.000000000000026
 50
116.389514986303
 51
180.0
  0
LINE
  5
826A
  8
0
 10
241.5
 20
323.22586037730031
 30
0.0
 11
241.5
 21
313.22586037730031
 31
0.0
  0
ARC
  5
826B
  8
0
 10
241.75
 20
292.72586037730031
 30
0.0
 40
0.5
 50
307.66600524130013
 51
0.0
  0
ARC
  5
826C
  8
0
 10
242.5
 20
293.22586037730031
 30
0.0
 40
1.0
 50
180.0
 51
243.6104850136968
  0
LINE
  5
826D
  8
0
 10
241.5
 20
303.22586037730031
 30
0.0
 11
241.5
 21
293.22586037730031
 31
0.0
  0
ARC
  5
8271
  8
0
 10
242.5
 20
293.22586037730031
 30
0.0
 40
1.0000000000057401
 50
243.61048501379881
 51
269.99999999989581
  0
POLYLINE
  5
8278
  8
0
 66
     1
 10
0.0
 20
0.0
 30
0.0
 70
   128
  0
VERTEX
  5
926F
  8
0
 10
253.78018605529991
 20
314.22586037730031
 30
0.0
  0
VERTEX
  5
9270
  8
0
 10
253.7088076254999
 20
314.87290799010032
 30
0.0
  0
VERTEX
  5
9271
  8
0
 10
253.4995366581
 20
315.47586037730031
 30
0.0
  0
VERTEX
  5
9272
  8
0
 10
253.16663462369991
 20
315.99362733030028
 30
0.0
  0
VERTEX
  5
9273
  8
0
 10
252.73278824580001
 20
316.39092388680029
 30
0.0
  0
VERTEX
  5
9274
  8
0
 10
252.22756343809991
 20
316.64067494300031
 30
0.0
  0
VERTEX
  5
9275
  8
0
 10
251.68539043629991
 20
316.72586037730031
 30
0.0
  0
VERTEX
  5
9276
  8
0
 10
251.14321743439999
 20
316.64067494300031
 30
0.0
  0
VERTEX
  5
9277
  8
0
 10
250.6379926267
 20
316.39092388680029
 30
0.0
  0
VERTEX
  5
9278
  8
0
 10
250.2041462487999
 20
315.99362733030028
 30
0.0
  0
VERTEX
  5
9279
  8
0
 10
249.87124421439989
 20
315.47586037730031
 30
0.0
  0
VERTEX
  5
927A
  8
0
 10
249.66197324699991
 20
314.87290799010032
 30
0.0
  0
VERTEX
  5
927B
  8
0
 10
249.5905948171999
 20
314.22586037730031
 30
0.0
  0
SEQEND
  5
927C
  8
0
  0
LINE
  5
8279
  8
0
 10
249.5905948171999
 20
314.22586037730031
 30
0.0
 11
249.5905948171999
 21
302.22586037730031
 31
0.0
  0
POLYLINE
  5
827A
  8
0
 66
     1
 10
0.0
 20
0.0
 30
0.0
 70
   128
  0
VERTEX
  5
927D
  8
0
 10
249.5905948171999
 20
302.22586037730031
 30
0.0
  0
VERTEX
  5
927E
  8
0
 10
249.66197324699991
 20
301.57881276460029
 30
0.0
  0
VERTEX
  5
927F
  8
0
 10
249.87124421439989
 20
300.97586037730031
 30
0.0
  0
VERTEX
  5
9280
  8
0
 10
250.2041462487999
 20
300.45809342430027
 30
0.0
  0
VERTEX
  5
9281
  8
0
 10
250.6379926267
 20
300.06079686780032
 30
0.0
  0
VERTEX
  5
9282
  8
0
 10
251.14321743439999
 20
299.81104581160031
 30
0.0
  0
VERTEX
  5
9283
  8
0
 10
251.68539043629991
 20
299.72586037730031
 30
0.0
  0
VERTEX
  5
9284
  8
0
 10
252.22756343809991
 20
299.81104581160031
 30
0.0
  0
VERTEX
  5
9285
  8
0
 10
252.73278824580001
 20
300.06079686780032
 30
0.0
  0
VERTEX
  5
9286
  8
0
 10
253.16663462369991
 20
300.45809342430027
 30
0.0
  0
VERTEX
  5
9287
  8
0
 10
253.4995366581
 20
300.97586037730031
 30
0.0
  0
VERTEX
  5
9288
  8
0
 10
253.7088076254999
 20
301.57881276460029
 30
0.0
  0
VERTEX
  5
9289
  8
0
 10
253.78018605529991
 20
302.22586037730031
 30
0.0
  0
SEQEND
  5
928A
  8
0
  0
LINE
  5
827B
  8
0
 10
253.78018605529991
 20
302.22586037730031
 30
0.0
 11
253.78018605529991
 21
314.22586037730031
 31
0.0
  0
ARC
  5
827C
  8
0
 10
256.25
 20
323.72586037730031
 30
0.0
 40
0.5
 50
0.0
 51
90.0
  0
LINE
  5
827D
  8
0
 10
242.5
 20
324.22586037730031
 30
0.0
 11
256.25
 21
324.22586037730031
 31
0.0
  0
ARC
  5
827E
  8
0
 10
256.25
 20
292.72586037730031
 30
0.0
 40
0.5000000000000285
 50
270.0
 51
0.0
  0
LINE
  5
827F
  8
0
 10
256.25
 20
292.22586037730031
 30
0.0
 11
242.5
 21
292.22586037730031
 31
0.0
  0
CIRCLE
  5
8282
  8
0
 10
270.0
 20
308.22586037730031
 30
0.0
 40
9.9999999999999964
  0
CIRCLE
  5
8284
  8
0
 10
270.0
 20
308.22586037730031
 30
0.0
 40
6.749999999999992
  0
POLYLINE
  5
8287
  8
0
 66
     1
 10
0.0
 20
0.0
 30
0.0
 70
   128
  0
VERTEX
  5
928B
  8
0
 10
261.71047514459991
 20
323.87794792830027
 30
0.0
  0
VERTEX
  5
928C
  8
0
 10
264.28883219309989
 20
324.84905312330028
 30
0.0
  0
VERTEX
  5
928D
  8
0
 10
266.96647396449998
 20
325.4021207759003
 30
0.0
  0
VERTEX
  5
928E
  8
0
 10
269.67661111509989
 20
325.53007923700028
 30
0.0
  0
VERTEX
  5
928F
  8
0
 10
272.3526999474999
 20
325.23636831610031
 30
0.0
  0
VERTEX
  5
9290
  8
0
 10
274.9300517463999
 20
324.5346513310003
 30
0.0
  0
VERTEX
  5
9291
  8
0
 10
277.3473551434999
 20
323.44833790250033
 30
0.0
  0
VERTEX
  5
9292
  8
0
 10
279.54814571460003
 20
322.00991788490029
 30
0.0
  0
VERTEX
  5
9293
  8
0
 10
281.48220889369992
 20
320.26008217110029
 30
0.0
  0
VERTEX
  5
9294
  8
0
 10
283.1066657744999
 20
318.24647995850029
 30
0.0
  0
VERTEX
  5
9295
  8
0
 10
284.3868726671999
 20
316.02243526620032
 30
0.0
  0
VERTEX
  5
9296
  8
0
 10
285.2971287247999
 20
313.64558221880031
 30
0.0
  0
VERTEX
  5
9297
  8
0
 10
285.82123258119992
 20
311.17640593140032
 30
0.0
  0
VERTEX
  5
9298
  8
0
 10
285.95280798309989
 20
308.67668079860027
 30
0.0
  0
VERTEX
  5
9299
  8
0
 10
285.69518598249988
 20
306.2078908111003
 30
0.0
  0
VERTEX
  5
929A
  8
0
 10
285.06110677399988
 20
303.82978023170028
 30
0.0
  0
VERTEX
  5
929B
  8
0
 10
284.07170229399992
 20
301.59939524050031
 30
0.0
  0
VERTEX
  5
929C
  8
0
 10
282.75915628009989
 20
299.56711040360028
 30
0.0
  0
VERTEX
  5
929D
  8
0
 10
281.15906789209998
 20
297.78095928820028
 30
0.0
  0
VERTEX
  5
929E
  8
0
 10
279.31621275859987
 20
296.2793341669003
 30
0.0
  0
VERTEX
  5
929F
  8
0
 10
277.28023240249991
 20
295.09326578090031
 30
0.0
  0
VERTEX
  5
92A0
  8
0
 10
275.10337201149991
 20
294.2485000976003
 30
0.0
  0
VERTEX
  5
92A1
  8
0
 10
272.84192398249991
 20
293.75657372420028
 30
0.0
  0
VERTEX
  5
92A2
  8
0
 10
270.55255871790001
 20
293.6256305296003
 30
0.0
  0
VERTEX
  5
92A3
  8
0
 10
268.29158299509987
 20
293.85141994380029
 30
0.0
  0
VERTEX
  5
92A4
  8
0
 10
266.11348943849998
 20
294.42098130960028
 30
0.0
  0
VERTEX
  5
92A5
  8
0
 10
264.0710469707999
 20
295.31635891490032
 30
0.0
  0
VERTEX
  5
92A6
  8
0
 10
262.21001107839987
 20
296.50714107600032
 30
0.0
  0
VERTEX
  5
92A7
  8
0
 10
260.57399491429987
 20
297.96027950400031
 30
0.0
  0
VERTEX
  5
92A8
  8
0
 10
259.19819905299988
 20
299.63487909710028
 30
0.0
  0
VERTEX
  5
92A9
  8
0
 10
258.11032894919992
 20
301.48518682380029
 30
0.0
  0
VERTEX
  5
92AA
  8
0
 10
257.33382587929992
 20
303.4634049502003
 30
0.0
  0
VERTEX
  5
92AB
  8
0
 10
256.87884756409989
 20
305.51810400490029
 30
0.0
  0
SEQEND
  5
92AC
  8
0
  0
LINE
  5
828A
  8
0
 10
256.87884721860001
 20
305.5181064632003
 30
0.0
 11
261.71047514979989
 21
323.87794793070032
 31
0.0
  0
ARC
  5
828B
  8
0
 10
279.5
 20
316.22586037730031
 30
0.0
 40
8.0
 50
0.0
 51
90.0
  0
LINE
  5
828C
  8
0
 10
261.5
 20
324.22586037730031
 30
0.0
 11
262.6342087624999
 21
324.22586037730031
 31
0.0
  0
LINE
  5
828D
  8
0
 10
278.34679622200349
 20
324.22586037730031
 30
0.0
 11
279.5
 21
324.22586037730031
 31
0.0
  0
ARC
  5
828E
  8
0
 10
261.5
 20
320.22586037730031
 30
0.0
 40
4.0
 50
90.0
 51
180.0
  0
LINE
  5
828F
  8
0
 10
257.5
 20
316.72586037730031
 30
0.0
 11
257.5
 21
320.22586037730031
 31
0.0
  0
LINE
  5
8290
  8
0
 10
287.5
 20
316.22586037730031
 30
0.0
 11
287.5
 21
300.22586037730031
 31
0.0
  0
ARC
  5
8291
  8
0
 10
256.5
 20
316.72586037730031
 30
0.0
 40
1.0
 50
284.47751218589627
 51
0.0
  0
LINE
  5
8292
  8
0
 10
257.5
 20
296.22586037730031
 30
0.0
 11
257.5
 21
299.72586037730031
 31
0.0
  0
ARC
  5
8293
  8
0
 10
279.5
 20
300.22586037730031
 30
0.0
 40
8.0000000000000853
 50
270.0
 51
0.0
  0
ARC
  5
8294
  8
0
 10
256.5
 20
299.72586037730031
 30
0.0
 40
1.0000000000000071
 50
0.0
 51
75.522487814103712
  0
ARC
  5
8295
  8
0
 10
261.5
 20
296.22586037730031
 30
0.0
 40
4.0000000000000284
 50
180.0
 51
270.0
  0
LINE
  5
8296
  8
0
 10
279.5
 20
292.22586037730031
 30
0.0
 11
261.5
 21
292.22586037730031
 31
0.0
  0
LINE
  5
8298
  8
0
 10
248.2030358888999
 20
292.22586037730031
 30
0.0
 11
248.2030358888999
 21
324.22586037730031
 31
0.0
  0
POLYLINE
  5
829A
  8
0
 66
     1
 10
0.0
 20
0.0
 30
0.0
 70
   128
  0
VERTEX
  5
92AD
  8
0
 10
248.47593376819989
 20
324.22586037730031
 30
0.0
  0
VERTEX
  5
92AE
  8
0
 10
248.52917350339999
 20
324.21625301750032
 30
0.0
  0
VERTEX
  5
92AF
  8
0
 10
248.5803672653999
 20
324.18780014360033
 30
0.0
  0
VERTEX
  5
92B0
  8
0
 10
248.6275477067
 20
324.14159518350033
 30
0.0
  0
VERTEX
  5
92B1
  8
0
 10
248.66890170929989
 20
324.07941376790029
 30
0.0
  0
VERTEX
  5
92B2
  8
0
 10
248.7028400621999
 20
324.00364549380032
 30
0.0
  0
VERTEX
  5
92B3
  8
0
 10
248.72805853349999
 20
323.91720209350029
 30
0.0
  0
VERTEX
  5
92B4
  8
0
 10
248.74358799139989
 20
323.82340553830028
 30
0.0
  0
VERTEX
  5
92B5
  8
0
 10
248.7488316475999
 20
323.72586037730031
 30
0.0
  0
SEQEND
  5
92B6
  8
0
  0
LINE
  5
829D
  8
0
 10
248.7488316475999
 20
323.72586037730031
 30
0.0
 11
248.7488316475999
 21
292.72586037730031
 31
0.0
  0
POLYLINE
  5
82A0
  8
0
 66
     1
 10
0.0
 20
0.0
 30
0.0
 70
   128
  0
VERTEX
  5
92B7
  8
0
 10
248.7488316475999
 20
292.72586037730031
 30
0.0
  0
VERTEX
  5
92B8
  8
0
 10
248.74358799139989
 20
292.62831521630028
 30
0.0
  0
VERTEX
  5
92B9
  8
0
 10
248.72805853349999
 20
292.53451866110032
 30
0.0
  0
VERTEX
  5
92BA
  8
0
 10
248.7028400621999
 20
292.44807526080029
 30
0.0
  0
VERTEX
  5
92BB
  8
0
 10
248.66890170929989
 20
292.37230698670032
 30
0.0
  0
VERTEX
  5
92BC
  8
0
 10
248.6275477067
 20
292.31012557120027
 30
0.0
  0
VERTEX
  5
92BD
  8
0
 10
248.5803672653999
 20
292.26392061110027
 30
0.0
  0
VERTEX
  5
92BE
  8
0
 10
248.52917350339999
 20
292.23546773710029
 30
0.0
  0
VERTEX
  5
92BF
  8
0
 10
248.47593376819989
 20
292.22586037730031
 30
0.0
  0
SEQEND
  5
92C0
  8
0
  0
LINE
  5
82A1
  8
0
 10
255.3873872762999
 20
292.72586037730031
 30
0.0
 11
255.3873872762999
 21
323.72586037730031
 31
0.0
  0
POLYLINE
  5
82A4
  8
0
 66
     1
 10
0.0
 20
0.0
 30
0.0
 70
   128
  0
VERTEX
  5
92C1
  8
0
 10
255.3873872762999
 20
323.72586037730031
 30
0.0
  0
VERTEX
  5
92C2
  8
0
 10
255.38214361999979
 20
323.82340553830028
 30
0.0
  0
VERTEX
  5
92C3
  8
0
 10
255.36661416210001
 20
323.91720209350029
 30
0.0
  0
VERTEX
  5
92C4
  8
0
 10
255.3413956908999
 20
324.00364549380032
 30
0.0
  0
VERTEX
  5
92C5
  8
0
 10
255.30745733799989
 20
324.07941376790029
 30
0.0
  0
VERTEX
  5
92C6
  8
0
 10
255.2661033352999
 20
324.14159518350033
 30
0.0
  0
VERTEX
  5
92C7
  8
0
 10
255.2189228940999
 20
324.18780014360033
 30
0.0
  0
VERTEX
  5
92C8
  8
0
 10
255.16772913209991
 20
324.21625301750032
 30
0.0
  0
VERTEX
  5
92C9
  8
0
 10
255.1144893968999
 20
324.22586037730031
 30
0.0
  0
SEQEND
  5
92CA
  8
0
  0
POLYLINE
  5
82A5
  8
0
 66
     1
 10
0.0
 20
0.0
 30
0.0
 70
   128
  0
VERTEX
  5
92CB
  8
0
 10
255.1144893968999
 20
292.22586037730031
 30
0.0
  0
VERTEX
  5
92CC
  8
0
 10
255.16772913209991
 20
292.23546773710029
 30
0.0
  0
VERTEX
  5
92CD
  8
0
 10
255.2189228940999
 20
292.26392061110027
 30
0.0
  0
VERTEX
  5
92CE
  8
0
 10
255.2661033352999
 20
292.31012557120027
 30
0.0
  0
VERTEX
  5
92CF
  8
0
 10
255.30745733799989
 20
292.37230698670032
 30
0.0
  0
VERTEX
  5
92D0
  8
0
 10
255.3413956908999
 20
292.44807526080029
 30
0.0
  0
VERTEX
  5
92D1
  8
0
 10
255.36661416210001
 20
292.53451866110032
 30
0.0
  0
VERTEX
  5
92D2
  8
0
 10
255.38214361999979
 20
292.62831521630028
 30
0.0
  0
VERTEX
  5
92D3
  8
0
 10
255.3873872762999
 20
292.72586037730031
 30
0.0
  0
SEQEND
  5
92D4
  8
0
  0
LINE
  5
87F1
  8
0
 10
116.0
 20
118.0
 30
0.0
 11
116.0
 21
106.2
 31
0.0
  0
LINE
  5
87F2
  8
0
 10
124.0
 20
106.2
 30
0.0
 11
124.0
 21
118.0
 31
0.0
  0
LINE
  5
87F3
  8
0
 10
116.0
 20
106.2
 30
0.0
 11
117.2
 21
105.0
 31
0.0
  0
LINE
  5
87F4
  8
0
 10
122.8
 20
105.0
 30
0.0
 11
124.0
 21
106.2
 31
0.0
  0
ARC
  5
87F5
  8
0
 10
32.744973745600021
 20
145.982926593
 30
0.0
 40
10.000000000000011
 50
16.242290054083458
 51
302.5056423475973
  0
LINE
  5
87F6
  8
0
 10
43.003947340500012
 20
148.53081971489999
 30
0.0
 11
42.128434721199987
 21
148.8622209257
 31
0.0
  0
LINE
  5
87F7
  8
0
 10
37.90153999350008
 20
137.63130996699999
 30
0.0
 11
38.810291694999989
 21
137.28928982369999
 31
0.0
  0
LINE
  5
87FA
  8
0
 10
102.68738651300011
 20
134.25
 30
0.0
 11
77.275890028600031
 21
134.25
 31
0.0
  0
LINE
  5
87FB
  8
0
 10
77.275890028600031
 20
126.25
 30
0.0
 11
102.68738651300011
 21
126.25
 31
0.0
  0
ARC
  5
87FC
  8
0
 10
77.280879545100049
 20
145.27231002779999
 30
0.0
 40
11.02231115714153
 50
249.3441597288996
 51
269.97406367470262
  0
ARC
  5
87FD
  8
0
 10
77.281024885699992
 20
145.27310407179999
 30
0.0
 40
19.023104764833999
 50
249.3577904527958
 51
269.98453429960119
  0
LINE
  5
87FE
  8
0
 10
39.696524489900021
 20
139.09270428810001
 30
0.0
 11
70.574788004600066
 21
127.4712810812
 31
0.0
  0
LINE
  5
87FF
  8
0
 10
73.392717823000055
 20
134.95855505360001
 30
0.0
 11
42.51445430840004
 21
146.5799782606
 31
0.0
  0
LINE
  5
8802
  8
0
 10
102.6868096561999
 20
125.5
 30
0.0
 11
103.18682953779999
 21
125.0
 31
0.0
  0
LINE
  5
8803
  8
0
 10
134.103839099
 20
125.0
 30
0.0
 11
134.60379473699999
 21
125.5
 31
0.0
  0
LINE
  5
8804
  8
0
 10
102.68738651300001
 20
135.0
 30
0.0
 11
102.68738651300001
 21
125.5
 31
0.0
  0
LINE
  5
8805
  8
0
 10
134.603659612
 20
125.5
 30
0.0
 11
134.603659612
 21
129.09327635119999
 31
0.0
  0
LINE
  5
8806
  8
0
 10
103.18682953859989
 20
135.5
 30
0.0
 11
102.6868096569
 21
135.0
 31
0.0
  0
LINE
  5
8807
  8
0
 10
133.09999999999999
 20
126.5
 30
0.0
 11
132.5
 21
126.5
 31
0.0
  0
LINE
  5
8808
  8
0
 10
132.5
 20
120.5003217312
 30
0.0
 11
133.09999999999999
 21
120.5003217312
 31
0.0
  0
LINE
  5
8809
  8
0
 10
107.5
 20
126.5
 30
0.0
 11
106.90000000000001
 21
126.5
 31
0.0
  0
LINE
  5
880A
  8
0
 10
106.90000000000001
 20
120.5003217312
 30
0.0
 11
107.5
 21
120.5003217312
 31
0.0
  0
LINE
  5
8815
  8
0
 10
106.0
 20
125.0
 30
0.0
 11
105.5
 21
124.5
 31
0.0
  0
LINE
  5
8816
  8
0
 10
105.5
 20
121.5
 30
0.0
 11
106.0
 21
121.0
 31
0.0
  0
LINE
  5
8818
  8
0
 10
106.0
 20
121.0
 30
0.0
 11
106.8
 21
121.0
 31
0.0
  0
LINE
  5
8819
  8
0
 10
121.5
 20
125.0
 30
0.0
 11
118.5
 21
125.0
 31
0.0
  0
LINE
  5
881E
  8
0
 10
118.5
 20
121.0
 30
0.0
 11
121.5
 21
121.0
 31
0.0
  0
LINE
  5
8820
  8
0
 10
133.19999999999999
 20
121.0
 30
0.0
 11
134.0
 21
121.0
 31
0.0
  0
LINE
  5
8821
  8
0
 10
134.0
 20
121.0
 30
0.0
 11
134.5
 21
121.5
 31
0.0
  0
LINE
  5
8822
  8
0
 10
134.5
 20
124.5
 30
0.0
 11
134.0
 21
125.0
 31
0.0
  0
LINE
  5
8823
  8
0
 10
106.90000000000001
 20
124.5
 30
0.0
 11
106.8
 21
124.5
 31
0.0
  0
LINE
  5
8824
  8
0
 10
106.8
 20
121.5
 30
0.0
 11
106.90000000000001
 21
121.5
 31
0.0
  0
LINE
  5
8825
  8
0
 10
133.19999999999999
 20
124.5
 30
0.0
 11
133.09999999999999
 21
124.5
 31
0.0
  0
LINE
  5
8826
  8
0
 10
133.09999999999999
 20
121.5
 30
0.0
 11
133.19999999999999
 21
121.5
 31
0.0
  0
LINE
  5
8827
  8
0
 10
122.0
 20
128.0
 30
0.0
 11
121.5
 21
128.0
 31
0.0
  0
LINE
  5
8828
  8
0
 10
116.0
 20
106.2
 30
0.0
 11
124.0
 21
106.2
 31
0.0
  0
LINE
  5
8829
  8
0
 10
122.8
 20
105.0
 30
0.0
 11
117.2
 21
105.0
 31
0.0
  0
POLYLINE
  5
882A
  8
0
 66
     1
 10
0.0
 20
0.0
 30
0.0
 70
   128
  0
VERTEX
  5
92D5
  8
0
 10
38.017412173400032
 20
141.75526688119999
 30
0.0
  0
VERTEX
  5
92D6
  8
0
 10
37.767758763399968
 20
140.75320439989989
 30
0.0
  0
VERTEX
  5
92D7
  8
0
 10
37.599326049900071
 20
139.84126571169989
 30
0.0
  0
VERTEX
  5
92D8
  8
0
 10
37.518201629999957
 20
139.05241065690001
 30
0.0
  0
VERTEX
  5
92D9
  8
0
 10
37.527317551700037
 20
138.4151505124
 30
0.0
  0
VERTEX
  5
92DA
  8
0
 10
37.626344341600031
 20
137.95251752030001
 30
0.0
  0
VERTEX
  5
92DB
  8
0
 10
37.811702913700003
 20
137.68123244229989
 30
0.0
  0
VERTEX
  5
92DC
  8
0
 10
37.90153999350008
 20
137.63130996699999
 30
0.0
  0
SEQEND
  5
92DD
  8
0
  0
POLYLINE
  5
882B
  8
0
 66
     1
 10
0.0
 20
0.0
 30
0.0
 70
   128
  0
VERTEX
  5
92DE
  8
0
 10
42.128434721199987
 20
148.8622209257
 30
0.0
  0
VERTEX
  5
92DF
  8
0
 10
42.095195638999989
 20
148.8728398582
 30
0.0
  0
VERTEX
  5
92E0
  8
0
 10
41.793812452700017
 20
148.8409840146
 30
0.0
  0
VERTEX
  5
92E1
  8
0
 10
41.428137892800059
 20
148.60693853629999
 30
0.0
  0
VERTEX
  5
92E2
  8
0
 10
41.011388390599961
 20
148.1791624368
 30
0.0
  0
VERTEX
  5
92E3
  8
0
 10
40.558626359000009
 20
147.57311665879999
 30
0.0
  0
VERTEX
  5
92E4
  8
0
 10
40.08621579740003
 20
146.81070527579999
 30
0.0
  0
VERTEX
  5
92E5
  8
0
 10
39.611230854400048
 20
145.91948382160001
 30
0.0
  0
VERTEX
  5
92E6
  8
0
 10
39.1508387234
 20
144.93166336159999
 30
0.0
  0
VERTEX
  5
92E7
  8
0
 10
38.721679175600059
 20
143.882946301
 30
0.0
  0
VERTEX
  5
92E8
  8
0
 10
38.339263155100021
 20
142.81123600679999
 30
0.0
  0
VERTEX
  5
92E9
  8
0
 10
38.017412173400032
 20
141.75526688119999
 30
0.0
  0
SEQEND
  5
92EA
  8
0
  0
POLYLINE
  5
882C
  8
0
 66
     1
 10
0.0
 20
0.0
 30
0.0
 70
   128
  0
VERTEX
  5
92EB
  8
0
 10
38.926163874900062
 20
141.41324673790001
 30
0.0
  0
VERTEX
  5
92EC
  8
0
 10
38.676510464899991
 20
140.4111842566
 30
0.0
  0
VERTEX
  5
92ED
  8
0
 10
38.508077751399981
 20
139.4992455684
 30
0.0
  0
VERTEX
  5
92EE
  8
0
 10
38.426953331499988
 20
138.71039051349999
 30
0.0
  0
VERTEX
  5
92EF
  8
0
 10
38.436069253100023
 20
138.0731303691
 30
0.0
  0
VERTEX
  5
92F0
  8
0
 10
38.535096043100047
 20
137.610497377
 30
0.0
  0
VERTEX
  5
92F1
  8
0
 10
38.810291694999989
 20
137.28928982369999
 30
0.0
  0
VERTEX
  5
92F2
  8
0
 10
38.985445627700017
 20
137.26908008449999
 30
0.0
  0
VERTEX
  5
92F3
  8
0
 10
39.32049161490005
 20
137.40263549470001
 30
0.0
  0
VERTEX
  5
92F4
  8
0
 10
39.71348314200003
 20
137.735051489
 30
0.0
  0
VERTEX
  5
92F5
  8
0
 10
40.150216471299977
 20
138.25431368720001
 30
0.0
  0
VERTEX
  5
92F6
  8
0
 10
40.515738313299998
 20
138.78438285249999
 30
0.0
  0
SEQEND
  5
92F7
  8
0
  0
POLYLINE
  5
882D
  8
0
 66
     1
 10
0.0
 20
0.0
 30
0.0
 70
   128
  0
VERTEX
  5
92F8
  8
0
 10
43.333668131699987
 20
146.27165682489999
 30
0.0
  0
VERTEX
  5
92F9
  8
0
 10
43.391135136800067
 20
146.72195719609999
 30
0.0
  0
VERTEX
  5
92FA
  8
0
 10
43.427303157500027
 20
147.4382582625
 30
0.0
  0
VERTEX
  5
92FB
  8
0
 10
43.372985848699997
 20
147.99070635850001
 30
0.0
  0
VERTEX
  5
92FC
  8
0
 10
43.230146379500013
 20
148.35933457059991
 30
0.0
  0
VERTEX
  5
92FD
  8
0
 10
43.003947340500012
 20
148.53081971489999
 30
0.0
  0
VERTEX
  5
92FE
  8
0
 10
42.70256415420004
 20
148.49896387129999
 30
0.0
  0
VERTEX
  5
92FF
  8
0
 10
42.336889594299969
 20
148.26491839299999
 30
0.0
  0
VERTEX
  5
9300
  8
0
 10
41.920140092099977
 20
147.83714229349999
 30
0.0
  0
VERTEX
  5
9301
  8
0
 10
41.467378060500039
 20
147.23109651550001
 30
0.0
  0
VERTEX
  5
9302
  8
0
 10
40.994967498900053
 20
146.46868513250001
 30
0.0
  0
VERTEX
  5
9303
  8
0
 10
40.519982555899951
 20
145.57746367819999
 30
0.0
  0
VERTEX
  5
9304
  8
0
 10
40.059590424900023
 20
144.58964321830001
 30
0.0
  0
VERTEX
  5
9305
  8
0
 10
39.630430877099968
 20
143.5409261577
 30
0.0
  0
VERTEX
  5
9306
  8
0
 10
39.248014856600037
 20
142.4692158634
 30
0.0
  0
VERTEX
  5
9307
  8
0
 10
38.926163874900062
 20
141.41324673790001
 30
0.0
  0
SEQEND
  5
9308
  8
0
  0
ARC
  5
882E
  8
0
 10
105.0
 20
138.25
 30
0.0
 40
1.0000000000000511
 50
206.38951498629871
 51
270.0
  0
ARC
  5
882F
  8
0
 10
104.5
 20
137.5
 30
0.0
 40
0.5
 50
90.0
 51
142.33399475869859
  0
LINE
  5
8831
  8
0
 10
115.0
 20
137.25
 30
0.0
 11
115.75
 21
138.0
 31
0.0
  0
LINE
  5
8832
  8
0
 10
105.0
 20
137.25
 30
0.0
 11
115.0
 21
137.25
 31
0.0
  0
ARC
  5
8833
  8
0
 10
105.0
 20
132.25
 30
0.0
 40
1.000000000000022
 50
217.1248166585014
 51
270.0
  0
LINE
  5
8834
  8
0
 10
115.0
 20
131.25
 30
0.0
 11
115.3964466094
 21
131.64644660939999
 31
0.0
  0
LINE
  5
8835
  8
0
 10
105.0
 20
131.25
 30
0.0
 11
115.0
 21
131.25
 31
0.0
  0
ARC
  5
8836
  8
0
 10
105.0
 20
136.25
 30
0.0
 40
1.00000000000004
 50
217.1248166585014
 51
270.0
  0
LINE
  5
8837
  8
0
 10
115.0
 20
135.25
 30
0.0
 11
115.3964466094
 21
135.64644660939999
 31
0.0
  0
LINE
  5
8838
  8
0
 10
105.0
 20
135.25
 30
0.0
 11
115.0
 21
135.25
 31
0.0
  0
ARC
  5
8839
  8
0
 10
105.0
 20
131.75
 30
0.0
 40
1.0000000000000131
 50
90.0
 51
142.8751833414986
  0
LINE
  5
883A
  8
0
 10
105.0
 20
132.75
 30
0.0
 11
115.0
 21
132.75
 31
0.0
  0
LINE
  5
883B
  8
0
 10
115.3964466094
 20
132.3535533905999
 30
0.0
 11
115.0
 21
132.75
 31
0.0
  0
ARC
  5
883C
  8
0
 10
105.0
 20
134.25
 30
0.0
 40
1.0000000000000251
 50
217.1248166585014
 51
270.0
  0
LINE
  5
883D
  8
0
 10
115.0
 20
133.25
 30
0.0
 11
115.3964466094
 21
133.64644660939999
 31
0.0
  0
LINE
  5
883E
  8
0
 10
105.0
 20
133.25
 30
0.0
 11
115.0
 21
133.25
 31
0.0
  0
ARC
  5
883F
  8
0
 10
105.0
 20
129.75
 30
0.0
 40
1.0000000000000191
 50
90.0
 51
149.1943520617001
  0
ARC
  5
8840
  8
0
 10
105.9999999997999
 20
130.99999999990001
 30
0.0
 40
1.9999999997762929
 50
179.99999999879981
 51
201.65002695910059
  0
LINE
  5
8841
  8
0
 10
104.0
 20
131.0
 30
0.0
 11
104.0
 21
137.5
 31
0.0
  0
ARC
  5
8842
  8
0
 10
104.5
 20
137.5
 30
0.0
 40
0.4999999999997038
 50
142.33399475869859
 51
180.0
  0
ARC
  5
8843
  8
0
 10
105.0
 20
135.75
 30
0.0
 40
1.0000000000000111
 50
90.0
 51
142.8751833414986
  0
ARC
  5
8844
  8
0
 10
104.759845748
 20
136.0
 30
0.0
 40
0.6598761637025675
 50
147.6026674767981
 51
212.39733252320019
  0
ARC
  5
8845
  8
0
 10
105.0
 20
133.75
 30
0.0
 40
1.0
 50
90.0
 51
142.8751833414986
  0
ARC
  5
8846
  8
0
 10
104.759845748
 20
134.0
 30
0.0
 40
0.6598761637019031
 50
147.6026674767981
 51
212.3973325233014
  0
ARC
  5
8847
  8
0
 10
104.759845748
 20
132.0
 30
0.0
 40
0.6598761637019676
 50
147.6026674767981
 51
212.39733252320019
  0
LINE
  5
8848
  8
0
 10
115.0
 20
134.75
 30
0.0
 11
115.0
 21
135.25
 31
0.0
  0
LINE
  5
8849
  8
0
 10
105.0
 20
134.75
 30
0.0
 11
115.0
 21
134.75
 31
0.0
  0
LINE
  5
884A
  8
0
 10
115.0
 20
132.75
 30
0.0
 11
115.0
 21
133.25
 31
0.0
  0
ARC
  5
884B
  8
0
 10
106.0
 20
131.0
 30
0.0
 40
2.0000000000000528
 50
201.65002695790039
 51
210.0000000000019
  0
LINE
  5
884C
  8
0
 10
105.0
 20
130.75
 30
0.0
 11
115.0
 21
130.75
 31
0.0
  0
LINE
  5
884D
  8
0
 10
115.75
 20
130.0
 30
0.0
 11
115.0
 21
130.75
 31
0.0
  0
LINE
  5
884E
  8
0
 10
104.2679491923999
 20
130.0
 30
0.0
 11
115.75
 21
130.0
 31
0.0
  0
LINE
  5
884F
  8
0
 10
115.3964466094
 20
134.35355339060001
 30
0.0
 11
115.0
 21
134.75
 31
0.0
  0
LINE
  5
8850
  8
0
 10
115.0
 20
136.75
 30
0.0
 11
115.0
 21
137.25
 31
0.0
  0
LINE
  5
8851
  8
0
 10
105.0
 20
136.75
 30
0.0
 11
115.0
 21
136.75
 31
0.0
  0
LINE
  5
8852
  8
0
 10
115.0
 20
130.75
 30
0.0
 11
115.0
 21
131.25
 31
0.0
  0
LINE
  5
8853
  8
0
 10
115.3964466094
 20
136.35355339060001
 30
0.0
 11
115.0
 21
136.75
 31
0.0
  0
ARC
  5
8854
  8
0
 10
115.0428932188
 20
132.0
 30
0.0
 40
0.5000000000000318
 50
314.99999999999989
 51
45.00000000000005
  0
ARC
  5
8855
  8
0
 10
115.0428932188
 20
134.0
 30
0.0
 40
0.5000000000000419
 50
314.99999999999989
 51
45.00000000000005
  0
ARC
  5
8856
  8
0
 10
115.0428932188
 20
136.0
 30
0.0
 40
0.5000000000000215
 50
314.99999999999989
 51
45.00000000000005
  0
LINE
  5
8858
  8
0
 10
117.0
 20
138.0
 30
0.0
 11
117.0
 21
129.5
 31
0.0
  0
ARC
  5
8859
  8
0
 10
116.5
 20
129.5
 30
0.0
 40
0.5
 50
0.0
 51
90.0
  0
LINE
  5
885A
  8
0
 10
116.5
 20
130.0
 30
0.0
 11
115.75
 21
130.0
 31
0.0
  0
LINE
  5
885B
  8
0
 10
124.6035533906
 20
131.64644660939999
 30
0.0
 11
125.0
 21
131.25
 31
0.0
  0
LINE
  5
885C
  8
0
 10
125.0
 20
130.75
 30
0.0
 11
125.0
 21
131.25
 31
0.0
  0
LINE
  5
885D
  8
0
 10
125.0
 20
130.75
 30
0.0
 11
124.25
 21
130.0
 31
0.0
  0
LINE
  5
885E
  8
0
 10
124.25
 20
130.0
 30
0.0
 11
123.5
 21
130.0
 31
0.0
  0
ARC
  5
885F
  8
0
 10
123.5
 20
129.5
 30
0.0
 40
0.5000000000000036
 50
90.0
 51
180.0
  0
LINE
  5
8860
  8
0
 10
123.0
 20
129.5
 30
0.0
 11
123.0
 21
138.0
 31
0.0
  0
LINE
  5
8862
  8
0
 10
124.25
 20
138.0
 30
0.0
 11
125.0
 21
137.25
 31
0.0
  0
LINE
  5
8863
  8
0
 10
125.0
 20
136.75
 30
0.0
 11
125.0
 21
137.25
 31
0.0
  0
LINE
  5
8864
  8
0
 10
125.0
 20
136.75
 30
0.0
 11
124.6035533906
 21
136.35355339060001
 31
0.0
  0
ARC
  5
8865
  8
0
 10
124.9571067812
 20
136.0
 30
0.0
 40
0.5000000000000103
 50
134.99999999999989
 51
225.0
  0
LINE
  5
8866
  8
0
 10
124.6035533906
 20
135.64644660939999
 30
0.0
 11
125.0
 21
135.25
 31
0.0
  0
LINE
  5
8867
  8
0
 10
125.0
 20
134.75
 30
0.0
 11
125.0
 21
135.25
 31
0.0
  0
LINE
  5
8868
  8
0
 10
125.0
 20
134.75
 30
0.0
 11
124.6035533906
 21
134.35355339060001
 31
0.0
  0
ARC
  5
8869
  8
0
 10
124.9571067812
 20
134.0
 30
0.0
 40
0.4999999999999952
 50
134.99999999999989
 51
225.0
  0
LINE
  5
886A
  8
0
 10
124.6035533906
 20
133.64644660939999
 30
0.0
 11
125.0
 21
133.25
 31
0.0
  0
LINE
  5
886B
  8
0
 10
125.0
 20
132.75
 30
0.0
 11
125.0
 21
133.25
 31
0.0
  0
LINE
  5
886C
  8
0
 10
125.0
 20
132.75
 30
0.0
 11
124.6035533906
 21
132.3535533905999
 31
0.0
  0
ARC
  5
886D
  8
0
 10
124.9571067812
 20
132.0
 30
0.0
 40
0.5000000000000002
 50
134.99999999999989
 51
225.0
  0
ARC
  5
886E
  8
0
 10
135.0
 20
134.25
 30
0.0
 40
1.0000000000000731
 50
270.0
 51
322.87518334149729
  0
LINE
  5
886F
  8
0
 10
125.0
 20
133.25
 30
0.0
 11
135.0
 21
133.25
 31
0.0
  0
ARC
  5
8870
  8
0
 10
135.0
 20
136.25
 30
0.0
 40
1.0000000000000751
 50
270.0
 51
322.87518334149729
  0
LINE
  5
8871
  8
0
 10
125.0
 20
135.25
 30
0.0
 11
135.0
 21
135.25
 31
0.0
  0
LINE
  5
8872
  8
0
 10
125.0
 20
132.75
 30
0.0
 11
135.0
 21
132.75
 31
0.0
  0
LINE
  5
8873
  8
0
 10
125.0
 20
134.75
 30
0.0
 11
135.0
 21
134.75
 31
0.0
  0
ARC
  5
8874
  8
0
 10
135.5
 20
137.5
 30
0.0
 40
0.499999999999999
 50
37.666005241301413
 51
90.0
  0
ARC
  5
8875
  8
0
 10
135.0
 20
138.25
 30
0.0
 40
1.0000000000000151
 50
270.0
 51
333.61048501370118
  0
LINE
  5
8876
  8
0
 10
125.0
 20
137.25
 30
0.0
 11
135.0
 21
137.25
 31
0.0
  0
LINE
  5
8877
  8
0
 10
104.5
 20
138.0
 30
0.0
 11
135.5
 21
138.0
 31
0.0
  0
ARC
  5
8878
  8
0
 10
135.0
 20
129.75
 30
0.0
 40
1.0
 50
30.805647938299941
 51
90.0
  0
ARC
  5
8879
  8
0
 10
134.0
 20
131.0
 30
0.0
 40
2.0000000000000231
 50
329.99999999999801
 51
338.34997304209958
  0
LINE
  5
887A
  8
0
 10
124.25
 20
130.0
 30
0.0
 11
135.73205080759999
 21
130.0
 31
0.0
  0
LINE
  5
887B
  8
0
 10
125.0
 20
130.75
 30
0.0
 11
135.0
 21
130.75
 31
0.0
  0
LINE
  5
887C
  8
0
 10
125.0
 20
131.25
 30
0.0
 11
135.0
 21
131.25
 31
0.0
  0
LINE
  5
887D
  8
0
 10
125.0
 20
136.75
 30
0.0
 11
135.0
 21
136.75
 31
0.0
  0
ARC
  5
887E
  8
0
 10
135.0
 20
135.75
 30
0.0
 40
1.0000000000000131
 50
37.124816658501338
 51
90.0
  0
ARC
  5
887F
  8
0
 10
135.0
 20
132.25
 30
0.0
 40
1.0000000000000551
 50
270.0
 51
322.87518334149729
  0
ARC
  5
8880
  8
0
 10
135.0
 20
131.75
 30
0.0
 40
1.0000000000000131
 50
37.124816658501338
 51
90.0
  0
ARC
  5
8881
  8
0
 10
135.0
 20
133.75
 30
0.0
 40
0.9999999999999857
 50
37.124816658501338
 51
90.0
  0
ARC
  5
8882
  8
0
 10
135.240154252
 20
132.0
 30
0.0
 40
0.6598761637022435
 50
327.6026674767981
 51
32.397332523200241
  0
ARC
  5
8883
  8
0
 10
135.240154252
 20
134.0
 30
0.0
 40
0.6598761637029285
 50
327.6026674767981
 51
32.397332523200241
  0
ARC
  5
8884
  8
0
 10
135.240154252
 20
136.0
 30
0.0
 40
0.6598761637026847
 50
327.6026674767981
 51
32.397332523200241
  0
ARC
  5
8885
  8
0
 10
135.5
 20
137.5
 30
0.0
 40
0.500000000000385
 50
0.0
 51
37.666005241301413
  0
LINE
  5
8886
  8
0
 10
136.0
 20
131.0
 30
0.0
 11
136.0
 21
137.5
 31
0.0
  0
ARC
  5
8887
  8
0
 10
134.0000000002
 20
130.99999999990001
 30
0.0
 40
1.9999999997675879
 50
338.34997304080002
 51
0.0000000012994983
  0
ARC
  5
8888
  8
0
 10
134.0
 20
131.0
 30
0.0
 40
2.0000000000576721
 50
323.13010235430193
 51
329.99999999990172
  0
ARC
  5
8889
  8
0
 10
106.0
 20
131.0
 30
0.0
 40
1.9999999999859699
 50
210.0000000000019
 51
216.8698976459026
  0
ARC
  5
888A
  8
0
 10
134.0
 20
131.0
 30
0.0
 40
2.0000000000000302
 50
277.18075578150422
 51
323.13010235419841
  0
ARC
  5
888B
  8
0
 10
106.0
 20
131.0
 30
0.0
 40
1.999999999999996
 50
216.86989764580159
 51
262.81924421849578
  0
ARC
  5
888C
  8
0
 10
105.5
 20
127.0313730334
 30
0.0
 40
2.0
 50
0.0
 51
82.819244218495768
  0
ARC
  5
888D
  8
0
 10
134.5
 20
127.0313730334
 30
0.0
 40
2.0000000000000049
 50
97.18075578149768
 51
180.0
  0
LINE
  5
888E
  8
0
 10
127.5
 20
126.3
 30
0.0
 11
127.5
 21
118.5
 31
0.0
  0
ARC
  5
888F
  8
0
 10
127.0
 20
126.3
 30
0.0
 40
0.5
 50
0.0
 51
90.0
  0
LINE
  5
8890
  8
0
 10
122.0
 20
126.8
 30
0.0
 11
127.0
 21
126.8
 31
0.0
  0
LINE
  5
8891
  8
0
 10
122.0
 20
130.0
 30
0.0
 11
122.0
 21
126.8
 31
0.0
  0
LINE
  5
8892
  8
0
 10
122.0
 20
130.0
 30
0.0
 11
120.0
 21
130.0
 31
0.0
  0
LINE
  5
8893
  8
0
 10
120.0
 20
130.0
 30
0.0
 11
120.0
 21
126.8
 31
0.0
  0
LINE
  5
8894
  8
0
 10
113.0
 20
126.8
 30
0.0
 11
120.0
 21
126.8
 31
0.0
  0
ARC
  5
8895
  8
0
 10
113.0
 20
126.3
 30
0.0
 40
0.5000000000000071
 50
90.0
 51
180.0
  0
LINE
  5
8896
  8
0
 10
112.5
 20
126.3
 30
0.0
 11
112.5
 21
118.5
 31
0.0
  0
LINE
  5
8898
  8
0
 10
107.5
 20
119.5
 30
0.0
 11
107.5
 21
127.0313730334
 31
0.0
  0
LINE
  5
889A
  8
0
 10
112.5
 20
119.0
 30
0.0
 11
108.0
 21
119.0
 31
0.0
  0
ARC
  5
889B
  8
0
 10
108.0
 20
119.5
 30
0.0
 40
0.5000000000000036
 50
180.0
 51
270.0
  0
LINE
  5
889F
  8
0
 10
132.0
 20
119.0
 30
0.0
 11
127.5
 21
119.0
 31
0.0
  0
LINE
  5
88A1
  8
0
 10
132.5
 20
127.0313730334
 30
0.0
 11
132.5
 21
119.5
 31
0.0
  0
ARC
  5
88A3
  8
0
 10
132.0
 20
119.5
 30
0.0
 40
0.5
 50
270.0
 51
0.0
  0
LINE
  5
88A4
  8
0
 10
118.5
 20
126.7
 30
0.0
 11
121.5
 21
126.6999999999999
 31
0.0
  0
POLYLINE
  5
88A8
  8
0
 66
     1
 10
0.0
 20
0.0
 30
0.0
 70
   128
  0
VERTEX
  5
9309
  8
0
 10
42.51445430840004
 20
146.5799782606
 30
0.0
  0
VERTEX
  5
930A
  8
0
 10
42.301396243500037
 20
146.56969629619999
 30
0.0
  0
VERTEX
  5
930B
  8
0
 10
42.000561496300001
 20
146.36843016060001
 30
0.0
  0
SEQEND
  5
930C
  8
0
  0
ARC
  5
88A9
  8
0
 10
48.06766131311457
 20
140.22567064170599
 30
0.0
 40
8.6338400896793264
 50
134.64496510519339
 51
184.9720262257913
  0
LINE
  5
88AC
  8
0
 10
104.3478370979
 20
125.4999805798
 30
0.0
 11
104.7032802719999
 21
124.9999781704
 31
0.0
  0
LINE
  5
88AD
  8
0
 10
106.89999999999991
 20
125.0
 30
0.0
 11
103.18676111809999
 21
125.0
 31
0.0
  0
LINE
  5
88AF
  8
0
 10
104.34791244660001
 20
129.8733927344
 30
0.0
 11
104.34791244660001
 21
125.5
 31
0.0
  0
LINE
  5
88B0
  8
0
 10
104.0
 20
135.5
 30
0.0
 11
103.1867499458
 21
135.5
 31
0.0
  0
LINE
  5
88B4
  8
0
 10
118.5
 20
125.5
 30
0.0
 11
121.5
 21
125.5
 31
0.0
  0
LINE
  5
88B5
  8
0
 10
133.09999999999999
 20
120.5003217312
 30
0.0
 11
133.09999999999999
 21
126.5
 31
0.0
  0
LINE
  5
88B7
  8
0
 10
106.90000000000001
 20
126.5
 30
0.0
 11
106.90000000000001
 21
120.5003217312
 31
0.0
  0
LINE
  5
88BD
  8
0
 10
105.5
 20
121.5
 30
0.0
 11
105.5
 21
124.5
 31
0.0
  0
LINE
  5
88BE
  8
0
 10
106.8
 20
125.0
 30
0.0
 11
106.8
 21
121.0
 31
0.0
  0
LINE
  5
88C1
  8
0
 10
133.19999999999999
 20
125.0
 30
0.0
 11
133.19999999999999
 21
121.0
 31
0.0
  0
LINE
  5
88C2
  8
0
 10
134.5
 20
124.5
 30
0.0
 11
134.5
 21
121.5
 31
0.0
  0
LINE
  5
88C5
  8
0
 10
112.5
 20
118.5
 30
0.0
 11
113.0
 21
118.0
 31
0.0
  0
LINE
  5
88C9
  8
0
 10
118.5
 20
118.5
 30
0.0
 11
118.5
 21
126.8
 31
0.0
  0
LINE
  5
88CB
  8
0
 10
118.5
 20
118.5
 30
0.0
 11
118.0
 21
118.0
 31
0.0
  0
LINE
  5
88CD
  8
0
 10
121.5
 20
128.0
 30
0.0
 11
121.5
 21
118.5
 31
0.0
  0
LINE
  5
88D1
  8
0
 10
122.0
 20
118.0
 30
0.0
 11
121.5
 21
118.5
 31
0.0
  0
LINE
  5
88D5
  8
0
 10
127.0
 20
118.0
 30
0.0
 11
127.5
 21
118.5
 31
0.0
  0
LINE
  5
88D7
  8
0
 10
119.0
 20
118.0
 30
0.0
 11
118.0
 21
118.0
 31
0.0
  0
LINE
  5
88E1
  8
0
 10
104.0
 20
118.5
 30
0.0
 11
104.0
 21
124.5
 31
0.0
  0
LINE
  5
88E2
  8
0
 10
104.0
 20
118.5
 30
0.0
 11
104.5
 21
118.0
 31
0.0
  0
ARC
  5
88E4
  8
0
 10
104.5
 20
124.5
 30
0.0
 40
0.5
 50
90.0
 51
180.0
  0
LINE
  5
88EB
  8
0
 10
136.0
 20
124.5
 30
0.0
 11
136.0
 21
118.5
 31
0.0
  0
LINE
  5
88ED
  8
0
 10
135.5
 20
118.0
 30
0.0
 11
136.0
 21
118.5
 31
0.0
  0
LINE
  5
88EE
  8
0
 10
135.5
 20
118.0
 30
0.0
 11
104.5
 21
118.0
 31
0.0
  0
ARC
  5
88EF
  8
0
 10
135.5
 20
124.5
 30
0.0
 40
0.5000000000000147
 50
0.0
 51
90.0
  0
LINE
  5
88F1
  8
0
 10
133.09999999999999
 20
125.0
 30
0.0
 11
135.5
 21
125.0
 31
0.0
  0
LINE
  5
88F6
  8
0
 10
105.0
 20
130.75
 30
0.0
 11
105.0
 21
131.25
 31
0.0
  0
LINE
  5
88F7
  8
0
 10
105.0
 20
136.75
 30
0.0
 11
105.0
 21
137.25
 31
0.0
  0
LINE
  5
88F8
  8
0
 10
105.0
 20
134.75
 30
0.0
 11
105.0
 21
135.25
 31
0.0
  0
LINE
  5
88F9
  8
0
 10
105.0
 20
132.75
 30
0.0
 11
105.0
 21
133.25
 31
0.0
  0
LINE
  5
88FE
  8
0
 10
135.0
 20
132.75
 30
0.0
 11
135.0
 21
133.25
 31
0.0
  0
LINE
  5
88FF
  8
0
 10
135.0
 20
134.75
 30
0.0
 11
135.0
 21
135.25
 31
0.0
  0
LINE
  5
8900
  8
0
 10
135.0
 20
130.75
 30
0.0
 11
135.0
 21
131.25
 31
0.0
  0
LINE
  5
8901
  8
0
 10
135.0
 20
136.75
 30
0.0
 11
135.0
 21
137.25
 31
0.0
  0
ARC
  5
8906
  8
0
 10
131.37247449309999
 20
146.5567778228
 30
0.0
 40
17.281827881229809
 50
279.37713407800288
 51
284.15953111160428
  0
ARC
  5
8909
  8
0
 10
108.5054353636
 20
145.9707473718
 30
0.0
 40
16.683754675991889
 50
255.7546975539978
 51
260.70863725639708
  0
LINE
  5
890A
  8
0
 10
105.8948175525
 20
129.5
 30
0.0
 11
105.8117588817
 21
129.50588244369999
 31
0.0
  0
LINE
  5
890C
  8
0
 10
134.1882411183
 20
129.50588244369999
 30
0.0
 11
134.1051824475
 21
129.5
 31
0.0
  0
LINE
  5
890E
  8
0
 10
117.0
 20
129.5
 30
0.0
 11
105.8948175525
 21
129.5
 31
0.0
  0
LINE
  5
890F
  8
0
 10
134.1051824475
 20
129.5
 30
0.0
 11
123.0
 21
129.5
 31
0.0
  0
LINE
  5
8938
  8
0
 10
416.0
 20
118.0
 30
0.0
 11
416.0
 21
106.2
 31
0.0
  0
LINE
  5
8939
  8
0
 10
424.0
 20
106.2
 30
0.0
 11
424.0
 21
118.0
 31
0.0
  0
LINE
  5
893A
  8
0
 10
416.0
 20
106.2
 30
0.0
 11
417.19999999999987
 21
105.0
 31
0.0
  0
LINE
  5
893B
  8
0
 10
422.7999999999999
 20
105.0
 30
0.0
 11
424.0
 21
106.2
 31
0.0
  0
ARC
  5
893C
  8
0
 10
507.25502625450002
 20
145.982926593
 30
0.0
 40
10.00000000000008
 50
235.14656952190441
 51
290.624460006596
  0
ARC
  5
893D
  8
0
 10
507.25502625450002
 20
145.982926593
 30
0.0
 40
10.000000000000981
 50
290.624460006596
 51
166.1023504912007
  0
LINE
  5
893E
  8
0
 10
501.18970830499978
 20
137.28928982369999
 30
0.0
 11
501.88119964589993
 21
137.54954129519999
 31
0.0
  0
LINE
  5
893F
  8
0
 10
497.65430491820013
 20
148.78045225380001
 30
0.0
 11
496.96281357729998
 21
148.5202007824
 31
0.0
  0
LINE
  5
8940
  8
0
 10
496.66633186829989
 20
146.27165682489999
 30
0.0
 11
466.60728217699989
 21
134.95855505360001
 31
0.0
  0
LINE
  5
8941
  8
0
 10
469.42521199539988
 20
127.4712810812
 30
0.0
 11
499.48426168669988
 21
138.78438285249999
 31
0.0
  0
ARC
  5
8942
  8
0
 10
462.72027461529967
 20
145.2659737816
 30
0.0
 40
19.015974168417351
 50
270.01155605879842
 51
290.64611918879621
  0
ARC
  5
8943
  8
0
 10
462.71973907499972
 20
145.2689197359
 30
0.0
 40
11.01892060279817
 50
270.02272762740068
 51
290.65904896890157
  0
LINE
  5
8944
  8
0
 10
435.98348519106253
 20
126.25
 30
0.0
 11
462.72410997139991
 21
126.25
 31
0.0
  0
LINE
  5
8945
  8
0
 10
462.72410997139991
 20
134.25
 30
0.0
 11
435.9469344089236
 21
134.25
 31
0.0
  0
LINE
  5
8948
  8
0
 10
430.0
 20
136.0
 30
0.0
 11
430.0
 21
137.80000000000001
 31
0.0
  0
LINE
  5
8949
  8
0
 10
410.0
 20
137.80000000000001
 30
0.0
 11
410.0
 21
136.0
 31
0.0
  0
LINE
  5
894A
  8
0
 10
430.0
 20
137.80000000000001
 30
0.0
 11
429.80000000000001
 21
138.0
 31
0.0
  0
LINE
  5
894B
  8
0
 10
410.19999999999987
 20
138.0
 30
0.0
 11
410.0
 21
137.80000000000001
 31
0.0
  0
LINE
  5
894C
  8
0
 10
410.0
 20
136.0
 30
0.0
 11
410.19999999999987
 21
135.80000000000001
 31
0.0
  0
LINE
  5
894D
  8
0
 10
429.80000000000001
 20
135.80000000000001
 30
0.0
 11
430.0
 21
136.0
 31
0.0
  0
ARC
  5
894E
  8
0
 10
410.84999999999991
 20
135.40000000000001
 30
0.0
 40
0.4000000000000341
 50
14.477512185927891
 51
90.0
  0
ARC
  5
894F
  8
0
 10
429.14999999999981
 20
135.40000000000001
 30
0.0
 40
0.4000000000000057
 50
90.0
 51
165.52248781406811
  0
LINE
  5
8950
  8
0
 10
437.31261348699979
 20
125.5
 30
0.0
 11
437.31261348700002
 21
126.25
 31
0.0
  0
LINE
  5
8951
  8
0
 10
437.31261348699979
 20
134.25
 30
0.0
 11
437.31261348699979
 21
135.0
 31
0.0
  0
LINE
  5
8952
  8
0
 10
405.396340388
 20
135.0
 30
0.0
 11
405.396340388
 21
125.5
 31
0.0
  0
LINE
  5
8953
  8
0
 10
405.3962052629999
 20
125.5
 30
0.0
 11
405.8961609009998
 21
125.0
 31
0.0
  0
LINE
  5
8954
  8
0
 10
436.81317046219982
 20
125.0
 30
0.0
 11
437.31319034379987
 21
125.5
 31
0.0
  0
LINE
  5
8955
  8
0
 10
405.8961609009998
 20
135.5
 30
0.0
 11
405.3962052631
 21
135.0
 31
0.0
  0
LINE
  5
8956
  8
0
 10
437.3131903430999
 20
135.0
 30
0.0
 11
436.81317046150002
 21
135.5
 31
0.0
  0
LINE
  5
8957
  8
0
 10
416.0
 20
106.2
 30
0.0
 11
424.0
 21
106.2
 31
0.0
  0
LINE
  5
8958
  8
0
 10
422.7999999999999
 20
105.0
 30
0.0
 11
417.19999999999987
 21
105.0
 31
0.0
  0
POLYLINE
  5
8959
  8
0
 66
     1
 10
0.0
 20
0.0
 30
0.0
 70
   128
  0
VERTEX
  5
930D
  8
0
 10
501.54023553379977
 20
137.77676019090001
 30
0.0
  0
VERTEX
  5
930E
  8
0
 10
501.19526855949988
 20
138.0770716323
 30
0.0
  0
VERTEX
  5
930F
  8
0
 10
500.75853523019981
 20
138.59633383049999
 30
0.0
  0
VERTEX
  5
9310
  8
0
 10
500.29384477929977
 20
139.28367474390001
 30
0.0
  0
VERTEX
  5
9311
  8
0
 10
499.8179923303
 20
140.11425208099999
 30
0.0
  0
VERTEX
  5
9312
  8
0
 10
499.3481764304999
 20
141.05804661280001
 30
0.0
  0
VERTEX
  5
9313
  8
0
 10
498.90137745069978
 20
142.08094714590001
 30
0.0
  0
VERTEX
  5
9314
  8
0
 10
498.49374387009988
 20
143.14598338990001
 30
0.0
  0
VERTEX
  5
9315
  8
0
 10
498.1400086284998
 20
144.21466215999999
 30
0.0
  0
VERTEX
  5
9316
  8
0
 10
497.85295663900001
 20
145.24835862099999
 30
0.0
  0
VERTEX
  5
9317
  8
0
 10
497.64296270849991
 20
146.20971228959999
 30
0.0
  0
VERTEX
  5
9318
  8
0
 10
497.51761656469978
 20
147.0639773394
 30
0.0
  0
VERTEX
  5
9319
  8
0
 10
497.48144854399987
 20
147.7802784058
 30
0.0
  0
VERTEX
  5
931A
  8
0
 10
497.53576585280001
 20
148.33272650180001
 30
0.0
  0
VERTEX
  5
931B
  8
0
 10
497.5477628961998
 20
148.38480879080001
 30
0.0
  0
SEQEND
  5
931C
  8
0
  0
POLYLINE
  5
895A
  8
0
 66
     1
 10
0.0
 20
0.0
 30
0.0
 70
   128
  0
VERTEX
  5
931D
  8
0
 10
501.18970830499978
 20
137.28928982369999
 30
0.0
  0
VERTEX
  5
931E
  8
0
 10
501.01455437239991
 20
137.26908008449999
 30
0.0
  0
VERTEX
  5
931F
  8
0
 10
500.67950838510001
 20
137.40263549470001
 30
0.0
  0
VERTEX
  5
9320
  8
0
 10
500.28651685800008
 20
137.735051489
 30
0.0
  0
VERTEX
  5
9321
  8
0
 10
499.84978352869979
 20
138.25431368720001
 30
0.0
  0
VERTEX
  5
9322
  8
0
 10
499.38509307779981
 20
138.94165460059989
 30
0.0
  0
VERTEX
  5
9323
  8
0
 10
498.90924062879998
 20
139.77223193770001
 30
0.0
  0
VERTEX
  5
9324
  8
0
 10
498.43942472899988
 20
140.71602646950001
 30
0.0
  0
VERTEX
  5
9325
  8
0
 10
497.9926257491997
 20
141.73892700260001
 30
0.0
  0
VERTEX
  5
9326
  8
0
 10
497.5849921686999
 20
142.80396324660001
 30
0.0
  0
VERTEX
  5
9327
  8
0
 10
497.23125692699972
 20
143.87264201670001
 30
0.0
  0
VERTEX
  5
9328
  8
0
 10
496.94420493749999
 20
144.90633847769999
 30
0.0
  0
VERTEX
  5
9329
  8
0
 10
496.73421100699977
 20
145.86769214629999
 30
0.0
  0
VERTEX
  5
932A
  8
0
 10
496.6088648632998
 20
146.72195719609999
 30
0.0
  0
VERTEX
  5
932B
  8
0
 10
496.57269684249979
 20
147.4382582625
 30
0.0
  0
VERTEX
  5
932C
  8
0
 10
496.62701415129999
 20
147.99070635850001
 30
0.0
  0
VERTEX
  5
932D
  8
0
 10
496.76985362049982
 20
148.35933457059991
 30
0.0
  0
VERTEX
  5
932E
  8
0
 10
496.96281357729998
 20
148.5202007824
 30
0.0
  0
SEQEND
  5
932F
  8
0
  0
POLYLINE
  5
895B
  8
0
 66
     1
 10
0.0
 20
0.0
 30
0.0
 70
   128
  0
VERTEX
  5
9330
  8
0
 10
404.40450322480001
 20
129.79401905469999
 30
0.0
  0
VERTEX
  5
9331
  8
0
 10
404.11088431609988
 20
130.34330986559999
 30
0.0
  0
VERTEX
  5
9332
  8
0
 10
404.0
 20
131.0
 30
0.0
  0
SEQEND
  5
9333
  8
0
  0
LINE
  5
895C
  8
0
 10
404.0
 20
131.0
 30
0.0
 11
404.0
 21
137.5
 31
0.0
  0
ARC
  5
895D
  8
0
 10
406.0
 20
131.0
 30
0.0
 40
2.0000000000000231
 50
217.08437604700151
 51
252.4324612878963
  0
LINE
  5
895E
  8
0
 10
436.0
 20
137.41895912379999
 30
0.0
 11
436.0
 21
135.5
 31
0.0
  0
ARC
  5
8962
  8
0
 10
435.5
 20
137.5
 30
0.0
 40
0.5
 50
0.0
 51
90.0
  0
LINE
  5
8963
  8
0
 10
436.0
 20
137.41895912379999
 30
0.0
 11
436.0
 21
137.5
 31
0.0
  0
ARC
  5
8966
  8
0
 10
404.49999999999989
 20
137.5
 30
0.0
 40
0.5
 50
90.0
 51
180.0
  0
LINE
  5
896F
  8
0
 10
404.49999999999989
 20
138.0
 30
0.0
 11
435.5
 21
138.0
 31
0.0
  0
LINE
  5
8970
  8
0
 10
429.80000000000001
 20
135.80000000000001
 30
0.0
 11
410.19999999999987
 21
135.80000000000001
 31
0.0
  0
POLYLINE
  5
8972
  8
0
 66
     1
 10
0.0
 20
0.0
 30
0.0
 70
   128
  0
VERTEX
  5
9334
  8
0
 10
436.99127298372338
 20
134.25
 30
0.0
  0
VERTEX
  5
9335
  8
0
 10
436.98456279729987
 20
134.28468842899991
 30
0.0
  0
VERTEX
  5
9336
  8
0
 10
436.68038476959981
 20
134.70707523530001
 30
0.0
  0
VERTEX
  5
9337
  8
0
 10
436.31253764539991
 20
134.64512602120001
 30
0.0
  0
VERTEX
  5
9338
  8
0
 10
435.91152992519977
 20
134.21173657290001
 30
0.0
  0
VERTEX
  5
9339
  8
0
 10
435.49847981009992
 20
133.42028331430001
 30
0.0
  0
VERTEX
  5
933A
  8
0
 10
435.13321315539991
 20
132.25398024789999
 30
0.0
  0
VERTEX
  5
933B
  8
0
 10
434.92587358819992
 20
130.77727487530001
 30
0.0
  0
VERTEX
  5
933C
  8
0
 10
434.97181911140001
 20
129.19040129499999
 30
0.0
  0
VERTEX
  5
933D
  8
0
 10
435.2726529778999
 20
127.71782567939999
 30
0.0
  0
VERTEX
  5
933E
  8
0
 10
435.7497169245998
 20
126.5530956923
 30
0.0
  0
VERTEX
  5
933F
  8
0
 10
436.25714630759978
 20
125.89518064480001
 30
0.0
  0
VERTEX
  5
9340
  8
0
 10
436.65896116169989
 20
125.7842666809
 30
0.0
  0
VERTEX
  5
9341
  8
0
 10
436.93422206659989
 20
126.0912905632
 30
0.0
  0
VERTEX
  5
9342
  8
0
 10
436.97799843116297
 20
126.25
 30
0.0
  0
SEQEND
  5
9343
  8
0
  0
LINE
  5
8975
  8
0
 10
436.81317046219982
 20
125.0
 30
0.0
 11
404.49999999999989
 21
125.0
 31
0.0
  0
LINE
  5
8976
  8
0
 10
405.92725835409999
 20
135.5
 30
0.0
 11
436.80266011189991
 21
135.5
 31
0.0
  0
LINE
  5
8977
  8
0
 10
436.0
 20
124.5
 30
0.0
 11
436.0
 21
118.5
 31
0.0
  0
ARC
  5
897A
  8
0
 10
435.5
 20
124.5
 30
0.0
 40
0.5
 50
0.0
 51
90.0
  0
LINE
  5
897B
  8
0
 10
436.0
 20
118.5
 30
0.0
 11
435.5
 21
118.0
 31
0.0
  0
LINE
  5
8981
  8
0
 10
404.0
 20
118.5
 30
0.0
 11
404.0
 21
124.5
 31
0.0
  0
LINE
  5
8982
  8
0
 10
435.5
 20
118.0
 30
0.0
 11
404.49999999999989
 21
118.0
 31
0.0
  0
LINE
  5
8983
  8
0
 10
404.0
 20
118.5
 30
0.0
 11
404.49999999999989
 21
118.0
 31
0.0
  0
ARC
  5
8985
  8
0
 10
404.49999999999989
 20
124.5
 30
0.0
 40
0.5
 50
90.0
 51
180.0
  0
LINE
  5
899B
  8
0
 10
428.0
 20
118.0
 30
0.0
 11
428.0
 21
125.0
 31
0.0
  0
LINE
  5
89A1
  8
0
 10
412.0
 20
125.0
 30
0.0
 11
412.0
 21
118.0
 31
0.0
  0
LINE
  5
89A3
  8
0
 10
244.0
 20
129.01568651669999
 30
0.0
 11
255.854101157
 21
129.01568651669999
 31
0.0
  0
ARC
  5
89A4
  8
0
 10
243.99819517271229
 20
129.51407693886969
 30
0.0
 40
0.4983936901413754
 50
181.61847918155149
 51
270.20748500010899
  0
ARC
  5
89A5
  8
0
 10
255.85858264710009
 20
129.51133393730001
 30
0.0
 40
0.4956676803418838
 50
269.4819634634992
 51
338.64858999580048
  0
LINE
  5
89B2
  8
3
 10
273.32349980999999
 20
105.5234997066385
 30
0.0
 11
273.32349980999999
 21
118.0000002682
 31
0.0
  0
LINE
  5
89B3
  8
3
 10
266.67649980999988
 20
105.52350008663841
 30
0.0
 11
266.67649981
 21
118.0000002682
 31
0.0
  0
LINE
  5
89B4
  8
3
 10
123.32349981
 20
105.5234997066385
 30
0.0
 11
123.32349981
 21
118.0000002682
 31
0.0
  0
LINE
  5
89B5
  8
3
 10
116.6764998099999
 20
105.52350008663841
 30
0.0
 11
116.67649981
 21
118.0000002682
 31
0.0
  0
LINE
  5
89B6
  8
3
 10
423.32349980999999
 20
105.5234997066385
 30
0.0
 11
423.32349980999999
 21
118.0000002682
 31
0.0
  0
LINE
  5
89B7
  8
3
 10
416.67649980999983
 20
105.52350008663841
 30
0.0
 11
416.67649980999988
 21
118.0000002682
 31
0.0
  0
ARC
  5
89B8
  8
5
 10
270.0
 20
398.45172093340028
 30
0.0
 40
10.00000000000056
 50
301.6420421169986
 51
0.0
  0
ARC
  5
89B9
  8
5
 10
270.0
 20
398.45172093340028
 30
0.0
 40
10.000000000000909
 50
0.0
 51
238.35795788300129
  0
LINE
  5
89BA
  8
5
 10
276.0
 20
389.99448734640021
 30
0.0
 11
276.0
 21
390.45172093340028
 31
0.0
  0
LINE
  5
89BB
  8
5
 10
264.0
 20
390.45172093340028
 30
0.0
 11
264.0
 21
389.99448734640021
 31
0.0
  0
LINE
  5
89BC
  8
5
 10
266.0
 20
388.46492676610029
 30
0.0
 11
266.0
 21
324.98485842411162
 31
0.0
  0
LINE
  5
89BD
  8
5
 10
274.0
 20
324.56093576190841
 30
0.0
 11
274.0
 21
388.46492676610029
 31
0.0
  0
ARC
  5
89BE
  8
5
 10
270.0
 20
401.42032492040022
 30
0.0
 40
12.62373033942294
 50
245.4444645259986
 51
294.55553547400137
  0
POLYLINE
  5
89BF
  8
5
 66
     1
 10
0.0
 20
0.0
 30
0.0
 70
   128
  0
VERTEX
  5
9344
  8
5
 10
276.0
 20
389.99448734640021
 30
0.0
  0
VERTEX
  5
9345
  8
5
 10
275.97175008499988
 20
389.79558537910032
 30
0.0
  0
VERTEX
  5
9346
  8
5
 10
275.8072533989
 20
389.4785232395003
 30
0.0
  0
VERTEX
  5
9347
  8
5
 10
275.4997628608001
 20
389.1741658486003
 30
0.0
  0
VERTEX
  5
9348
  8
5
 10
275.0568499085
 20
388.8900074955003
 30
0.0
  0
VERTEX
  5
9349
  8
5
 10
274.48942052870012
 20
388.63304510190028
 30
0.0
  0
VERTEX
  5
934A
  8
5
 10
273.81144671599998
 20
388.40960593460028
 30
0.0
  0
VERTEX
  5
934B
  8
5
 10
273.03962243569998
 20
388.2251918077003
 30
0.0
  0
VERTEX
  5
934C
  8
5
 10
272.19295256300012
 20
388.08434360890033
 30
0.0
  0
VERTEX
  5
934D
  8
5
 10
271.29228492030012
 20
387.9905294883003
 30
0.0
  0
VERTEX
  5
934E
  8
5
 10
270.35979693399997
 20
387.9460594609003
 30
0.0
  0
VERTEX
  5
934F
  8
5
 10
269.41844955300007
 20
387.95202852640028
 30
0.0
  0
VERTEX
  5
9350
  8
5
 10
268.4914218742
 20
388.00828970660029
 30
0.0
  0
VERTEX
  5
9351
  8
5
 10
267.60154039539998
 20
388.11345766450029
 30
0.0
  0
VERTEX
  5
9352
  8
5
 10
266.77071695220002
 20
388.26494281590033
 30
0.0
  0
VERTEX
  5
9353
  8
5
 10
266.01940917500002
 20
388.45901509370032
 30
0.0
  0
VERTEX
  5
9354
  8
5
 10
265.36611675469999
 20
388.69089579430027
 30
0.0
  0
VERTEX
  5
9355
  8
5
 10
264.82692591889997
 20
388.95487524530029
 30
0.0
  0
VERTEX
  5
9356
  8
5
 10
264.41511333540012
 20
389.24445339650032
 30
0.0
  0
VERTEX
  5
9357
  8
5
 10
264.14081919680012
 20
389.55249987270031
 30
0.0
  0
VERTEX
  5
9358
  8
5
 10
264.01079753509998
 20
389.87142954750033
 30
0.0
  0
VERTEX
  5
9359
  8
5
 10
264.0
 20
389.99448734640021
 30
0.0
  0
SEQEND
  5
935A
  8
5
  0
ARC
  5
89C2
  8
5
 10
270.0
 20
217.99999982110029
 30
0.0
 40
10.00000000000105
 50
121.6420421169986
 51
180.0
  0
ARC
  5
89C3
  8
5
 10
270.0
 20
217.99999982110029
 30
0.0
 40
10.000000000000311
 50
180.0
 51
58.357957883001319
  0
LINE
  5
89C4
  8
5
 10
264.0
 20
226.4572334082003
 30
0.0
 11
264.0
 21
225.99999982110029
 31
0.0
  0
LINE
  5
89C5
  8
5
 10
276.0
 20
225.99999982110029
 30
0.0
 11
276.0
 21
226.4572334082003
 31
0.0
  0
LINE
  5
89C6
  8
5
 10
274.0
 20
227.9867939885003
 30
0.0
 11
274.0
 21
291.4668623304471
 31
0.0
  0
LINE
  5
89C7
  8
5
 10
266.0
 20
291.8907849926922
 30
0.0
 11
266.0
 21
227.9867939885003
 31
0.0
  0
ARC
  5
89C8
  8
5
 10
272.35867111229987
 20
221.54790653160029
 30
0.0
 40
5.7440083701637414
 50
59.82209341609753
 51
76.527764160502002
  0
ARC
  5
89C9
  8
5
 10
270.09144632179999
 20
214.34017038830029
 30
0.0
 40
13.292010174967521
 50
74.261460508699003
 51
113.6758043057999
  0
POLYLINE
  5
89CA
  8
5
 66
     1
 10
0.0
 20
0.0
 30
0.0
 70
   128
  0
VERTEX
  5
935B
  8
5
 10
273.69687657610001
 20
228.07354923210031
 30
0.0
  0
VERTEX
  5
935C
  8
5
 10
274.39063852750007
 20
227.8558529859003
 30
0.0
  0
VERTEX
  5
935D
  8
5
 10
274.97628838680009
 20
227.6037180839003
 30
0.0
  0
VERTEX
  5
935E
  8
5
 10
275.43940551050002
 20
227.32335292420029
 30
0.0
  0
VERTEX
  5
935F
  8
5
 10
275.76858641830012
 20
227.02166102760029
 30
0.0
  0
VERTEX
  5
9360
  8
5
 10
275.95572558359999
 20
226.7060710498003
 30
0.0
  0
VERTEX
  5
9361
  8
5
 10
276.0
 20
226.4572334082003
 30
0.0
  0
SEQEND
  5
9362
  8
5
  0
POLYLINE
  5
89CB
  8
5
 66
     1
 10
0.0
 20
0.0
 30
0.0
 70
   128
  0
VERTEX
  5
9363
  8
5
 10
264.0
 20
226.4572334082003
 30
0.0
  0
VERTEX
  5
9364
  8
5
 10
264.00378498089992
 20
226.53011295310031
 30
0.0
  0
VERTEX
  5
9365
  8
5
 10
264.11094225950001
 20
226.85003560330031
 30
0.0
  0
VERTEX
  5
9366
  8
5
 10
264.36310768430002
 20
227.16028615970029
 30
0.0
  0
VERTEX
  5
9367
  8
5
 10
264.75407210560002
 20
227.45322522420031
 30
0.0
  0
VERTEX
  5
9368
  8
5
 10
265.27420868199999
 20
227.7216396646003
 30
0.0
  0
VERTEX
  5
9369
  8
5
 10
265.91070992459998
 20
227.9589202267004
 30
0.0
  0
VERTEX
  5
936A
  8
5
 10
266.64790306050003
 20
228.15922427550029
 30
0.0
  0
VERTEX
  5
936B
  8
5
 10
267.4676359479999
 20
228.3176196605003
 30
0.0
  0
VERTEX
  5
936C
  8
5
 10
268.34972404280001
 20
228.4302061618003
 30
0.0
  0
VERTEX
  5
936D
  8
5
 10
269.27244740869997
 20
228.49421152590031
 30
0.0
  0
VERTEX
  5
936E
  8
5
 10
270.21308553400002
 20
228.50805972850031
 30
0.0
  0
VERTEX
  5
936F
  8
5
 10
271.14847678630002
 20
228.4714097807003
 30
0.0
  0
VERTEX
  5
9370
  8
5
 10
272.05558872850008
 20
228.3851641260004
 30
0.0
  0
VERTEX
  5
9371
  8
5
 10
272.91208525409991
 20
228.25144641850031
 30
0.0
  0
VERTEX
  5
9372
  8
5
 10
273.69687657610001
 20
228.07354923210031
 30
0.0
  0
SEQEND
  5
9373
  8
5
  0
POLYLINE
  5
89D4
  8
5
 66
     1
 10
0.0
 20
0.0
 30
0.0
 70
   128
  0
VERTEX
  5
9374
  8
5
 10
244.59114156665001
 20
138.66702608759999
 30
0.0
  0
VERTEX
  5
9375
  8
5
 10
244.66808371245
 20
138.7218828499
 30
0.0
  0
VERTEX
  5
9376
  8
5
 10
244.73075799644991
 20
138.76656584439999
 30
0.0
  0
VERTEX
  5
9377
  8
5
 10
244.77707639334989
 20
138.79958868019989
 30
0.0
  0
VERTEX
  5
9378
  8
5
 10
244.80549849565
 20
138.8198523968
 30
0.0
  0
VERTEX
  5
9379
  8
5
 10
244.81507994234991
 20
138.82668271659989
 30
0.0
  0
SEQEND
  5
937A
  8
5
  0
LINE
  5
89D5
  8
5
 10
244.81507994234991
 20
138.82668271659989
 30
0.0
 11
250.68624548615
 21
137.84279443319991
 31
0.0
  0
LINE
  5
89D6
  8
5
 10
244.2329058723225
 20
130.8126883518467
 30
0.0
 11
243.49287942055
 21
130.9367022662999
 31
0.0
  0
POLYLINE
  5
89D7
  8
5
 66
     1
 10
0.0
 20
0.0
 30
0.0
 70
   128
  0
VERTEX
  5
937B
  8
5
 10
243.49287942055
 20
130.9367022662999
 30
0.0
  0
VERTEX
  5
937C
  8
5
 10
243.42286072674989
 20
131.03491116309999
 30
0.0
  0
VERTEX
  5
937D
  8
5
 10
243.35107065734999
 20
131.13560575989999
 30
0.0
  0
VERTEX
  5
937E
  8
5
 10
243.27767871315001
 20
131.238547638
 30
0.0
  0
SEQEND
  5
937F
  8
5
  0
ARC
  5
89D8
  8
5
 10
250.52097088815
 20
136.8565461707999
 30
0.0
 40
0.9999999999999987
 50
47.407725903901742
 51
80.486785691599096
  0
ARC
  5
89D9
  8
5
 10
255.00000000004999
 20
130.02228622070001
 30
0.0
 40
3.0000000000000031
 50
350.48678569159932
 51
47.407725903901742
  0
POLYLINE
  5
89DA
  8
5
 66
     1
 10
0.0
 20
0.0
 30
0.0
 70
   128
  0
VERTEX
  5
9380
  8
5
 10
257.95874230565011
 20
129.52646102750001
 30
0.0
  0
VERTEX
  5
9381
  8
5
 10
257.80307639385001
 20
128.95328506819999
 30
0.0
  0
VERTEX
  5
9382
  8
5
 10
257.57892474534992
 20
128.48959352819989
 30
0.0
  0
SEQEND
  5
9383
  8
5
  0
POLYLINE
  5
89DB
  8
5
 66
     1
 10
0.0
 20
0.0
 30
0.0
 70
   128
  0
VERTEX
  5
9384
  8
5
 10
242.95978665355
 20
132.29346789420001
 30
0.0
  0
VERTEX
  5
9385
  8
5
 10
242.97934442754999
 20
132.30741165570001
 30
0.0
  0
VERTEX
  5
9386
  8
5
 10
243.03735464815
 20
132.3487698285999
 30
0.0
  0
VERTEX
  5
9387
  8
5
 10
243.13184663654999
 20
132.41613704709999
 30
0.0
  0
VERTEX
  5
9388
  8
5
 10
243.25960919265
 20
132.50722505149989
 30
0.0
  0
VERTEX
  5
9389
  8
5
 10
243.41630421574999
 20
132.61893905699989
 30
0.0
  0
SEQEND
  5
938A
  8
5
  0
ARC
  5
89DC
  8
5
 10
243.1260653844499
 20
133.02606019460001
 30
0.0
 40
0.499986199762911
 50
305.48527327660258
 51
35.488475991101048
  0
POLYLINE
  5
89DD
  8
5
 66
     1
 10
0.0
 20
0.0
 30
0.0
 70
   128
  0
VERTEX
  5
938B
  8
5
 10
243.5331702977499
 20
133.31632178269999
 30
0.0
  0
VERTEX
  5
938C
  8
5
 10
243.42145629225001
 20
133.47301587460001
 30
0.0
  0
VERTEX
  5
938D
  8
5
 10
243.33036921914999
 20
133.60077936199991
 30
0.0
  0
VERTEX
  5
938E
  8
5
 10
243.26300106945001
 20
133.69527041910001
 30
0.0
  0
VERTEX
  5
938F
  8
5
 10
243.22164289654989
 20
133.75328063960001
 30
0.0
  0
VERTEX
  5
9390
  8
5
 10
243.20769913494999
 20
133.77283841369999
 30
0.0
  0
SEQEND
  5
9391
  8
5
  0
LINE
  5
89DE
  8
5
 10
243.20769913494999
 20
133.77283841369999
 30
0.0
 11
243.29033724964989
 21
134.26596254110001
 31
0.0
  0
POLYLINE
  5
89DF
  8
5
 66
     1
 10
0.0
 20
0.0
 30
0.0
 70
   128
  0
VERTEX
  5
9392
  8
5
 10
243.29033724964989
 20
134.26596254110001
 30
0.0
  0
VERTEX
  5
9393
  8
5
 10
243.30989502364989
 20
134.2799063027
 30
0.0
  0
VERTEX
  5
9394
  8
5
 10
243.36790524425001
 20
134.3212644754999
 30
0.0
  0
VERTEX
  5
9395
  8
5
 10
243.46239723265001
 20
134.3886326253
 30
0.0
  0
VERTEX
  5
9396
  8
5
 10
243.59015978874999
 20
134.4797196984
 30
0.0
  0
VERTEX
  5
9397
  8
5
 10
243.74685481185
 20
134.5914337038999
 30
0.0
  0
SEQEND
  5
9398
  8
5
  0
ARC
  5
89E0
  8
5
 10
243.45661280965001
 20
134.99855576050001
 30
0.0
 40
0.4999887888073883
 50
305.48550802460369
 51
35.488266187400377
  0
POLYLINE
  5
89E1
  8
5
 66
     1
 10
0.0
 20
0.0
 30
0.0
 70
   128
  0
VERTEX
  5
9399
  8
5
 10
243.86372089385
 20
135.28881736100001
 30
0.0
  0
VERTEX
  5
939A
  8
5
 10
243.75200688835
 20
135.4455105214999
 30
0.0
  0
VERTEX
  5
939B
  8
5
 10
243.6609179526499
 20
135.57327494019989
 30
0.0
  0
VERTEX
  5
939C
  8
5
 10
243.59355166555
 20
135.66776506599999
 30
0.0
  0
VERTEX
  5
939D
  8
5
 10
243.55219349264999
 20
135.72577528650001
 30
0.0
  0
VERTEX
  5
939E
  8
5
 10
243.53824973105
 20
135.74533492320001
 30
0.0
  0
SEQEND
  5
939F
  8
5
  0
LINE
  5
89E2
  8
5
 10
243.53824973105
 20
135.74533492320001
 30
0.0
 11
243.62088784574999
 21
136.23845718800001
 31
0.0
  0
POLYLINE
  5
89E3
  8
5
 66
     1
 10
0.0
 20
0.0
 30
0.0
 70
   128
  0
VERTEX
  5
93A0
  8
5
 10
243.62088784574999
 20
136.23845718800001
 30
0.0
  0
VERTEX
  5
93A1
  8
5
 10
243.64044561985
 20
136.2524009496
 30
0.0
  0
VERTEX
  5
93A2
  8
5
 10
243.69845584034999
 20
136.29375912250001
 30
0.0
  0
VERTEX
  5
93A3
  8
5
 10
243.79294596615
 20
136.36112727219989
 30
0.0
  0
VERTEX
  5
93A4
  8
5
 10
243.92071038485011
 20
136.45221434529989
 30
0.0
  0
VERTEX
  5
93A5
  8
5
 10
244.07740354534999
 20
136.5639302134
 30
0.0
  0
SEQEND
  5
93A6
  8
5
  0
ARC
  5
89E4
  8
5
 10
243.78712859834999
 20
136.97105810309989
 30
0.0
 40
0.5000126632831077
 50
305.48819393999747
 51
35.485232679897557
  0
POLYLINE
  5
89E5
  8
5
 66
     1
 10
0.0
 20
0.0
 30
0.0
 70
   128
  0
VERTEX
  5
93A7
  8
5
 10
244.19427148995001
 20
137.26131200789999
 30
0.0
  0
VERTEX
  5
93A8
  8
5
 10
244.08255748445001
 20
137.418007031
 30
0.0
  0
VERTEX
  5
93A9
  8
5
 10
243.99146854874999
 20
137.54576958710001
 30
0.0
  0
VERTEX
  5
93AA
  8
5
 10
243.92410226165001
 20
137.64026157550001
 30
0.0
  0
VERTEX
  5
93AB
  8
5
 10
243.88274408875
 20
137.69827179609999
 30
0.0
  0
VERTEX
  5
93AC
  8
5
 10
243.86880032715001
 20
137.71782957010001
 30
0.0
  0
SEQEND
  5
93AD
  8
5
  0
LINE
  5
89E6
  8
5
 10
243.86880032715001
 20
137.71782957010001
 30
0.0
 11
243.95143657924999
 21
138.2109536975
 31
0.0
  0
POLYLINE
  5
89E7
  8
5
 66
     1
 10
0.0
 20
0.0
 30
0.0
 70
   128
  0
VERTEX
  5
93AE
  8
5
 10
243.95143657924999
 20
138.2109536975
 30
0.0
  0
VERTEX
  5
93AF
  8
5
 10
243.97109307344999
 20
138.22496637699999
 30
0.0
  0
VERTEX
  5
93B0
  8
5
 10
244.02939386665
 20
138.26653130349999
 30
0.0
  0
VERTEX
  5
93B1
  8
5
 10
244.12434406574991
 20
138.33422541609991
 30
0.0
  0
VERTEX
  5
93B2
  8
5
 10
244.25270639355
 20
138.42574089760001
 30
0.0
  0
VERTEX
  5
93B3
  8
5
 10
244.41009618344989
 20
138.5379522293
 30
0.0
  0
VERTEX
  5
93B4
  8
5
 10
244.59114156665001
 20
138.66702608759999
 30
0.0
  0
SEQEND
  5
93B5
  8
5
  0
POLYLINE
  5
89E8
  8
5
 66
     1
 10
0.0
 20
0.0
 30
0.0
 70
   128
  0
VERTEX
  5
93B6
  8
5
 10
243.27767871315001
 20
131.238547638
 30
0.0
  0
VERTEX
  5
93B7
  8
5
 10
243.14195521175
 20
131.42891742290001
 30
0.0
  0
VERTEX
  5
93B8
  8
5
 10
243.02989289165001
 20
131.58609952769999
 30
0.0
  0
VERTEX
  5
93B9
  8
5
 10
242.94626012444991
 20
131.70340705660001
 30
0.0
  0
VERTEX
  5
93BA
  8
5
 10
242.89461269975001
 20
131.77584905169999
 30
0.0
  0
VERTEX
  5
93BB
  8
5
 10
242.87714853884989
 20
131.80034376680001
 30
0.0
  0
SEQEND
  5
93BC
  8
5
  0
LINE
  5
89E9
  8
5
 10
242.87714853884989
 20
131.80034376680001
 30
0.0
 11
242.95978665355
 21
132.29346789420001
 31
0.0
  0
LINE
  5
89EA
  8
5
 10
251.1977483332501
 20
137.5927343219
 30
0.0
 11
257.03033011405
 21
132.23085135220001
 31
0.0
  0
POLYLINE
  5
89EB
  8
5
 66
     1
 10
0.0
 20
0.0
 30
0.0
 70
   128
  0
VERTEX
  5
93BD
  8
5
 10
257.57892474534992
 20
128.48959352819989
 30
0.0
  0
VERTEX
  5
93BE
  8
5
 10
257.45876457545
 20
128.2874099165
 30
0.0
  0
VERTEX
  5
93BF
  8
5
 10
257.36304696644987
 20
128.12635537229991
 30
0.0
  0
VERTEX
  5
93C0
  8
5
 10
257.29557171465001
 20
128.01282156249999
 30
0.0
  0
VERTEX
  5
93C1
  8
5
 10
257.25901730355002
 20
127.95131329439999
 30
0.0
  0
SEQEND
  5
93C2
  8
5
  0
ARC
  5
89EE
  8
5
 10
244.14992666164991
 20
130.3196219763999
 30
0.0
 40
0.4999999999999952
 50
350.48678569159932
 51
80.447084370415595
  0
LINE
  5
89EF
  8
5
 10
257.25946341945649
 20
127.9520639511869
 30
0.0
 11
253.52110385895
 21
121.6618656367
 31
0.0
  0
ARC
  5
89F0
  8
5
 10
248.79307640754999
 20
124.4718029963999
 30
0.0
 40
5.5000000000000018
 50
260.4867856915991
 51
329.2763556135003
  0
ARC
  5
89F1
  8
5
 10
247.51375249015001
 20
123.1652753397999
 30
0.0
 40
4.0000000000000089
 50
170.48678569159929
 51
260.4867856915991
  0
LINE
  5
89F2
  8
5
 10
247.88406349715001
 20
119.0474416547999
 30
0.0
 11
246.8526516854499
 21
119.22028534579999
 31
0.0
  0
LINE
  5
89F3
  8
5
 10
243.56876172125001
 20
123.8263757154
 30
0.0
 11
244.64303964743249
 21
130.236911732724
 31
0.0
  0
LINE
  5
89F4
  8
5
 10
245.05612857634989
 20
129.6766936034
 30
0.0
 11
256.74720712005001
 21
127.71750662469999
 31
0.0
  0
ARC
  5
89F5
  8
5
 10
245.13672427405029
 20
130.1685316639915
 30
0.0
 40
0.4983977772408613
 50
172.10568760102279
 51
260.69385941852448
  0
ARC
  5
89F6
  8
5
 10
256.83354525055
 20
128.20559739270001
 30
0.0
 40
0.4956681052807725
 50
259.968745046599
 51
329.13527784119998
  0
POLYLINE
  5
89F7
  8
5
 66
     1
 10
0.0
 20
0.0
 30
0.0
 70
   128
  0
VERTEX
  5
93C3
  8
5
 10
239.41863372915009
 20
128.88143725689989
 30
0.0
  0
VERTEX
  5
93C4
  8
5
 10
239.43000145255019
 20
128.90259690580001
 30
0.0
  0
VERTEX
  5
93C5
  8
5
 10
239.46371346705021
 20
128.9653596654
 30
0.0
  0
VERTEX
  5
93C6
  8
5
 10
239.5186279713501
 20
129.06759094439991
 30
0.0
  0
VERTEX
  5
93C7
  8
5
 10
239.59287859495009
 20
129.20582063489991
 30
0.0
  0
VERTEX
  5
93C8
  8
5
 10
239.68394331635011
 20
129.37535114580001
 30
0.0
  0
SEQEND
  5
93C9
  8
5
  0
ARC
  5
89F8
  8
5
 10
239.24348451185011
 20
129.61195961370001
 30
0.0
 40
0.4999875252810044
 50
331.75591385160033
 51
61.758744784099591
  0
POLYLINE
  5
89F9
  8
5
 66
     1
 10
0.0
 20
0.0
 30
0.0
 70
   128
  0
VERTEX
  5
93CA
  8
5
 10
239.4800712167501
 20
130.05243010809991
 30
0.0
  0
VERTEX
  5
93CB
  8
5
 10
239.31054070585009
 20
130.14349482950001
 30
0.0
  0
VERTEX
  5
93CC
  8
5
 10
239.17231194675011
 20
130.21774545310001
 30
0.0
  0
VERTEX
  5
93CD
  8
5
 10
239.07008066764999
 20
130.27265995740001
 30
0.0
  0
VERTEX
  5
93CE
  8
5
 10
239.00731697675019
 20
130.30637290320001
 30
0.0
  0
VERTEX
  5
93CF
  8
5
 10
238.98615732785009
 20
130.31773876389991
 30
0.0
  0
SEQEND
  5
93D0
  8
5
  0
LINE
  5
89FA
  8
5
 10
238.98615732785009
 20
130.31773876389991
 30
0.0
 11
238.84199790655009
 21
130.79650655379999
 31
0.0
  0
POLYLINE
  5
89FB
  8
5
 66
     1
 10
0.0
 20
0.0
 30
0.0
 70
   128
  0
VERTEX
  5
93D1
  8
5
 10
238.84199790655009
 20
130.79650655379999
 30
0.0
  0
VERTEX
  5
93D2
  8
5
 10
238.85336562985
 20
130.81766713409991
 30
0.0
  0
VERTEX
  5
93D3
  8
5
 10
238.8870776444501
 20
130.88042896239989
 30
0.0
  0
VERTEX
  5
93D4
  8
5
 10
238.94199214875019
 20
130.98266117270001
 30
0.0
  0
VERTEX
  5
93D5
  8
5
 10
239.0162427723501
 20
131.12088993189991
 30
0.0
  0
VERTEX
  5
93D6
  8
5
 10
239.1073074936501
 20
131.29042044280001
 30
0.0
  0
SEQEND
  5
93D7
  8
5
  0
ARC
  5
89FC
  8
5
 10
238.6668486892502
 20
131.5270289106
 30
0.0
 40
0.4999875252810044
 50
331.75591385160033
 51
61.758744784099591
  0
POLYLINE
  5
89FD
  8
5
 66
     1
 10
0.0
 20
0.0
 30
0.0
 70
   128
  0
VERTEX
  5
93D8
  8
5
 10
238.90343539415011
 20
131.9674994051
 30
0.0
  0
VERTEX
  5
93D9
  8
5
 10
238.73390674584999
 20
132.0585641264999
 30
0.0
  0
VERTEX
  5
93DA
  8
5
 10
238.5956761240501
 20
132.13281474999991
 30
0.0
  0
VERTEX
  5
93DB
  8
5
 10
238.4934429823501
 20
132.1877292543
 30
0.0
  0
VERTEX
  5
93DC
  8
5
 10
238.43068301675009
 20
132.22144220019999
 30
0.0
  0
VERTEX
  5
93DD
  8
5
 10
238.4095233678502
 20
132.23280899220001
 30
0.0
  0
SEQEND
  5
93DE
  8
5
  0
LINE
  5
89FE
  8
5
 10
238.4095233678502
 20
132.23280899220001
 30
0.0
 11
238.26536208384999
 21
132.71157585079999
 31
0.0
  0
POLYLINE
  5
89FF
  8
5
 66
     1
 10
0.0
 20
0.0
 30
0.0
 70
   128
  0
VERTEX
  5
93DF
  8
5
 10
238.26536208384999
 20
132.71157585079999
 30
0.0
  0
VERTEX
  5
93E0
  8
5
 10
238.27672794455009
 20
132.73273643100001
 30
0.0
  0
VERTEX
  5
93E1
  8
5
 10
238.31044182175009
 20
132.7954982592999
 30
0.0
  0
VERTEX
  5
93E2
  8
5
 10
238.36535632605009
 20
132.89773046970001
 30
0.0
  0
VERTEX
  5
93E3
  8
5
 10
238.4396088122501
 20
133.03595922880001
 30
0.0
  0
VERTEX
  5
93E4
  8
5
 10
238.53066980835001
 20
133.20548973969991
 30
0.0
  0
SEQEND
  5
93E5
  8
5
  0
ARC
  5
8A00
  8
5
 10
238.09023312495009
 20
133.44210551910001
 30
0.0
 40
0.4999714983440486
 50
331.75397607670152
 51
61.76039352250146
  0
POLYLINE
  5
8A01
  8
5
 66
     1
 10
0.0
 20
0.0
 30
0.0
 70
   128
  0
VERTEX
  5
93E6
  8
5
 10
238.3267995714501
 20
133.8825687021
 30
0.0
  0
VERTEX
  5
93E7
  8
5
 10
238.15726906055011
 20
133.9736334234
 30
0.0
  0
VERTEX
  5
93E8
  8
5
 10
238.01904216405001
 20
134.04788404699991
 30
0.0
  0
VERTEX
  5
93E9
  8
5
 10
237.91680902235009
 20
134.10279855129991
 30
0.0
  0
VERTEX
  5
93EA
  8
5
 10
237.85404533145021
 20
134.1365124285
 30
0.0
  0
VERTEX
  5
93EB
  8
5
 10
237.83288568255011
 20
134.14787828920001
 30
0.0
  0
SEQEND
  5
93EC
  8
5
  0
LINE
  5
8A02
  8
5
 10
237.83288568255011
 20
134.14787828920001
 30
0.0
 11
237.6887281238501
 21
134.62664514779999
 31
0.0
  0
POLYLINE
  5
8A03
  8
5
 66
     1
 10
0.0
 20
0.0
 30
0.0
 70
   128
  0
VERTEX
  5
93ED
  8
5
 10
237.6887281238501
 20
134.62664514779999
 30
0.0
  0
VERTEX
  5
93EE
  8
5
 10
237.7001498639502
 20
134.64791283010001
 30
0.0
  0
VERTEX
  5
93EF
  8
5
 10
237.73403137915011
 20
134.71098758279999
 30
0.0
  0
VERTEX
  5
93F0
  8
5
 10
237.78921410435009
 20
134.81371618799989
 30
0.0
  0
VERTEX
  5
93F1
  8
5
 10
237.86381304265001
 20
134.95259314769999
 30
0.0
  0
VERTEX
  5
93F2
  8
5
 10
237.95528009535019
 20
135.12287616730001
 30
0.0
  0
VERTEX
  5
93F3
  8
5
 10
238.06049719445011
 20
135.3187519311999
 30
0.0
  0
SEQEND
  5
93F4
  8
5
  0
POLYLINE
  5
8A04
  8
5
 66
     1
 10
0.0
 20
0.0
 30
0.0
 70
   128
  0
VERTEX
  5
93F5
  8
5
 10
240.17060965295011
 20
128.0761766432999
 30
0.0
  0
VERTEX
  5
93F6
  8
5
 10
239.9646458029502
 20
128.18681217729991
 30
0.0
  0
VERTEX
  5
93F7
  8
5
 10
239.79458816344999
 20
128.2781600207
 30
0.0
  0
VERTEX
  5
93F8
  8
5
 10
239.6676712482502
 20
128.3463337645
 30
0.0
  0
VERTEX
  5
93F9
  8
5
 10
239.58929486565009
 20
128.3884342014
 30
0.0
  0
VERTEX
  5
93FA
  8
5
 10
239.56279315055011
 20
128.40266946700001
 30
0.0
  0
SEQEND
  5
93FB
  8
5
  0
LINE
  5
8A05
  8
5
 10
239.56279315055011
 20
128.40266946700001
 30
0.0
 11
239.41863372915009
 21
128.88143725689989
 31
0.0
  0
POLYLINE
  5
8A06
  8
5
 66
     1
 10
0.0
 20
0.0
 30
0.0
 70
   128
  0
VERTEX
  5
93FC
  8
5
 10
238.06049719445011
 20
135.3187519311999
 30
0.0
  0
VERTEX
  5
93FD
  8
5
 10
238.1052118539501
 20
135.40199726819989
 30
0.0
  0
VERTEX
  5
93FE
  8
5
 10
238.14163401715021
 20
135.46980500219991
 30
0.0
  0
VERTEX
  5
93FF
  8
5
 10
238.16855296485011
 20
135.5199194699
 30
0.0
  0
VERTEX
  5
9400
  8
5
 10
238.18507090205009
 20
135.55066987869989
 30
0.0
  0
VERTEX
  5
9401
  8
5
 10
238.19064021105009
 20
135.56103549889991
 30
0.0
  0
SEQEND
  5
9402
  8
5
  0
LINE
  5
8A07
  8
5
 10
238.19064021105009
 20
135.56103549889991
 30
0.0
 11
243.89087826005019
 21
137.27740153670001
 31
0.0
  0
ARC
  5
8A08
  8
5
 10
244.1791963865501
 20
136.31986677719999
 30
0.0
 40
1.000000000000002
 50
73.678216232798093
 51
106.7572760204974
  0
LINE
  5
8A09
  8
5
 10
241.21600068501269
 20
128.11719558144529
 30
0.0
 11
240.4971835016502
 21
127.9007564485
 31
0.0
  0
POLYLINE
  5
8A0A
  8
5
 66
     1
 10
0.0
 20
0.0
 30
0.0
 70
   128
  0
VERTEX
  5
9403
  8
5
 10
240.4971835016502
 20
127.9007564485
 30
0.0
  0
VERTEX
  5
9404
  8
5
 10
240.39092890915009
 20
127.9578316211
 30
0.0
  0
VERTEX
  5
9405
  8
5
 10
240.28198465705009
 20
128.01635127509991
 30
0.0
  0
VERTEX
  5
9406
  8
5
 10
240.17060965295011
 20
128.0761766432999
 30
0.0
  0
SEQEND
  5
9407
  8
5
  0
LINE
  5
8A0B
  8
5
 10
244.4602274149502
 20
137.2795659302999
 30
0.0
 11
252.06361010665009
 21
135.05304187530001
 31
0.0
  0
POLYLINE
  5
8A0C
  8
5
 66
     1
 10
0.0
 20
0.0
 30
0.0
 70
   128
  0
VERTEX
  5
9408
  8
5
 10
254.0931184589501
 20
133.03890034549991
 30
0.0
  0
VERTEX
  5
9409
  8
5
 10
254.20722410075021
 20
132.4560265243
 30
0.0
  0
VERTEX
  5
940A
  8
5
 10
254.2114578932501
 20
131.9410153851
 30
0.0
  0
SEQEND
  5
940B
  8
5
  0
ARC
  5
8A0D
  8
5
 10
251.2205145168501
 20
132.17394711579999
 30
0.0
 40
2.9999999999999711
 50
16.757276020500591
 51
73.678216232798093
  0
POLYLINE
  5
8A0E
  8
5
 66
     1
 10
0.0
 20
0.0
 30
0.0
 70
   128
  0
VERTEX
  5
940C
  8
5
 10
254.2114578932501
 20
131.9410153851
 30
0.0
  0
VERTEX
  5
940D
  8
5
 10
254.19319652015011
 20
131.70653071250001
 30
0.0
  0
VERTEX
  5
940E
  8
5
 10
254.17864926154999
 20
131.5197455883
 30
0.0
  0
VERTEX
  5
940F
  8
5
 10
254.1683954000502
 20
131.3880724087
 30
0.0
  0
VERTEX
  5
9410
  8
5
 10
254.16283912955009
 20
131.31673868739989
 30
0.0
  0
SEQEND
  5
9411
  8
5
  0
ARC
  5
8A11
  8
5
 10
241.3594927041502
 20
127.63822789939999
 30
0.0
 40
0.5000000000000112
 50
16.757276020500591
 51
106.6774806561112
  0
ARC
  5
8A12
  8
5
 10
248.11137213785011
 20
124.44950550669989
 30
0.0
 40
5.4999999999999876
 50
286.7572760204975
 51
355.5468459423987
  0
LINE
  5
8A13
  8
5
 10
254.16283912954131
 20
131.31673868740279
 30
0.0
 11
253.5947677492502
 21
124.0224638207999
 31
0.0
  0
ARC
  5
8A14
  8
5
 10
247.5424652450501
 20
122.7116823999
 30
0.0
 40
4.0000000000000062
 50
196.75727602050051
 51
286.7572760204975
  0
LINE
  5
8A15
  8
5
 10
249.69712130725009
 20
119.1830643405999
 30
0.0
 11
248.69573719795
 21
118.8815433601
 31
0.0
  0
LINE
  5
8A16
  8
5
 10
243.71232695875
 20
121.5584108325999
 30
0.0
 11
241.83787875391019
 21
127.7836472495395
 31
0.0
  0
LINE
  5
8A17
  8
5
 10
242.45666384694999
 20
127.4627992137999
 30
0.0
 11
253.80737751715009
 21
130.88054817170001
 31
0.0
  0
ARC
  5
8A18
  8
5
 10
242.31123976308839
 20
127.93950377833001
 30
0.0
 40
0.4983928230231094
 50
198.37569218205061
 51
286.9649158054861
  0
ARC
  5
8A19
  8
5
 10
253.66876518125011
 20
131.35643868019989
 30
0.0
 40
0.4956663755068828
 50
286.23922451239719
 51
355.40602067219982
  0
LINE
  5
8A1F
  8
1
 10
270.0
 20
142.9999998211
 30
0.0
 11
270.0
 21
100.0
 31
0.0
  0
LINE
  5
8A20
  8
1
 10
120.0
 20
142.9999998211
 30
0.0
 11
120.0
 21
100.0
 31
0.0
  0
LINE
  5
8A21
  8
1
 10
420.0
 20
142.9999998211
 30
0.0
 11
420.0
 21
100.0
 31
0.0
  0
LINE
  5
8A26
  8
1
 10
292.5
 20
308.22586037730031
 30
0.0
 11
236.5
 21
308.22586037730031
 31
0.0
  0
LINE
  5
8A2B
  8
1
 10
270.0
 20
413.45172093340119
 30
0.0
 11
270.0
 21
202.9999998211
 31
0.0
  0
LINE
  5
8A46
  8
1
 10
248.5
 20
129.0000002682273
 30
0.0
 11
248.5
 21
117.0000002681727
 31
0.0
  0
LINE
  5
8A47
  8
1
 10
242.49999999997269
 20
123.0000002682
 30
0.0
 11
254.50000000002731
 21
123.0000002682
 31
0.0
  0
POLYLINE
  5
8F13
  8
0
 66
     1
 10
0.0
 20
0.0
 30
0.0
 70
   128
  0
VERTEX
  5
9412
  8
0
 10
39.466309225800011
 20
139.4773812830999
 30
0.0
  0
VERTEX
  5
9413
  8
0
 10
39.583352783700043
 20
139.17888893610001
 30
0.0
  0
VERTEX
  5
9414
  8
0
 10
39.696524489900021
 20
139.09270428810001
 30
0.0
  0
SEQEND
  5
9415
  8
0
  0
LINE
  5
8F5C
  8
1
 10
297.23445674922101
 20
409.86623668193022
 30
0.0
 11
270.0
 21
308.22586037730031
 31
0.0
  0
ENDSEC
  0
EOF
