  0
SECTION
  2
HEADER
  9
$ACADVER
  1
AC1009
  9
$INSBASE
 10
0.0
 20
0.0
 30
0.0
  9
$EXTMIN
 10
0.0
 20
-2.960436562073669
 30
0.0
  9
$EXTMAX
 10
633.0000000000008
 20
620.85850405940153
 30
0.0
  9
$LIMMIN
 10
0.0
 20
0.0
  9
$LIMMAX
 10
385.0
 20
270.0
  9
$ORTHOMODE
 70
     1
  9
$REGENMODE
 70
     1
  9
$FILLMODE
 70
     1
  9
$QTEXTMODE
 70
     0
  9
$MIRRTEXT
 70
     0
  9
$DRAGMODE
 70
     2
  9
$LTSCALE
 40
3.0
  9
$OSMODE
 70
    37
  9
$ATTMODE
 70
     1
  9
$TEXTSIZE
 40
0.2
  9
$TRACEWID
 40
0.05
  9
$TEXTSTYLE
  7
STANDARD
  9
$CLAYER
  8
0
  9
$CELTYPE
  6
BYLAYER
  9
$CECOLOR
 62
   256
  9
$DIMSCALE
 40
1.0
  9
$DIMASZ
 40
3.0
  9
$DIMEXO
 40
1.0
  9
$DIMDLI
 40
6.0
  9
$DIMRND
 40
0.0
  9
$DIMDLE
 40
0.0
  9
$DIMEXE
 40
1.0
  9
$DIMTP
 40
495.0
  9
$DIMTM
 40
0.0
  9
$DIMTXT
 40
3.0
  9
$DIMCEN
 40
0.0
  9
$DIMTSZ
 40
0.0
  9
$DIMTOL
 70
     0
  9
$DIMLIM
 70
     0
  9
$DIMTIH
 70
     0
  9
$DIMTOH
 70
     0
  9
$DIMSE1
 70
     0
  9
$DIMSE2
 70
     0
  9
$DIMTAD
 70
     1
  9
$DIMZIN
 70
     0
  9
$DIMBLK
  1

  9
$DIMASO
 70
     0
  9
$DIMSHO
 70
     0
  9
$DIMPOST
  1

  9
$DIMAPOST
  1

  9
$DIMALT
 70
     0
  9
$DIMALTD
 70
     2
  9
$DIMALTF
 40
25.399999999999999
  9
$DIMLFAC
 40
1.0
  9
$DIMTOFL
 70
     1
  9
$DIMTVP
 40
0.0
  9
$DIMTIX
 70
     1
  9
$DIMSOXD
 70
     0
  9
$DIMSAH
 70
     0
  9
$DIMBLK1
  1

  9
$DIMBLK2
  1

  9
$DIMSTYLE
  2
STANDARD
  9
$DIMCLRD
 70
     0
  9
$DIMCLRE
 70
     0
  9
$DIMCLRT
 70
     4
  9
$DIMTFAC
 40
1.0
  9
$DIMGAP
 40
1.0
  9
$LUNITS
 70
     2
  9
$LUPREC
 70
     1
  9
$SKETCHINC
 40
0.1
  9
$FILLETRAD
 40
15.0
  9
$AUNITS
 70
     0
  9
$AUPREC
 70
     1
  9
$MENU
  1
E:\r13\win\SUPPORT\ACAD
  9
$ELEVATION
 40
0.0
  9
$PELEVATION
 40
0.0
  9
$THICKNESS
 40
0.0
  9
$LIMCHECK
 70
     0
  9
$BLIPMODE
 70
     0
  9
$CHAMFERA
 40
0.0
  9
$CHAMFERB
 40
0.0
  9
$SKPOLY
 70
     0
  9
$TDCREATE
 40
2450653.5278402781
  9
$TDUPDATE
 40
2457906.601734641
  9
$TDINDWG
 40
0.6315599306
  9
$TDUSRTIMER
 40
0.6315599306
  9
$USRTIMER
 70
     1
  9
$ANGBASE
 50
0.0
  9
$ANGDIR
 70
     0
  9
$PDMODE
 70
     0
  9
$PDSIZE
 40
0.0
  9
$PLINEWID
 40
0.0
  9
$COORDS
 70
     1
  9
$SPLFRAME
 70
     0
  9
$SPLINETYPE
 70
     6
  9
$SPLINESEGS
 70
     8
  9
$ATTDIA
 70
     0
  9
$ATTREQ
 70
     1
  9
$HANDLING
 70
     1
  9
$HANDSEED
  5
A646
  9
$SURFTAB1
 70
     6
  9
$SURFTAB2
 70
     6
  9
$SURFTYPE
 70
     6
  9
$SURFU
 70
     6
  9
$SURFV
 70
     6
  9
$UCSNAME
  2

  9
$UCSORG
 10
0.0
 20
0.0
 30
0.0
  9
$UCSXDIR
 10
1.0
 20
0.0
 30
0.0
  9
$UCSYDIR
 10
0.0
 20
1.0
 30
0.0
  9
$PUCSNAME
  2

  9
$PUCSORG
 10
0.0
 20
0.0
 30
0.0
  9
$PUCSXDIR
 10
1.0
 20
0.0
 30
0.0
  9
$PUCSYDIR
 10
0.0
 20
1.0
 30
0.0
  9
$USERI1
 70
     3
  9
$USERI2
 70
     1
  9
$USERI3
 70
     0
  9
$USERI4
 70
     0
  9
$USERI5
 70
     0
  9
$USERR1
 40
1.0
  9
$USERR2
 40
3.0
  9
$USERR3
 40
3.0
  9
$USERR4
 40
3.0
  9
$USERR5
 40
10.0
  9
$WORLDVIEW
 70
     1
  9
$SHADEDGE
 70
     3
  9
$SHADEDIF
 70
    70
  9
$TILEMODE
 70
     1
  9
$MAXACTVP
 70
    16
  9
$PLIMCHECK
 70
     0
  9
$PEXTMIN
 10
1.0000000000000000E+020
 20
1.0000000000000000E+020
 30
1.0000000000000000E+020
  9
$PEXTMAX
 10
-1.0000000000000000E+020
 20
-1.0000000000000000E+020
 30
-1.0000000000000000E+020
  9
$PLIMMIN
 10
0.0
 20
0.0
  9
$PLIMMAX
 10
12.0
 20
9.0
  9
$UNITMODE
 70
     0
  9
$VISRETAIN
 70
     0
  9
$PLINEGEN
 70
     0
  9
$PSLTSCALE
 70
     0
  0
ENDSEC
  0
SECTION
  2
TABLES
  0
TABLE
  2
VPORT
 70
     1
  0
VPORT
  2
*ACTIVE
 70
     0
 10
0.0
 20
0.0
 11
1.0
 21
1.0
 12
715.99738058189268
 22
308.94141534208671
 13
0.0
 23
0.0
 14
5.0
 24
5.0
 15
10.0
 25
10.0
 16
0.0
 26
0.0
 36
1.0
 17
0.0
 27
0.0
 37
0.0
 40
629.32359221801153
 41
2.6019575856443709
 42
50.0
 43
0.0
 44
0.0
 50
0.0
 51
0.0
 71
     0
 72
  1000
 73
     1
 74
     0
 75
     0
 76
     0
 77
     0
 78
     0
  0
ENDTAB
  0
TABLE
  2
LTYPE
 70
     4
  0
LTYPE
  2
CONTINUOUS
 70
     0
  3
Solid Line
 72
    65
 73
     0
 40
0.0
  0
LTYPE
  2
CENTER
 70
     0
  3
____ _ ____ _ ____ _ ____ _ ____ _ ____ _ ____
 72
    65
 73
     4
 40
2.0
 49
1.25
 49
-0.25
 49
0.25
 49
-0.25
  0
LTYPE
  2
PHANTOM
 70
     0
  3
Phantom ______  __  __  ______  __  __  ______
 72
    65
 73
     6
 40
2.5
 49
1.25
 49
-0.25
 49
0.25
 49
-0.25
 49
0.25
 49
-0.25
  0
LTYPE
  2
PHANTOM2
 70
     0
  3
___ _ _ ___ _ _ ___ _ _ ___ _ _
 72
    65
 73
     6
 40
1.25
 49
0.625
 49
-0.125
 49
0.125
 49
-0.125
 49
0.125
 49
-0.125
  0
ENDTAB
  0
TABLE
  2
LAYER
 70
     5
  0
LAYER
  2
0
 70
     0
 62
     7
  6
CONTINUOUS
  0
LAYER
  2
1
 70
     0
 62
     1
  6
CENTER
  0
LAYER
  2
5
 70
     0
 62
     3
  6
PHANTOM
  0
LAYER
  2
3
 70
     0
 62
     3
  6
CONTINUOUS
  0
LAYER
  2
DEFPOINTS
 70
     0
 62
     7
  6
CONTINUOUS
  0
ENDTAB
  0
TABLE
  2
STYLE
 70
     2
  0
STYLE
  2
STANDARD
 70
     0
 40
0.0
 41
1.0
 50
0.0
 71
     0
 42
0.2
  3
simplex
  4
bigfont
  0
STYLE
  2
STANDARD1
 70
     0
 40
0.0
 41
1.0
 50
0.0
 71
     0
 42
3.0
  3
txt
  4

  0
ENDTAB
  0
TABLE
  2
VIEW
 70
     0
  0
ENDTAB
  0
TABLE
  2
UCS
 70
     0
  0
ENDTAB
  0
TABLE
  2
APPID
 70
     6
  0
APPID
  2
ACAD
 70
     0
  0
APPID
  2
ACAD_MLEADERVER
 70
     0
  0
APPID
  2
ACAD_NAV_VCDISPLAY
 70
     0
  0
APPID
  2
ACAD_EXEMPT_FROM_CAD_STANDARDS
 70
     0
  0
APPID
  2
ACAD_DSTYLE_DIMJAG
 70
     0
  0
APPID
  2
ACAD_DSTYLE_DIMTALN
 70
     0
  0
ENDTAB
  0
TABLE
  2
DIMSTYLE
 70
     1
  0
DIMSTYLE
  2
STANDARD
 70
     0
  3

  4

  5

  6

  7

 40
1.0
 41
0.18
 42
0.0625
 43
0.38
 44
0.18
 45
0.0
 46
0.0
 47
0.0
 48
0.0
140
0.18
141
0.09
142
0.0
143
25.399999999999999
144
1.0
145
0.0
146
1.0
147
0.09
 71
     0
 72
     0
 73
     1
 74
     1
 75
     0
 76
     0
 77
     0
 78
     0
170
     0
171
     2
172
     0
173
     0
174
     0
175
     0
176
     0
177
     0
178
     0
  0
ENDTAB
  0
ENDSEC
  0
SECTION
  2
BLOCKS
  0
BLOCK
  8
0
  2
$MODEL_SPACE
 70
     0
 10
0.0
 20
0.0
 30
0.0
  3
$MODEL_SPACE
  1

  0
ENDBLK
  5
82A
  8
0
  0
BLOCK
 67
     1
  8
0
  2
$PAPER_SPACE
 70
     0
 10
0.0
 20
0.0
 30
0.0
  3
$PAPER_SPACE
  1

  0
ENDBLK
  5
828
 67
     1
  8
0
  0
ENDSEC
  0
SECTION
  2
ENTITIES
  0
TEXT
  5
925
  8
0
 62
     3
 10
0.0
 20
0.0
 30
0.0
 40
10.0
  1
QLSC-12L
  7
STANDARD1
  0
LINE
  5
9289
  8
0
 10
353.99999994780001
 20
110.0000012592
 30
0.0
 11
355.99999981000002
 21
108.0
 31
0.0
  0
LINE
  5
928A
  8
0
 10
364.00000018999998
 20
108.0
 30
0.0
 11
366.00000005209989
 21
110.0000012592
 31
0.0
  0
LINE
  5
928B
  8
0
 10
353.99999994780001
 20
125.0000009239
 30
0.0
 11
353.99999994780001
 21
110.0000012592
 31
0.0
  0
LINE
  5
928C
  8
0
 10
366.00000005209989
 20
110.0000012592
 30
0.0
 11
366.00000005209989
 21
125.0000009239
 31
0.0
  0
LINE
  5
9295
  8
0
 10
345.99999956779999
 20
153.00000178810001
 30
0.0
 11
346.20000015940002
 21
152.8000002652
 31
0.0
  0
LINE
  5
9296
  8
0
 10
373.79999984050011
 20
152.8000002652
 30
0.0
 11
374.00000043210002
 21
153.00000178810001
 31
0.0
  0
LINE
  5
9297
  8
0
 10
374.00000043210002
 20
154.80000059310001
 30
0.0
 11
373.79999984050011
 21
155.00000025329999
 31
0.0
  0
LINE
  5
9298
  8
0
 10
346.20000015940002
 20
155.00000025329999
 30
0.0
 11
345.99999956779999
 21
154.80000059310001
 31
0.0
  0
LINE
  5
9299
  8
0
 10
374.00000043210002
 20
153.00000178810001
 30
0.0
 11
374.00000043210002
 21
154.80000059310001
 31
0.0
  0
LINE
  5
929A
  8
0
 10
345.99999956779999
 20
154.80000059310001
 30
0.0
 11
345.99999956779999
 21
153.00000178810001
 31
0.0
  0
ARC
  5
929B
  8
0
 10
347.35000000000002
 20
152.4000009239
 30
0.0
 40
0.4000000000000341
 50
14.477490143305889
 51
90.0
  0
ARC
  5
929C
  8
0
 10
372.65000000000009
 20
152.4000009239
 30
0.0
 40
0.4000000000000341
 50
90.0
 51
165.52250985669411
  0
ARC
  5
92A0
  8
0
 10
333.28995717549998
 20
128.32377669140001
 30
0.0
 40
0.2200000000000248
 50
209.99999999999829
 51
315.87272372640592
  0
LINE
  5
92A1
  8
0
 10
333.09943102300008
 20
128.2137767337
 30
0.0
 11
331.92954458290001
 21
130.24008133640001
 31
0.0
  0
LINE
  5
92A2
  8
0
 10
332.40471467370003
 20
132.75009160120001
 30
0.0
 11
333.0521384626
 21
132.75020475689999
 31
0.0
  0
ARC
  5
92A3
  8
0
 10
333.05203461529999
 20
133.35020464550001
 30
0.0
 40
0.5999999999481441
 50
270.01000000000198
 51
20.812859671098721
  0
ARC
  5
92A4
  8
0
 10
329.5
 20
132.0000009231
 30
0.0
 40
4.4000000000000679
 50
20.81285966749838
 51
64.26082952269519
  0
ARC
  5
92A5
  8
0
 10
331.23710003169998
 20
135.6031222755
 30
0.0
 40
0.4000000000000381
 50
64.26082952269519
 51
160.0000000000008
  0
LINE
  5
92A6
  8
0
 10
330.86122259500007
 20
135.73992996659999
 30
0.0
 11
330.52606008940012
 21
134.8190791831
 31
0.0
  0
LINE
  5
92A7
  8
0
 10
328.47394108769998
 20
134.8190791831
 30
0.0
 11
328.13877671950007
 21
135.73992996659999
 31
0.0
  0
ARC
  5
92A8
  8
0
 10
327.76289996830008
 20
135.6031222755
 30
0.0
 40
0.4000000000000111
 50
19.99999999999913
 51
115.7391704773048
  0
ARC
  5
92A9
  8
0
 10
329.5
 20
132.0000009231
 30
0.0
 40
4.4000000000000608
 50
115.7391704773048
 51
159.18714033189889
  0
ARC
  5
92AA
  8
0
 10
325.94796538470013
 20
133.35020464550001
 30
0.0
 40
0.5999999999999918
 50
159.18714033189889
 51
269.98999999640239
  0
LINE
  5
92AB
  8
0
 10
325.94785898920009
 20
132.75020475689999
 30
0.0
 11
326.5952846408
 21
132.75009160120001
 31
0.0
  0
ARC
  5
92AC
  8
0
 10
329.5
 20
132.00000092389999
 30
0.0
 40
5.5000000000000773
 50
315.87272372640592
 51
224.12727627359399
  0
ARC
  5
92AD
  8
0
 10
325.71004282440009
 20
128.32377669140001
 30
0.0
 40
0.2200000000000353
 50
224.12727627359399
 51
330.00000000000171
  0
LINE
  5
92AE
  8
0
 10
327.0704565942001
 20
130.24008133640001
 30
0.0
 11
325.90057015420012
 21
128.2137767337
 31
0.0
  0
LINE
  5
92AF
  8
0
 10
364.00000018999998
 20
108.0
 30
0.0
 11
355.99999981000002
 21
108.0
 31
0.0
  0
LINE
  5
92B0
  8
0
 10
353.99999994780001
 20
110.0000012592
 30
0.0
 11
366.00000005209989
 21
110.0000012592
 31
0.0
  0
CIRCLE
  5
92B2
  8
0
 10
329.5
 20
132.00000092389999
 30
0.0
 40
2.5
  0
CIRCLE
  5
92B3
  8
0
 10
329.5
 20
132.00000092389999
 30
0.0
 40
3.0
  0
ARC
  5
92B8
  8
0
 10
328.93495840040009
 20
153.00000092389999
 30
0.0
 40
2.0000000000000271
 50
58.447820778398857
 51
90.0
  0
ARC
  5
92B9
  8
0
 10
336.22997775630012
 20
145.00000308680001
 30
0.0
 40
5.0000218671612364
 50
340.48232576000112
 51
14.477424534200249
  0
ARC
  5
92BA
  8
0
 10
336.23000000000002
 20
145.00000092389999
 30
0.0
 40
5.0000000000000471
 50
14.477512185900681
 51
58.447820778398857
  0
LINE
  5
92BB
  8
0
 10
329.9815083295
 20
154.7043295503
 30
0.0
 11
338.84637489910011
 21
149.2608198822
 31
0.0
  0
POLYLINE
  5
92BC
  8
0
 66
     1
 10
0.0
 20
0.0
 30
0.0
 70
   128
  0
VERTEX
  5
A427
  8
0
 10
320.49999818200013
 20
144.25000081959999
 30
0.0
  0
VERTEX
  5
A428
  8
0
 10
320.54541319610013
 20
144.2954158336
 30
0.0
  0
VERTEX
  5
A429
  8
0
 10
320.67959442730012
 20
144.42959520220001
 30
0.0
  0
VERTEX
  5
A42A
  8
0
 10
320.89644730089998
 20
144.64644807580001
 30
0.0
  0
SEQEND
  5
A42B
  8
0
  0
ARC
  5
92BD
  8
0
 10
320.54288326060009
 20
145.00000140820001
 30
0.0
 40
0.5000074893619244
 50
315.0008676306029
 51
44.99913236939701
  0
POLYLINE
  5
92BE
  8
0
 66
     1
 10
0.0
 20
0.0
 30
0.0
 70
   128
  0
VERTEX
  5
A42C
  8
0
 10
320.89644730089998
 20
145.3535547406
 30
0.0
  0
VERTEX
  5
A42D
  8
0
 10
320.67959442730012
 20
145.5704057515
 30
0.0
  0
VERTEX
  5
A42E
  8
0
 10
320.54541319610013
 20
145.70458698269999
 30
0.0
  0
VERTEX
  5
A42F
  8
0
 10
320.49999818200013
 20
145.75000013409999
 30
0.0
  0
SEQEND
  5
A430
  8
0
  0
LINE
  5
92BF
  8
0
 10
320.49999818200013
 20
145.75000013409999
 30
0.0
 11
320.49999818200013
 21
146.25000114740001
 31
0.0
  0
POLYLINE
  5
92C0
  8
0
 66
     1
 10
0.0
 20
0.0
 30
0.0
 70
   128
  0
VERTEX
  5
A431
  8
0
 10
320.49999818200013
 20
146.25000114740001
 30
0.0
  0
VERTEX
  5
A432
  8
0
 10
320.54541319610013
 20
146.29541429880001
 30
0.0
  0
VERTEX
  5
A433
  8
0
 10
320.67959442730012
 20
146.42959553
 30
0.0
  0
VERTEX
  5
A434
  8
0
 10
320.89644730089998
 20
146.6464484036
 30
0.0
  0
SEQEND
  5
A435
  8
0
  0
ARC
  5
92C1
  8
0
 10
320.5428827874
 20
147.000001736
 30
0.0
 40
0.5000078239597849
 50
315.00090597090713
 51
44.999094029092802
  0
POLYLINE
  5
92C2
  8
0
 66
     1
 10
0.0
 20
0.0
 30
0.0
 70
   128
  0
VERTEX
  5
A436
  8
0
 10
320.89644730089998
 20
147.3535550684
 30
0.0
  0
VERTEX
  5
A437
  8
0
 10
320.67959442730012
 20
147.5704060793
 30
0.0
  0
VERTEX
  5
A438
  8
0
 10
320.54541319610013
 20
147.7045873106
 30
0.0
  0
VERTEX
  5
A439
  8
0
 10
320.49999818200013
 20
147.75000046189999
 30
0.0
  0
SEQEND
  5
A43A
  8
0
  0
LINE
  5
92C3
  8
0
 10
320.49999818200013
 20
147.75000046189999
 30
0.0
 11
320.49999818200013
 21
148.25000147520001
 31
0.0
  0
POLYLINE
  5
92C4
  8
0
 66
     1
 10
0.0
 20
0.0
 30
0.0
 70
   128
  0
VERTEX
  5
A43B
  8
0
 10
320.49999818200013
 20
148.25000147520001
 30
0.0
  0
VERTEX
  5
A43C
  8
0
 10
320.54541319610013
 20
148.29541462660001
 30
0.0
  0
VERTEX
  5
A43D
  8
0
 10
320.67959442730012
 20
148.42959585790001
 30
0.0
  0
VERTEX
  5
A43E
  8
0
 10
320.89644730089998
 20
148.64644686880001
 30
0.0
  0
SEQEND
  5
A43F
  8
0
  0
ARC
  5
92C5
  8
0
 10
320.54288966910008
 20
149.00000020120001
 30
0.0
 40
0.5000029578589298
 50
315.00034837510168
 51
44.999651625005917
  0
POLYLINE
  5
92C6
  8
0
 66
     1
 10
0.0
 20
0.0
 30
0.0
 70
   128
  0
VERTEX
  5
A440
  8
0
 10
320.89644730089998
 20
149.35355353360001
 30
0.0
  0
VERTEX
  5
A441
  8
0
 10
320.67959442730012
 20
149.57040640709999
 30
0.0
  0
VERTEX
  5
A442
  8
0
 10
320.54541319610013
 20
149.7045876384
 30
0.0
  0
VERTEX
  5
A443
  8
0
 10
320.49999818200013
 20
149.7500007898
 30
0.0
  0
SEQEND
  5
A444
  8
0
  0
LINE
  5
92C7
  8
0
 10
320.49999818200013
 20
149.7500007898
 30
0.0
 11
320.49999818200013
 21
150.250001803
 31
0.0
  0
POLYLINE
  5
92C8
  8
0
 66
     1
 10
0.0
 20
0.0
 30
0.0
 70
   128
  0
VERTEX
  5
A445
  8
0
 10
320.49999818200013
 20
150.250001803
 30
0.0
  0
VERTEX
  5
A446
  8
0
 10
320.54541319610013
 20
150.2954149544
 30
0.0
  0
VERTEX
  5
A447
  8
0
 10
320.67959442730012
 20
150.429594323
 30
0.0
  0
VERTEX
  5
A448
  8
0
 10
320.89644730089998
 20
150.64644719660001
 30
0.0
  0
SEQEND
  5
A449
  8
0
  0
ARC
  5
92C9
  8
0
 10
320.54288966910008
 20
151.000000529
 30
0.0
 40
0.5000029578589298
 50
315.00034837510168
 51
44.999651625005917
  0
POLYLINE
  5
92CA
  8
0
 66
     1
 10
0.0
 20
0.0
 30
0.0
 70
   128
  0
VERTEX
  5
A44A
  8
0
 10
320.89644730089998
 20
151.3535538614
 30
0.0
  0
VERTEX
  5
A44B
  8
0
 10
320.67959442730012
 20
151.57040673500001
 30
0.0
  0
VERTEX
  5
A44C
  8
0
 10
320.54541319610013
 20
151.70458610360001
 30
0.0
  0
VERTEX
  5
A44D
  8
0
 10
320.49999818200013
 20
151.75000111759999
 30
0.0
  0
SEQEND
  5
A44E
  8
0
  0
LINE
  5
92CB
  8
0
 10
320.49999818200013
 20
151.75000111759999
 30
0.0
 11
320.49999818200013
 21
152.25000026820001
 31
0.0
  0
POLYLINE
  5
92CC
  8
0
 66
     1
 10
0.0
 20
0.0
 30
0.0
 70
   128
  0
VERTEX
  5
A44F
  8
0
 10
320.49999818200013
 20
152.25000026820001
 30
0.0
  0
VERTEX
  5
A450
  8
0
 10
320.54541319610013
 20
152.29541528230001
 30
0.0
  0
VERTEX
  5
A451
  8
0
 10
320.67959442730012
 20
152.42959465089999
 30
0.0
  0
VERTEX
  5
A452
  8
0
 10
320.89644730089998
 20
152.6464475244
 30
0.0
  0
SEQEND
  5
A453
  8
0
  0
ARC
  5
92CD
  8
0
 10
320.54288326060009
 20
153.0000008568
 30
0.0
 40
0.5000074893619244
 50
315.0008676306029
 51
44.99913236939701
  0
POLYLINE
  5
92CE
  8
0
 66
     1
 10
0.0
 20
0.0
 30
0.0
 70
   128
  0
VERTEX
  5
A454
  8
0
 10
320.89644730089998
 20
153.3535541892
 30
0.0
  0
VERTEX
  5
A455
  8
0
 10
320.67959442730012
 20
153.5704070628
 30
0.0
  0
VERTEX
  5
A456
  8
0
 10
320.54541319610013
 20
153.7045864314
 30
0.0
  0
VERTEX
  5
A457
  8
0
 10
320.49999818200013
 20
153.75000144539999
 30
0.0
  0
SEQEND
  5
A458
  8
0
  0
LINE
  5
92CF
  8
0
 10
320.49999818200013
 20
153.75000144539999
 30
0.0
 11
320.49999818200013
 21
154.25000059609999
 31
0.0
  0
POLYLINE
  5
92D0
  8
0
 66
     1
 10
0.0
 20
0.0
 30
0.0
 70
   128
  0
VERTEX
  5
A459
  8
0
 10
320.49999818200013
 20
154.25000059609999
 30
0.0
  0
VERTEX
  5
A45A
  8
0
 10
320.54193377489997
 20
154.29193432630001
 30
0.0
  0
VERTEX
  5
A45B
  8
0
 10
320.66597476600009
 20
154.41597345470001
 30
0.0
  0
VERTEX
  5
A45C
  8
0
 10
320.86692065000011
 20
154.6169193387
 30
0.0
  0
VERTEX
  5
A45D
  8
0
 10
321.13634482020012
 20
154.88634537159999
 30
0.0
  0
SEQEND
  5
A45E
  8
0
  0
POLYLINE
  5
92D3
  8
0
 66
     1
 10
0.0
 20
0.0
 30
0.0
 70
   128
  0
VERTEX
  5
A45F
  8
0
 10
320.81164479250009
 20
143.43835505839999
 30
0.0
  0
VERTEX
  5
A460
  8
0
 10
320.6405869126001
 20
143.60941666369999
 30
0.0
  0
VERTEX
  5
A461
  8
0
 10
320.53545922040013
 20
143.7145406306
 30
0.0
  0
VERTEX
  5
A462
  8
0
 10
320.49999818200013
 20
143.75000166890001
 30
0.0
  0
SEQEND
  5
A463
  8
0
  0
LINE
  5
92D4
  8
0
 10
320.49999818200013
 20
143.75000166890001
 30
0.0
 11
320.49999818200013
 21
144.25000081959999
 31
0.0
  0
POLYLINE
  5
92D5
  8
0
 66
     1
 10
0.0
 20
0.0
 30
0.0
 70
   128
  0
VERTEX
  5
A464
  8
0
 10
321.13634482020012
 20
154.88634537159999
 30
0.0
  0
VERTEX
  5
A465
  8
0
 10
321.19894087310013
 20
154.94894142449999
 30
0.0
  0
VERTEX
  5
A466
  8
0
 10
321.23715117570009
 20
154.9871535897
 30
0.0
  0
VERTEX
  5
A467
  8
0
 10
321.24999970200008
 20
155.00000025329999
 30
0.0
  0
SEQEND
  5
A468
  8
0
  0
LINE
  5
92D6
  8
0
 10
321.24999970200008
 20
155.00000025329999
 30
0.0
 11
328.93495880070009
 21
155.00000025329999
 31
0.0
  0
LINE
  5
92D8
  8
0
 10
322.16530352491679
 20
143.00000014899999
 30
0.0
 11
321.24999970200008
 21
143.00000014899999
 31
0.0
  0
POLYLINE
  5
92D9
  8
0
 66
     1
 10
0.0
 20
0.0
 30
0.0
 70
   128
  0
VERTEX
  5
A469
  8
0
 10
321.24999970200008
 20
143.00000014899999
 30
0.0
  0
VERTEX
  5
A46A
  8
0
 10
321.11119911070011
 20
143.1388026029
 30
0.0
  0
VERTEX
  5
A46B
  8
0
 10
320.96495166419999
 20
143.2850481868
 30
0.0
  0
VERTEX
  5
A46C
  8
0
 10
320.81164479250009
 20
143.43835505839999
 30
0.0
  0
SEQEND
  5
A46D
  8
0
  0
POLYLINE
  5
92DA
  8
0
 66
     1
 10
0.0
 20
0.0
 30
0.0
 70
   128
  0
VERTEX
  5
A46E
  8
0
 10
340.94269074500011
 20
143.32950766389999
 30
0.0
  0
VERTEX
  5
A46F
  8
0
 10
340.86875118310007
 20
143.1209137589
 30
0.0
  0
VERTEX
  5
A470
  8
0
 10
340.8078017086001
 20
142.94896739719999
 30
0.0
  0
VERTEX
  5
A471
  8
0
 10
340.76072148980012
 20
142.81614962219999
 30
0.0
  0
SEQEND
  5
A472
  8
0
  0
ARC
  5
92DE
  8
0
 10
322.0
 20
142.50000092389999
 30
0.0
 40
0.5000000000000285
 50
0.0
 51
90.0
  0
LINE
  5
92DF
  8
0
 10
340.76071302698978
 20
142.81612703496921
 30
0.0
 11
336.57025419170009
 21
130.99426170070001
 31
0.0
  0
ARC
  5
92E3
  8
0
 10
328.5
 20
132.00000092389999
 30
0.0
 40
6.000000000000056
 50
180.0
 51
270.0
  0
ARC
  5
92E4
  8
0
 10
329.50121786220012
 20
133.50000092389999
 30
0.0
 40
7.500000000000056
 50
270.0
 51
340.48226714179862
  0
LINE
  5
92E5
  8
0
 10
329.50121782720009
 20
126.0000009714
 30
0.0
 11
328.49999949329998
 21
126.0000009714
 31
0.0
  0
LINE
  5
92E6
  8
0
 10
322.49999850990002
 20
132.00000113990001
 30
0.0
 11
322.49999850990002
 21
142.5012216195193
 31
0.0
  0
LINE
  5
92E9
  8
0
 10
373.79999984050011
 20
152.8000002652
 30
0.0
 11
346.20000015940002
 21
152.8000002652
 31
0.0
  0
LINE
  5
92EA
  8
0
 10
346.20000015940002
 20
155.00000025329999
 30
0.0
 11
373.79999984050011
 21
155.00000025329999
 31
0.0
  0
LINE
  5
92F2
  8
0
 10
338.3446225601553
 20
136.00000086430001
 30
0.0
 11
383.49999919530001
 21
136.00000086430001
 31
0.0
  0
ARC
  5
92F3
  8
0
 10
383.5
 20
135.00000092389999
 30
0.0
 40
1.0
 50
0.0
 51
90.0
  0
LINE
  5
92F4
  8
0
 10
384.4999993592001
 20
135.00000070039999
 30
0.0
 11
384.4999993592001
 21
125.5000009476
 31
0.0
  0
LINE
  5
92F6
  8
0
 10
384.00000020860011
 20
125.0000009239
 30
0.0
 11
322.99999952310009
 21
125.0000009239
 31
0.0
  0
LINE
  5
92F7
  8
0
 10
384.00000020860011
 20
125.0000009239
 30
0.0
 11
384.4999993592001
 21
125.5000009476
 31
0.0
  0
LINE
  5
92F9
  8
0
 10
342.00000077480013
 20
125.0000009239
 30
0.0
 11
341.49999976160012
 21
125.5000009476
 31
0.0
  0
LINE
  5
92FD
  8
0
 10
341.49999976160012
 20
125.5000009476
 30
0.0
 11
341.49999976160012
 21
135.00000070039999
 31
0.0
  0
ARC
  5
92FF
  8
0
 10
342.5
 20
135.00000092389999
 30
0.0
 40
1.0
 50
90.0
 51
180.0
  0
LINE
  5
9304
  8
0
 10
322.99999952310009
 20
125.0000009239
 30
0.0
 11
322.49999850990002
 21
125.5000009476
 31
0.0
  0
LINE
  5
9309
  8
0
 10
322.49999850990002
 20
125.5000009476
 30
0.0
 11
322.49999850990002
 21
132.00000113990001
 31
0.0
  0
LINE
  5
9318
  8
0
 10
323.50000053640008
 20
142.2003293336
 30
0.0
 11
339.81818392870002
 21
142.2003293336
 31
0.0
  0
ARC
  5
931B
  8
0
 10
322.16387211050011
 20
142.50673113740001
 30
0.0
 40
0.4932710885021024
 50
25.199205606399559
 51
89.833733791801293
  0
ARC
  5
931C
  8
0
 10
323.48960842320002
 20
143.20720405360001
 30
0.0
 40
1.006928347940071
 50
209.1488273851997
 51
270.59133780309583
  0
ARC
  5
931D
  8
0
 10
339.8703147042001
 20
143.14974694419999
 30
0.0
 40
0.9508477360030057
 50
266.85715001840032
 51
339.46117572610228
  0
LINE
  5
9333
  8
0
 10
372.50000018619988
 20
125.0000009239
 30
0.0
 11
372.50000018619988
 21
136.00000086430001
 31
0.0
  0
LINE
  5
9337
  8
0
 10
347.49999981370001
 20
125.0000009239
 30
0.0
 11
347.49999981370001
 21
136.00000086430001
 31
0.0
  0
LINE
  5
9340
  8
1
 10
360.0
 20
163.0000002532999
 30
0.0
 11
360.0
 21
100.0
 31
0.0
  0
ARC
  5
9454
  8
0
 10
394.53403156629997
 20
338.04649176080102
 30
0.0
 40
12.5000000000004
 50
134.90000046249651
 51
75.099999537505639
  0
LINE
  5
9455
  8
0
 10
398.74007481860008
 20
350.3611736065011
 30
0.0
 11
398.90151558220009
 21
349.75866847440102
 31
0.0
  0
LINE
  5
9456
  8
0
 10
384.89559110099998
 20
346.00579232040099
 30
0.0
 11
384.73415033750013
 21
346.60829745250101
 31
0.0
  0
LINE
  5
9457
  8
0
 10
341.23000000000002
 20
445.13354856100102
 30
0.0
 11
341.23000000000002
 21
488.73578914860099
 31
0.0
  0
ARC
  5
9458
  8
0
 10
340.11609083167889
 20
488.8127635167599
 30
0.0
 40
1.116565577394947
 50
356.0469789223535
 51
90.672616873678237
  0
ARC
  5
9459
  8
0
 10
340.12828960380227
 20
445.03506597863583
 30
0.0
 40
1.106103347847357
 50
268.68903002535808
 51
5.1081286745709802
  0
LINE
  5
945A
  8
0
 10
385.58130192040022
 20
348.27631383460113
 30
0.0
 11
360.36609665693749
 21
442.38074100109941
 31
0.0
  0
LINE
  5
945B
  8
0
 10
371.78576132937837
 20
446.12641190031923
 30
0.0
 11
397.17241183589999
 21
351.3821423758011
 31
0.0
  0
LINE
  5
9462
  8
0
 10
362.88675134584969
 20
471.92925215635069
 30
0.0
 11
357.11324865394971
 21
471.92925215635069
 31
0.0
  0
LINE
  5
9463
  8
0
 10
357.11324865394971
 20
471.92925215635069
 30
0.0
 11
354.22649730804972
 21
466.92925215635069
 31
0.0
  0
LINE
  5
9464
  8
0
 10
354.22649730804972
 20
466.92925215635069
 30
0.0
 11
357.11324865394971
 21
461.92925215635069
 31
0.0
  0
LINE
  5
9465
  8
0
 10
357.11324865394971
 20
461.92925215635069
 30
0.0
 11
362.88675134584969
 21
461.92925215635063
 31
0.0
  0
LINE
  5
9466
  8
0
 10
362.88675134584969
 20
461.92925215635063
 30
0.0
 11
365.77350269184973
 21
466.92925215635063
 31
0.0
  0
LINE
  5
9467
  8
0
 10
365.77350269184973
 20
466.92925215635063
 30
0.0
 11
362.88675134584969
 21
471.92925215635069
 31
0.0
  0
CIRCLE
  5
9469
  8
0
 10
360.0
 20
466.92925215640099
 30
0.0
 40
8.9999999999999734
  0
ARC
  5
946C
  8
0
 10
395.42250268380008
 20
334.73067240920108
 30
0.0
 40
15.570191863589811
 50
81.409695207406173
 51
128.5903047925967
  0
POLYLINE
  5
946D
  8
0
 66
     1
 10
0.0
 20
0.0
 30
0.0
 70
   128
  0
VERTEX
  5
A473
  8
0
 10
398.74007481860008
 20
350.3611736065011
 30
0.0
  0
VERTEX
  5
A474
  8
0
 10
398.65045466430001
 20
350.57507830450101
 30
0.0
  0
VERTEX
  5
A475
  8
0
 10
398.32175862830019
 20
350.92724679280099
 30
0.0
  0
VERTEX
  5
A476
  8
0
 10
397.792991454
 20
351.20520081230097
 30
0.0
  0
VERTEX
  5
A477
  8
0
 10
397.08021946450009
 20
351.40049487080103
 30
0.0
  0
VERTEX
  5
A478
  8
0
 10
396.20509987600008
 20
351.50719505720099
 30
0.0
  0
VERTEX
  5
A479
  8
0
 10
395.19422275429997
 20
351.52205934030098
 30
0.0
  0
VERTEX
  5
A47A
  8
0
 10
394.07830308940021
 20
351.44463607630109
 30
0.0
  0
VERTEX
  5
A47B
  8
0
 10
392.8912475354
 20
351.2772777320011
 30
0.0
  0
VERTEX
  5
A47C
  8
0
 10
391.66912417480012
 20
351.02506940600108
 30
0.0
  0
VERTEX
  5
A47D
  8
0
 10
390.44906660740003
 20
350.69567432060097
 30
0.0
  0
VERTEX
  5
A47E
  8
0
 10
389.26814566510012
 20
350.29910097880111
 30
0.0
  0
VERTEX
  5
A47F
  8
0
 10
388.1622430330001
 20
349.84739906100111
 30
0.0
  0
VERTEX
  5
A480
  8
0
 10
387.1649610030999
 20
349.35429330130103
 30
0.0
  0
VERTEX
  5
A481
  8
0
 10
386.30660148520019
 20
348.83476646870099
 30
0.0
  0
VERTEX
  5
A482
  8
0
 10
385.61324529889998
 20
348.304604123101
 30
0.0
  0
VERTEX
  5
A483
  8
0
 10
385.10595972100009
 20
347.77991497920112
 30
0.0
  0
VERTEX
  5
A484
  8
0
 10
384.80015836720008
 20
347.276641451101
 30
0.0
  0
VERTEX
  5
A485
  8
0
 10
384.70513285669989
 20
346.81007525020112
 30
0.0
  0
VERTEX
  5
A486
  8
0
 10
384.73415033750013
 20
346.60829745250101
 30
0.0
  0
SEQEND
  5
A487
  8
0
  0
LINE
  5
946E
  8
0
 10
321.25
 20
460.67925215640099
 30
0.0
 11
321.25
 21
444.92925215640099
 31
0.0
  0
LINE
  5
946F
  8
0
 10
320.5
 20
459.92925215640099
 30
0.0
 11
322.5
 21
461.92925215640099
 31
0.0
  0
LINE
  5
9470
  8
0
 10
322.5
 20
461.92925215640099
 30
0.0
 11
322.5
 21
471.92925215640099
 31
0.0
  0
LINE
  5
9471
  8
0
 10
322.5
 20
471.92925215640099
 30
0.0
 11
320.5
 21
473.92925215640099
 31
0.0
  0
LINE
  5
9472
  8
0
 10
321.25
 20
488.92925215640099
 30
0.0
 11
321.25
 21
473.17925215640099
 31
0.0
  0
ARC
  5
9474
  8
0
 10
320.25
 20
488.92925215640099
 30
0.0
 40
1.0
 50
0.0
 51
27.582530015403218
  0
ARC
  5
9475
  8
0
 10
322.5
 20
487.92925215650098
 30
0.0
 40
1.9999999999392899
 50
89.999999999296506
 51
132.98662371479361
  0
ARC
  5
9476
  8
0
 10
322.5
 20
487.92925215640099
 30
0.0
 40
2.0000000000000271
 50
132.98662371420269
 51
180.0
  0
LINE
  5
9478
  8
0
 10
320.5
 20
487.92925215640099
 30
0.0
 11
320.5
 21
473.92925215640099
 31
0.0
  0
ARC
  5
947A
  8
0
 10
320.25
 20
444.92925215640099
 30
0.0
 40
1.0000000000000571
 50
332.41746998459678
 51
0.0
  0
ARC
  5
947B
  8
0
 10
322.5
 20
445.92925215640099
 30
0.0
 40
2.000000000000056
 50
180.0
 51
227.01337628579731
  0
LINE
  5
947C
  8
0
 10
320.5
 20
459.92925215640099
 30
0.0
 11
320.5
 21
445.92925215640099
 31
0.0
  0
ARC
  5
947F
  8
0
 10
322.5
 20
445.92925215640099
 30
0.0
 40
1.9999999999260749
 50
227.0133762849953
 51
270.00000000079473
  0
POLYLINE
  5
9487
  8
0
 66
     1
 10
0.0
 20
0.0
 30
0.0
 70
   128
  0
VERTEX
  5
A488
  8
0
 10
337.40878498880011
 20
476.42925215640099
 30
0.0
  0
VERTEX
  5
A489
  8
0
 10
337.30280073009999
 20
477.37394167110102
 30
0.0
  0
VERTEX
  5
A48A
  8
0
 10
336.99207060610001
 20
478.25425215640098
 30
0.0
  0
VERTEX
  5
A48B
  8
0
 10
336.49777036120008
 20
479.01019190780102
 30
0.0
  0
VERTEX
  5
A48C
  8
0
 10
335.8535857403001
 20
479.59024488030099
 30
0.0
  0
VERTEX
  5
A48D
  8
0
 10
335.10341686060008
 20
479.954881422401
 30
0.0
  0
VERTEX
  5
A48E
  8
0
 10
334.2983864917
 20
480.07925215640103
 30
0.0
  0
VERTEX
  5
A48F
  8
0
 10
333.49335612279998
 20
479.954881422401
 30
0.0
  0
VERTEX
  5
A490
  8
0
 10
332.74318724320011
 20
479.59024488030099
 30
0.0
  0
VERTEX
  5
A491
  8
0
 10
332.09900262219998
 20
479.01019190780102
 30
0.0
  0
VERTEX
  5
A492
  8
0
 10
331.6047023773001
 20
478.25425215640098
 30
0.0
  0
VERTEX
  5
A493
  8
0
 10
331.29397225330013
 20
477.37394167110102
 30
0.0
  0
VERTEX
  5
A494
  8
0
 10
331.18798799460001
 20
476.42925215640099
 30
0.0
  0
SEQEND
  5
A495
  8
0
  0
LINE
  5
9488
  8
0
 10
331.18798799460001
 20
476.42925215640099
 30
0.0
 11
331.18798799460001
 21
457.42925215640099
 31
0.0
  0
POLYLINE
  5
9489
  8
0
 66
     1
 10
0.0
 20
0.0
 30
0.0
 70
   128
  0
VERTEX
  5
A496
  8
0
 10
331.18798799460001
 20
457.42925215640099
 30
0.0
  0
VERTEX
  5
A497
  8
0
 10
331.29397225330013
 20
456.48456264180101
 30
0.0
  0
VERTEX
  5
A498
  8
0
 10
331.6047023773001
 20
455.604252156401
 30
0.0
  0
VERTEX
  5
A499
  8
0
 10
332.09900262219998
 20
454.84831240510101
 30
0.0
  0
VERTEX
  5
A49A
  8
0
 10
332.74318724320011
 20
454.26825943260098
 30
0.0
  0
VERTEX
  5
A49B
  8
0
 10
333.49335612279998
 20
453.90362289050103
 30
0.0
  0
VERTEX
  5
A49C
  8
0
 10
334.2983864917
 20
453.77925215640113
 30
0.0
  0
VERTEX
  5
A49D
  8
0
 10
335.10341686060008
 20
453.90362289050103
 30
0.0
  0
VERTEX
  5
A49E
  8
0
 10
335.8535857403001
 20
454.26825943260098
 30
0.0
  0
VERTEX
  5
A49F
  8
0
 10
336.49777036120008
 20
454.84831240510101
 30
0.0
  0
VERTEX
  5
A4A0
  8
0
 10
336.99207060610001
 20
455.604252156401
 30
0.0
  0
VERTEX
  5
A4A1
  8
0
 10
337.30280073009999
 20
456.48456264180101
 30
0.0
  0
VERTEX
  5
A4A2
  8
0
 10
337.40878498880011
 20
457.42925215640099
 30
0.0
  0
SEQEND
  5
A4A3
  8
0
  0
LINE
  5
948A
  8
0
 10
337.40878498880011
 20
457.42925215640099
 30
0.0
 11
337.40878498880011
 21
476.42925215640099
 31
0.0
  0
LINE
  5
948B
  8
0
 10
322.5
 20
489.92925215640111
 30
0.0
 11
340.10298334620012
 21
489.92925215640099
 31
0.0
  0
LINE
  5
948C
  8
0
 10
340.10298334620012
 20
443.92925215640099
 30
0.0
 11
322.5
 21
443.92925215640099
 31
0.0
  0
CIRCLE
  5
948E
  8
0
 10
360.0
 20
466.92925215640099
 30
0.0
 40
13.80000000000001
  0
CIRCLE
  5
9491
  8
0
 10
360.0
 20
466.92925215640099
 30
0.0
 40
9.25
  0
POLYLINE
  5
9494
  8
0
 66
     1
 10
0.0
 20
0.0
 30
0.0
 70
   128
  0
VERTEX
  5
A4A4
  8
0
 10
348.39389548679998
 20
444.560867689801
 30
0.0
  0
VERTEX
  5
A4A5
  8
0
 10
352.06313114850008
 20
443.21321558020111
 30
0.0
  0
VERTEX
  5
A4A6
  8
0
 10
355.86809079590012
 20
442.45807176950098
 30
0.0
  0
VERTEX
  5
A4A7
  8
0
 10
359.7144794457999
 20
442.30468595790097
 30
0.0
  0
VERTEX
  5
A4A8
  8
0
 10
363.50845884059999
 20
442.74750923180102
 30
0.0
  0
VERTEX
  5
A4A9
  8
0
 10
367.15890622100011
 20
443.76663429550098
 30
0.0
  0
VERTEX
  5
A4AA
  8
0
 10
370.57954115389998
 20
445.32847993250101
 30
0.0
  0
VERTEX
  5
A4AB
  8
0
 10
373.69097547790011
 20
447.38673841910099
 30
0.0
  0
VERTEX
  5
A4AC
  8
0
 10
376.42268315349997
 20
449.88360898110102
 30
0.0
  0
VERTEX
  5
A4AD
  8
0
 10
378.71451265820002
 20
452.7515556558011
 30
0.0
  0
VERTEX
  5
A4AE
  8
0
 10
380.5179346037001
 20
455.91511835100101
 30
0.0
  0
VERTEX
  5
A4AF
  8
0
 10
381.7970242308001
 20
459.29282886310102
 30
0.0
  0
VERTEX
  5
A4B0
  8
0
 10
382.5292421744
 20
462.79925893050103
 30
0.0
  0
VERTEX
  5
A4B1
  8
0
 10
382.70588146509999
 20
466.34721597710109
 30
0.0
  0
VERTEX
  5
A4B2
  8
0
 10
382.33188714829998
 20
469.84995895450112
 30
0.0
  0
VERTEX
  5
A4B3
  8
0
 10
381.42548847350008
 20
473.22326944520103
 30
0.0
  0
VERTEX
  5
A4B4
  8
0
 10
380.01756279590018
 20
476.38742568130101
 30
0.0
  0
VERTEX
  5
A4B5
  8
0
 10
378.15078744480002
 20
479.26915095490102
 30
0.0
  0
VERTEX
  5
A4B6
  8
0
 10
375.87839163060011
 20
481.80337336540111
 30
0.0
  0
VERTEX
  5
A4B7
  8
0
 10
373.26254082620022
 20
483.93460165810109
 30
0.0
  0
VERTEX
  5
A4B8
  8
0
 10
370.37268950340012
 20
485.618082677301
 30
0.0
  0
VERTEX
  5
A4B9
  8
0
 10
367.28380467239998
 20
486.82071307320098
 30
0.0
  0
VERTEX
  5
A4BA
  8
0
 10
364.07445733820009
 20
487.52180478930097
 30
0.0
  0
VERTEX
  5
A4BB
  8
0
 10
360.82476642630007
 20
487.71336060170103
 30
0.0
  0
VERTEX
  5
A4BC
  8
0
 10
357.61438548280012
 20
487.39992514830089
 30
0.0
  0
VERTEX
  5
A4BD
  8
0
 10
354.52060440740001
 20
486.59825303430102
 30
0.0
  0
VERTEX
  5
A4BE
  8
0
 10
351.6165188545001
 20
485.33672329270109
 30
0.0
  0
VERTEX
  5
A4BF
  8
0
 10
348.96920581870017
 20
483.65455907370102
 30
0.0
  0
VERTEX
  5
A4C0
  8
0
 10
346.6381829111001
 20
481.60056587430103
 30
0.0
  0
VERTEX
  5
A4C1
  8
0
 10
344.67414519430008
 20
479.231690750501
 30
0.0
  0
VERTEX
  5
A4C2
  8
0
 10
343.1179095751001
 20
476.61151055860103
 30
0.0
  0
VERTEX
  5
A4C3
  8
0
 10
341.99956201859999
 20
473.80859026550098
 30
0.0
  0
VERTEX
  5
A4C4
  8
0
 10
341.33776502710009
 20
470.894705549901
 30
0.0
  0
SEQEND
  5
A4C5
  8
0
  0
LINE
  5
9497
  8
0
 10
341.3377649817001
 20
470.89470523960108
 30
0.0
 11
348.39389548679998
 21
444.560867689801
 31
0.0
  0
ARC
  5
9498
  8
0
 10
372.5
 20
477.92925215640099
 30
0.0
 40
12.0
 50
0.0
 51
90.0
  0
LINE
  5
9499
  8
0
 10
347.5
 20
443.92925215640099
 30
0.0
 11
350.11358725529999
 21
443.92925215640099
 31
0.0
  0
LINE
  5
949A
  8
0
 10
372.37448850840218
 20
489.92925215640099
 30
0.0
 11
372.5
 21
489.92925215640099
 31
0.0
  0
ARC
  5
949B
  8
0
 10
347.5
 20
483.92925215640111
 30
0.0
 40
6.0000000000000266
 50
90.0
 51
180.0
  0
LINE
  5
949C
  8
0
 10
384.5
 20
477.92925215640099
 30
0.0
 11
384.5
 21
455.92925215640099
 31
0.0
  0
LINE
  5
949D
  8
0
 10
341.5
 20
478.42925215640099
 30
0.0
 11
341.5
 21
483.92925215640111
 31
0.0
  0
ARC
  5
949E
  8
0
 10
340.5
 20
478.42925215640099
 30
0.0
 40
1.0000000000000271
 50
316.88639405410208
 51
0.0
  0
ARC
  5
949F
  8
0
 10
372.5
 20
455.92925215640099
 30
0.0
 40
12.0
 50
270.0
 51
0.0
  0
ARC
  5
94A0
  8
0
 10
340.5
 20
455.42925215640099
 30
0.0
 40
1.0000000000000271
 50
0.0
 51
43.113605945897909
  0
LINE
  5
94A1
  8
0
 10
341.5
 20
449.92925215640099
 30
0.0
 11
341.5
 21
455.42925215640099
 31
0.0
  0
ARC
  5
94A2
  8
0
 10
347.5
 20
449.92925215640099
 30
0.0
 40
6.0000000000000266
 50
180.0
 51
270.0
  0
LINE
  5
94A3
  8
0
 10
372.5
 20
489.92925215640099
 30
0.0
 11
347.5
 21
489.92925215640099
 31
0.0
  0
LINE
  5
94A5
  8
0
 10
328.93495840040009
 20
443.92925215640099
 30
0.0
 11
328.93495840040009
 21
489.92925215640111
 31
0.0
  0
LINE
  5
94A9
  8
0
 10
329.98150809370009
 20
488.92925215640099
 30
0.0
 11
329.98150809370009
 21
444.92925215640099
 31
0.0
  0
POLYLINE
  5
94AB
  8
0
 66
     1
 10
0.0
 20
0.0
 30
0.0
 70
   128
  0
VERTEX
  5
A4C6
  8
0
 10
329.4582332471
 20
489.92925215640099
 30
0.0
  0
VERTEX
  5
A4C7
  8
0
 10
329.56031910540003
 20
489.91003743680108
 30
0.0
  0
VERTEX
  5
A4C8
  8
0
 10
329.65848186140011
 20
489.85313168890099
 30
0.0
  0
VERTEX
  5
A4C9
  8
0
 10
329.74894917559999
 20
489.76072176870099
 30
0.0
  0
VERTEX
  5
A4CA
  8
0
 10
329.8282444396001
 20
489.63635893760102
 30
0.0
  0
VERTEX
  5
A4CB
  8
0
 10
329.89332038089998
 20
489.48482238950089
 30
0.0
  0
VERTEX
  5
A4CC
  8
0
 10
329.9416761678001
 20
489.31193558880102
 30
0.0
  0
VERTEX
  5
A4CD
  8
0
 10
329.97145351429998
 20
489.12434247850098
 30
0.0
  0
VERTEX
  5
A4CE
  8
0
 10
329.98150809370009
 20
488.92925215640099
 30
0.0
  0
SEQEND
  5
A4CF
  8
0
  0
POLYLINE
  5
94AD
  8
0
 66
     1
 10
0.0
 20
0.0
 30
0.0
 70
   128
  0
VERTEX
  5
A4D0
  8
0
 10
329.98150809370009
 20
444.92925215640099
 30
0.0
  0
VERTEX
  5
A4D1
  8
0
 10
329.97145351429998
 20
444.73416183440099
 30
0.0
  0
VERTEX
  5
A4D2
  8
0
 10
329.9416761678001
 20
444.54656872410101
 30
0.0
  0
VERTEX
  5
A4D3
  8
0
 10
329.89332038089998
 20
444.37368192340102
 30
0.0
  0
VERTEX
  5
A4D4
  8
0
 10
329.8282444396001
 20
444.22214537530101
 30
0.0
  0
VERTEX
  5
A4D5
  8
0
 10
329.74894917559999
 20
444.09778254410099
 30
0.0
  0
VERTEX
  5
A4D6
  8
0
 10
329.65848186140011
 20
444.005372623901
 30
0.0
  0
VERTEX
  5
A4D7
  8
0
 10
329.56031910540003
 20
443.94846687600102
 30
0.0
  0
VERTEX
  5
A4D8
  8
0
 10
329.4582332471
 20
443.92925215640099
 30
0.0
  0
SEQEND
  5
A4D9
  8
0
  0
POLYLINE
  5
94AE
  8
0
 66
     1
 10
0.0
 20
0.0
 30
0.0
 70
   128
  0
VERTEX
  5
A4DA
  8
0
 10
338.84637423330003
 20
488.92925215640099
 30
0.0
  0
VERTEX
  5
A4DB
  8
0
 10
338.83631965390009
 20
489.12434247850098
 30
0.0
  0
VERTEX
  5
A4DC
  8
0
 10
338.80654230739998
 20
489.31193558880102
 30
0.0
  0
VERTEX
  5
A4DD
  8
0
 10
338.75818652050009
 20
489.48482238950089
 30
0.0
  0
VERTEX
  5
A4DE
  8
0
 10
338.69311057920009
 20
489.63635893760102
 30
0.0
  0
VERTEX
  5
A4DF
  8
0
 10
338.61381531510011
 20
489.76072176870099
 30
0.0
  0
VERTEX
  5
A4E0
  8
0
 10
338.5233480010001
 20
489.85313168890099
 30
0.0
  0
VERTEX
  5
A4E1
  8
0
 10
338.42518524500008
 20
489.91003743680108
 30
0.0
  0
VERTEX
  5
A4E2
  8
0
 10
338.32309938660001
 20
489.92925215640099
 30
0.0
  0
SEQEND
  5
A4E3
  8
0
  0
LINE
  5
94B0
  8
0
 10
338.84637423330003
 20
444.92925215640099
 30
0.0
 11
338.84637423330003
 21
488.92925215640099
 31
0.0
  0
POLYLINE
  5
94B2
  8
0
 66
     1
 10
0.0
 20
0.0
 30
0.0
 70
   128
  0
VERTEX
  5
A4E4
  8
0
 10
338.32309938660001
 20
443.92925215640099
 30
0.0
  0
VERTEX
  5
A4E5
  8
0
 10
338.42518524500008
 20
443.94846687600102
 30
0.0
  0
VERTEX
  5
A4E6
  8
0
 10
338.5233480010001
 20
444.005372623901
 30
0.0
  0
VERTEX
  5
A4E7
  8
0
 10
338.61381531510011
 20
444.09778254410099
 30
0.0
  0
VERTEX
  5
A4E8
  8
0
 10
338.69311057920009
 20
444.22214537530101
 30
0.0
  0
VERTEX
  5
A4E9
  8
0
 10
338.75818652050009
 20
444.37368192340102
 30
0.0
  0
VERTEX
  5
A4EA
  8
0
 10
338.80654230739998
 20
444.54656872410101
 30
0.0
  0
VERTEX
  5
A4EB
  8
0
 10
338.83631965390009
 20
444.73416183440099
 30
0.0
  0
VERTEX
  5
A4EC
  8
0
 10
338.84637423330003
 20
444.92925215640099
 30
0.0
  0
SEQEND
  5
A4ED
  8
0
  0
LINE
  5
9559
  8
0
 10
92.5
 20
137.5
 30
0.0
 11
91.899999999999963
 21
137.5
 31
0.0
  0
LINE
  5
955A
  8
0
 10
91.899999999999963
 20
128.1037757675
 30
0.0
 11
92.5
 21
128.1037757675
 31
0.0
  0
LINE
  5
955B
  8
0
 10
128.09999999999999
 20
137.5
 30
0.0
 11
127.5
 21
137.5
 31
0.0
  0
LINE
  5
955C
  8
0
 10
127.5
 20
128.1037757675
 30
0.0
 11
128.09999999999999
 21
128.1037757675
 31
0.0
  0
LINE
  5
955D
  8
0
 10
104.0
 20
125.0
 30
0.0
 11
104.0
 21
110.0
 31
0.0
  0
LINE
  5
955E
  8
0
 10
116.0
 20
110.0
 30
0.0
 11
116.0
 21
125.0
 31
0.0
  0
LINE
  5
955F
  8
0
 10
104.0
 20
110.0
 30
0.0
 11
106.0
 21
108.0
 31
0.0
  0
LINE
  5
9560
  8
0
 10
114.0
 20
108.0
 30
0.0
 11
116.0
 21
110.0
 31
0.0
  0
LINE
  5
956C
  8
0
 10
91.0
 20
129.0
 30
0.0
 11
91.800000000000054
 21
129.0
 31
0.0
  0
LINE
  5
956D
  8
0
 10
91.800000000000054
 20
135.0
 30
0.0
 11
91.0
 21
135.0
 31
0.0
  0
LINE
  5
956E
  8
0
 10
91.0
 20
135.0
 30
0.0
 11
90.5
 21
134.5
 31
0.0
  0
LINE
  5
956F
  8
0
 10
90.5
 20
129.5
 30
0.0
 11
91.0
 21
129.0
 31
0.0
  0
LINE
  5
9570
  8
0
 10
108.0
 20
129.0
 30
0.0
 11
112.0
 21
129.0
 31
0.0
  0
LINE
  5
9575
  8
0
 10
112.0
 20
135.0
 30
0.0
 11
108.0
 21
135.0
 31
0.0
  0
LINE
  5
9576
  8
0
 10
128.19999999999999
 20
129.0
 30
0.0
 11
129.0
 21
129.0
 31
0.0
  0
LINE
  5
9577
  8
0
 10
129.0
 20
135.0
 30
0.0
 11
128.19999999999999
 21
135.0
 31
0.0
  0
LINE
  5
9578
  8
0
 10
129.0
 20
129.0
 30
0.0
 11
129.5
 21
129.5
 31
0.0
  0
LINE
  5
9579
  8
0
 10
129.5
 20
134.5
 30
0.0
 11
129.0
 21
135.0
 31
0.0
  0
LINE
  5
957A
  8
0
 10
91.800000000000054
 20
129.19999999999999
 30
0.0
 11
91.899999999999963
 21
129.19999999999999
 31
0.0
  0
LINE
  5
957B
  8
0
 10
91.899999999999963
 20
134.80000000000001
 30
0.0
 11
91.800000000000054
 21
134.80000000000001
 31
0.0
  0
LINE
  5
957C
  8
0
 10
128.09999999999999
 20
129.19999999999999
 30
0.0
 11
128.19999999999999
 21
129.19999999999999
 31
0.0
  0
LINE
  5
957D
  8
0
 10
128.19999999999999
 20
134.80000000000001
 30
0.0
 11
128.09999999999999
 21
134.80000000000001
 31
0.0
  0
LINE
  5
9590
  8
0
 10
113.0
 20
139.0
 30
0.0
 11
112.0
 21
139.0
 31
0.0
  0
LINE
  5
9591
  8
0
 10
91.899999999999963
 20
137.5
 30
0.0
 11
91.899999999999963
 21
128.1037757675
 31
0.0
  0
LINE
  5
9593
  8
0
 10
128.09999999999999
 20
128.1037757675
 30
0.0
 11
128.09999999999999
 21
137.5
 31
0.0
  0
LINE
  5
9595
  8
0
 10
104.0
 20
110.0
 30
0.0
 11
116.0
 21
110.0
 31
0.0
  0
LINE
  5
9596
  8
0
 10
114.0
 20
108.0
 30
0.0
 11
106.0
 21
108.0
 31
0.0
  0
LINE
  5
959D
  8
0
 10
91.800000000000054
 20
129.0
 30
0.0
 11
91.800000000000054
 21
135.0
 31
0.0
  0
LINE
  5
959F
  8
0
 10
90.5
 20
129.5
 30
0.0
 11
90.5
 21
134.5
 31
0.0
  0
LINE
  5
95A3
  8
0
 10
128.19999999999999
 20
129.0
 30
0.0
 11
128.19999999999999
 21
135.0
 31
0.0
  0
LINE
  5
95A4
  8
0
 10
129.5
 20
134.5
 30
0.0
 11
129.5
 21
129.5
 31
0.0
  0
ARC
  5
95A8
  8
0
 10
89.0
 20
146.25
 30
0.0
 40
2.0000000000000271
 50
233.3001007670924
 51
270.0
  0
ARC
  5
95A9
  8
0
 10
89.0
 20
141.75
 30
0.0
 40
1.999999999999974
 50
90.0
 51
122.41610835649669
  0
ARC
  5
95AA
  8
0
 10
91.0
 20
146.0
 30
0.0
 40
3.9999999999970441
 50
180.0
 51
219.82250162509681
  0
LINE
  5
95AB
  8
0
 10
87.0
 20
146.0
 30
0.0
 11
87.0
 21
154.0
 31
0.0
  0
ARC
  5
95AC
  8
0
 10
87.999999999900055
 20
154.00000000009999
 30
0.0
 40
0.999999999865412
 50
117.582530010791
 51
180.0000000046997
  0
ARC
  5
95AD
  8
0
 10
89.0
 20
156.25
 30
0.0
 40
1.9999999999999709
 50
222.9866237142036
 51
270.0
  0
ARC
  5
95AE
  8
0
 10
89.0
 20
151.75
 30
0.0
 40
2.0
 50
90.0
 51
126.6998992329076
  0
ARC
  5
95AF
  8
0
 10
88.070819678600046
 20
153.0
 30
0.0
 40
0.4424835924313025
 50
126.9633466894946
 51
233.0366533105053
  0
ARC
  5
95B0
  8
0
 10
89.0
 20
154.25
 30
0.0
 40
2.0000000000000471
 50
233.3001007670924
 51
270.0
  0
ARC
  5
95B1
  8
0
 10
89.0
 20
149.75
 30
0.0
 40
1.999999999999998
 50
90.0
 51
126.6998992329076
  0
ARC
  5
95B2
  8
0
 10
88.070819678600046
 20
151.0
 30
0.0
 40
0.4424835924312984
 50
126.9633466894946
 51
233.0366533105053
  0
ARC
  5
95B3
  8
0
 10
89.0
 20
152.25
 30
0.0
 40
2.0000000000000471
 50
233.3001007670924
 51
270.0
  0
ARC
  5
95B4
  8
0
 10
89.0
 20
147.75
 30
0.0
 40
2.0
 50
90.0
 51
126.6998992329076
  0
ARC
  5
95B5
  8
0
 10
88.070819678600046
 20
149.0
 30
0.0
 40
0.4424835924313055
 50
126.9633466894946
 51
233.0366533105053
  0
ARC
  5
95B6
  8
0
 10
89.0
 20
150.25
 30
0.0
 40
2.0000000000000271
 50
233.3001007670924
 51
270.0
  0
ARC
  5
95B7
  8
0
 10
89.0
 20
145.75
 30
0.0
 40
2.0000000000000271
 50
90.0
 51
126.6998992329076
  0
ARC
  5
95B8
  8
0
 10
88.070819678600046
 20
147.0
 30
0.0
 40
0.4424835924312371
 50
126.9633466894946
 51
233.0366533105053
  0
ARC
  5
95B9
  8
0
 10
89.0
 20
148.25
 30
0.0
 40
2.000000000000056
 50
233.3001007670924
 51
270.0
  0
ARC
  5
95BA
  8
0
 10
89.0
 20
143.75
 30
0.0
 40
2.0000000000000302
 50
90.0
 51
126.6998992329076
  0
ARC
  5
95BB
  8
0
 10
88.070819678600046
 20
145.0
 30
0.0
 40
0.4424835924312072
 50
126.9633466894946
 51
233.0366533105053
  0
LINE
  5
95BC
  8
0
 10
89.0
 20
147.75
 30
0.0
 11
103.0
 21
147.75
 31
0.0
  0
LINE
  5
95BD
  8
0
 10
103.3964466094001
 20
147.35355339060001
 30
0.0
 11
103.0
 21
147.75
 31
0.0
  0
LINE
  5
95BE
  8
0
 10
89.0
 20
148.25
 30
0.0
 11
103.0
 21
148.25
 31
0.0
  0
LINE
  5
95BF
  8
0
 10
103.0
 20
147.75
 30
0.0
 11
103.0
 21
148.25
 31
0.0
  0
LINE
  5
95C0
  8
0
 10
103.0
 20
148.25
 30
0.0
 11
103.3964466094001
 21
148.64644660939999
 31
0.0
  0
LINE
  5
95C1
  8
0
 10
89.0
 20
149.75
 30
0.0
 11
103.0
 21
149.75
 31
0.0
  0
LINE
  5
95C2
  8
0
 10
103.3964466094001
 20
149.35355339060001
 30
0.0
 11
103.0
 21
149.75
 31
0.0
  0
LINE
  5
95C3
  8
0
 10
89.0
 20
144.25
 30
0.0
 11
103.0
 21
144.25
 31
0.0
  0
LINE
  5
95C4
  8
0
 10
103.0
 20
143.75
 30
0.0
 11
103.0
 21
144.25
 31
0.0
  0
LINE
  5
95C5
  8
0
 10
89.0
 20
143.75
 30
0.0
 11
103.0
 21
143.75
 31
0.0
  0
LINE
  5
95C6
  8
0
 10
103.0
 20
144.25
 30
0.0
 11
103.3964466094001
 21
144.64644660939999
 31
0.0
  0
LINE
  5
95C7
  8
0
 10
103.0
 20
146.25
 30
0.0
 11
103.3964466094001
 21
146.64644660939999
 31
0.0
  0
LINE
  5
95C8
  8
0
 10
89.0
 20
146.25
 30
0.0
 11
103.0
 21
146.25
 31
0.0
  0
LINE
  5
95C9
  8
0
 10
89.0
 20
145.75
 30
0.0
 11
103.0
 21
145.75
 31
0.0
  0
LINE
  5
95CA
  8
0
 10
103.3964466094001
 20
145.35355339060001
 30
0.0
 11
103.0
 21
145.75
 31
0.0
  0
LINE
  5
95CB
  8
0
 10
103.0
 20
145.75
 30
0.0
 11
103.0
 21
146.25
 31
0.0
  0
ARC
  5
95CC
  8
0
 10
91.0
 20
146.0
 30
0.0
 40
4.0000000000000133
 50
219.82250162509681
 51
228.5903778906964
  0
LINE
  5
95CD
  8
0
 10
103.75
 20
143.0
 30
0.0
 11
103.0
 21
143.75
 31
0.0
  0
LINE
  5
95CE
  8
0
 10
88.354248688900043
 20
143.0
 30
0.0
 11
103.75
 21
143.0
 31
0.0
  0
ARC
  5
95CF
  8
0
 10
88.0
 20
154.0
 30
0.0
 40
1.0000000000000091
 50
90.0
 51
117.5825300153915
  0
LINE
  5
95D0
  8
0
 10
88.0
 20
155.0
 30
0.0
 11
132.0
 21
155.0
 31
0.0
  0
LINE
  5
95D1
  8
0
 10
103.0
 20
154.25
 30
0.0
 11
103.75
 21
155.0
 31
0.0
  0
LINE
  5
95D2
  8
0
 10
89.0
 20
154.25
 30
0.0
 11
103.0
 21
154.25
 31
0.0
  0
LINE
  5
95D3
  8
0
 10
103.0
 20
153.75
 30
0.0
 11
103.0
 21
154.25
 31
0.0
  0
LINE
  5
95D4
  8
0
 10
89.0
 20
153.75
 30
0.0
 11
103.0
 21
153.75
 31
0.0
  0
LINE
  5
95D5
  8
0
 10
103.0
 20
152.25
 30
0.0
 11
103.3964466094001
 21
152.64644660939999
 31
0.0
  0
LINE
  5
95D6
  8
0
 10
89.0
 20
152.25
 30
0.0
 11
103.0
 21
152.25
 31
0.0
  0
ARC
  5
95D7
  8
0
 10
103.0428932188
 20
145.0
 30
0.0
 40
0.5000000000000342
 50
314.99999999999352
 51
45.000000000006509
  0
ARC
  5
95D8
  8
0
 10
103.0428932188
 20
147.0
 30
0.0
 40
0.500000000000004
 50
314.99999999999352
 51
45.000000000006509
  0
ARC
  5
95D9
  8
0
 10
103.0428932188
 20
149.0
 30
0.0
 40
0.5000000000000191
 50
314.99999999999352
 51
45.000000000006509
  0
LINE
  5
95DA
  8
0
 10
103.0
 20
149.75
 30
0.0
 11
103.0
 21
150.25
 31
0.0
  0
LINE
  5
95DB
  8
0
 10
103.0
 20
150.25
 30
0.0
 11
103.3964466094001
 21
150.64644660939999
 31
0.0
  0
ARC
  5
95DC
  8
0
 10
103.0428932188
 20
151.0
 30
0.0
 40
0.5000000000000241
 50
314.99999999999352
 51
45.000000000006509
  0
LINE
  5
95DD
  8
0
 10
103.3964466094001
 20
151.35355339060001
 30
0.0
 11
103.0
 21
151.75
 31
0.0
  0
LINE
  5
95DE
  8
0
 10
103.0
 20
151.75
 30
0.0
 11
103.0
 21
152.25
 31
0.0
  0
ARC
  5
95DF
  8
0
 10
103.0428932188
 20
153.0
 30
0.0
 40
0.499999999999999
 50
314.99999999999352
 51
45.000000000006509
  0
LINE
  5
95E0
  8
0
 10
103.3964466094001
 20
153.35355339060001
 30
0.0
 11
103.0
 21
153.75
 31
0.0
  0
LINE
  5
95E2
  8
0
 10
105.0
 20
155.0
 30
0.0
 11
105.0
 21
142.5
 31
0.0
  0
ARC
  5
95E3
  8
0
 10
104.5
 20
142.5
 30
0.0
 40
0.5000000000000285
 50
0.0
 51
90.0
  0
LINE
  5
95E4
  8
0
 10
104.5
 20
143.0
 30
0.0
 11
103.75
 21
143.0
 31
0.0
  0
LINE
  5
95E5
  8
0
 10
89.0
 20
151.75
 30
0.0
 11
103.0
 21
151.75
 31
0.0
  0
ARC
  5
95E6
  8
0
 10
131.0
 20
148.25
 30
0.0
 40
2.000000000000056
 50
270.0
 51
306.69989923290763
  0
LINE
  5
95E7
  8
0
 10
117.0
 20
146.25
 30
0.0
 11
131.0
 21
146.25
 31
0.0
  0
LINE
  5
95E8
  8
0
 10
116.6035533906
 20
146.64644660939999
 30
0.0
 11
117.0
 21
146.25
 31
0.0
  0
LINE
  5
95E9
  8
0
 10
89.0
 20
150.25
 30
0.0
 11
103.0
 21
150.25
 31
0.0
  0
LINE
  5
95EA
  8
0
 10
117.0
 20
145.75
 30
0.0
 11
131.0
 21
145.75
 31
0.0
  0
LINE
  5
95EB
  8
0
 10
117.0
 20
145.75
 30
0.0
 11
117.0
 21
146.25
 31
0.0
  0
LINE
  5
95EC
  8
0
 10
116.6035533906
 20
144.64644660939999
 30
0.0
 11
117.0
 21
144.25
 31
0.0
  0
LINE
  5
95ED
  8
0
 10
117.0
 20
143.75
 30
0.0
 11
117.0
 21
144.25
 31
0.0
  0
LINE
  5
95EE
  8
0
 10
117.0
 20
143.75
 30
0.0
 11
116.25
 21
143.0
 31
0.0
  0
LINE
  5
95EF
  8
0
 10
116.25
 20
143.0
 30
0.0
 11
115.5
 21
143.0
 31
0.0
  0
ARC
  5
95F0
  8
0
 10
115.5
 20
142.5
 30
0.0
 40
0.5
 50
90.0
 51
180.0
  0
LINE
  5
95F1
  8
0
 10
115.0
 20
142.5
 30
0.0
 11
115.0
 21
155.0
 31
0.0
  0
LINE
  5
95F3
  8
0
 10
116.25
 20
155.0
 30
0.0
 11
117.0
 21
154.25
 31
0.0
  0
LINE
  5
95F4
  8
0
 10
117.0
 20
153.75
 30
0.0
 11
117.0
 21
154.25
 31
0.0
  0
LINE
  5
95F5
  8
0
 10
117.0
 20
153.75
 30
0.0
 11
116.6035533906
 21
153.35355339060001
 31
0.0
  0
ARC
  5
95F6
  8
0
 10
116.9571067812001
 20
153.0
 30
0.0
 40
0.4999999999999789
 50
134.99999999999349
 51
225.00000000000639
  0
LINE
  5
95F7
  8
0
 10
116.6035533906
 20
152.64644660939999
 30
0.0
 11
117.0
 21
152.25
 31
0.0
  0
LINE
  5
95F8
  8
0
 10
117.0
 20
151.75
 30
0.0
 11
117.0
 21
152.25
 31
0.0
  0
LINE
  5
95F9
  8
0
 10
117.0
 20
151.75
 30
0.0
 11
116.6035533906
 21
151.35355339060001
 31
0.0
  0
ARC
  5
95FA
  8
0
 10
116.9571067812001
 20
151.0
 30
0.0
 40
0.5000000000000443
 50
134.99999999999349
 51
225.00000000000639
  0
LINE
  5
95FB
  8
0
 10
116.6035533906
 20
150.64644660939999
 30
0.0
 11
117.0
 21
150.25
 31
0.0
  0
LINE
  5
95FC
  8
0
 10
117.0
 20
149.75
 30
0.0
 11
117.0
 21
150.25
 31
0.0
  0
LINE
  5
95FD
  8
0
 10
117.0
 20
149.75
 30
0.0
 11
116.6035533906
 21
149.35355339060001
 31
0.0
  0
ARC
  5
95FE
  8
0
 10
116.9571067812001
 20
149.0
 30
0.0
 40
0.5000000000000241
 50
134.99999999999349
 51
225.00000000000639
  0
LINE
  5
95FF
  8
0
 10
116.6035533906
 20
148.64644660939999
 30
0.0
 11
117.0
 21
148.25
 31
0.0
  0
LINE
  5
9600
  8
0
 10
117.0
 20
147.75
 30
0.0
 11
117.0
 21
148.25
 31
0.0
  0
LINE
  5
9601
  8
0
 10
117.0
 20
147.75
 30
0.0
 11
116.6035533906
 21
147.35355339060001
 31
0.0
  0
ARC
  5
9602
  8
0
 10
116.9571067812001
 20
147.0
 30
0.0
 40
0.5000000000000241
 50
134.99999999999349
 51
225.00000000000639
  0
LINE
  5
9603
  8
0
 10
117.0
 20
145.75
 30
0.0
 11
116.6035533906
 21
145.35355339060001
 31
0.0
  0
ARC
  5
9604
  8
0
 10
116.9571067812001
 20
145.0
 30
0.0
 40
0.5000000000000443
 50
134.99999999999349
 51
225.00000000000639
  0
ARC
  5
9605
  8
0
 10
131.0
 20
145.75
 30
0.0
 40
2.000000000000056
 50
53.300100767092431
 51
90.0
  0
LINE
  5
9606
  8
0
 10
117.0
 20
147.75
 30
0.0
 11
131.0
 21
147.75
 31
0.0
  0
LINE
  5
9607
  8
0
 10
117.0
 20
148.25
 30
0.0
 11
131.0
 21
148.25
 31
0.0
  0
ARC
  5
9608
  8
0
 10
132.0
 20
154.0
 30
0.0
 40
1.0000000000000271
 50
62.417469984608502
 51
90.0
  0
ARC
  5
9609
  8
0
 10
131.0
 20
156.25
 30
0.0
 40
1.9999999999999789
 50
270.0
 51
317.01337628579643
  0
LINE
  5
960A
  8
0
 10
117.0
 20
154.25
 30
0.0
 11
131.0
 21
154.25
 31
0.0
  0
LINE
  5
960C
  8
0
 10
117.0
 20
153.75
 30
0.0
 11
131.0
 21
153.75
 31
0.0
  0
ARC
  5
960D
  8
0
 10
131.0
 20
146.25
 30
0.0
 40
2.000000000000056
 50
270.0
 51
306.69989923290763
  0
ARC
  5
960E
  8
0
 10
131.9291803214
 20
145.0
 30
0.0
 40
0.44248359243122
 50
306.96334668949459
 51
53.036653310505343
  0
ARC
  5
960F
  8
0
 10
131.0
 20
143.75
 30
0.0
 40
1.9999999999999709
 50
53.300100767092431
 51
90.0
  0
ARC
  5
9610
  8
0
 10
131.9291803214
 20
147.0
 30
0.0
 40
0.4424835924312598
 50
306.96334668949459
 51
53.036653310505343
  0
ARC
  5
9611
  8
0
 10
131.0
 20
150.25
 30
0.0
 40
2.0000000000000342
 50
270.0
 51
306.69989923290763
  0
ARC
  5
9612
  8
0
 10
131.9291803214
 20
149.0
 30
0.0
 40
0.4424835924312256
 50
306.96334668949459
 51
53.036653310505343
  0
ARC
  5
9613
  8
0
 10
131.0
 20
147.75
 30
0.0
 40
2.0
 50
53.300100767092431
 51
90.0
  0
ARC
  5
9614
  8
0
 10
131.0
 20
152.25
 30
0.0
 40
2.0000000000000471
 50
270.0
 51
306.69989923290763
  0
ARC
  5
9615
  8
0
 10
131.9291803214
 20
151.0
 30
0.0
 40
0.4424835924313317
 50
306.96334668949459
 51
53.036653310505343
  0
ARC
  5
9616
  8
0
 10
131.0
 20
149.75
 30
0.0
 40
2.0000000000000111
 50
53.300100767092431
 51
90.0
  0
ARC
  5
9617
  8
0
 10
131.0
 20
154.25
 30
0.0
 40
2.0000000000000271
 50
270.0
 51
306.69989923290763
  0
ARC
  5
9618
  8
0
 10
131.9291803214
 20
153.0
 30
0.0
 40
0.4424835924312215
 50
306.96334668949459
 51
53.036653310505343
  0
ARC
  5
9619
  8
0
 10
131.0
 20
151.75
 30
0.0
 40
2.0000000000000271
 50
53.300100767092431
 51
90.0
  0
ARC
  5
961A
  8
0
 10
132.00000000009999
 20
154.00000000009999
 30
0.0
 40
0.9999999998651497
 50
359.9999999953003
 51
62.417469989297643
  0
LINE
  5
961B
  8
0
 10
133.0
 20
146.0
 30
0.0
 11
133.0
 21
154.0
 31
0.0
  0
ARC
  5
961C
  8
0
 10
129.0
 20
146.0
 30
0.0
 40
4.000000000001168
 50
320.17749837490209
 51
0.0
  0
ARC
  5
961D
  8
0
 10
131.0
 20
141.75
 30
0.0
 40
2.0000000000000249
 50
57.583891643503328
 51
90.0
  0
LINE
  5
961E
  8
0
 10
117.0
 20
149.75
 30
0.0
 11
131.0
 21
149.75
 31
0.0
  0
LINE
  5
961F
  8
0
 10
117.0
 20
144.25
 30
0.0
 11
131.0
 21
144.25
 31
0.0
  0
LINE
  5
9620
  8
0
 10
117.0
 20
152.25
 30
0.0
 11
131.0
 21
152.25
 31
0.0
  0
LINE
  5
9621
  8
0
 10
117.0
 20
151.75
 30
0.0
 11
131.0
 21
151.75
 31
0.0
  0
LINE
  5
9622
  8
0
 10
117.0
 20
143.75
 30
0.0
 11
131.0
 21
143.75
 31
0.0
  0
ARC
  5
9623
  8
0
 10
129.0
 20
146.0
 30
0.0
 40
4.0000000000000231
 50
311.4096221093036
 51
320.17749837490209
  0
LINE
  5
9624
  8
0
 10
116.25
 20
143.0
 30
0.0
 11
131.6457513111001
 21
143.0
 31
0.0
  0
LINE
  5
9625
  8
0
 10
117.0
 20
150.25
 30
0.0
 11
131.0
 21
150.25
 31
0.0
  0
ARC
  5
9626
  8
0
 10
91.000000000200075
 20
146.00000000019989
 30
0.0
 40
4.0000000002371081
 50
228.5903778908006
 51
231.0575587308891
  0
ARC
  5
9627
  8
0
 10
128.9999999998
 20
146.00000000019989
 30
0.0
 40
4.0000000002754641
 50
308.94244126909638
 51
311.4096221091994
  0
ARC
  5
9628
  8
0
 10
88.499999999999986
 20
138.40065792319999
 30
0.0
 40
3.9999999999999929
 50
0.0
 51
71.790043135703286
  0
ARC
  5
9629
  8
0
 10
131.5
 20
138.40065792319999
 30
0.0
 40
4.000000000000016
 50
108.2099568642967
 51
180.0
  0
ARC
  5
962B
  8
0
 10
120.0
 20
136.0
 30
0.0
 40
0.5000000000000285
 50
0.0
 51
90.0
  0
LINE
  5
962C
  8
0
 10
113.0
 20
136.5
 30
0.0
 11
120.0
 21
136.5
 31
0.0
  0
LINE
  5
962D
  8
0
 10
113.0
 20
142.0
 30
0.0
 11
113.0
 21
136.5
 31
0.0
  0
LINE
  5
962E
  8
0
 10
113.0
 20
142.0
 30
0.0
 11
110.0
 21
142.0
 31
0.0
  0
LINE
  5
962F
  8
0
 10
110.0
 20
142.0
 30
0.0
 11
110.0
 21
136.5
 31
0.0
  0
LINE
  5
9630
  8
0
 10
100.0
 20
136.5
 30
0.0
 11
110.0
 21
136.5
 31
0.0
  0
ARC
  5
9631
  8
0
 10
100.0
 20
136.0
 30
0.0
 40
0.5
 50
90.0
 51
180.0
  0
LINE
  5
9635
  8
0
 10
99.500000000000014
 20
126.0
 30
0.0
 11
93.499999999999986
 21
126.0
 31
0.0
  0
LINE
  5
9636
  8
0
 10
92.5
 20
127.0
 30
0.0
 11
92.5
 21
138.40065792319999
 31
0.0
  0
ARC
  5
9637
  8
0
 10
93.499999999999986
 20
127.0
 30
0.0
 40
1.0000000000000271
 50
180.0
 51
270.0
  0
LINE
  5
963A
  8
0
 10
126.5
 20
126.0
 30
0.0
 11
120.5
 21
126.0
 31
0.0
  0
LINE
  5
963B
  8
0
 10
127.5
 20
138.40065792319999
 30
0.0
 11
127.5
 21
127.0
 31
0.0
  0
ARC
  5
963F
  8
0
 10
126.5
 20
127.0
 30
0.0
 40
1.0
 50
270.0
 51
0.0
  0
ARC
  5
9640
  8
0
 10
91.0
 20
146.0
 30
0.0
 40
4.0000000000000657
 50
231.0575587310037
 51
251.79004313570331
  0
ARC
  5
9641
  8
0
 10
129.0
 20
146.0
 30
0.0
 40
4.0000000000000169
 50
288.20995686429671
 51
308.94244126899628
  0
LINE
  5
9650
  8
0
 10
88.0
 20
136.0
 30
0.0
 11
87.989539620700043
 21
136.0
 31
0.0
  0
LINE
  5
9654
  8
0
 10
99.500000000000014
 20
125.5
 30
0.0
 11
99.500000000000014
 21
136.0
 31
0.0
  0
LINE
  5
9655
  8
0
 10
108.0
 20
125.5
 30
0.0
 11
108.0
 21
136.5
 31
0.0
  0
LINE
  5
9656
  8
0
 10
108.0
 20
125.5
 30
0.0
 11
107.5
 21
125.0
 31
0.0
  0
LINE
  5
9659
  8
0
 10
99.500000000000014
 20
125.5
 30
0.0
 11
100.0
 21
125.0
 31
0.0
  0
LINE
  5
965B
  8
0
 10
112.5
 20
125.0
 30
0.0
 11
112.0
 21
125.5
 31
0.0
  0
LINE
  5
965F
  8
0
 10
112.0
 20
139.0
 30
0.0
 11
112.0
 21
125.5
 31
0.0
  0
LINE
  5
9660
  8
0
 10
120.5
 20
136.0
 30
0.0
 11
120.5
 21
125.5
 31
0.0
  0
LINE
  5
9662
  8
0
 10
120.0
 20
125.0
 30
0.0
 11
120.5
 21
125.5
 31
0.0
  0
LINE
  5
9665
  8
0
 10
108.0
 20
136.0
 30
0.0
 11
112.0
 21
136.0
 31
0.0
  0
ARC
  5
966F
  8
0
 10
88.0
 20
135.0
 30
0.0
 40
1.0
 50
90.0
 51
180.0
  0
LINE
  5
9672
  8
0
 10
87.0
 20
125.5
 30
0.0
 11
87.5
 21
125.0
 31
0.0
  0
LINE
  5
9673
  8
0
 10
132.5
 20
125.0
 30
0.0
 11
87.5
 21
125.0
 31
0.0
  0
LINE
  5
9674
  8
0
 10
87.0
 20
125.5
 30
0.0
 11
87.0
 21
135.0
 31
0.0
  0
LINE
  5
967A
  8
0
 10
132.5
 20
125.0
 30
0.0
 11
133.0
 21
125.5
 31
0.0
  0
ARC
  5
967C
  8
0
 10
132.0
 20
135.0
 30
0.0
 40
1.0
 50
0.0
 51
90.0
  0
LINE
  5
967E
  8
0
 10
133.0
 20
125.5
 30
0.0
 11
133.0
 21
135.0
 31
0.0
  0
LINE
  5
9681
  8
0
 10
89.0
 20
143.75
 30
0.0
 11
89.0
 21
144.25
 31
0.0
  0
LINE
  5
9682
  8
0
 10
89.0
 20
153.75
 30
0.0
 11
89.0
 21
154.25
 31
0.0
  0
LINE
  5
9683
  8
0
 10
89.0
 20
151.75
 30
0.0
 11
89.0
 21
152.25
 31
0.0
  0
LINE
  5
9684
  8
0
 10
89.0
 20
149.75
 30
0.0
 11
89.0
 21
150.25
 31
0.0
  0
LINE
  5
9685
  8
0
 10
89.0
 20
147.75
 30
0.0
 11
89.0
 21
148.25
 31
0.0
  0
LINE
  5
9686
  8
0
 10
89.0
 20
145.75
 30
0.0
 11
89.0
 21
146.25
 31
0.0
  0
LINE
  5
9688
  8
0
 10
131.0
 20
145.75
 30
0.0
 11
131.0
 21
146.25
 31
0.0
  0
LINE
  5
968A
  8
0
 10
131.0
 20
147.75
 30
0.0
 11
131.0
 21
148.25
 31
0.0
  0
LINE
  5
968B
  8
0
 10
131.0
 20
153.75
 30
0.0
 11
131.0
 21
154.25
 31
0.0
  0
LINE
  5
968C
  8
0
 10
131.0
 20
149.75
 30
0.0
 11
131.0
 21
150.25
 31
0.0
  0
LINE
  5
968D
  8
0
 10
131.0
 20
151.75
 30
0.0
 11
131.0
 21
152.25
 31
0.0
  0
LINE
  5
968E
  8
0
 10
131.0
 20
143.75
 30
0.0
 11
131.0
 21
144.25
 31
0.0
  0
POLYLINE
  5
9697
  8
0
 66
     1
 10
0.0
 20
0.0
 30
0.0
 70
   128
  0
VERTEX
  5
A4EE
  8
0
 10
91.362759951100088
 20
142.5
 30
0.0
  0
VERTEX
  5
A4EF
  8
0
 10
90.375351841999986
 20
142.658846686
 30
0.0
  0
VERTEX
  5
A4F0
  8
0
 10
89.919889689199977
 20
142.71674890700001
 30
0.0
  0
SEQEND
  5
A4F1
  8
0
  0
POLYLINE
  5
969B
  8
0
 66
     1
 10
0.0
 20
0.0
 30
0.0
 70
   128
  0
VERTEX
  5
A4F2
  8
0
 10
130.08011031079999
 20
142.71674890700001
 30
0.0
  0
VERTEX
  5
A4F3
  8
0
 10
129.0938522834
 20
142.57775070939999
 30
0.0
  0
VERTEX
  5
A4F4
  8
0
 10
128.6372400489
 20
142.5
 30
0.0
  0
SEQEND
  5
A4F5
  8
0
  0
LINE
  5
969D
  8
0
 10
105.0
 20
142.5
 30
0.0
 11
91.362759951100088
 21
142.5
 31
0.0
  0
LINE
  5
969E
  8
0
 10
128.6372400489
 20
142.5
 30
0.0
 11
115.0
 21
142.5
 31
0.0
  0
ARC
  5
969F
  8
0
 10
93.667119793500092
 20
179.99319217530001
 30
0.0
 40
37.464315771003903
 50
262.0505716142975
 51
264.25960214729361
  0
ARC
  5
96A0
  8
0
 10
126.2549892296
 20
180.6420788021999
 30
0.0
 40
38.117741262316549
 50
275.75933406279762
 51
277.93049217550077
  0
LINE
  5
96CA
  8
0
 10
604.0
 20
110.0
 30
0.0
 11
606.0
 21
108.0
 31
0.0
  0
LINE
  5
96CB
  8
0
 10
614.0
 20
108.0
 30
0.0
 11
616.0
 21
110.0
 31
0.0
  0
LINE
  5
96CC
  8
0
 10
604.0
 20
125.0
 30
0.0
 11
604.0
 21
110.0
 31
0.0
  0
LINE
  5
96CD
  8
0
 10
616.0
 20
110.0
 30
0.0
 11
616.0
 21
125.0
 31
0.0
  0
LINE
  5
96DA
  8
0
 10
624.0
 20
154.80000000000001
 30
0.0
 11
623.79999999999995
 21
155.0
 31
0.0
  0
LINE
  5
96DB
  8
0
 10
596.20000000000005
 20
155.0
 30
0.0
 11
596.0
 21
154.80000000000001
 31
0.0
  0
LINE
  5
96DC
  8
0
 10
624.0
 20
153.0
 30
0.0
 11
624.0
 21
154.80000000000001
 31
0.0
  0
LINE
  5
96DD
  8
0
 10
596.0
 20
154.80000000000001
 30
0.0
 11
596.0
 21
153.0
 31
0.0
  0
LINE
  5
96DE
  8
0
 10
596.0
 20
153.0
 30
0.0
 11
596.20000000000005
 21
152.80000000000001
 31
0.0
  0
LINE
  5
96DF
  8
0
 10
623.79999999999995
 20
152.80000000000001
 30
0.0
 11
624.0
 21
153.0
 31
0.0
  0
ARC
  5
96E0
  8
0
 10
597.35000000000014
 20
152.40000000000001
 30
0.0
 40
0.4000000000000057
 50
14.47751218592993
 51
90.0
  0
ARC
  5
96E1
  8
0
 10
622.65000000000009
 20
152.40000000000001
 30
0.0
 40
0.4000000000000909
 50
90.0
 51
165.52248781407761
  0
LINE
  5
96E9
  8
0
 10
614.0
 20
108.0
 30
0.0
 11
606.0
 21
108.0
 31
0.0
  0
LINE
  5
96EB
  8
0
 10
610.0
 20
110.0
 30
0.0
 11
616.0
 21
110.0
 31
0.0
  0
LINE
  5
96EC
  8
0
 10
604.0
 20
110.0
 30
0.0
 11
610.0
 21
110.0
 31
0.0
  0
ARC
  5
96F1
  8
0
 10
629.0
 20
146.0
 30
0.0
 40
4.0000000000009157
 50
308.849336532103
 51
0.000000000000007
  0
LINE
  5
96F2
  8
0
 10
633.0
 20
146.0
 30
0.0
 11
633.0
 21
154.0
 31
0.0
  0
ARC
  5
96F3
  8
0
 10
629.0
 20
146.0
 30
0.0
 40
4.0000000000000231
 50
296.55144919180492
 51
308.849336532103
  0
LINE
  5
96F4
  8
0
 10
587.0
 20
154.0
 30
0.0
 11
587.0
 21
152.5
 31
0.0
  0
ARC
  5
96FA
  8
0
 10
632.0
 20
154.0
 30
0.0
 40
1.0
 50
0.0
 51
90.0
  0
LINE
  5
96FB
  8
0
 10
633.0
 20
153.85216397179991
 30
0.0
 11
633.0
 21
154.0
 31
0.0
  0
LINE
  5
96FC
  8
0
 10
588.0
 20
155.0
 30
0.0
 11
632.0
 21
155.0
 31
0.0
  0
ARC
  5
96FE
  8
0
 10
588.0
 20
154.0
 30
0.0
 40
1.0
 50
90.0
 51
180.0
  0
LINE
  5
9705
  8
0
 10
623.79999999999995
 20
152.80000000000001
 30
0.0
 11
596.20000000000005
 21
152.80000000000001
 31
0.0
  0
LINE
  5
970C
  8
0
 10
633.0
 20
135.0
 30
0.0
 11
633.0
 21
125.5
 31
0.0
  0
LINE
  5
970E
  8
0
 10
632.5
 20
125.0
 30
0.0
 11
587.5
 21
125.0
 31
0.0
  0
LINE
  5
970F
  8
0
 10
632.5
 20
125.0
 30
0.0
 11
633.0
 21
125.5
 31
0.0
  0
ARC
  5
9711
  8
0
 10
632.0
 20
135.0
 30
0.0
 40
1.0
 50
0.0
 51
90.0
  0
LINE
  5
9716
  8
0
 10
587.0
 20
125.5
 30
0.0
 11
587.0
 21
135.0
 31
0.0
  0
LINE
  5
9718
  8
0
 10
587.5
 20
125.0
 30
0.0
 11
587.0
 21
125.5
 31
0.0
  0
ARC
  5
971A
  8
0
 10
588.0
 20
135.0
 30
0.0
 40
1.000000000000113
 50
90.0
 51
180.0
  0
LINE
  5
9730
  8
0
 10
621.0
 20
125.0
 30
0.0
 11
621.0
 21
136.0
 31
0.0
  0
LINE
  5
9735
  8
0
 10
599.0
 20
136.0
 30
0.0
 11
599.0
 21
125.0
 31
0.0
  0
ARC
  5
9788
  8
5
 10
338.0
 20
143.91817611979999
 30
0.0
 40
5.0000000000000444
 50
6.3514372285012648
 51
50.321745820893739
  0
ARC
  5
9789
  8
5
 10
337.99998914579999
 20
143.9181785243
 30
0.0
 40
5.0000104568520589
 50
332.3562325836009
 51
6.3513967378000986
  0
ARC
  5
978A
  8
5
 10
331.9090189305
 20
152.86901862479999
 30
0.0
 40
2.0000000000000102
 50
50.321745820893739
 51
81.873925042603489
  0
LINE
  5
978B
  8
5
 10
333.18596951670003
 20
154.408303082
 30
0.0
 11
341.19237832729999
 21
147.7663861513
 31
0.0
  0
POLYLINE
  5
978C
  8
5
 66
     1
 10
0.0
 20
0.0
 30
0.0
 70
   128
  0
VERTEX
  5
A4F6
  8
5
 10
324.45534750820002
 20
155.83877171579999
 30
0.0
  0
VERTEX
  5
A4F7
  8
5
 10
324.52616155150002
 20
155.89189063009999
 30
0.0
  0
VERTEX
  5
A4F8
  8
5
 10
324.56938982010001
 20
155.9243174195
 30
0.0
  0
VERTEX
  5
A4F9
  8
5
 10
324.58392590289998
 20
155.9352194816
 30
0.0
  0
SEQEND
  5
A4FA
  8
5
  0
LINE
  5
978D
  8
5
 10
324.58392590289998
 20
155.9352194816
 30
0.0
 11
332.19172306360002
 21
154.84893786910001
 31
0.0
  0
POLYLINE
  5
978E
  8
5
 66
     1
 10
0.0
 20
0.0
 30
0.0
 70
   128
  0
VERTEX
  5
A4FB
  8
5
 10
322.3219259083001
 20
145.39916905760001
 30
0.0
  0
VERTEX
  5
A4FC
  8
5
 10
322.37330138689998
 20
145.4377090484
 30
0.0
  0
VERTEX
  5
A4FD
  8
5
 10
322.52509951589991
 20
145.55157440900001
 30
0.0
  0
VERTEX
  5
A4FE
  8
5
 10
322.77042850849989
 20
145.7355981618
 30
0.0
  0
SEQEND
  5
A4FF
  8
5
  0
ARC
  5
978F
  8
5
 10
322.47041802609999
 20
146.1355735091
 30
0.0
 40
0.4999865677864446
 50
306.87255367060328
 51
36.875480547695823
  0
POLYLINE
  5
9790
  8
5
 66
     1
 10
0.0
 20
0.0
 30
0.0
 70
   128
  0
VERTEX
  5
A500
  8
5
 10
322.87037804719989
 20
146.43560442329999
 30
0.0
  0
VERTEX
  5
A501
  8
5
 10
322.68635615709991
 20
146.68093155330001
 30
0.0
  0
VERTEX
  5
A502
  8
5
 10
322.5724889338
 20
146.832731545
 30
0.0
  0
VERTEX
  5
A503
  8
5
 10
322.53395080569999
 20
146.88410888609999
 30
0.0
  0
SEQEND
  5
A504
  8
5
  0
LINE
  5
9791
  8
5
 10
322.53395080569999
 20
146.88410888609999
 30
0.0
 11
322.6046270132
 21
147.3790882081
 31
0.0
  0
POLYLINE
  5
9792
  8
5
 66
     1
 10
0.0
 20
0.0
 30
0.0
 70
   128
  0
VERTEX
  5
A505
  8
5
 10
322.6046270132
 20
147.3790882081
 30
0.0
  0
VERTEX
  5
A506
  8
5
 10
322.65600621699991
 20
147.41762819889999
 30
0.0
  0
VERTEX
  5
A507
  8
5
 10
322.80780434610011
 20
147.53149355950001
 30
0.0
  0
VERTEX
  5
A508
  8
5
 10
323.05313333869998
 20
147.71551731229999
 30
0.0
  0
SEQEND
  5
A509
  8
5
  0
ARC
  5
9793
  8
5
 10
322.75310864859989
 20
148.11549468819999
 30
0.0
 40
0.4999967158956354
 50
306.87371661350329
 51
36.87431760480343
  0
POLYLINE
  5
9794
  8
5
 66
     1
 10
0.0
 20
0.0
 30
0.0
 70
   128
  0
VERTEX
  5
A50A
  8
5
 10
323.15308287739998
 20
148.41552357379999
 30
0.0
  0
VERTEX
  5
A50B
  8
5
 10
322.96906098730011
 20
148.66085070369999
 30
0.0
  0
VERTEX
  5
A50C
  8
5
 10
322.85519376399998
 20
148.8126506955
 30
0.0
  0
VERTEX
  5
A50D
  8
5
 10
322.81665563589991
 20
148.86402803659999
 30
0.0
  0
SEQEND
  5
A50E
  8
5
  0
LINE
  5
9795
  8
5
 10
322.81665563589991
 20
148.86402803659999
 30
0.0
 11
322.88733184340009
 21
149.3590073586
 31
0.0
  0
POLYLINE
  5
9796
  8
5
 66
     1
 10
0.0
 20
0.0
 30
0.0
 70
   128
  0
VERTEX
  5
A50F
  8
5
 10
322.88733184340009
 20
149.3590073586
 30
0.0
  0
VERTEX
  5
A510
  8
5
 10
322.93870732189998
 20
149.3975473493
 30
0.0
  0
VERTEX
  5
A511
  8
5
 10
323.09050917629997
 20
149.51141271
 30
0.0
  0
VERTEX
  5
A512
  8
5
 10
323.33583444359999
 20
149.69543460009999
 30
0.0
  0
SEQEND
  5
A513
  8
5
  0
ARC
  5
9797
  8
5
 10
323.03579786580002
 20
150.0954166004
 30
0.0
 40
0.5000075484552259
 50
306.87448835049918
 51
36.872990888399613
  0
POLYLINE
  5
9798
  8
5
 66
     1
 10
0.0
 20
0.0
 30
0.0
 70
   128
  0
VERTEX
  5
A514
  8
5
 10
323.4357877075999
 20
150.3954427242
 30
0.0
  0
VERTEX
  5
A515
  8
5
 10
323.25176581739993
 20
150.64076985419999
 30
0.0
  0
VERTEX
  5
A516
  8
5
 10
323.1378985941999
 20
150.7925698459
 30
0.0
  0
VERTEX
  5
A517
  8
5
 10
323.09936046600001
 20
150.84394718710001
 30
0.0
  0
SEQEND
  5
A518
  8
5
  0
LINE
  5
9799
  8
5
 10
323.09936046600001
 20
150.84394718710001
 30
0.0
 11
323.17003667360001
 21
151.338926509
 31
0.0
  0
POLYLINE
  5
979A
  8
5
 66
     1
 10
0.0
 20
0.0
 30
0.0
 70
   128
  0
VERTEX
  5
A519
  8
5
 10
323.17003667360001
 20
151.338926509
 30
0.0
  0
VERTEX
  5
A51A
  8
5
 10
323.2214121520999
 20
151.37746463720001
 30
0.0
  0
VERTEX
  5
A51B
  8
5
 10
323.37321028119999
 20
151.49133186040001
 30
0.0
  0
VERTEX
  5
A51C
  8
5
 10
323.61853927380002
 20
151.67535375060001
 30
0.0
  0
SEQEND
  5
A51D
  8
5
  0
ARC
  5
979B
  8
5
 10
323.3185163707999
 20
152.07533166970001
 30
0.0
 40
0.499996078019634
 50
306.87351543619531
 51
36.87456144920251
  0
POLYLINE
  5
979C
  8
5
 66
     1
 10
0.0
 20
0.0
 30
0.0
 70
   128
  0
VERTEX
  5
A51E
  8
5
 10
323.71848881250003
 20
152.37536187469999
 30
0.0
  0
VERTEX
  5
A51F
  8
5
 10
323.5344669223
 20
152.62068900470001
 30
0.0
  0
VERTEX
  5
A520
  8
5
 10
323.42059969899992
 20
152.7724889964
 30
0.0
  0
VERTEX
  5
A521
  8
5
 10
323.38206157090002
 20
152.82386633749999
 30
0.0
  0
SEQEND
  5
A522
  8
5
  0
LINE
  5
979D
  8
5
 10
323.38206157090002
 20
152.82386633749999
 30
0.0
 11
323.45273777839998
 21
153.3188456595
 31
0.0
  0
POLYLINE
  5
979E
  8
5
 66
     1
 10
0.0
 20
0.0
 30
0.0
 70
   128
  0
VERTEX
  5
A523
  8
5
 10
323.45273777839998
 20
153.3188456595
 30
0.0
  0
VERTEX
  5
A524
  8
5
 10
323.5041169822
 20
153.35738378760001
 30
0.0
  0
VERTEX
  5
A525
  8
5
 10
323.65591511129992
 20
153.4712510109
 30
0.0
  0
VERTEX
  5
A526
  8
5
 10
323.9012441038999
 20
153.65527290110001
 30
0.0
  0
SEQEND
  5
A527
  8
5
  0
ARC
  5
979F
  8
5
 10
323.60122354679987
 20
154.05524968680001
 30
0.0
 40
0.4999937638109687
 50
306.8733783207997
 51
36.874655897503047
  0
POLYLINE
  5
97A0
  8
5
 66
     1
 10
0.0
 20
0.0
 30
0.0
 70
   128
  0
VERTEX
  5
A528
  8
5
 10
324.0011936425999
 20
154.35527916250001
 30
0.0
  0
VERTEX
  5
A529
  8
5
 10
323.81717175249992
 20
154.60060815509999
 30
0.0
  0
VERTEX
  5
A52A
  8
5
 10
323.70330452920001
 20
154.75240628419999
 30
0.0
  0
VERTEX
  5
A52B
  8
5
 10
323.6647664011
 20
154.8037836254
 30
0.0
  0
SEQEND
  5
A52C
  8
5
  0
LINE
  5
97A1
  8
5
 10
323.6647664011
 20
154.8037836254
 30
0.0
 11
323.7354426085999
 21
155.29876480999999
 31
0.0
  0
POLYLINE
  5
97A2
  8
5
 66
     1
 10
0.0
 20
0.0
 30
0.0
 70
   128
  0
VERTEX
  5
A52D
  8
5
 10
323.7354426085999
 20
155.29876480999999
 30
0.0
  0
VERTEX
  5
A52E
  8
5
 10
323.78288045530002
 20
155.33434878290001
 30
0.0
  0
VERTEX
  5
A52F
  8
5
 10
323.92320841550003
 20
155.43961058560001
 30
0.0
  0
VERTEX
  5
A530
  8
5
 10
324.15054053070003
 20
155.61013388629999
 30
0.0
  0
VERTEX
  5
A531
  8
5
 10
324.45534750820002
 20
155.83877171579999
 30
0.0
  0
SEQEND
  5
A532
  8
5
  0
POLYLINE
  5
97A3
  8
5
 66
     1
 10
0.0
 20
0.0
 30
0.0
 70
   128
  0
VERTEX
  5
A533
  8
5
 10
322.51571178440003
 20
144.5516226739
 30
0.0
  0
VERTEX
  5
A534
  8
5
 10
322.3705483972999
 20
144.7451440543
 30
0.0
  0
VERTEX
  5
A535
  8
5
 10
322.28133887049989
 20
144.8640739471
 30
0.0
  0
VERTEX
  5
A536
  8
5
 10
322.25124970079992
 20
144.90418973569999
 30
0.0
  0
SEQEND
  5
A537
  8
5
  0
LINE
  5
97A4
  8
5
 10
322.25124970079992
 20
144.90418973569999
 30
0.0
 11
322.3219259083001
 21
145.39916905760001
 31
0.0
  0
LINE
  5
97A5
  8
5
 10
323.79390251311457
 20
143.9263142280563
 30
0.0
 11
322.88770437239998
 21
144.05570644139999
 31
0.0
  0
POLYLINE
  5
97A6
  8
5
 66
     1
 10
0.0
 20
0.0
 30
0.0
 70
   128
  0
VERTEX
  5
A538
  8
5
 10
322.88770437239998
 20
144.05570644139999
 30
0.0
  0
VERTEX
  5
A539
  8
5
 10
322.76991441849998
 20
144.21273487810001
 30
0.0
  0
VERTEX
  5
A53A
  8
5
 10
322.64581009749998
 20
144.3781843335
 30
0.0
  0
VERTEX
  5
A53B
  8
5
 10
322.51571178440003
 20
144.5516226739
 30
0.0
  0
SEQEND
  5
A53C
  8
5
  0
POLYLINE
  5
97A7
  8
5
 66
     1
 10
0.0
 20
0.0
 30
0.0
 70
   128
  0
VERTEX
  5
A53D
  8
5
 10
342.42924548690002
 20
141.59830938280001
 30
0.0
  0
VERTEX
  5
A53E
  8
5
 10
342.32656344769998
 20
141.40226039289999
 30
0.0
  0
VERTEX
  5
A53F
  8
5
 10
342.24192112690002
 20
141.24065729980001
 30
0.0
  0
VERTEX
  5
A540
  8
5
 10
342.17654041949999
 20
141.11582654719999
 30
0.0
  0
SEQEND
  5
A541
  8
5
  0
ARC
  5
97AA
  8
5
 10
323.5594978563999
 20
143.45471324159999
 30
0.0
 40
0.5000000000000108
 50
351.87392504260032
 51
81.873925042603489
  0
LINE
  5
97AB
  8
5
 10
342.17654041945582
 20
141.1158265471949
 30
0.0
 11
336.35710053150001
 21
130.00496662410001
 31
0.0
  0
ARC
  5
97AC
  8
5
 10
328.51004056810001
 20
132.14135269489989
 30
0.0
 40
6.000000000000056
 50
171.87392504260021
 51
261.8739250426035
  0
ARC
  5
97AD
  8
5
 10
329.71323329080002
 20
133.4847679248
 30
0.0
 40
7.5000000000000586
 50
261.8739250426035
 51
332.35619218429889
  0
LINE
  5
97AE
  8
5
 10
328.65309402349999
 20
126.06007220879999
 30
0.0
 11
327.6619283855
 21
126.2015961036
 31
0.0
  0
LINE
  5
97AF
  8
5
 10
322.57028356199999
 20
132.98946338889999
 30
0.0
 11
324.05447756952788
 21
143.38403733628721
 31
0.0
  0
LINE
  5
97B0
  8
5
 10
325.00207856299988
 20
142.94602255519999
 30
0.0
 11
341.1564181
 21
140.63941965999999
 31
0.0
  0
ARC
  5
97B1
  8
5
 10
323.72267841190001
 20
143.43821669819999
 30
0.0
 40
0.4932667343797574
 50
17.072692903600799
 51
81.708256970792846
  0
ARC
  5
97B2
  8
5
 10
325.13411757519998
 20
143.94426192020001
 30
0.0
 40
1.0069340249419101
 50
201.02296406749869
 51
262.46511858370468
  0
ARC
  5
97B3
  8
5
 10
341.3422271938
 20
141.57193877890001
 30
0.0
 40
0.9508506330729568
 50
258.73111720210011
 51
331.3349324734998
  0
ARC
  5
97B4
  8
5
 10
323.4769311207001
 20
152.1256540384
 30
0.0
 40
2.0000000000000511
 50
73.567582953001391
 51
105.11976217470171
  0
ARC
  5
97B5
  8
5
 10
332.60613822699997
 20
146.30541267309999
 30
0.0
 40
5.0000000000000613
 50
29.59727436060184
 51
73.567582953001391
  0
LINE
  5
97B6
  8
5
 10
324.04270082709991
 20
154.04396224019999
 30
0.0
 11
334.0205593407
 21
151.10118220749999
 31
0.0
  0
ARC
  5
97B7
  8
5
 10
332.60613294770002
 20
146.3054106781
 30
0.0
 40
5.0000053427630977
 50
355.60206640660027
 51
29.597268241902331
  0
LINE
  5
97B8
  8
5
 10
319.55003325915618
 20
140.70605615901221
 30
0.0
 11
318.66638049490012
 21
140.46730193499999
 31
0.0
  0
POLYLINE
  5
97B9
  8
5
 66
     1
 10
0.0
 20
0.0
 30
0.0
 70
   128
  0
VERTEX
  5
A542
  8
5
 10
318.66638049490012
 20
140.46730193499999
 30
0.0
  0
VERTEX
  5
A543
  8
5
 10
318.4961794317
 20
140.56509359930001
 30
0.0
  0
VERTEX
  5
A544
  8
5
 10
318.31685140729991
 20
140.66813047229999
 30
0.0
  0
VERTEX
  5
A545
  8
5
 10
318.12886208300012
 20
140.77614153920001
 30
0.0
  0
SEQEND
  5
A546
  8
5
  0
POLYLINE
  5
97BA
  8
5
 66
     1
 10
0.0
 20
0.0
 30
0.0
 70
   128
  0
VERTEX
  5
A547
  8
5
 10
317.6162956655001
 20
141.47840160129999
 30
0.0
  0
VERTEX
  5
A548
  8
5
 10
317.64829218389991
 20
141.53408910339999
 30
0.0
  0
VERTEX
  5
A549
  8
5
 10
317.74282887580011
 20
141.698624
 30
0.0
  0
VERTEX
  5
A54A
  8
5
 10
317.8956104815
 20
141.9645333588
 30
0.0
  0
SEQEND
  5
A54B
  8
5
  0
ARC
  5
97BB
  8
5
 10
317.46208431999997
 20
142.2136296585
 30
0.0
 40
0.4999938992415214
 50
330.11910310659869
 51
60.12032702959791
  0
POLYLINE
  5
97BC
  8
5
 66
     1
 10
0.0
 20
0.0
 30
0.0
 70
   128
  0
VERTEX
  5
A54C
  8
5
 10
317.71117135880007
 20
142.647161141
 30
0.0
  0
VERTEX
  5
A54D
  8
5
 10
317.44526386259992
 20
142.79994274680001
 30
0.0
  0
VERTEX
  5
A54E
  8
5
 10
317.28072896600003
 20
142.89447943869999
 30
0.0
  0
VERTEX
  5
A54F
  8
5
 10
317.22503960139989
 20
142.92647595700001
 30
0.0
  0
SEQEND
  5
A550
  8
5
  0
LINE
  5
97BD
  8
5
 10
317.22503960139989
 20
142.92647595700001
 30
0.0
 11
317.09462091329988
 21
143.40916740899999
 31
0.0
  0
POLYLINE
  5
97BE
  8
5
 66
     1
 10
0.0
 20
0.0
 30
0.0
 70
   128
  0
VERTEX
  5
A551
  8
5
 10
317.09462091329988
 20
143.40916740899999
 30
0.0
  0
VERTEX
  5
A552
  8
5
 10
317.12661743170003
 20
143.464854911
 30
0.0
  0
VERTEX
  5
A553
  8
5
 10
317.22115412359989
 20
143.62938980760001
 30
0.0
  0
VERTEX
  5
A554
  8
5
 10
317.3739357293
 20
143.89529730379999
 30
0.0
  0
SEQEND
  5
A555
  8
5
  0
ARC
  5
97BF
  8
5
 10
316.9403892023002
 20
144.14438928390001
 30
0.0
 40
0.5000094055704981
 50
330.1206949134982
 51
60.118656487997342
  0
POLYLINE
  5
97C0
  8
5
 66
     1
 10
0.0
 20
0.0
 30
0.0
 70
   128
  0
VERTEX
  5
A556
  8
5
 10
317.18949660660002
 20
144.5779269487
 30
0.0
  0
VERTEX
  5
A557
  8
5
 10
316.92358538510013
 20
144.7307085544
 30
0.0
  0
VERTEX
  5
A558
  8
5
 10
316.75905421380003
 20
144.8252452463
 30
0.0
  0
VERTEX
  5
A559
  8
5
 10
316.70336484910013
 20
144.85724176470001
 30
0.0
  0
SEQEND
  5
A55A
  8
5
  0
LINE
  5
97C1
  8
5
 10
316.70336484910013
 20
144.85724176470001
 30
0.0
 11
316.57294616109988
 21
145.3399332166
 31
0.0
  0
POLYLINE
  5
97C2
  8
5
 66
     1
 10
0.0
 20
0.0
 30
0.0
 70
   128
  0
VERTEX
  5
A55B
  8
5
 10
316.57294616109988
 20
145.3399332166
 30
0.0
  0
VERTEX
  5
A55C
  8
5
 10
316.60494267939998
 20
145.39562071859999
 30
0.0
  0
VERTEX
  5
A55D
  8
5
 10
316.69947937130001
 20
145.56015561519999
 30
0.0
  0
VERTEX
  5
A55E
  8
5
 10
316.85226097709977
 20
145.8260631114
 30
0.0
  0
SEQEND
  5
A55F
  8
5
  0
ARC
  5
97C3
  8
5
 10
316.41871454390002
 20
146.07515511689999
 30
0.0
 40
0.5000093367843567
 50
330.1206870316978
 51
60.118664369895761
  0
POLYLINE
  5
97C4
  8
5
 66
     1
 10
0.0
 20
0.0
 30
0.0
 70
   128
  0
VERTEX
  5
A560
  8
5
 10
316.66782185440002
 20
146.50869275630001
 30
0.0
  0
VERTEX
  5
A561
  8
5
 10
316.4019106328999
 20
146.66147436200001
 30
0.0
  0
VERTEX
  5
A562
  8
5
 10
316.23737946160009
 20
146.75601105390001
 30
0.0
  0
VERTEX
  5
A563
  8
5
 10
316.18169009690001
 20
146.78800757229999
 30
0.0
  0
SEQEND
  5
A564
  8
5
  0
LINE
  5
97C5
  8
5
 10
316.18169009690001
 20
146.78800757229999
 30
0.0
 11
316.05127140880001
 21
147.27069902420001
 31
0.0
  0
POLYLINE
  5
97C6
  8
5
 66
     1
 10
0.0
 20
0.0
 30
0.0
 70
   128
  0
VERTEX
  5
A565
  8
5
 10
316.05127140880001
 20
147.27069902420001
 30
0.0
  0
VERTEX
  5
A566
  8
5
 10
316.08326792719998
 20
147.3263865262
 30
0.0
  0
VERTEX
  5
A567
  8
5
 10
316.17780461910002
 20
147.49091956020001
 30
0.0
  0
VERTEX
  5
A568
  8
5
 10
316.33058622480007
 20
147.7568289191
 30
0.0
  0
SEQEND
  5
A569
  8
5
  0
ARC
  5
97C7
  8
5
 10
315.89704992460003
 20
148.0059224794
 30
0.0
 40
0.5000013253726563
 50
330.11995408820138
 51
60.119476048106058
  0
POLYLINE
  5
97C8
  8
5
 66
     1
 10
0.0
 20
0.0
 30
0.0
 70
   128
  0
VERTEX
  5
A56A
  8
5
 10
316.14614710209997
 20
148.4394567013
 30
0.0
  0
VERTEX
  5
A56B
  8
5
 10
315.88023588060008
 20
148.59224016970001
 30
0.0
  0
VERTEX
  5
A56C
  8
5
 10
315.71570098400002
 20
148.68677499890001
 30
0.0
  0
VERTEX
  5
A56D
  8
5
 10
315.66001534460003
 20
148.71877151730001
 30
0.0
  0
SEQEND
  5
A56E
  8
5
  0
LINE
  5
97C9
  8
5
 10
315.66001534460003
 20
148.71877151730001
 30
0.0
 11
315.52959665660001
 21
149.20146296920001
 31
0.0
  0
POLYLINE
  5
97CA
  8
5
 66
     1
 10
0.0
 20
0.0
 30
0.0
 70
   128
  0
VERTEX
  5
A56F
  8
5
 10
315.52959665660001
 20
149.20146296920001
 30
0.0
  0
VERTEX
  5
A570
  8
5
 10
315.56159317499993
 20
149.25715047119999
 30
0.0
  0
VERTEX
  5
A571
  8
5
 10
315.65612986689979
 20
149.42168536779999
 30
0.0
  0
VERTEX
  5
A572
  8
5
 10
315.8089114725999
 20
149.68759472670001
 30
0.0
  0
SEQEND
  5
A573
  8
5
  0
ARC
  5
97CB
  8
5
 10
315.37537517240003
 20
149.93668828700001
 30
0.0
 40
0.5000013253726563
 50
330.11995408820138
 51
60.119476048106058
  0
POLYLINE
  5
97CC
  8
5
 66
     1
 10
0.0
 20
0.0
 30
0.0
 70
   128
  0
VERTEX
  5
A574
  8
5
 10
315.62447234990009
 20
150.37022250890001
 30
0.0
  0
VERTEX
  5
A575
  8
5
 10
315.35856112840003
 20
150.52300597729999
 30
0.0
  0
VERTEX
  5
A576
  8
5
 10
315.19402623179991
 20
150.61754080649999
 30
0.0
  0
VERTEX
  5
A577
  8
5
 10
315.13834059240003
 20
150.6495373249
 30
0.0
  0
SEQEND
  5
A578
  8
5
  0
LINE
  5
97CD
  8
5
 10
315.13834059240003
 20
150.6495373249
 30
0.0
 11
315.00792190440012
 21
151.13222877679999
 31
0.0
  0
POLYLINE
  5
97CE
  8
5
 66
     1
 10
0.0
 20
0.0
 30
0.0
 70
   128
  0
VERTEX
  5
A579
  8
5
 10
315.00792190440012
 20
151.13222877679999
 30
0.0
  0
VERTEX
  5
A57A
  8
5
 10
315.03746345640002
 20
151.18364709619999
 30
0.0
  0
VERTEX
  5
A57B
  8
5
 10
315.12485504149998
 20
151.3357488364
 30
0.0
  0
VERTEX
  5
A57C
  8
5
 10
315.266430974
 20
151.5821525753
 30
0.0
  0
VERTEX
  5
A57D
  8
5
 10
315.45625314120002
 20
151.91252808269999
 30
0.0
  0
SEQEND
  5
A57E
  8
5
  0
POLYLINE
  5
97CF
  8
5
 66
     1
 10
0.0
 20
0.0
 30
0.0
 70
   128
  0
VERTEX
  5
A57F
  8
5
 10
318.12886208300012
 20
140.77614153920001
 30
0.0
  0
VERTEX
  5
A580
  8
5
 10
317.91910216209999
 20
140.896662131
 30
0.0
  0
VERTEX
  5
A581
  8
5
 10
317.79019594200008
 20
140.97072649
 30
0.0
  0
VERTEX
  5
A582
  8
5
 10
317.7467143536
 20
140.9957101494
 30
0.0
  0
SEQEND
  5
A583
  8
5
  0
LINE
  5
97D0
  8
5
 10
317.7467143536
 20
140.9957101494
 30
0.0
 11
317.6162956655001
 21
141.47840160129999
 31
0.0
  0
POLYLINE
  5
97D1
  8
5
 66
     1
 10
0.0
 20
0.0
 30
0.0
 70
   128
  0
VERTEX
  5
A584
  8
5
 10
315.45625314120002
 20
151.91252808269999
 30
0.0
  0
VERTEX
  5
A585
  8
5
 10
315.50035685300008
 20
151.98928396400001
 30
0.0
  0
VERTEX
  5
A586
  8
5
 10
315.52727952599997
 20
152.03614066540001
 30
0.0
  0
VERTEX
  5
A587
  8
5
 10
315.53632825620002
 20
152.0518949181
 30
0.0
  0
SEQEND
  5
A588
  8
5
  0
LINE
  5
97D2
  8
5
 10
315.53632825620002
 20
152.0518949181
 30
0.0
 11
322.95525506139978
 21
154.056419611
 31
0.0
  0
POLYLINE
  5
97D3
  8
5
 66
     1
 10
0.0
 20
0.0
 30
0.0
 70
   128
  0
VERTEX
  5
A589
  8
5
 10
337.59141586719988
 20
145.9219949246
 30
0.0
  0
VERTEX
  5
A58A
  8
5
 10
337.57444530729998
 20
145.70133480429999
 30
0.0
  0
VERTEX
  5
A58B
  8
5
 10
337.5604549795998
 20
145.51944378019999
 30
0.0
  0
VERTEX
  5
A58C
  8
5
 10
337.54964977510008
 20
145.37894259390001
 30
0.0
  0
SEQEND
  5
A58D
  8
5
  0
ARC
  5
97D6
  8
5
 10
319.52083584749988
 20
140.1802382564
 30
0.0
 40
0.5000000000000358
 50
15.11976217469878
 51
105.11976217470171
  0
LINE
  5
97D7
  8
5
 10
337.54964977510241
 20
145.37894259394639
 30
0.0
 11
336.58783569929977
 21
132.87326506529999
 31
0.0
  0
LINE
  5
97D8
  8
5
 10
331.06620110569997
 20
126.2080222294
 30
0.0
 11
330.0996428727999
 21
125.94686709760001
 31
0.0
  0
ARC
  5
97D9
  8
5
 10
328.53461727850009
 20
131.7391634247
 30
0.0
 40
6.0000000000001172
 50
195.11976217469879
 51
285.11976217470169
  0
ARC
  5
97DA
  8
5
 10
329.10991945450002
 20
133.4483926703
 30
0.0
 40
7.5000000000000506
 50
285.11976217470169
 51
355.60202931640032
  0
LINE
  5
97DB
  8
5
 10
322.74232119319998
 20
130.17413857579999
 30
0.0
 11
320.00352726341862
 21
140.31065680185441
 31
0.0
  0
LINE
  5
97DC
  8
5
 10
321.04707568889989
 20
140.28219691659999
 30
0.0
 11
336.80036723619992
 21
144.5385916084
 31
0.0
  0
ARC
  5
97DD
  8
5
 10
319.67727900139988
 20
140.22947652920001
 30
0.0
 40
0.4932743886227366
 50
40.31919423040344
 51
104.9534909804995
  0
ARC
  5
97DE
  8
5
 10
320.77441281829988
 20
141.251502192
 30
0.0
 40
1.0069249017570261
 50
224.26845065640131
 51
285.71114450639737
  0
ARC
  5
97DF
  8
5
 10
336.60305069949999
 20
145.46874210510001
 30
0.0
 40
0.9508489691505555
 50
281.97683306979201
 51
354.58082995949991
  0
ARC
  5
97E0
  8
5
 10
360.0
 20
600.35850405940096
 30
0.0
 40
12.500000000000449
 50
299.90000046250339
 51
240.09999953749659
  0
LINE
  5
97E1
  8
5
 10
367.25
 20
589.55203892040095
 30
0.0
 11
367.25
 21
590.17579813220107
 31
0.0
  0
LINE
  5
97E2
  8
5
 10
352.75
 20
590.17579813220107
 30
0.0
 11
352.75
 21
589.55203892040095
 31
0.0
  0
LINE
  5
97E3
  8
5
 10
354.0
 20
345.69838653080097
 30
0.0
 11
354.0
 21
443.12245844739073
 31
0.0
  0
LINE
  5
97E4
  8
5
 10
366.0
 20
443.78487199983061
 30
0.0
 11
366.0
 21
345.69838653080097
 31
0.0
  0
ARC
  5
97E5
  8
5
 10
360.0
 20
603.797022623001
 30
0.0
 40
15.575442968441459
 50
246.41813030240149
 51
293.58186969759839
  0
POLYLINE
  5
97E6
  8
5
 66
     1
 10
0.0
 20
0.0
 30
0.0
 70
   128
  0
VERTEX
  5
A58E
  8
5
 10
367.04460276759983
 20
588.96598844310108
 30
0.0
  0
VERTEX
  5
A58F
  8
5
 10
366.64003379709987
 20
588.55650463360109
 30
0.0
  0
VERTEX
  5
A590
  8
5
 10
366.03371075969989
 20
588.17726962970096
 30
0.0
  0
VERTEX
  5
A591
  8
5
 10
365.24405647409998
 20
587.83980629500104
 30
0.0
  0
VERTEX
  5
A592
  8
5
 10
364.29506418609998
 20
587.55436828220104
 30
0.0
  0
VERTEX
  5
A593
  8
5
 10
363.21556854629989
 20
587.32962848090096
 30
0.0
  0
VERTEX
  5
A594
  8
5
 10
362.0383694832999
 20
587.17241549620098
 30
0.0
  0
VERTEX
  5
A595
  8
5
 10
360.79923559510007
 20
587.08750616510099
 30
0.0
  0
VERTEX
  5
A596
  8
5
 10
359.53581733769988
 20
587.07748041460115
 30
0.0
  0
VERTEX
  5
A597
  8
5
 10
358.28650303559988
 20
587.14264287220101
 30
0.0
  0
VERTEX
  5
A598
  8
5
 10
357.08925247170009
 20
587.28101360940104
 30
0.0
  0
VERTEX
  5
A599
  8
5
 10
355.98044349859993
 20
587.48838830160105
 30
0.0
  0
VERTEX
  5
A59A
  8
5
 10
354.99376671570008
 20
587.75846597350107
 30
0.0
  0
VERTEX
  5
A59B
  8
5
 10
354.15920179799991
 20
588.08304045190096
 30
0.0
  0
VERTEX
  5
A59C
  8
5
 10
353.502106578
 20
588.45224970530114
 30
0.0
  0
VERTEX
  5
A59D
  8
5
 10
353.0424465614999
 20
588.85487549760103
 30
0.0
  0
VERTEX
  5
A59E
  8
5
 10
352.7941882856
 20
589.27868424760095
 30
0.0
  0
VERTEX
  5
A59F
  8
5
 10
352.75
 20
589.55203892040095
 30
0.0
  0
SEQEND
  5
A5A0
  8
5
  0
POLYLINE
  5
97E7
  8
5
 66
     1
 10
0.0
 20
0.0
 30
0.0
 70
   128
  0
VERTEX
  5
A5A1
  8
5
 10
367.25
 20
589.55203892040095
 30
0.0
  0
VERTEX
  5
A5A2
  8
5
 10
367.23512504770002
 20
589.39327909970109
 30
0.0
  0
VERTEX
  5
A5A3
  8
5
 10
367.04460276759983
 20
588.96598844310108
 30
0.0
  0
SEQEND
  5
A5A4
  8
5
  0
ARC
  5
97E8
  8
5
 10
360.0
 20
333.50000025330098
 30
0.0
 40
12.50000000000002
 50
119.9000004625038
 51
180.0
  0
ARC
  5
97E9
  8
5
 10
360.0
 20
333.50000025330098
 30
0.0
 40
12.500000000000989
 50
180.0
 51
60.09999953749616
  0
LINE
  5
97EA
  8
5
 10
352.75
 20
344.30646539240092
 30
0.0
 11
352.75
 21
343.68270618050099
 31
0.0
  0
LINE
  5
97EB
  8
5
 10
367.25
 20
343.68270618050099
 30
0.0
 11
367.25
 21
344.30646539240092
 31
0.0
  0
LINE
  5
97EC
  8
5
 10
366.0
 20
588.16011778210111
 30
0.0
 11
366.0
 21
490.73604586541131
 31
0.0
  0
LINE
  5
97ED
  8
5
 10
354.0
 20
490.07363231295841
 30
0.0
 11
354.0
 21
588.16011778210111
 31
0.0
  0
ARC
  5
97EE
  8
5
 10
360.0
 20
330.09285992110102
 30
0.0
 40
15.546690221038769
 50
66.371866929898303
 51
113.6281330701016
  0
POLYLINE
  5
97EF
  8
5
 66
     1
 10
0.0
 20
0.0
 30
0.0
 70
   128
  0
VERTEX
  5
A5A5
  8
5
 10
352.75
 20
344.30646539240092
 30
0.0
  0
VERTEX
  5
A5A6
  8
5
 10
352.82311506899993
 20
344.657735679501
 30
0.0
  0
VERTEX
  5
A5A7
  8
5
 10
353.11049267630011
 20
345.078642720701
 30
0.0
  0
VERTEX
  5
A5A8
  8
5
 10
353.6072044773
 20
345.47608754440091
 30
0.0
  0
VERTEX
  5
A5A9
  8
5
 10
354.2981581352999
 20
345.83799399100099
 30
0.0
  0
VERTEX
  5
A5AA
  8
5
 10
355.16235937319988
 20
346.15336571600102
 30
0.0
  0
VERTEX
  5
A5AB
  8
5
 10
356.17354987350018
 20
346.41262030940089
 30
0.0
  0
VERTEX
  5
A5AC
  8
5
 10
357.30100512460012
 20
346.6078804513009
 30
0.0
  0
VERTEX
  5
A5AD
  8
5
 10
358.5104679692999
 20
346.733213261201
 30
0.0
  0
VERTEX
  5
A5AE
  8
5
 10
359.765189491
 20
346.784810565101
 30
0.0
  0
VERTEX
  5
A5AF
  8
5
 10
361.02704561119998
 20
346.76110460510102
 30
0.0
  0
VERTEX
  5
A5B0
  8
5
 10
362.25769547019991
 20
346.66281567470099
 30
0.0
  0
VERTEX
  5
A5B1
  8
5
 10
363.41974639479992
 20
346.49293023330102
 30
0.0
  0
VERTEX
  5
A5B2
  8
5
 10
364.47789005560003
 20
346.25661016410101
 30
0.0
  0
VERTEX
  5
A5B3
  8
5
 10
365.39997529309989
 20
345.96103593290093
 30
0.0
  0
VERTEX
  5
A5B4
  8
5
 10
366.1579850137
 20
345.6151884131009
 30
0.0
  0
VERTEX
  5
A5B5
  8
5
 10
366.72888747590008
 20
345.22957600650091
 30
0.0
  0
VERTEX
  5
A5B6
  8
5
 10
367.09533609699997
 20
344.81591535100102
 30
0.0
  0
VERTEX
  5
A5B7
  8
5
 10
367.24619652130008
 20
344.38677531630088
 30
0.0
  0
VERTEX
  5
A5B8
  8
5
 10
367.25
 20
344.30646539240092
 30
0.0
  0
SEQEND
  5
A5B9
  8
5
  0
LINE
  5
97F9
  8
3
 10
365.05299999995009
 20
109.0530005455233
 30
0.0
 11
365.05299999995009
 21
125.0000009239
 31
0.0
  0
LINE
  5
97FA
  8
3
 10
354.94699999995009
 20
109.0530005455704
 30
0.0
 11
354.94699999994958
 21
125.0000009239
 31
0.0
  0
LINE
  5
97FC
  8
3
 10
115.0529999999501
 20
109.0530005455233
 30
0.0
 11
115.0529999999501
 21
125.0000009239
 31
0.0
  0
LINE
  5
97FD
  8
3
 10
104.94699999995009
 20
109.0530005455704
 30
0.0
 11
104.9469999999496
 21
125.0000009239
 31
0.0
  0
LINE
  5
97FE
  8
3
 10
615.05299999994998
 20
109.0530005455233
 30
0.0
 11
615.05299999994998
 21
125.0000009239
 31
0.0
  0
LINE
  5
97FF
  8
3
 10
604.94699999995009
 20
109.0530005455704
 30
0.0
 11
604.94699999994964
 21
125.0000009239
 31
0.0
  0
LINE
  5
9803
  8
1
 10
110.0
 20
163.00000025329999
 30
0.0
 11
110.0
 21
100.0
 31
0.0
  0
LINE
  5
9804
  8
1
 10
610.0
 20
163.00000025329999
 30
0.0
 11
610.0
 21
100.0
 31
0.0
  0
LINE
  5
9808
  8
1
 10
392.5
 20
466.92925215640099
 30
0.0
 11
312.5
 21
466.92925215640099
 31
0.0
  0
LINE
  5
980B
  8
1
 10
360.0
 20
620.85850405940153
 30
0.0
 11
360.0
 21
313.0000002532999
 31
0.0
  0
LINE
  5
998D
  8
1
 10
337.5000000002392
 20
132.00000092389999
 30
0.0
 11
321.49999999976069
 21
132.00000092389999
 31
0.0
  0
LINE
  5
998E
  8
1
 10
329.5
 20
124.00000092366071
 30
0.0
 11
329.5
 21
140.00000092413919
 31
0.0
  0
LINE
  5
99DC
  8
1
 10
360.0
 20
466.9292521564513
 30
0.0
 11
399.83982199089297
 21
318.24501232193899
 31
0.0
  0
ARC
  5
A279
  8
0
 10
238.88276039559989
 20
167.3363596744999
 30
0.0
 40
12.500000000000011
 50
236.09743912619589
 51
165.19635384790149
  0
LINE
  5
A27A
  8
0
 10
231.0009224042
 20
156.61878653260001
 30
0.0
 11
232.19659515609999
 21
157.0693276401999
 31
0.0
  0
LINE
  5
A27B
  8
0
 10
227.0837836014999
 20
170.63801062739989
 30
0.0
 11
225.88811084959991
 21
170.18746951979989
 31
0.0
  0
LINE
  5
A27C
  8
0
 10
134.64257525139999
 20
138.25
 30
0.0
 11
173.52715701139991
 21
138.25
 31
0.0
  0
LINE
  5
A27D
  8
0
 10
173.52715701139991
 20
150.25
 30
0.0
 11
134.64257525139999
 21
150.25
 31
0.0
  0
ARC
  5
A27E
  8
0
 10
173.51965004210001
 20
166.7319036138
 30
0.0
 40
28.48190460308081
 50
270.01510143609971
 51
290.66624656249581
  0
ARC
  5
A27F
  8
0
 10
173.51900796529989
 20
166.7354253515
 30
0.0
 40
16.485427365636991
 50
270.02832234510032
 51
290.67809998549677
  0
LINE
  5
A280
  8
0
 10
226.14733579220001
 20
168.94935144050001
 30
0.0
 11
179.34029699999991
 21
151.31200454410001
 31
0.0
  0
LINE
  5
A281
  8
0
 10
183.57158932109991
 20
140.08274965809991
 30
0.0
 11
230.37862811319999
 21
157.72009655459999
 31
0.0
  0
LINE
  5
A282
  8
0
 10
134.64257525139999
 20
136.5
 30
0.0
 11
134.64257525139999
 21
152.0
 31
0.0
  0
LINE
  5
A283
  8
0
 10
89.211995014399903
 20
142.4218666637999
 30
0.0
 11
89.211995014399903
 21
136.5
 31
0.0
  0
LINE
  5
A284
  8
0
 10
134.6442152482999
 20
152.0
 30
0.0
 11
134.14419454419999
 21
152.5
 31
0.0
  0
LINE
  5
A285
  8
0
 10
134.14419454429989
 20
136.0
 30
0.0
 11
134.6442152482999
 21
136.5
 31
0.0
  0
LINE
  5
A286
  8
0
 10
89.212132900599954
 20
136.5
 30
0.0
 11
89.712128754699961
 21
136.0
 31
0.0
  0
POLYLINE
  5
A287
  8
0
 66
     1
 10
0.0
 20
0.0
 30
0.0
 70
   128
  0
VERTEX
  5
A5BA
  8
0
 10
232.19659515609999
 20
157.0693276401999
 30
0.0
  0
VERTEX
  5
A5BB
  8
0
 10
232.40960014759989
 20
157.2321557896999
 30
0.0
  0
VERTEX
  5
A5BC
  8
0
 10
232.58636098560001
 20
157.6110990608999
 30
0.0
  0
VERTEX
  5
A5BD
  8
0
 10
232.6736038903
 20
158.17971966489989
 30
0.0
  0
VERTEX
  5
A5BE
  8
0
 10
232.66867802990001
 20
158.9207403524
 30
0.0
  0
VERTEX
  5
A5BF
  8
0
 10
232.57173307439999
 20
159.8116455846999
 30
0.0
  0
VERTEX
  5
A5C0
  8
0
 10
232.38571464709989
 20
160.8253656572
 30
0.0
  0
VERTEX
  5
A5C1
  8
0
 10
232.1162748239
 20
161.93109919839989
 30
0.0
  0
VERTEX
  5
A5C2
  8
0
 10
231.77160039739999
 20
163.09524905419991
 30
0.0
  0
VERTEX
  5
A5C3
  8
0
 10
231.3621641256
 20
164.28244312039999
 30
0.0
  0
VERTEX
  5
A5C4
  8
0
 10
230.90040652249999
 20
165.45660910599989
 30
0.0
  0
VERTEX
  5
A5C5
  8
0
 10
230.4003578590999
 20
166.5820705715999
 30
0.0
  0
VERTEX
  5
A5C6
  8
0
 10
229.8772118611999
 20
167.62463094019989
 30
0.0
  0
VERTEX
  5
A5C7
  8
0
 10
229.34686405510001
 20
168.55261254249999
 30
0.0
  0
VERTEX
  5
A5C8
  8
0
 10
228.8254287904999
 20
169.33781912709989
 30
0.0
  0
VERTEX
  5
A5C9
  8
0
 10
228.32874961409991
 20
169.9563925892999
 30
0.0
  0
VERTEX
  5
A5CA
  8
0
 10
227.8719178714
 20
170.3895378874
 30
0.0
  0
VERTEX
  5
A5CB
  8
0
 10
227.4688141636
 20
170.62409412069991
 30
0.0
  0
VERTEX
  5
A5CC
  8
0
 10
227.1316865929
 20
170.65293441679989
 30
0.0
  0
VERTEX
  5
A5CD
  8
0
 10
227.0837836014999
 20
170.63801062739989
 30
0.0
  0
SEQEND
  5
A5CE
  8
0
  0
POLYLINE
  5
A288
  8
0
 66
     1
 10
0.0
 20
0.0
 30
0.0
 70
   128
  0
VERTEX
  5
A5CF
  8
0
 10
229.63394165330001
 20
157.43949146269989
 30
0.0
  0
VERTEX
  5
A5D0
  8
0
 10
229.75595639159999
 20
157.3004045706999
 30
0.0
  0
VERTEX
  5
A5D1
  8
0
 10
230.2127881344
 20
156.86725927259991
 30
0.0
  0
VERTEX
  5
A5D2
  8
0
 10
230.6158918422
 20
156.63270303929991
 30
0.0
  0
VERTEX
  5
A5D3
  8
0
 10
230.95301941279999
 20
156.60386274320001
 30
0.0
  0
VERTEX
  5
A5D4
  8
0
 10
231.21392739570001
 20
156.78161468210001
 30
0.0
  0
VERTEX
  5
A5D5
  8
0
 10
231.39068823380001
 20
157.16055795330001
 30
0.0
  0
VERTEX
  5
A5D6
  8
0
 10
231.47793113840001
 20
157.7291785573
 30
0.0
  0
VERTEX
  5
A5D7
  8
0
 10
231.4730052779999
 20
158.4701992448
 30
0.0
  0
VERTEX
  5
A5D8
  8
0
 10
231.37606032249991
 20
159.3611044770999
 30
0.0
  0
VERTEX
  5
A5D9
  8
0
 10
231.19004189520001
 20
160.37482454959999
 30
0.0
  0
VERTEX
  5
A5DA
  8
0
 10
230.92060207200001
 20
161.48055809079989
 30
0.0
  0
VERTEX
  5
A5DB
  8
0
 10
230.5759276455
 20
162.64470794659991
 30
0.0
  0
VERTEX
  5
A5DC
  8
0
 10
230.1664913736999
 20
163.83190201279999
 30
0.0
  0
VERTEX
  5
A5DD
  8
0
 10
229.7047337706
 20
165.0060679984
 30
0.0
  0
VERTEX
  5
A5DE
  8
0
 10
229.20468510730001
 20
166.13152946400001
 30
0.0
  0
VERTEX
  5
A5DF
  8
0
 10
228.68153910929999
 20
167.1740898326
 30
0.0
  0
VERTEX
  5
A5E0
  8
0
 10
228.15119130319999
 20
168.1020714348999
 30
0.0
  0
VERTEX
  5
A5E1
  8
0
 10
227.62975603859999
 20
168.88727801949989
 30
0.0
  0
VERTEX
  5
A5E2
  8
0
 10
227.13307686219991
 20
169.50585148170001
 30
0.0
  0
VERTEX
  5
A5E3
  8
0
 10
226.67624511950001
 20
169.93899677979991
 30
0.0
  0
VERTEX
  5
A5E4
  8
0
 10
226.2731414116999
 20
170.17355301309999
 30
0.0
  0
VERTEX
  5
A5E5
  8
0
 10
225.936013841
 20
170.20239330929991
 30
0.0
  0
VERTEX
  5
A5E6
  8
0
 10
225.67510585810001
 20
170.02464137029989
 30
0.0
  0
VERTEX
  5
A5E7
  8
0
 10
225.49834502009989
 20
169.64569809909989
 30
0.0
  0
VERTEX
  5
A5E8
  8
0
 10
225.41110211549989
 20
169.0770774950999
 30
0.0
  0
VERTEX
  5
A5E9
  8
0
 10
225.40264933220001
 20
168.66874634859991
 30
0.0
  0
SEQEND
  5
A5EA
  8
0
  0
POLYLINE
  5
A289
  8
0
 66
     1
 10
0.0
 20
0.0
 30
0.0
 70
   128
  0
VERTEX
  5
A5EB
  8
0
 10
230.37862811319999
 20
157.72009655459999
 30
0.0
  0
VERTEX
  5
A5EC
  8
0
 10
230.5032485744
 20
157.79845709179989
 30
0.0
  0
VERTEX
  5
A5ED
  8
0
 10
230.68034958609999
 20
158.1004410214
 30
0.0
  0
VERTEX
  5
A5EE
  8
0
 10
230.7700806332
 20
158.59160557550001
 30
0.0
  0
VERTEX
  5
A5EF
  8
0
 10
230.76919860169991
 20
159.25419878739999
 30
0.0
  0
VERTEX
  5
A5F0
  8
0
 10
230.67773537069999
 20
160.06427281219999
 30
0.0
  0
VERTEX
  5
A5F1
  8
0
 10
230.4989966595999
 20
160.99254946389999
 30
0.0
  0
VERTEX
  5
A5F2
  8
0
 10
230.23944255110001
 20
162.0054784056999
 30
0.0
  0
VERTEX
  5
A5F3
  8
0
 10
229.9084540069
 20
163.06644974650001
 30
0.0
  0
VERTEX
  5
A5F4
  8
0
 10
229.51799381549989
 20
164.13711721769991
 30
0.0
  0
VERTEX
  5
A5F5
  8
0
 10
229.08217422550001
 20
165.1787841073
 30
0.0
  0
VERTEX
  5
A5F6
  8
0
 10
228.61674689229989
 20
166.1538018599
 30
0.0
  0
VERTEX
  5
A5F7
  8
0
 10
228.13853357249999
 20
167.0269307934999
 30
0.0
  0
VERTEX
  5
A5F8
  8
0
 10
227.66481814139999
 20
167.7666137535999
 30
0.0
  0
VERTEX
  5
A5F9
  8
0
 10
227.21272190889999
 20
168.34611667070001
 30
0.0
  0
VERTEX
  5
A5FA
  8
0
 10
226.79858481080001
 20
168.74449479959989
 30
0.0
  0
VERTEX
  5
A5FB
  8
0
 10
226.43737484089999
 20
168.9473497166
 30
0.0
  0
VERTEX
  5
A5FC
  8
0
 10
226.14733579220001
 20
168.94935144050001
 30
0.0
  0
SEQEND
  5
A5FD
  8
0
  0
LINE
  5
A28A
  8
0
 10
132.36838446659999
 20
143.84979753559989
 30
0.0
 11
132.36838446659999
 21
136.5
 31
0.0
  0
LINE
  5
A28B
  8
0
 10
133.0
 20
152.5
 30
0.0
 11
134.14327671230001
 21
152.5
 31
0.0
  0
LINE
  5
A28C
  8
0
 10
128.09999999999999
 20
136.0
 30
0.0
 11
134.1432824684
 21
136.0
 31
0.0
  0
LINE
  5
A28D
  8
0
 10
132.01051167969999
 20
135.99998649939991
 30
0.0
 11
132.36838446659999
 21
136.5
 31
0.0
  0
LINE
  5
A28E
  8
0
 10
88.0
 20
136.0
 30
0.0
 11
91.899999999999963
 21
136.0
 31
0.0
  0
ARC
  5
A28F
  8
0
 10
481.11723960439991
 20
167.3363596744999
 30
0.0
 40
12.500000000001201
 50
12.23054259000032
 51
69.353103512998928
  0
ARC
  5
A290
  8
0
 10
481.11723960439991
 20
167.3363596744999
 30
0.0
 40
12.500000000000171
 50
69.353103512998928
 51
306.4756644359972
  0
LINE
  5
A291
  8
0
 10
494.11188915039992
 20
170.18746951979989
 30
0.0
 11
493.20232873880002
 21
170.53020071829991
 31
0.0
  0
LINE
  5
A292
  8
0
 10
488.08951718420002
 20
156.96151773109989
 30
0.0
 11
488.99907759579997
 21
156.61878653260001
 31
0.0
  0
LINE
  5
A293
  8
0
 10
490.36605834670002
 20
157.43949146269989
 30
0.0
 11
536.42841067899985
 21
140.08274965809991
 31
0.0
  0
LINE
  5
A294
  8
0
 10
540.65970299999992
 20
151.31200454410001
 30
0.0
 11
494.59735066780001
 21
168.66874634859991
 31
0.0
  0
ARC
  5
A295
  8
0
 10
546.47882484329989
 20
166.72356270259991
 30
0.0
 40
16.47356378868346
 50
249.31438282330279
 51
269.97919484610139
  0
ARC
  5
A296
  8
0
 10
546.47972138299986
 20
166.72845869199989
 30
0.0
 40
28.47845952265855
 50
249.33249063500011
 51
269.98616136639799
  0
LINE
  5
A297
  8
0
 10
587.2454081454988
 20
150.25
 30
0.0
 11
546.47284298870011
 21
150.25
 31
0.0
  0
LINE
  5
A298
  8
0
 10
546.47284298870011
 20
138.25
 30
0.0
 11
587.28325307030343
 21
138.25
 31
0.0
  0
LINE
  5
A299
  8
0
 10
585.35742474860001
 20
152.0
 30
0.0
 11
585.35742474859978
 21
150.24999999999989
 31
0.0
  0
LINE
  5
A29A
  8
0
 10
585.35742474860001
 20
138.25000000000011
 30
0.0
 11
585.35742474860001
 21
136.5
 31
0.0
  0
LINE
  5
A29B
  8
0
 10
630.78800498559997
 20
136.5
 30
0.0
 11
630.78800498559997
 21
152.0
 31
0.0
  0
LINE
  5
A29C
  8
0
 10
630.78786711069995
 20
152.0
 30
0.0
 11
630.28787125620011
 21
152.5
 31
0.0
  0
LINE
  5
A29D
  8
0
 10
585.85580545580001
 20
152.5
 30
0.0
 11
585.3557847518
 21
152.0
 31
0.0
  0
LINE
  5
A29E
  8
0
 10
630.28787124529993
 20
136.0
 30
0.0
 11
630.78786709939993
 21
136.5
 31
0.0
  0
LINE
  5
A29F
  8
0
 10
585.35578475169996
 20
136.5
 30
0.0
 11
585.85580545570008
 21
136.0
 31
0.0
  0
ARC
  5
A2A0
  8
0
 10
481.39486203489997
 20
164.85665827579999
 30
0.0
 40
10.416389855361979
 50
313.3729227161013
 51
339.00889466830091
  0
ARC
  5
A2A1
  8
0
 10
474.80759420729999
 20
169.9071981434999
 30
0.0
 40
18.52609519894613
 50
331.70376834159828
 51
0.2388627564987378
  0
POLYLINE
  5
A2A2
  8
0
 66
     1
 10
0.0
 20
0.0
 30
0.0
 70
   128
  0
VERTEX
  5
A5FE
  8
0
 10
492.31565185340003
 20
160.67472658839989
 30
0.0
  0
VERTEX
  5
A5FF
  8
0
 10
491.79250585549988
 20
159.6321662197999
 30
0.0
  0
VERTEX
  5
A600
  8
0
 10
491.2621580494
 20
158.7041846175
 30
0.0
  0
VERTEX
  5
A601
  8
0
 10
490.74072278480003
 20
157.91897803289999
 30
0.0
  0
VERTEX
  5
A602
  8
0
 10
490.24404360839998
 20
157.3004045706999
 30
0.0
  0
VERTEX
  5
A603
  8
0
 10
489.78721186569999
 20
156.86725927259991
 30
0.0
  0
VERTEX
  5
A604
  8
0
 10
489.38410815779997
 20
156.63270303929991
 30
0.0
  0
VERTEX
  5
A605
  8
0
 10
489.04698058719993
 20
156.60386274320001
 30
0.0
  0
VERTEX
  5
A606
  8
0
 10
488.99907759579997
 20
156.61878653260001
 30
0.0
  0
SEQEND
  5
A607
  8
0
  0
POLYLINE
  5
A2A3
  8
0
 66
     1
 10
0.0
 20
0.0
 30
0.0
 70
   128
  0
VERTEX
  5
A608
  8
0
 10
494.11188915039992
 20
170.18746951979989
 30
0.0
  0
VERTEX
  5
A609
  8
0
 10
494.32489414190002
 20
170.02464137029989
 30
0.0
  0
VERTEX
  5
A60A
  8
0
 10
494.50165497989991
 20
169.64569809909989
 30
0.0
  0
VERTEX
  5
A60B
  8
0
 10
494.5888978845
 20
169.0770774950999
 30
0.0
  0
VERTEX
  5
A60C
  8
0
 10
494.58397202419991
 20
168.3360568075999
 30
0.0
  0
VERTEX
  5
A60D
  8
0
 10
494.48702706869989
 20
167.44515157529989
 30
0.0
  0
VERTEX
  5
A60E
  8
0
 10
494.30100864140002
 20
166.4314315028999
 30
0.0
  0
VERTEX
  5
A60F
  8
0
 10
494.03156881820013
 20
165.32569796160001
 30
0.0
  0
VERTEX
  5
A610
  8
0
 10
493.68689439159999
 20
164.16154810579991
 30
0.0
  0
VERTEX
  5
A611
  8
0
 10
493.27745811990007
 20
162.97435403959989
 30
0.0
  0
VERTEX
  5
A612
  8
0
 10
492.81570051679989
 20
161.80018805409989
 30
0.0
  0
VERTEX
  5
A613
  8
0
 10
492.31565185340003
 20
160.67472658839989
 30
0.0
  0
SEQEND
  5
A614
  8
0
  0
LINE
  5
A2A4
  8
0
 10
585.86855911509997
 20
152.5
 30
0.0
 11
630.24483393100002
 21
152.5
 31
0.0
  0
LINE
  5
A2A5
  8
0
 10
585.85580545569985
 20
136.0
 30
0.0
 11
632.0
 21
136.0
 31
0.0
  0
POLYLINE
  5
A2A6
  8
0
 66
     1
 10
0.0
 20
0.0
 30
0.0
 70
   128
  0
VERTEX
  5
A615
  8
0
 10
585.88853223093327
 20
150.25000000000281
 30
0.0
  0
VERTEX
  5
A616
  8
0
 10
586.28464269990502
 20
150.78973891110269
 30
0.0
  0
VERTEX
  5
A617
  8
0
 10
586.82909272280494
 20
150.6950567332027
 30
0.0
  0
VERTEX
  5
A618
  8
0
 10
587.42241887640455
 20
150.06076891860261
 30
0.0
  0
VERTEX
  5
A619
  8
0
 10
588.03533239750436
 20
148.9042266131024
 30
0.0
  0
VERTEX
  5
A61A
  8
0
 10
588.1885217311044
 20
148.4238205460025
 30
0.0
  0
SEQEND
  5
A61B
  8
0
  0
POLYLINE
  5
A2A7
  8
0
 66
     1
 10
0.0
 20
0.0
 30
0.0
 70
   128
  0
VERTEX
  5
A61C
  8
0
 10
588.20131259320374
 20
140.05642682910249
 30
0.0
  0
VERTEX
  5
A61D
  8
0
 10
588.0409114137035
 20
139.61000465750249
 30
0.0
  0
VERTEX
  5
A61E
  8
0
 10
587.66125816700344
 20
138.82438448410261
 30
0.0
  0
VERTEX
  5
A61F
  8
0
 10
587.28296384180339
 20
138.2495605129026
 30
0.0
  0
VERTEX
  5
A620
  8
0
 10
586.90507476120342
 20
137.8595536298026
 30
0.0
  0
VERTEX
  5
A621
  8
0
 10
586.31034821750325
 20
137.7000494701027
 30
0.0
  0
VERTEX
  5
A622
  8
0
 10
585.90546995500335
 20
138.14944336250261
 30
0.0
  0
VERTEX
  5
A623
  8
0
 10
585.87759049971282
 20
138.25000000000281
 30
0.0
  0
SEQEND
  5
A624
  8
0
  0
ARC
  5
A2A8
  8
0
 10
575.20356612301862
 20
144.2202643878413
 30
0.0
 40
13.64840490748913
 50
342.23710154944501
 51
17.93806932659022
  0
CIRCLE
  5
A2A9
  8
0
 10
394.53403156630009
 20
167.33636059840001
 30
0.0
 40
12.50000000000003
  0
LINE
  5
A2AA
  8
0
 10
383.28936755659998
 20
161.87673527000001
 30
0.0
 11
374.2568033188
 21
149.17448255420001
 31
0.0
  0
LINE
  5
A2AB
  8
0
 10
384.036321789
 20
142.22027267519999
 30
0.0
 11
393.06888416409998
 21
154.92252352829991
 31
0.0
  0
ARC
  5
A2AC
  8
0
 10
376.7125451128
 20
146.97798862210001
 30
0.0
 40
8.7334738698210508
 50
272.03093186630127
 51
326.99119797619642
  0
LINE
  5
A2AD
  8
0
 10
367.24693341180011
 20
138.2500007674
 30
0.0
 11
377.02205091709999
 21
138.2500007674
 31
0.0
  0
LINE
  5
A2AE
  8
0
 10
375.02160355450002
 20
150.250001803
 30
0.0
 11
367.24693341180011
 21
150.250001803
 31
0.0
  0
LINE
  5
A2AF
  8
0
 10
382.71505072709999
 20
136.50000094620009
 30
0.0
 11
382.71505072709999
 21
140.69175626340001
 31
0.0
  0
POLYLINE
  5
A2B0
  8
0
 66
     1
 10
0.0
 20
0.0
 30
0.0
 70
   128
  0
VERTEX
  5
A625
  8
0
 10
382.21240662040009
 20
136.00000086430009
 30
0.0
  0
VERTEX
  5
A626
  8
0
 10
382.46237732470001
 20
136.25000137090001
 30
0.0
  0
VERTEX
  5
A627
  8
0
 10
382.712348029
 20
136.50000094620009
 30
0.0
  0
SEQEND
  5
A628
  8
0
  0
ARC
  5
A2B1
  8
0
 10
367.3366104301
 20
144.3643422177
 30
0.0
 40
5.8863427288958432
 50
90.872921215001597
 51
181.11303264229761
  0
ARC
  5
A2B2
  8
0
 10
367.34590720760002
 20
144.14464033260001
 30
0.0
 40
5.8954704150944162
 50
178.97598797109831
 51
269.038067059703
  0
POLYLINE
  5
A2B3
  8
0
 66
     1
 10
0.0
 20
0.0
 30
0.0
 70
   128
  0
VERTEX
  5
A629
  8
0
 10
360.26823743239999
 20
144.25000081959999
 30
0.0
  0
VERTEX
  5
A62A
  8
0
 10
360.36671877020001
 20
143.06223857399999
 30
0.0
  0
VERTEX
  5
A62B
  8
0
 10
360.67169475370002
 20
141.87447632850001
 30
0.0
  0
VERTEX
  5
A62C
  8
0
 10
361.1583763407001
 20
140.79122710230001
 30
0.0
  0
VERTEX
  5
A62D
  8
0
 10
361.84778741090003
 20
139.7800696939
 30
0.0
  0
VERTEX
  5
A62E
  8
0
 10
362.63498583810002
 20
138.98190017050001
 30
0.0
  0
VERTEX
  5
A62F
  8
0
 10
363.5856289323001
 20
138.32488375899999
 30
0.0
  0
VERTEX
  5
A630
  8
0
 10
364.47822781280001
 20
137.93205003439999
 30
0.0
  0
VERTEX
  5
A631
  8
0
 10
365.45343570410012
 20
137.71026208250009
 30
0.0
  0
VERTEX
  5
A632
  8
0
 10
366.29061460489999
 20
137.68115545810011
 30
0.0
  0
VERTEX
  5
A633
  8
0
 10
367.13619450110002
 20
137.80494406080001
 30
0.0
  0
VERTEX
  5
A634
  8
0
 10
367.89220631120003
 20
138.05674574529999
 30
0.0
  0
VERTEX
  5
A635
  8
0
 10
368.2557611167
 20
138.2500007674
 30
0.0
  0
SEQEND
  5
A636
  8
0
  0
POLYLINE
  5
A2B4
  8
0
 66
     1
 10
0.0
 20
0.0
 30
0.0
 70
   128
  0
VERTEX
  5
A637
  8
0
 10
368.2867089659
 20
150.250001803
 30
0.0
  0
VERTEX
  5
A638
  8
0
 10
367.34179932619998
 20
150.6404476166
 30
0.0
  0
VERTEX
  5
A639
  8
0
 10
366.4711403101
 20
150.80561394989999
 30
0.0
  0
VERTEX
  5
A63A
  8
0
 10
365.54339075460001
 20
150.79995150869999
 30
0.0
  0
VERTEX
  5
A63B
  8
0
 10
364.73458971830001
 20
150.64630004759999
 30
0.0
  0
VERTEX
  5
A63C
  8
0
 10
363.93173098559998
 20
150.3505567014
 30
0.0
  0
VERTEX
  5
A63D
  8
0
 10
363.18871322090001
 20
149.9343467802
 30
0.0
  0
VERTEX
  5
A63E
  8
0
 10
362.49539292420002
 20
149.39627330010001
 30
0.0
  0
VERTEX
  5
A63F
  8
0
 10
361.84170098509998
 20
148.7125558704
 30
0.0
  0
VERTEX
  5
A640
  8
0
 10
361.28123792820003
 20
147.92055356500009
 30
0.0
  0
VERTEX
  5
A641
  8
0
 10
360.8026412687999
 20
146.9696378261001
 30
0.0
  0
VERTEX
  5
A642
  8
0
 10
360.46706153079998
 20
145.93112002309999
 30
0.0
  0
VERTEX
  5
A643
  8
0
 10
360.31876630959999
 20
145.1023602784
 30
0.0
  0
VERTEX
  5
A644
  8
0
 10
360.26823743239999
 20
144.25000081959999
 30
0.0
  0
SEQEND
  5
A645
  8
0
  0
LINE
  5
A2B5
  8
0
 10
348.39389532799999
 20
152.0000016242
 30
0.0
 11
348.39389532799999
 21
136.50000094620009
 31
0.0
  0
LINE
  5
A2B6
  8
0
 10
341.33776523170002
 20
136.50000094620009
 30
0.0
 11
341.33776523170002
 21
152.0000016242
 31
0.0
  0
LINE
  5
A2B7
  8
0
 10
341.84738494449999
 20
152.5001497865
 30
0.0
 11
341.33734799920001
 21
152.00000721219999
 31
0.0
  0
LINE
  5
A2B8
  8
0
 10
341.33751004929991
 20
136.4998351708
 30
0.0
 11
341.84738494449999
 21
135.9998518527
 31
0.0
  0
LINE
  5
A2B9
  8
0
 10
348.81565593179999
 20
135.99998782579991
 30
0.0
 11
348.39389532799999
 21
136.50000094620009
 31
0.0
  0
LINE
  5
A2BA
  8
0
 10
341.8476103246
 20
152.5000007749
 30
0.0
 11
376.6215773179099
 21
152.5000007749
 31
0.0
  0
LINE
  5
A30E
  8
0
 10
348.81565593179999
 20
152.50001474460009
 30
0.0
 11
348.39389532799999
 21
152.0000016242
 31
0.0
  0
ENDSEC
  0
EOF
