  0
SECTION
  2
HEADER
  9
$ACADVER
  1
AC1009
  9
$INSBASE
 10
0.0
 20
0.0
 30
0.0
  9
$EXTMIN
 10
0.0
 20
-2.960436562073669
 30
0.0
  9
$EXTMAX
 10
701.36994732923267
 20
620.85850405940153
 30
0.0
  9
$LIMMIN
 10
0.0
 20
0.0
  9
$LIMMAX
 10
385.0
 20
270.0
  9
$ORTHOMODE
 70
     1
  9
$REGENMODE
 70
     1
  9
$FILLMODE
 70
     1
  9
$QTEXTMODE
 70
     0
  9
$MIRRTEXT
 70
     0
  9
$DRAGMODE
 70
     2
  9
$LTSCALE
 40
3.0
  9
$OSMODE
 70
    37
  9
$ATTMODE
 70
     1
  9
$TEXTSIZE
 40
0.2
  9
$TRACEWID
 40
0.05
  9
$TEXTSTYLE
  7
STANDARD
  9
$CLAYER
  8
0
  9
$CELTYPE
  6
BYLAYER
  9
$CECOLOR
 62
   256
  9
$DIMSCALE
 40
1.0
  9
$DIMASZ
 40
3.0
  9
$DIMEXO
 40
1.0
  9
$DIMDLI
 40
6.0
  9
$DIMRND
 40
0.0
  9
$DIMDLE
 40
0.0
  9
$DIMEXE
 40
1.0
  9
$DIMTP
 40
495.0
  9
$DIMTM
 40
0.0
  9
$DIMTXT
 40
3.0
  9
$DIMCEN
 40
0.0
  9
$DIMTSZ
 40
0.0
  9
$DIMTOL
 70
     0
  9
$DIMLIM
 70
     0
  9
$DIMTIH
 70
     0
  9
$DIMTOH
 70
     0
  9
$DIMSE1
 70
     0
  9
$DIMSE2
 70
     0
  9
$DIMTAD
 70
     1
  9
$DIMZIN
 70
     0
  9
$DIMBLK
  1

  9
$DIMASO
 70
     0
  9
$DIMSHO
 70
     0
  9
$DIMPOST
  1

  9
$DIMAPOST
  1

  9
$DIMALT
 70
     0
  9
$DIMALTD
 70
     2
  9
$DIMALTF
 40
25.399999999999999
  9
$DIMLFAC
 40
1.0
  9
$DIMTOFL
 70
     1
  9
$DIMTVP
 40
0.0
  9
$DIMTIX
 70
     1
  9
$DIMSOXD
 70
     0
  9
$DIMSAH
 70
     0
  9
$DIMBLK1
  1

  9
$DIMBLK2
  1

  9
$DIMSTYLE
  2
STANDARD
  9
$DIMCLRD
 70
     0
  9
$DIMCLRE
 70
     0
  9
$DIMCLRT
 70
     4
  9
$DIMTFAC
 40
1.0
  9
$DIMGAP
 40
1.0
  9
$LUNITS
 70
     2
  9
$LUPREC
 70
     1
  9
$SKETCHINC
 40
0.1
  9
$FILLETRAD
 40
15.0
  9
$AUNITS
 70
     0
  9
$AUPREC
 70
     1
  9
$MENU
  1
E:\r13\win\SUPPORT\ACAD
  9
$ELEVATION
 40
0.0
  9
$PELEVATION
 40
0.0
  9
$THICKNESS
 40
0.0
  9
$LIMCHECK
 70
     0
  9
$BLIPMODE
 70
     0
  9
$CHAMFERA
 40
0.0
  9
$CHAMFERB
 40
0.0
  9
$SKPOLY
 70
     0
  9
$TDCREATE
 40
2450653.5278402781
  9
$TDUPDATE
 40
2457906.6017401861
  9
$TDINDWG
 40
0.6263664583
  9
$TDUSRTIMER
 40
0.6263664583
  9
$USRTIMER
 70
     1
  9
$ANGBASE
 50
0.0
  9
$ANGDIR
 70
     0
  9
$PDMODE
 70
     0
  9
$PDSIZE
 40
0.0
  9
$PLINEWID
 40
0.0
  9
$COORDS
 70
     1
  9
$SPLFRAME
 70
     0
  9
$SPLINETYPE
 70
     6
  9
$SPLINESEGS
 70
     8
  9
$ATTDIA
 70
     0
  9
$ATTREQ
 70
     1
  9
$HANDLING
 70
     1
  9
$HANDSEED
  5
9EA8
  9
$SURFTAB1
 70
     6
  9
$SURFTAB2
 70
     6
  9
$SURFTYPE
 70
     6
  9
$SURFU
 70
     6
  9
$SURFV
 70
     6
  9
$UCSNAME
  2

  9
$UCSORG
 10
0.0
 20
0.0
 30
0.0
  9
$UCSXDIR
 10
1.0
 20
0.0
 30
0.0
  9
$UCSYDIR
 10
0.0
 20
1.0
 30
0.0
  9
$PUCSNAME
  2

  9
$PUCSORG
 10
0.0
 20
0.0
 30
0.0
  9
$PUCSXDIR
 10
1.0
 20
0.0
 30
0.0
  9
$PUCSYDIR
 10
0.0
 20
1.0
 30
0.0
  9
$USERI1
 70
     3
  9
$USERI2
 70
     1
  9
$USERI3
 70
     0
  9
$USERI4
 70
     0
  9
$USERI5
 70
     0
  9
$USERR1
 40
1.0
  9
$USERR2
 40
3.0
  9
$USERR3
 40
3.0
  9
$USERR4
 40
3.0
  9
$USERR5
 40
10.0
  9
$WORLDVIEW
 70
     1
  9
$SHADEDGE
 70
     3
  9
$SHADEDIF
 70
    70
  9
$TILEMODE
 70
     1
  9
$MAXACTVP
 70
    16
  9
$PLIMCHECK
 70
     0
  9
$PEXTMIN
 10
1.0000000000000000E+020
 20
1.0000000000000000E+020
 30
1.0000000000000000E+020
  9
$PEXTMAX
 10
-1.0000000000000000E+020
 20
-1.0000000000000000E+020
 30
-1.0000000000000000E+020
  9
$PLIMMIN
 10
0.0
 20
0.0
  9
$PLIMMAX
 10
12.0
 20
9.0
  9
$UNITMODE
 70
     0
  9
$VISRETAIN
 70
     0
  9
$PLINEGEN
 70
     0
  9
$PSLTSCALE
 70
     0
  0
ENDSEC
  0
SECTION
  2
TABLES
  0
TABLE
  2
VPORT
 70
     1
  0
VPORT
  2
*ACTIVE
 70
     0
 10
0.0
 20
0.0
 11
1.0
 21
1.0
 12
750.1776295451823
 22
308.94903810625482
 13
0.0
 23
0.0
 14
5.0
 24
5.0
 15
10.0
 25
10.0
 16
0.0
 26
0.0
 36
1.0
 17
0.0
 27
0.0
 37
0.0
 40
629.31023634143594
 41
2.6019575856443709
 42
50.0
 43
0.0
 44
0.0
 50
0.0
 51
0.0
 71
     0
 72
  1000
 73
     1
 74
     0
 75
     0
 76
     0
 77
     0
 78
     0
  0
ENDTAB
  0
TABLE
  2
LTYPE
 70
     4
  0
LTYPE
  2
CONTINUOUS
 70
     0
  3
Solid Line
 72
    65
 73
     0
 40
0.0
  0
LTYPE
  2
CENTER
 70
     0
  3
____ _ ____ _ ____ _ ____ _ ____ _ ____ _ ____
 72
    65
 73
     4
 40
2.0
 49
1.25
 49
-0.25
 49
0.25
 49
-0.25
  0
LTYPE
  2
PHANTOM
 70
     0
  3
Phantom ______  __  __  ______  __  __  ______
 72
    65
 73
     6
 40
2.5
 49
1.25
 49
-0.25
 49
0.25
 49
-0.25
 49
0.25
 49
-0.25
  0
LTYPE
  2
PHANTOM2
 70
     0
  3
___ _ _ ___ _ _ ___ _ _ ___ _ _
 72
    65
 73
     6
 40
1.25
 49
0.625
 49
-0.125
 49
0.125
 49
-0.125
 49
0.125
 49
-0.125
  0
ENDTAB
  0
TABLE
  2
LAYER
 70
     5
  0
LAYER
  2
0
 70
     0
 62
     7
  6
CONTINUOUS
  0
LAYER
  2
1
 70
     0
 62
     1
  6
CENTER
  0
LAYER
  2
5
 70
     0
 62
     3
  6
PHANTOM
  0
LAYER
  2
3
 70
     0
 62
     3
  6
CONTINUOUS
  0
LAYER
  2
DEFPOINTS
 70
     0
 62
     7
  6
CONTINUOUS
  0
ENDTAB
  0
TABLE
  2
STYLE
 70
     2
  0
STYLE
  2
STANDARD
 70
     0
 40
0.0
 41
1.0
 50
0.0
 71
     0
 42
0.2
  3
simplex
  4
bigfont
  0
STYLE
  2
STANDARD1
 70
     0
 40
0.0
 41
1.0
 50
0.0
 71
     0
 42
3.0
  3
txt
  4

  0
ENDTAB
  0
TABLE
  2
VIEW
 70
     0
  0
ENDTAB
  0
TABLE
  2
UCS
 70
     0
  0
ENDTAB
  0
TABLE
  2
APPID
 70
     6
  0
APPID
  2
ACAD
 70
     0
  0
APPID
  2
ACAD_MLEADERVER
 70
     0
  0
APPID
  2
ACAD_NAV_VCDISPLAY
 70
     0
  0
APPID
  2
ACAD_EXEMPT_FROM_CAD_STANDARDS
 70
     0
  0
APPID
  2
ACAD_DSTYLE_DIMJAG
 70
     0
  0
APPID
  2
ACAD_DSTYLE_DIMTALN
 70
     0
  0
ENDTAB
  0
TABLE
  2
DIMSTYLE
 70
     1
  0
DIMSTYLE
  2
STANDARD
 70
     0
  3

  4

  5

  6

  7

 40
1.0
 41
0.18
 42
0.0625
 43
0.38
 44
0.18
 45
0.0
 46
0.0
 47
0.0
 48
0.0
140
0.18
141
0.09
142
0.0
143
25.399999999999999
144
1.0
145
0.0
146
1.0
147
0.09
 71
     0
 72
     0
 73
     1
 74
     1
 75
     0
 76
     0
 77
     0
 78
     0
170
     0
171
     2
172
     0
173
     0
174
     0
175
     0
176
     0
177
     0
178
     0
  0
ENDTAB
  0
ENDSEC
  0
SECTION
  2
BLOCKS
  0
BLOCK
  8
0
  2
$MODEL_SPACE
 70
     0
 10
0.0
 20
0.0
 30
0.0
  3
$MODEL_SPACE
  1

  0
ENDBLK
  5
82A
  8
0
  0
BLOCK
 67
     1
  8
0
  2
$PAPER_SPACE
 70
     0
 10
0.0
 20
0.0
 30
0.0
  3
$PAPER_SPACE
  1

  0
ENDBLK
  5
828
 67
     1
  8
0
  0
ENDSEC
  0
SECTION
  2
ENTITIES
  0
TEXT
  5
925
  8
0
 62
     3
 10
0.0
 20
0.0
 30
0.0
 40
10.0
  1
QLSC-12R
  7
STANDARD1
  0
LINE
  5
9289
  8
0
 10
353.99999994780001
 20
110.0000012592
 30
0.0
 11
355.99999981000002
 21
108.0
 31
0.0
  0
LINE
  5
928A
  8
0
 10
364.00000018999998
 20
108.0
 30
0.0
 11
366.00000005209989
 21
110.0000012592
 31
0.0
  0
LINE
  5
928B
  8
0
 10
353.99999994780001
 20
125.0000009239
 30
0.0
 11
353.99999994780001
 21
110.0000012592
 31
0.0
  0
LINE
  5
928C
  8
0
 10
366.00000005209989
 20
110.0000012592
 30
0.0
 11
366.00000005209989
 21
125.0000009239
 31
0.0
  0
ARC
  5
928E
  8
0
 10
394.53403156629997
 20
167.33636059840001
 30
0.0
 40
12.50000000000003
 50
275.21839846449768
 51
205.89798523029921
  0
POLYLINE
  5
928F
  8
0
 66
     1
 10
0.0
 20
0.0
 30
0.0
 70
   128
  0
VERTEX
  5
9C5D
  8
0
 10
393.06888416410021
 20
154.92252352829999
 30
0.0
  0
VERTEX
  5
9C5E
  8
0
 10
394.00161117310017
 20
154.847704798
 30
0.0
  0
VERTEX
  5
9C5F
  8
0
 10
395.67093610760003
 20
154.88817076390001
 30
0.0
  0
SEQEND
  5
9C60
  8
0
  0
POLYLINE
  5
9292
  8
0
 66
     1
 10
0.0
 20
0.0
 30
0.0
 70
   128
  0
VERTEX
  5
9C61
  8
0
 10
382.71505072710011
 20
140.69216604530001
 30
0.0
  0
VERTEX
  5
9C62
  8
0
 10
383.14714714880012
 20
141.11429545280001
 30
0.0
  0
VERTEX
  5
9C63
  8
0
 10
384.03632178900011
 20
142.22027267519999
 30
0.0
  0
SEQEND
  5
9C64
  8
0
  0
LINE
  5
9293
  8
0
 10
386.79871208960009
 20
166.81182849410001
 30
0.0
 11
376.62157662210012
 21
152.5000007749
 31
0.0
  0
LINE
  5
9294
  8
0
 10
384.03632178900011
 20
142.22027267519999
 30
0.0
 11
396.57823055979998
 21
159.85762047770001
 31
0.0
  0
LINE
  5
9295
  8
0
 10
345.99999956779999
 20
153.00000178810001
 30
0.0
 11
346.20000015940002
 21
152.8000002652
 31
0.0
  0
LINE
  5
9296
  8
0
 10
373.79999984050011
 20
152.8000002652
 30
0.0
 11
374.00000043210002
 21
153.00000178810001
 31
0.0
  0
LINE
  5
9297
  8
0
 10
374.00000043210002
 20
154.80000059310001
 30
0.0
 11
373.79999984050011
 21
155.00000025329999
 31
0.0
  0
LINE
  5
9298
  8
0
 10
346.20000015940002
 20
155.00000025329999
 30
0.0
 11
345.99999956779999
 21
154.80000059310001
 31
0.0
  0
LINE
  5
9299
  8
0
 10
374.00000043210002
 20
153.00000178810001
 30
0.0
 11
374.00000043210002
 21
154.80000059310001
 31
0.0
  0
LINE
  5
929A
  8
0
 10
345.99999956779999
 20
154.80000059310001
 30
0.0
 11
345.99999956779999
 21
153.00000178810001
 31
0.0
  0
ARC
  5
929B
  8
0
 10
347.35000000000002
 20
152.4000009239
 30
0.0
 40
0.4000000000000341
 50
14.477490143305889
 51
90.0
  0
ARC
  5
929C
  8
0
 10
372.65000000000009
 20
152.4000009239
 30
0.0
 40
0.4000000000000341
 50
90.0
 51
165.52250985669411
  0
POLYLINE
  5
929D
  8
0
 66
     1
 10
0.0
 20
0.0
 30
0.0
 70
   128
  0
VERTEX
  5
9C65
  8
0
 10
382.21240662040009
 20
136.00000086430001
 30
0.0
  0
VERTEX
  5
9C66
  8
0
 10
382.46237732470013
 20
136.25000137090001
 30
0.0
  0
VERTEX
  5
9C67
  8
0
 10
382.71234802900022
 20
136.5000009462
 30
0.0
  0
SEQEND
  5
9C68
  8
0
  0
POLYLINE
  5
929E
  8
0
 66
     1
 10
0.0
 20
0.0
 30
0.0
 70
   128
  0
VERTEX
  5
9C69
  8
0
 10
382.71234802900022
 20
152.0000016242
 30
0.0
  0
VERTEX
  5
9C6A
  8
0
 10
382.46237732470013
 20
152.25000026820001
 30
0.0
  0
VERTEX
  5
9C6B
  8
0
 10
382.21240662040009
 20
152.5000007749
 30
0.0
  0
SEQEND
  5
9C6C
  8
0
  0
LINE
  5
929F
  8
0
 10
382.71505072710011
 20
136.5000009462
 30
0.0
 11
382.71505072710011
 21
152.0000016242
 31
0.0
  0
ARC
  5
92A0
  8
0
 10
333.28995717549998
 20
128.32377669140001
 30
0.0
 40
0.2200000000000248
 50
209.99999999999829
 51
315.87272372640592
  0
LINE
  5
92A1
  8
0
 10
333.09943102300008
 20
128.2137767337
 30
0.0
 11
331.92954458290001
 21
130.24008133640001
 31
0.0
  0
LINE
  5
92A2
  8
0
 10
332.40471467370003
 20
132.75009160120001
 30
0.0
 11
333.0521384626
 21
132.75020475689999
 31
0.0
  0
ARC
  5
92A3
  8
0
 10
333.05203461529999
 20
133.35020464550001
 30
0.0
 40
0.5999999999481441
 50
270.01000000000198
 51
20.812859671098721
  0
ARC
  5
92A4
  8
0
 10
329.5
 20
132.0000009231
 30
0.0
 40
4.4000000000000679
 50
20.81285966749838
 51
64.26082952269519
  0
ARC
  5
92A5
  8
0
 10
331.23710003169998
 20
135.6031222755
 30
0.0
 40
0.4000000000000381
 50
64.26082952269519
 51
160.0000000000008
  0
LINE
  5
92A6
  8
0
 10
330.86122259500007
 20
135.73992996659999
 30
0.0
 11
330.52606008940012
 21
134.8190791831
 31
0.0
  0
LINE
  5
92A7
  8
0
 10
328.47394108769998
 20
134.8190791831
 30
0.0
 11
328.13877671950007
 21
135.73992996659999
 31
0.0
  0
ARC
  5
92A8
  8
0
 10
327.76289996830008
 20
135.6031222755
 30
0.0
 40
0.4000000000000111
 50
19.99999999999913
 51
115.7391704773048
  0
ARC
  5
92A9
  8
0
 10
329.5
 20
132.0000009231
 30
0.0
 40
4.4000000000000608
 50
115.7391704773048
 51
159.18714033189889
  0
ARC
  5
92AA
  8
0
 10
325.94796538470013
 20
133.35020464550001
 30
0.0
 40
0.5999999999999918
 50
159.18714033189889
 51
269.98999999640239
  0
LINE
  5
92AB
  8
0
 10
325.94785898920009
 20
132.75020475689999
 30
0.0
 11
326.5952846408
 21
132.75009160120001
 31
0.0
  0
ARC
  5
92AC
  8
0
 10
329.5
 20
132.00000092389999
 30
0.0
 40
5.5000000000000773
 50
315.87272372640592
 51
224.12727627359399
  0
ARC
  5
92AD
  8
0
 10
325.71004282440009
 20
128.32377669140001
 30
0.0
 40
0.2200000000000353
 50
224.12727627359399
 51
330.00000000000171
  0
LINE
  5
92AE
  8
0
 10
327.0704565942001
 20
130.24008133640001
 30
0.0
 11
325.90057015420012
 21
128.2137767337
 31
0.0
  0
LINE
  5
92AF
  8
0
 10
364.00000018999998
 20
108.0
 30
0.0
 11
355.99999981000002
 21
108.0
 31
0.0
  0
LINE
  5
92B0
  8
0
 10
353.99999994780001
 20
110.0000012592
 30
0.0
 11
366.00000005209989
 21
110.0000012592
 31
0.0
  0
CIRCLE
  5
92B2
  8
0
 10
329.5
 20
132.00000092389999
 30
0.0
 40
2.5
  0
CIRCLE
  5
92B3
  8
0
 10
329.5
 20
132.00000092389999
 30
0.0
 40
3.0
  0
POLYLINE
  5
92B4
  8
0
 66
     1
 10
0.0
 20
0.0
 30
0.0
 70
   128
  0
VERTEX
  5
9C6D
  8
0
 10
398.97083550690019
 20
164.48507177830001
 30
0.0
  0
VERTEX
  5
9C6E
  8
0
 10
398.64213824270018
 20
165.65341222289999
 30
0.0
  0
VERTEX
  5
9C6F
  8
0
 10
398.11337053770012
 20
166.76706913109999
 30
0.0
  0
VERTEX
  5
9C70
  8
0
 10
397.4005995691
 20
167.79220569130001
 30
0.0
  0
VERTEX
  5
9C71
  8
0
 10
396.52548044920007
 20
168.69767102599999
 30
0.0
  0
VERTEX
  5
9C72
  8
0
 10
395.51460057489999
 20
169.45595014099999
 30
0.0
  0
VERTEX
  5
9C73
  8
0
 10
394.39868241550022
 20
170.04400956629999
 30
0.0
  0
VERTEX
  5
9C74
  8
0
 10
393.21162611240021
 20
170.4439790845
 30
0.0
  0
VERTEX
  5
9C75
  8
0
 10
391.98950365180008
 20
170.64370679859999
 30
0.0
  0
VERTEX
  5
9C76
  8
0
 10
390.76944686470011
 20
170.63712048529999
 30
0.0
  0
VERTEX
  5
9C77
  8
0
 10
389.58852611480012
 20
170.42442131039999
 30
0.0
  0
VERTEX
  5
9C78
  8
0
 10
388.48262339830012
 20
170.0120763779
 30
0.0
  0
VERTEX
  5
9C79
  8
0
 10
387.48534083359999
 20
169.41261011360001
 30
0.0
  0
VERTEX
  5
9C7A
  8
0
 10
386.62698179479997
 20
168.64423546200001
 30
0.0
  0
VERTEX
  5
9C7B
  8
0
 10
386.3066012412001
 20
168.193695128
 30
0.0
  0
SEQEND
  5
9C7C
  8
0
  0
ARC
  5
92B5
  8
0
 10
393.02362096389982
 20
163.24082419890911
 30
0.0
 40
6.0759783458410572
 50
324.03021162671769
 51
11.816704905853779
  0
POLYLINE
  5
92B6
  8
0
 66
     1
 10
0.0
 20
0.0
 30
0.0
 70
   128
  0
VERTEX
  5
9C7D
  8
0
 10
398.65045309060002
 20
164.0345314443
 30
0.0
  0
VERTEX
  5
9C7E
  8
0
 10
398.3217595517001
 20
165.20287188890001
 30
0.0
  0
VERTEX
  5
9C7F
  8
0
 10
397.79299184680008
 20
166.31652879719999
 30
0.0
  0
VERTEX
  5
9C80
  8
0
 10
397.08022087810008
 20
167.34166535739999
 30
0.0
  0
VERTEX
  5
9C81
  8
0
 10
396.20509803290003
 20
168.24712696669999
 30
0.0
  0
VERTEX
  5
9C82
  8
0
 10
395.194221884
 20
169.00540980700001
 30
0.0
  0
VERTEX
  5
9C83
  8
0
 10
394.07830372450007
 20
169.59346923230001
 30
0.0
  0
VERTEX
  5
9C84
  8
0
 10
392.89124742150011
 20
169.99343875049999
 30
0.0
  0
VERTEX
  5
9C85
  8
0
 10
391.66912496089998
 20
170.19316273929999
 30
0.0
  0
VERTEX
  5
9C86
  8
0
 10
390.44906631110013
 20
170.18658015130001
 30
0.0
  0
VERTEX
  5
9C87
  8
0
 10
389.26814556120007
 20
169.97388097640001
 30
0.0
  0
VERTEX
  5
9C88
  8
0
 10
388.16224284470019
 20
169.56153604389999
 30
0.0
  0
VERTEX
  5
9C89
  8
0
 10
387.16496028000012
 20
168.9620660544
 30
0.0
  0
VERTEX
  5
9C8A
  8
0
 10
386.3066012412001
 20
168.193695128
 30
0.0
  0
VERTEX
  5
9C8B
  8
0
 10
385.61324462290008
 20
167.27976593380001
 30
0.0
  0
VERTEX
  5
9C8C
  8
0
 10
385.10595880450001
 20
166.24804306030001
 30
0.0
  0
VERTEX
  5
9C8D
  8
0
 10
384.8001590371
 20
165.12988227610001
 30
0.0
  0
VERTEX
  5
9C8E
  8
0
 10
384.70513246950009
 20
163.9592545033
 30
0.0
  0
VERTEX
  5
9C8F
  8
0
 10
384.70663748679999
 20
163.86980283259999
 30
0.0
  0
SEQEND
  5
9C90
  8
0
  0
ARC
  5
92B7
  8
0
 10
392.6399899645001
 20
162.77296913699999
 30
0.0
 40
6.1414335823405288
 50
287.4941435046029
 51
11.853981887599341
  0
ARC
  5
92B8
  8
0
 10
328.93495840040009
 20
153.00000092389999
 30
0.0
 40
2.0000000000000271
 50
58.447820778398857
 51
90.0
  0
ARC
  5
92B9
  8
0
 10
336.22997775630012
 20
145.00000308680001
 30
0.0
 40
5.0000218671612364
 50
340.48232576000112
 51
14.477424534200249
  0
ARC
  5
92BA
  8
0
 10
336.23000000000002
 20
145.00000092389999
 30
0.0
 40
5.0000000000000471
 50
14.477512185900681
 51
58.447820778398857
  0
LINE
  5
92BB
  8
0
 10
329.9815083295
 20
154.7043295503
 30
0.0
 11
338.84637489910011
 21
149.2608198822
 31
0.0
  0
POLYLINE
  5
92BC
  8
0
 66
     1
 10
0.0
 20
0.0
 30
0.0
 70
   128
  0
VERTEX
  5
9C91
  8
0
 10
320.49999818200013
 20
144.25000081959999
 30
0.0
  0
VERTEX
  5
9C92
  8
0
 10
320.54541319610013
 20
144.2954158336
 30
0.0
  0
VERTEX
  5
9C93
  8
0
 10
320.67959442730012
 20
144.42959520220001
 30
0.0
  0
VERTEX
  5
9C94
  8
0
 10
320.89644730089998
 20
144.64644807580001
 30
0.0
  0
SEQEND
  5
9C95
  8
0
  0
ARC
  5
92BD
  8
0
 10
320.54288326060009
 20
145.00000140820001
 30
0.0
 40
0.5000074893619244
 50
315.0008676306029
 51
44.99913236939701
  0
POLYLINE
  5
92BE
  8
0
 66
     1
 10
0.0
 20
0.0
 30
0.0
 70
   128
  0
VERTEX
  5
9C96
  8
0
 10
320.89644730089998
 20
145.3535547406
 30
0.0
  0
VERTEX
  5
9C97
  8
0
 10
320.67959442730012
 20
145.5704057515
 30
0.0
  0
VERTEX
  5
9C98
  8
0
 10
320.54541319610013
 20
145.70458698269999
 30
0.0
  0
VERTEX
  5
9C99
  8
0
 10
320.49999818200013
 20
145.75000013409999
 30
0.0
  0
SEQEND
  5
9C9A
  8
0
  0
LINE
  5
92BF
  8
0
 10
320.49999818200013
 20
145.75000013409999
 30
0.0
 11
320.49999818200013
 21
146.25000114740001
 31
0.0
  0
POLYLINE
  5
92C0
  8
0
 66
     1
 10
0.0
 20
0.0
 30
0.0
 70
   128
  0
VERTEX
  5
9C9B
  8
0
 10
320.49999818200013
 20
146.25000114740001
 30
0.0
  0
VERTEX
  5
9C9C
  8
0
 10
320.54541319610013
 20
146.29541429880001
 30
0.0
  0
VERTEX
  5
9C9D
  8
0
 10
320.67959442730012
 20
146.42959553
 30
0.0
  0
VERTEX
  5
9C9E
  8
0
 10
320.89644730089998
 20
146.6464484036
 30
0.0
  0
SEQEND
  5
9C9F
  8
0
  0
ARC
  5
92C1
  8
0
 10
320.5428827874
 20
147.000001736
 30
0.0
 40
0.5000078239597849
 50
315.00090597090713
 51
44.999094029092802
  0
POLYLINE
  5
92C2
  8
0
 66
     1
 10
0.0
 20
0.0
 30
0.0
 70
   128
  0
VERTEX
  5
9CA0
  8
0
 10
320.89644730089998
 20
147.3535550684
 30
0.0
  0
VERTEX
  5
9CA1
  8
0
 10
320.67959442730012
 20
147.5704060793
 30
0.0
  0
VERTEX
  5
9CA2
  8
0
 10
320.54541319610013
 20
147.7045873106
 30
0.0
  0
VERTEX
  5
9CA3
  8
0
 10
320.49999818200013
 20
147.75000046189999
 30
0.0
  0
SEQEND
  5
9CA4
  8
0
  0
LINE
  5
92C3
  8
0
 10
320.49999818200013
 20
147.75000046189999
 30
0.0
 11
320.49999818200013
 21
148.25000147520001
 31
0.0
  0
POLYLINE
  5
92C4
  8
0
 66
     1
 10
0.0
 20
0.0
 30
0.0
 70
   128
  0
VERTEX
  5
9CA5
  8
0
 10
320.49999818200013
 20
148.25000147520001
 30
0.0
  0
VERTEX
  5
9CA6
  8
0
 10
320.54541319610013
 20
148.29541462660001
 30
0.0
  0
VERTEX
  5
9CA7
  8
0
 10
320.67959442730012
 20
148.42959585790001
 30
0.0
  0
VERTEX
  5
9CA8
  8
0
 10
320.89644730089998
 20
148.64644686880001
 30
0.0
  0
SEQEND
  5
9CA9
  8
0
  0
ARC
  5
92C5
  8
0
 10
320.54288966910008
 20
149.00000020120001
 30
0.0
 40
0.5000029578589298
 50
315.00034837510168
 51
44.999651625005917
  0
POLYLINE
  5
92C6
  8
0
 66
     1
 10
0.0
 20
0.0
 30
0.0
 70
   128
  0
VERTEX
  5
9CAA
  8
0
 10
320.89644730089998
 20
149.35355353360001
 30
0.0
  0
VERTEX
  5
9CAB
  8
0
 10
320.67959442730012
 20
149.57040640709999
 30
0.0
  0
VERTEX
  5
9CAC
  8
0
 10
320.54541319610013
 20
149.7045876384
 30
0.0
  0
VERTEX
  5
9CAD
  8
0
 10
320.49999818200013
 20
149.7500007898
 30
0.0
  0
SEQEND
  5
9CAE
  8
0
  0
LINE
  5
92C7
  8
0
 10
320.49999818200013
 20
149.7500007898
 30
0.0
 11
320.49999818200013
 21
150.250001803
 31
0.0
  0
POLYLINE
  5
92C8
  8
0
 66
     1
 10
0.0
 20
0.0
 30
0.0
 70
   128
  0
VERTEX
  5
9CAF
  8
0
 10
320.49999818200013
 20
150.250001803
 30
0.0
  0
VERTEX
  5
9CB0
  8
0
 10
320.54541319610013
 20
150.2954149544
 30
0.0
  0
VERTEX
  5
9CB1
  8
0
 10
320.67959442730012
 20
150.429594323
 30
0.0
  0
VERTEX
  5
9CB2
  8
0
 10
320.89644730089998
 20
150.64644719660001
 30
0.0
  0
SEQEND
  5
9CB3
  8
0
  0
ARC
  5
92C9
  8
0
 10
320.54288966910008
 20
151.000000529
 30
0.0
 40
0.5000029578589298
 50
315.00034837510168
 51
44.999651625005917
  0
POLYLINE
  5
92CA
  8
0
 66
     1
 10
0.0
 20
0.0
 30
0.0
 70
   128
  0
VERTEX
  5
9CB4
  8
0
 10
320.89644730089998
 20
151.3535538614
 30
0.0
  0
VERTEX
  5
9CB5
  8
0
 10
320.67959442730012
 20
151.57040673500001
 30
0.0
  0
VERTEX
  5
9CB6
  8
0
 10
320.54541319610013
 20
151.70458610360001
 30
0.0
  0
VERTEX
  5
9CB7
  8
0
 10
320.49999818200013
 20
151.75000111759999
 30
0.0
  0
SEQEND
  5
9CB8
  8
0
  0
LINE
  5
92CB
  8
0
 10
320.49999818200013
 20
151.75000111759999
 30
0.0
 11
320.49999818200013
 21
152.25000026820001
 31
0.0
  0
POLYLINE
  5
92CC
  8
0
 66
     1
 10
0.0
 20
0.0
 30
0.0
 70
   128
  0
VERTEX
  5
9CB9
  8
0
 10
320.49999818200013
 20
152.25000026820001
 30
0.0
  0
VERTEX
  5
9CBA
  8
0
 10
320.54541319610013
 20
152.29541528230001
 30
0.0
  0
VERTEX
  5
9CBB
  8
0
 10
320.67959442730012
 20
152.42959465089999
 30
0.0
  0
VERTEX
  5
9CBC
  8
0
 10
320.89644730089998
 20
152.6464475244
 30
0.0
  0
SEQEND
  5
9CBD
  8
0
  0
ARC
  5
92CD
  8
0
 10
320.54288326060009
 20
153.0000008568
 30
0.0
 40
0.5000074893619244
 50
315.0008676306029
 51
44.99913236939701
  0
POLYLINE
  5
92CE
  8
0
 66
     1
 10
0.0
 20
0.0
 30
0.0
 70
   128
  0
VERTEX
  5
9CBE
  8
0
 10
320.89644730089998
 20
153.3535541892
 30
0.0
  0
VERTEX
  5
9CBF
  8
0
 10
320.67959442730012
 20
153.5704070628
 30
0.0
  0
VERTEX
  5
9CC0
  8
0
 10
320.54541319610013
 20
153.7045864314
 30
0.0
  0
VERTEX
  5
9CC1
  8
0
 10
320.49999818200013
 20
153.75000144539999
 30
0.0
  0
SEQEND
  5
9CC2
  8
0
  0
LINE
  5
92CF
  8
0
 10
320.49999818200013
 20
153.75000144539999
 30
0.0
 11
320.49999818200013
 21
154.25000059609999
 31
0.0
  0
POLYLINE
  5
92D0
  8
0
 66
     1
 10
0.0
 20
0.0
 30
0.0
 70
   128
  0
VERTEX
  5
9CC3
  8
0
 10
320.49999818200013
 20
154.25000059609999
 30
0.0
  0
VERTEX
  5
9CC4
  8
0
 10
320.54193377489997
 20
154.29193432630001
 30
0.0
  0
VERTEX
  5
9CC5
  8
0
 10
320.66597476600009
 20
154.41597345470001
 30
0.0
  0
VERTEX
  5
9CC6
  8
0
 10
320.86692065000011
 20
154.6169193387
 30
0.0
  0
VERTEX
  5
9CC7
  8
0
 10
321.13634482020012
 20
154.88634537159999
 30
0.0
  0
SEQEND
  5
9CC8
  8
0
  0
POLYLINE
  5
92D3
  8
0
 66
     1
 10
0.0
 20
0.0
 30
0.0
 70
   128
  0
VERTEX
  5
9CC9
  8
0
 10
320.81164479250009
 20
143.43835505839999
 30
0.0
  0
VERTEX
  5
9CCA
  8
0
 10
320.6405869126001
 20
143.60941666369999
 30
0.0
  0
VERTEX
  5
9CCB
  8
0
 10
320.53545922040013
 20
143.7145406306
 30
0.0
  0
VERTEX
  5
9CCC
  8
0
 10
320.49999818200013
 20
143.75000166890001
 30
0.0
  0
SEQEND
  5
9CCD
  8
0
  0
LINE
  5
92D4
  8
0
 10
320.49999818200013
 20
143.75000166890001
 30
0.0
 11
320.49999818200013
 21
144.25000081959999
 31
0.0
  0
POLYLINE
  5
92D5
  8
0
 66
     1
 10
0.0
 20
0.0
 30
0.0
 70
   128
  0
VERTEX
  5
9CCE
  8
0
 10
321.13634482020012
 20
154.88634537159999
 30
0.0
  0
VERTEX
  5
9CCF
  8
0
 10
321.19894087310013
 20
154.94894142449999
 30
0.0
  0
VERTEX
  5
9CD0
  8
0
 10
321.23715117570009
 20
154.9871535897
 30
0.0
  0
VERTEX
  5
9CD1
  8
0
 10
321.24999970200008
 20
155.00000025329999
 30
0.0
  0
SEQEND
  5
9CD2
  8
0
  0
LINE
  5
92D6
  8
0
 10
321.24999970200008
 20
155.00000025329999
 30
0.0
 11
328.93495880070009
 21
155.00000025329999
 31
0.0
  0
LINE
  5
92D8
  8
0
 10
322.16530352491679
 20
143.00000014899999
 30
0.0
 11
321.24999970200008
 21
143.00000014899999
 31
0.0
  0
POLYLINE
  5
92D9
  8
0
 66
     1
 10
0.0
 20
0.0
 30
0.0
 70
   128
  0
VERTEX
  5
9CD3
  8
0
 10
321.24999970200008
 20
143.00000014899999
 30
0.0
  0
VERTEX
  5
9CD4
  8
0
 10
321.11119911070011
 20
143.1388026029
 30
0.0
  0
VERTEX
  5
9CD5
  8
0
 10
320.96495166419999
 20
143.2850481868
 30
0.0
  0
VERTEX
  5
9CD6
  8
0
 10
320.81164479250009
 20
143.43835505839999
 30
0.0
  0
SEQEND
  5
9CD7
  8
0
  0
POLYLINE
  5
92DA
  8
0
 66
     1
 10
0.0
 20
0.0
 30
0.0
 70
   128
  0
VERTEX
  5
9CD8
  8
0
 10
340.94269074500011
 20
143.32950766389999
 30
0.0
  0
VERTEX
  5
9CD9
  8
0
 10
340.86875118310007
 20
143.1209137589
 30
0.0
  0
VERTEX
  5
9CDA
  8
0
 10
340.8078017086001
 20
142.94896739719999
 30
0.0
  0
VERTEX
  5
9CDB
  8
0
 10
340.76072148980012
 20
142.81614962219999
 30
0.0
  0
SEQEND
  5
9CDC
  8
0
  0
ARC
  5
92DE
  8
0
 10
322.0
 20
142.50000092389999
 30
0.0
 40
0.5000000000000285
 50
0.0
 51
90.0
  0
LINE
  5
92DF
  8
0
 10
340.76071302698978
 20
142.81612703496921
 30
0.0
 11
336.57025419170009
 21
130.99426170070001
 31
0.0
  0
ARC
  5
92E3
  8
0
 10
328.5
 20
132.00000092389999
 30
0.0
 40
6.000000000000056
 50
180.0
 51
270.0
  0
ARC
  5
92E4
  8
0
 10
329.50121786220012
 20
133.50000092389999
 30
0.0
 40
7.500000000000056
 50
270.0
 51
340.48226714179862
  0
LINE
  5
92E5
  8
0
 10
329.50121782720009
 20
126.0000009714
 30
0.0
 11
328.49999949329998
 21
126.0000009714
 31
0.0
  0
LINE
  5
92E6
  8
0
 10
322.49999850990002
 20
132.00000113990001
 30
0.0
 11
322.5
 21
142.50000092389999
 31
0.0
  0
POLYLINE
  5
92E7
  8
0
 66
     1
 10
0.0
 20
0.0
 30
0.0
 70
   128
  0
VERTEX
  5
9CDD
  8
0
 10
396.57823055979998
 20
159.85762047770001
 30
0.0
  0
VERTEX
  5
9CDE
  8
0
 10
396.80237755180002
 20
160.20233276490001
 30
0.0
  0
VERTEX
  5
9CDF
  8
0
 10
397.24611923100002
 20
161.1770959497
 30
0.0
  0
VERTEX
  5
9CE0
  8
0
 10
397.47628256680019
 20
162.23477664590001
 30
0.0
  0
VERTEX
  5
9CE1
  8
0
 10
397.4840237200001
 20
163.33472448590001
 30
0.0
  0
VERTEX
  5
9CE2
  8
0
 10
397.2690483927999
 20
164.43467605110001
 30
0.0
  0
VERTEX
  5
9CE3
  8
0
 10
396.83961182830012
 20
165.49235302209999
 30
0.0
  0
VERTEX
  5
9CE4
  8
0
 10
396.21222078800002
 20
166.46711620689999
 30
0.0
  0
VERTEX
  5
9CE5
  8
0
 10
395.41098162530011
 20
167.3215040863
 30
0.0
  0
VERTEX
  5
9CE6
  8
0
 10
394.46669131520002
 20
168.02267822619999
 30
0.0
  0
VERTEX
  5
9CE7
  8
0
 10
393.41563418510009
 20
168.54370105269999
 30
0.0
  0
VERTEX
  5
9CE8
  8
0
 10
392.29820355770011
 20
168.86454540490001
 30
0.0
  0
VERTEX
  5
9CE9
  8
0
 10
391.15734271700012
 20
168.9728805721
 30
0.0
  0
VERTEX
  5
9CEA
  8
0
 10
390.03689087930002
 20
168.86454540490001
 30
0.0
  0
VERTEX
  5
9CEB
  8
0
 10
388.97990867490012
 20
168.54370105269999
 30
0.0
  0
VERTEX
  5
9CEC
  8
0
 10
388.02701666949997
 20
168.02267822619999
 30
0.0
  0
VERTEX
  5
9CED
  8
0
 10
387.21483074129992
 20
167.3215040863
 30
0.0
  0
VERTEX
  5
9CEE
  8
0
 10
386.79871208960009
 20
166.81182849410001
 30
0.0
  0
SEQEND
  5
9CEF
  8
0
  0
LINE
  5
92E9
  8
0
 10
373.79999984050011
 20
152.8000002652
 30
0.0
 11
346.20000015940002
 21
152.8000002652
 31
0.0
  0
LINE
  5
92EA
  8
0
 10
346.20000015940002
 20
155.00000025329999
 30
0.0
 11
373.79999984050011
 21
155.00000025329999
 31
0.0
  0
LINE
  5
92ED
  8
0
 10
341.84738494450011
 20
135.9998518527
 30
0.0
 11
341.33734799920012
 21
136.49999442699999
 31
0.0
  0
LINE
  5
92EF
  8
0
 10
341.33751004930002
 20
152.00016739969999
 30
0.0
 11
341.84738494450011
 21
152.5001497865
 31
0.0
  0
LINE
  5
92F0
  8
0
 10
341.84703290459998
 20
152.5000007749
 30
0.0
 11
382.2097598016
 21
152.5000007749
 31
0.0
  0
LINE
  5
92F1
  8
0
 10
341.33776523170002
 20
152.0000016242
 30
0.0
 11
341.33776523170002
 21
136.5000009462
 31
0.0
  0
LINE
  5
92F2
  8
0
 10
338.3446225601553
 20
136.00000086430001
 30
0.0
 11
383.49999919530001
 21
136.00000086430001
 31
0.0
  0
ARC
  5
92F3
  8
0
 10
383.5
 20
135.00000092389999
 30
0.0
 40
1.0
 50
0.0
 51
90.0
  0
LINE
  5
92F4
  8
0
 10
384.4999993592001
 20
135.00000070039999
 30
0.0
 11
384.4999993592001
 21
125.5000009476
 31
0.0
  0
LINE
  5
92F6
  8
0
 10
384.00000020860011
 20
125.0000009239
 30
0.0
 11
322.99999952310009
 21
125.0000009239
 31
0.0
  0
LINE
  5
92F7
  8
0
 10
384.00000020860011
 20
125.0000009239
 30
0.0
 11
384.4999993592001
 21
125.5000009476
 31
0.0
  0
LINE
  5
92F9
  8
0
 10
342.00000077480013
 20
125.0000009239
 30
0.0
 11
341.49999976160012
 21
125.5000009476
 31
0.0
  0
LINE
  5
92FD
  8
0
 10
341.49999976160012
 20
125.5000009476
 30
0.0
 11
341.49999976160012
 21
135.00000070039999
 31
0.0
  0
ARC
  5
92FF
  8
0
 10
342.5
 20
135.00000092389999
 30
0.0
 40
1.0
 50
90.0
 51
180.0
  0
LINE
  5
9304
  8
0
 10
322.99999952310009
 20
125.0000009239
 30
0.0
 11
322.49999850990002
 21
125.5000009476
 31
0.0
  0
LINE
  5
9309
  8
0
 10
322.49999850990002
 20
125.5000009476
 30
0.0
 11
322.49999850990002
 21
132.00000113990001
 31
0.0
  0
LINE
  5
9318
  8
0
 10
323.50000053640008
 20
142.2003293336
 30
0.0
 11
339.81818392870002
 21
142.2003293336
 31
0.0
  0
ARC
  5
931B
  8
0
 10
322.16387211050011
 20
142.50673113740001
 30
0.0
 40
0.4932710885021024
 50
25.199205606399559
 51
89.833733791801293
  0
ARC
  5
931C
  8
0
 10
323.48960842320002
 20
143.20720405360001
 30
0.0
 40
1.006928347940071
 50
209.1488273851997
 51
270.59133780309583
  0
ARC
  5
931D
  8
0
 10
339.8703147042001
 20
143.14974694419999
 30
0.0
 40
0.9508477360030057
 50
266.85715001840032
 51
339.46117572610228
  0
LINE
  5
9333
  8
0
 10
372.50000018619988
 20
125.0000009239
 30
0.0
 11
372.50000018619988
 21
136.00000086430001
 31
0.0
  0
LINE
  5
9337
  8
0
 10
347.49999981370001
 20
125.0000009239
 30
0.0
 11
347.49999981370001
 21
136.00000086430001
 31
0.0
  0
LINE
  5
9340
  8
1
 10
360.0
 20
163.0000002532999
 30
0.0
 11
360.0
 21
100.0
 31
0.0
  0
ARC
  5
9454
  8
0
 10
394.53403156629997
 20
595.81201255200097
 30
0.0
 40
12.5000000000004
 50
284.9000004624944
 51
225.09999953750159
  0
LINE
  5
9455
  8
0
 10
398.74007481860008
 20
583.497330706301
 30
0.0
 11
398.90151558220009
 21
584.09983583840108
 31
0.0
  0
LINE
  5
9456
  8
0
 10
384.89559110099998
 20
587.85271199240105
 30
0.0
 11
384.73415033750013
 21
587.25020686030109
 31
0.0
  0
LINE
  5
9457
  8
0
 10
341.23000000000002
 20
445.13354856100102
 30
0.0
 11
341.23000000000002
 21
488.73578914860099
 31
0.0
  0
ARC
  5
9458
  8
0
 10
340.11609083167889
 20
488.8127635167599
 30
0.0
 40
1.116565577394947
 50
356.0469789223535
 51
90.672616873678237
  0
ARC
  5
9459
  8
0
 10
340.12828960380227
 20
445.03506597863583
 30
0.0
 40
1.106103347847357
 50
268.68903002535808
 51
5.1081286745709802
  0
LINE
  5
945A
  8
0
 10
385.58130192040022
 20
585.58219047820103
 30
0.0
 11
360.36609665693749
 21
491.47776331170269
 31
0.0
  0
LINE
  5
945B
  8
0
 10
371.78576132937837
 20
487.73209241248293
 30
0.0
 11
397.17241183589999
 21
582.476361937001
 31
0.0
  0
LINE
  5
9462
  8
0
 10
362.88675134584969
 20
471.92925215635069
 30
0.0
 11
357.11324865394971
 21
471.92925215635069
 31
0.0
  0
LINE
  5
9463
  8
0
 10
357.11324865394971
 20
471.92925215635069
 30
0.0
 11
354.22649730804972
 21
466.92925215635069
 31
0.0
  0
LINE
  5
9464
  8
0
 10
354.22649730804972
 20
466.92925215635069
 30
0.0
 11
357.11324865394971
 21
461.92925215635069
 31
0.0
  0
LINE
  5
9465
  8
0
 10
357.11324865394971
 20
461.92925215635069
 30
0.0
 11
362.88675134584969
 21
461.92925215635063
 31
0.0
  0
LINE
  5
9466
  8
0
 10
362.88675134584969
 20
461.92925215635063
 30
0.0
 11
365.77350269184973
 21
466.92925215635063
 31
0.0
  0
LINE
  5
9467
  8
0
 10
365.77350269184973
 20
466.92925215635063
 30
0.0
 11
362.88675134584969
 21
471.92925215635069
 31
0.0
  0
CIRCLE
  5
9469
  8
0
 10
360.0
 20
466.92925215640099
 30
0.0
 40
8.9999999999999734
  0
ARC
  5
946C
  8
0
 10
395.42250268380008
 20
599.12783190360085
 30
0.0
 40
15.570191863589811
 50
231.40969520740319
 51
278.59030479259371
  0
POLYLINE
  5
946D
  8
0
 66
     1
 10
0.0
 20
0.0
 30
0.0
 70
   128
  0
VERTEX
  5
9CF0
  8
0
 10
398.74007481860008
 20
583.497330706301
 30
0.0
  0
VERTEX
  5
9CF1
  8
0
 10
398.65045466430001
 20
583.28342600830103
 30
0.0
  0
VERTEX
  5
9CF2
  8
0
 10
398.32175862830019
 20
582.93125752000105
 30
0.0
  0
VERTEX
  5
9CF3
  8
0
 10
397.792991454
 20
582.65330350050112
 30
0.0
  0
VERTEX
  5
9CF4
  8
0
 10
397.08021946450009
 20
582.45800944200096
 30
0.0
  0
VERTEX
  5
9CF5
  8
0
 10
396.20509987600008
 20
582.35130925560111
 30
0.0
  0
VERTEX
  5
9CF6
  8
0
 10
395.19422275429997
 20
582.33644497250111
 30
0.0
  0
VERTEX
  5
9CF7
  8
0
 10
394.07830308940021
 20
582.413868236501
 30
0.0
  0
VERTEX
  5
9CF8
  8
0
 10
392.8912475354
 20
582.58122658080094
 30
0.0
  0
VERTEX
  5
9CF9
  8
0
 10
391.66912417480012
 20
582.8334349068009
 30
0.0
  0
VERTEX
  5
9CFA
  8
0
 10
390.44906660740003
 20
583.16282999220107
 30
0.0
  0
VERTEX
  5
9CFB
  8
0
 10
389.26814566510012
 20
583.55940333400099
 30
0.0
  0
VERTEX
  5
9CFC
  8
0
 10
388.1622430330001
 20
584.01110525180104
 30
0.0
  0
VERTEX
  5
9CFD
  8
0
 10
387.1649610030999
 20
584.50421101150096
 30
0.0
  0
VERTEX
  5
9CFE
  8
0
 10
386.30660148520019
 20
585.02373784410099
 30
0.0
  0
VERTEX
  5
9CFF
  8
0
 10
385.61324529889998
 20
585.55390018970104
 30
0.0
  0
VERTEX
  5
9D00
  8
0
 10
385.10595972100009
 20
586.07858933360103
 30
0.0
  0
VERTEX
  5
9D01
  8
0
 10
384.80015836720008
 20
586.58186286170098
 30
0.0
  0
VERTEX
  5
9D02
  8
0
 10
384.70513285669989
 20
587.04842906260103
 30
0.0
  0
VERTEX
  5
9D03
  8
0
 10
384.73415033750013
 20
587.25020686030109
 30
0.0
  0
SEQEND
  5
9D04
  8
0
  0
LINE
  5
946E
  8
0
 10
321.25
 20
460.67925215640099
 30
0.0
 11
321.25
 21
444.92925215640099
 31
0.0
  0
LINE
  5
946F
  8
0
 10
320.5
 20
459.92925215640099
 30
0.0
 11
322.5
 21
461.92925215640099
 31
0.0
  0
LINE
  5
9470
  8
0
 10
322.5
 20
461.92925215640099
 30
0.0
 11
322.5
 21
471.92925215640099
 31
0.0
  0
LINE
  5
9471
  8
0
 10
322.5
 20
471.92925215640099
 30
0.0
 11
320.5
 21
473.92925215640099
 31
0.0
  0
LINE
  5
9472
  8
0
 10
321.25
 20
488.92925215640099
 30
0.0
 11
321.25
 21
473.17925215640099
 31
0.0
  0
ARC
  5
9474
  8
0
 10
320.25
 20
488.92925215640099
 30
0.0
 40
1.0
 50
0.0
 51
27.582530015403218
  0
ARC
  5
9475
  8
0
 10
322.5
 20
487.92925215650098
 30
0.0
 40
1.9999999999392899
 50
89.999999999296506
 51
132.98662371479361
  0
ARC
  5
9476
  8
0
 10
322.5
 20
487.92925215640099
 30
0.0
 40
2.0000000000000271
 50
132.98662371420269
 51
180.0
  0
LINE
  5
9478
  8
0
 10
320.5
 20
487.92925215640099
 30
0.0
 11
320.5
 21
473.92925215640099
 31
0.0
  0
ARC
  5
947A
  8
0
 10
320.25
 20
444.92925215640099
 30
0.0
 40
1.0000000000000571
 50
332.41746998459678
 51
0.0
  0
ARC
  5
947B
  8
0
 10
322.5
 20
445.92925215640099
 30
0.0
 40
2.000000000000056
 50
180.0
 51
227.01337628579731
  0
LINE
  5
947C
  8
0
 10
320.5
 20
459.92925215640099
 30
0.0
 11
320.5
 21
445.92925215640099
 31
0.0
  0
ARC
  5
947F
  8
0
 10
322.5
 20
445.92925215640099
 30
0.0
 40
1.9999999999260749
 50
227.0133762849953
 51
270.00000000079473
  0
POLYLINE
  5
9487
  8
0
 66
     1
 10
0.0
 20
0.0
 30
0.0
 70
   128
  0
VERTEX
  5
9D05
  8
0
 10
337.40878498880011
 20
476.42925215640099
 30
0.0
  0
VERTEX
  5
9D06
  8
0
 10
337.30280073009999
 20
477.37394167110102
 30
0.0
  0
VERTEX
  5
9D07
  8
0
 10
336.99207060610001
 20
478.25425215640098
 30
0.0
  0
VERTEX
  5
9D08
  8
0
 10
336.49777036120008
 20
479.01019190780102
 30
0.0
  0
VERTEX
  5
9D09
  8
0
 10
335.8535857403001
 20
479.59024488030099
 30
0.0
  0
VERTEX
  5
9D0A
  8
0
 10
335.10341686060008
 20
479.954881422401
 30
0.0
  0
VERTEX
  5
9D0B
  8
0
 10
334.2983864917
 20
480.07925215640103
 30
0.0
  0
VERTEX
  5
9D0C
  8
0
 10
333.49335612279998
 20
479.954881422401
 30
0.0
  0
VERTEX
  5
9D0D
  8
0
 10
332.74318724320011
 20
479.59024488030099
 30
0.0
  0
VERTEX
  5
9D0E
  8
0
 10
332.09900262219998
 20
479.01019190780102
 30
0.0
  0
VERTEX
  5
9D0F
  8
0
 10
331.6047023773001
 20
478.25425215640098
 30
0.0
  0
VERTEX
  5
9D10
  8
0
 10
331.29397225330013
 20
477.37394167110102
 30
0.0
  0
VERTEX
  5
9D11
  8
0
 10
331.18798799460001
 20
476.42925215640099
 30
0.0
  0
SEQEND
  5
9D12
  8
0
  0
LINE
  5
9488
  8
0
 10
331.18798799460001
 20
476.42925215640099
 30
0.0
 11
331.18798799460001
 21
457.42925215640099
 31
0.0
  0
POLYLINE
  5
9489
  8
0
 66
     1
 10
0.0
 20
0.0
 30
0.0
 70
   128
  0
VERTEX
  5
9D13
  8
0
 10
331.18798799460001
 20
457.42925215640099
 30
0.0
  0
VERTEX
  5
9D14
  8
0
 10
331.29397225330013
 20
456.48456264180101
 30
0.0
  0
VERTEX
  5
9D15
  8
0
 10
331.6047023773001
 20
455.604252156401
 30
0.0
  0
VERTEX
  5
9D16
  8
0
 10
332.09900262219998
 20
454.84831240510101
 30
0.0
  0
VERTEX
  5
9D17
  8
0
 10
332.74318724320011
 20
454.26825943260098
 30
0.0
  0
VERTEX
  5
9D18
  8
0
 10
333.49335612279998
 20
453.90362289050103
 30
0.0
  0
VERTEX
  5
9D19
  8
0
 10
334.2983864917
 20
453.77925215640113
 30
0.0
  0
VERTEX
  5
9D1A
  8
0
 10
335.10341686060008
 20
453.90362289050103
 30
0.0
  0
VERTEX
  5
9D1B
  8
0
 10
335.8535857403001
 20
454.26825943260098
 30
0.0
  0
VERTEX
  5
9D1C
  8
0
 10
336.49777036120008
 20
454.84831240510101
 30
0.0
  0
VERTEX
  5
9D1D
  8
0
 10
336.99207060610001
 20
455.604252156401
 30
0.0
  0
VERTEX
  5
9D1E
  8
0
 10
337.30280073009999
 20
456.48456264180101
 30
0.0
  0
VERTEX
  5
9D1F
  8
0
 10
337.40878498880011
 20
457.42925215640099
 30
0.0
  0
SEQEND
  5
9D20
  8
0
  0
LINE
  5
948A
  8
0
 10
337.40878498880011
 20
457.42925215640099
 30
0.0
 11
337.40878498880011
 21
476.42925215640099
 31
0.0
  0
LINE
  5
948B
  8
0
 10
322.5
 20
489.92925215640111
 30
0.0
 11
340.10298334620012
 21
489.92925215640099
 31
0.0
  0
LINE
  5
948C
  8
0
 10
340.10298334620012
 20
443.92925215640099
 30
0.0
 11
322.5
 21
443.92925215640099
 31
0.0
  0
CIRCLE
  5
948E
  8
0
 10
360.0
 20
466.92925215640099
 30
0.0
 40
13.80000000000001
  0
CIRCLE
  5
9491
  8
0
 10
360.0
 20
466.92925215640099
 30
0.0
 40
9.25
  0
POLYLINE
  5
9494
  8
0
 66
     1
 10
0.0
 20
0.0
 30
0.0
 70
   128
  0
VERTEX
  5
9D21
  8
0
 10
348.39389548679998
 20
489.29763662300098
 30
0.0
  0
VERTEX
  5
9D22
  8
0
 10
352.06313114850008
 20
490.64528873260087
 30
0.0
  0
VERTEX
  5
9D23
  8
0
 10
355.86809079590012
 20
491.40043254330101
 30
0.0
  0
VERTEX
  5
9D24
  8
0
 10
359.7144794457999
 20
491.55381835490101
 30
0.0
  0
VERTEX
  5
9D25
  8
0
 10
363.50845884059999
 20
491.11099508100102
 30
0.0
  0
VERTEX
  5
9D26
  8
0
 10
367.15890622100011
 20
490.09187001730112
 30
0.0
  0
VERTEX
  5
9D27
  8
0
 10
370.57954115389998
 20
488.53002438030097
 30
0.0
  0
VERTEX
  5
9D28
  8
0
 10
373.69097547790011
 20
486.47176589370088
 30
0.0
  0
VERTEX
  5
9D29
  8
0
 10
376.42268315349997
 20
483.97489533170108
 30
0.0
  0
VERTEX
  5
9D2A
  8
0
 10
378.71451265820002
 20
481.10694865700088
 30
0.0
  0
VERTEX
  5
9D2B
  8
0
 10
380.5179346037001
 20
477.94338596180103
 30
0.0
  0
VERTEX
  5
9D2C
  8
0
 10
381.7970242308001
 20
474.56567544970102
 30
0.0
  0
VERTEX
  5
9D2D
  8
0
 10
382.5292421744
 20
471.05924538230101
 30
0.0
  0
VERTEX
  5
9D2E
  8
0
 10
382.70588146509999
 20
467.51128833570101
 30
0.0
  0
VERTEX
  5
9D2F
  8
0
 10
382.33188714829998
 20
464.00854535830098
 30
0.0
  0
VERTEX
  5
9D30
  8
0
 10
381.42548847350008
 20
460.63523486760101
 30
0.0
  0
VERTEX
  5
9D31
  8
0
 10
380.01756279590018
 20
457.47107863150097
 30
0.0
  0
VERTEX
  5
9D32
  8
0
 10
378.15078744480002
 20
454.58935335790102
 30
0.0
  0
VERTEX
  5
9D33
  8
0
 10
375.87839163060011
 20
452.05513094740098
 30
0.0
  0
VERTEX
  5
9D34
  8
0
 10
373.26254082620022
 20
449.92390265470101
 30
0.0
  0
VERTEX
  5
9D35
  8
0
 10
370.37268950340012
 20
448.24042163550109
 30
0.0
  0
VERTEX
  5
9D36
  8
0
 10
367.28380467239998
 20
447.03779123960101
 30
0.0
  0
VERTEX
  5
9D37
  8
0
 10
364.07445733820009
 20
446.33669952350101
 30
0.0
  0
VERTEX
  5
9D38
  8
0
 10
360.82476642630007
 20
446.1451437111009
 30
0.0
  0
VERTEX
  5
9D39
  8
0
 10
357.61438548280012
 20
446.45857916450109
 30
0.0
  0
VERTEX
  5
9D3A
  8
0
 10
354.52060440740001
 20
447.26025127850107
 30
0.0
  0
VERTEX
  5
9D3B
  8
0
 10
351.6165188545001
 20
448.52178102010089
 30
0.0
  0
VERTEX
  5
9D3C
  8
0
 10
348.96920581870017
 20
450.2039452391009
 30
0.0
  0
VERTEX
  5
9D3D
  8
0
 10
346.6381829111001
 20
452.25793843850101
 30
0.0
  0
VERTEX
  5
9D3E
  8
0
 10
344.67414519430008
 20
454.62681356230109
 30
0.0
  0
VERTEX
  5
9D3F
  8
0
 10
343.1179095751001
 20
457.24699375420113
 30
0.0
  0
VERTEX
  5
9D40
  8
0
 10
341.99956201859999
 20
460.04991404730112
 30
0.0
  0
VERTEX
  5
9D41
  8
0
 10
341.33776502710009
 20
462.96379876290109
 30
0.0
  0
SEQEND
  5
9D42
  8
0
  0
LINE
  5
9497
  8
0
 10
341.3377649817001
 20
462.9637990732009
 30
0.0
 11
348.39389548679998
 21
489.29763662300098
 31
0.0
  0
ARC
  5
9498
  8
0
 10
372.5
 20
477.92925215640099
 30
0.0
 40
12.0
 50
0.0
 51
90.0
  0
LINE
  5
9499
  8
0
 10
347.5
 20
489.92925215640099
 30
0.0
 11
350.11358725529999
 21
489.92925215640099
 31
0.0
  0
LINE
  5
949A
  8
0
 10
372.37448850840218
 20
489.92925215640099
 30
0.0
 11
372.5
 21
489.92925215640099
 31
0.0
  0
ARC
  5
949B
  8
0
 10
347.5
 20
483.92925215640111
 30
0.0
 40
6.0000000000000266
 50
90.0
 51
180.0
  0
LINE
  5
949C
  8
0
 10
384.5
 20
477.92925215640099
 30
0.0
 11
384.5
 21
455.92925215640099
 31
0.0
  0
LINE
  5
949D
  8
0
 10
341.5
 20
478.42925215640099
 30
0.0
 11
341.5
 21
483.92925215640111
 31
0.0
  0
ARC
  5
949E
  8
0
 10
340.5
 20
478.42925215640099
 30
0.0
 40
1.0000000000000271
 50
316.88639405410208
 51
0.0
  0
ARC
  5
949F
  8
0
 10
372.5
 20
455.92925215640099
 30
0.0
 40
12.0
 50
270.0
 51
0.0
  0
ARC
  5
94A0
  8
0
 10
340.5
 20
455.42925215640099
 30
0.0
 40
1.0000000000000271
 50
0.0
 51
43.113605945897909
  0
LINE
  5
94A1
  8
0
 10
341.5
 20
449.92925215640099
 30
0.0
 11
341.5
 21
455.42925215640099
 31
0.0
  0
ARC
  5
94A2
  8
0
 10
347.5
 20
449.92925215640099
 30
0.0
 40
6.0000000000000266
 50
180.0
 51
270.0
  0
LINE
  5
94A3
  8
0
 10
372.5
 20
443.92925215640099
 30
0.0
 11
347.5
 21
443.92925215640099
 31
0.0
  0
LINE
  5
94A5
  8
0
 10
328.93495840040009
 20
443.92925215640099
 30
0.0
 11
328.93495840040009
 21
489.92925215640111
 31
0.0
  0
LINE
  5
94A9
  8
0
 10
329.98150809370009
 20
488.92925215640099
 30
0.0
 11
329.98150809370009
 21
444.92925215640099
 31
0.0
  0
POLYLINE
  5
94AB
  8
0
 66
     1
 10
0.0
 20
0.0
 30
0.0
 70
   128
  0
VERTEX
  5
9D43
  8
0
 10
329.4582332471
 20
489.92925215640099
 30
0.0
  0
VERTEX
  5
9D44
  8
0
 10
329.56031910540003
 20
489.91003743680108
 30
0.0
  0
VERTEX
  5
9D45
  8
0
 10
329.65848186140011
 20
489.85313168890099
 30
0.0
  0
VERTEX
  5
9D46
  8
0
 10
329.74894917559999
 20
489.76072176870099
 30
0.0
  0
VERTEX
  5
9D47
  8
0
 10
329.8282444396001
 20
489.63635893760102
 30
0.0
  0
VERTEX
  5
9D48
  8
0
 10
329.89332038089998
 20
489.48482238950089
 30
0.0
  0
VERTEX
  5
9D49
  8
0
 10
329.9416761678001
 20
489.31193558880102
 30
0.0
  0
VERTEX
  5
9D4A
  8
0
 10
329.97145351429998
 20
489.12434247850098
 30
0.0
  0
VERTEX
  5
9D4B
  8
0
 10
329.98150809370009
 20
488.92925215640099
 30
0.0
  0
SEQEND
  5
9D4C
  8
0
  0
POLYLINE
  5
94AD
  8
0
 66
     1
 10
0.0
 20
0.0
 30
0.0
 70
   128
  0
VERTEX
  5
9D4D
  8
0
 10
329.98150809370009
 20
444.92925215640099
 30
0.0
  0
VERTEX
  5
9D4E
  8
0
 10
329.97145351429998
 20
444.73416183440099
 30
0.0
  0
VERTEX
  5
9D4F
  8
0
 10
329.9416761678001
 20
444.54656872410101
 30
0.0
  0
VERTEX
  5
9D50
  8
0
 10
329.89332038089998
 20
444.37368192340102
 30
0.0
  0
VERTEX
  5
9D51
  8
0
 10
329.8282444396001
 20
444.22214537530101
 30
0.0
  0
VERTEX
  5
9D52
  8
0
 10
329.74894917559999
 20
444.09778254410099
 30
0.0
  0
VERTEX
  5
9D53
  8
0
 10
329.65848186140011
 20
444.005372623901
 30
0.0
  0
VERTEX
  5
9D54
  8
0
 10
329.56031910540003
 20
443.94846687600102
 30
0.0
  0
VERTEX
  5
9D55
  8
0
 10
329.4582332471
 20
443.92925215640099
 30
0.0
  0
SEQEND
  5
9D56
  8
0
  0
POLYLINE
  5
94AE
  8
0
 66
     1
 10
0.0
 20
0.0
 30
0.0
 70
   128
  0
VERTEX
  5
9D57
  8
0
 10
338.84637423330003
 20
488.92925215640099
 30
0.0
  0
VERTEX
  5
9D58
  8
0
 10
338.83631965390009
 20
489.12434247850098
 30
0.0
  0
VERTEX
  5
9D59
  8
0
 10
338.80654230739998
 20
489.31193558880102
 30
0.0
  0
VERTEX
  5
9D5A
  8
0
 10
338.75818652050009
 20
489.48482238950089
 30
0.0
  0
VERTEX
  5
9D5B
  8
0
 10
338.69311057920009
 20
489.63635893760102
 30
0.0
  0
VERTEX
  5
9D5C
  8
0
 10
338.61381531510011
 20
489.76072176870099
 30
0.0
  0
VERTEX
  5
9D5D
  8
0
 10
338.5233480010001
 20
489.85313168890099
 30
0.0
  0
VERTEX
  5
9D5E
  8
0
 10
338.42518524500008
 20
489.91003743680108
 30
0.0
  0
VERTEX
  5
9D5F
  8
0
 10
338.32309938660001
 20
489.92925215640099
 30
0.0
  0
SEQEND
  5
9D60
  8
0
  0
LINE
  5
94B0
  8
0
 10
338.84637423330003
 20
444.92925215640099
 30
0.0
 11
338.84637423330003
 21
488.92925215640099
 31
0.0
  0
POLYLINE
  5
94B2
  8
0
 66
     1
 10
0.0
 20
0.0
 30
0.0
 70
   128
  0
VERTEX
  5
9D61
  8
0
 10
338.32309938660001
 20
443.92925215640099
 30
0.0
  0
VERTEX
  5
9D62
  8
0
 10
338.42518524500008
 20
443.94846687600102
 30
0.0
  0
VERTEX
  5
9D63
  8
0
 10
338.5233480010001
 20
444.005372623901
 30
0.0
  0
VERTEX
  5
9D64
  8
0
 10
338.61381531510011
 20
444.09778254410099
 30
0.0
  0
VERTEX
  5
9D65
  8
0
 10
338.69311057920009
 20
444.22214537530101
 30
0.0
  0
VERTEX
  5
9D66
  8
0
 10
338.75818652050009
 20
444.37368192340102
 30
0.0
  0
VERTEX
  5
9D67
  8
0
 10
338.80654230739998
 20
444.54656872410101
 30
0.0
  0
VERTEX
  5
9D68
  8
0
 10
338.83631965390009
 20
444.73416183440099
 30
0.0
  0
VERTEX
  5
9D69
  8
0
 10
338.84637423330003
 20
444.92925215640099
 30
0.0
  0
SEQEND
  5
9D6A
  8
0
  0
LINE
  5
9559
  8
0
 10
142.5
 20
137.5
 30
0.0
 11
141.90000000000001
 21
137.5
 31
0.0
  0
LINE
  5
955A
  8
0
 10
141.90000000000001
 20
128.1037757675
 30
0.0
 11
142.5
 21
128.1037757675
 31
0.0
  0
LINE
  5
955B
  8
0
 10
178.09999999999999
 20
137.5
 30
0.0
 11
177.5
 21
137.5
 31
0.0
  0
LINE
  5
955C
  8
0
 10
177.5
 20
128.1037757675
 30
0.0
 11
178.09999999999999
 21
128.1037757675
 31
0.0
  0
LINE
  5
955D
  8
0
 10
154.0
 20
125.0
 30
0.0
 11
154.0
 21
110.0
 31
0.0
  0
LINE
  5
955E
  8
0
 10
166.0
 20
110.0
 30
0.0
 11
166.0
 21
125.0
 31
0.0
  0
LINE
  5
955F
  8
0
 10
154.0
 20
110.0
 30
0.0
 11
156.0
 21
108.0
 31
0.0
  0
LINE
  5
9560
  8
0
 10
164.0
 20
108.0
 30
0.0
 11
166.0
 21
110.0
 31
0.0
  0
LINE
  5
956C
  8
0
 10
141.0
 20
129.0
 30
0.0
 11
141.8000000000001
 21
129.0
 31
0.0
  0
LINE
  5
956D
  8
0
 10
141.8000000000001
 20
135.0
 30
0.0
 11
141.0
 21
135.0
 31
0.0
  0
LINE
  5
956E
  8
0
 10
141.0
 20
135.0
 30
0.0
 11
140.5
 21
134.5
 31
0.0
  0
LINE
  5
956F
  8
0
 10
140.5
 20
129.5
 30
0.0
 11
141.0
 21
129.0
 31
0.0
  0
LINE
  5
9570
  8
0
 10
158.0
 20
129.0
 30
0.0
 11
162.0
 21
129.0
 31
0.0
  0
LINE
  5
9575
  8
0
 10
162.0
 20
135.0
 30
0.0
 11
158.0
 21
135.0
 31
0.0
  0
LINE
  5
9576
  8
0
 10
178.19999999999999
 20
129.0
 30
0.0
 11
179.0
 21
129.0
 31
0.0
  0
LINE
  5
9577
  8
0
 10
179.0
 20
135.0
 30
0.0
 11
178.19999999999999
 21
135.0
 31
0.0
  0
LINE
  5
9578
  8
0
 10
179.0
 20
129.0
 30
0.0
 11
179.5
 21
129.5
 31
0.0
  0
LINE
  5
9579
  8
0
 10
179.5
 20
134.5
 30
0.0
 11
179.0
 21
135.0
 31
0.0
  0
LINE
  5
957A
  8
0
 10
141.8000000000001
 20
129.19999999999999
 30
0.0
 11
141.90000000000001
 21
129.19999999999999
 31
0.0
  0
LINE
  5
957B
  8
0
 10
141.90000000000001
 20
134.80000000000001
 30
0.0
 11
141.8000000000001
 21
134.80000000000001
 31
0.0
  0
LINE
  5
957C
  8
0
 10
178.09999999999999
 20
129.19999999999999
 30
0.0
 11
178.19999999999999
 21
129.19999999999999
 31
0.0
  0
LINE
  5
957D
  8
0
 10
178.19999999999999
 20
134.80000000000001
 30
0.0
 11
178.09999999999999
 21
134.80000000000001
 31
0.0
  0
ARC
  5
957E
  8
0
 10
31.11723960439997
 20
167.33635967449999
 30
0.0
 40
12.499999999999989
 50
14.80364615210293
 51
303.90256087379407
  0
LINE
  5
957F
  8
0
 10
44.111889150400089
 20
170.1874695198
 30
0.0
 11
42.916216398500062
 21
170.63801062740001
 31
0.0
  0
LINE
  5
9580
  8
0
 10
37.803404843900012
 20
157.06932764019999
 30
0.0
 11
38.999077595800031
 21
156.61878653260001
 31
0.0
  0
LINE
  5
9583
  8
0
 10
135.3574247485999
 20
150.25
 30
0.0
 11
96.472842988699995
 21
150.25
 31
0.0
  0
LINE
  5
9584
  8
0
 10
96.472842988699995
 20
138.25
 30
0.0
 11
135.3574247485999
 21
138.25
 31
0.0
  0
ARC
  5
9585
  8
0
 10
96.478896304900104
 20
166.723953865
 30
0.0
 40
16.47395497716354
 50
249.3146308699913
 51
269.97894679939122
  0
ARC
  5
9586
  8
0
 10
96.479656431200056
 20
166.72810272230001
 30
0.0
 40
28.478103537419759
 50
249.33236013000089
 51
269.98629187139539
  0
LINE
  5
9587
  8
0
 10
39.621371886800027
 20
157.72009655459999
 30
0.0
 11
86.428410679000081
 21
140.0827496581
 31
0.0
  0
LINE
  5
9588
  8
0
 10
90.659703000000036
 20
151.31200454410001
 30
0.0
 11
43.852664207900027
 21
168.94935144050001
 31
0.0
  0
LINE
  5
958B
  8
0
 10
135.3557847518
 20
136.5
 30
0.0
 11
135.85580545580001
 21
136.0
 31
0.0
  0
LINE
  5
958C
  8
0
 10
180.28787125619999
 20
136.0
 30
0.0
 11
180.78786711070001
 21
136.5
 31
0.0
  0
LINE
  5
958D
  8
0
 10
135.35742474860001
 20
152.0
 30
0.0
 11
135.35742474860001
 21
136.5
 31
0.0
  0
LINE
  5
958E
  8
0
 10
180.78800498560011
 20
136.5
 30
0.0
 11
180.78800498560011
 21
142.42186666379999
 31
0.0
  0
LINE
  5
958F
  8
0
 10
135.85580545570011
 20
152.5
 30
0.0
 11
135.35578475170001
 21
152.0
 31
0.0
  0
LINE
  5
9590
  8
0
 10
163.0
 20
139.0
 30
0.0
 11
162.0
 21
139.0
 31
0.0
  0
LINE
  5
9591
  8
0
 10
141.90000000000001
 20
137.5
 30
0.0
 11
141.90000000000001
 21
128.1037757675
 31
0.0
  0
LINE
  5
9593
  8
0
 10
178.09999999999999
 20
128.1037757675
 30
0.0
 11
178.09999999999999
 21
137.5
 31
0.0
  0
LINE
  5
9595
  8
0
 10
154.0
 20
110.0
 30
0.0
 11
166.0
 21
110.0
 31
0.0
  0
LINE
  5
9596
  8
0
 10
164.0
 20
108.0
 30
0.0
 11
156.0
 21
108.0
 31
0.0
  0
LINE
  5
959C
  8
0
 10
141.8000000000001
 20
129.0
 30
0.0
 11
141.8000000000001
 21
135.0
 31
0.0
  0
LINE
  5
959F
  8
0
 10
140.5
 20
129.5
 30
0.0
 11
140.5
 21
134.5
 31
0.0
  0
LINE
  5
95A3
  8
0
 10
178.19999999999999
 20
129.0
 30
0.0
 11
178.19999999999999
 21
135.0
 31
0.0
  0
LINE
  5
95A4
  8
0
 10
179.5
 20
134.5
 30
0.0
 11
179.5
 21
129.5
 31
0.0
  0
POLYLINE
  5
95A6
  8
0
 66
     1
 10
0.0
 20
0.0
 30
0.0
 70
   128
  0
VERTEX
  5
9D6B
  8
0
 10
42.916216398500062
 20
170.63801062740001
 30
0.0
  0
VERTEX
  5
9D6C
  8
0
 10
42.900144497700012
 20
170.64370458089999
 30
0.0
  0
VERTEX
  5
9D6D
  8
0
 10
42.570749412399998
 20
170.63711864269999
 30
0.0
  0
VERTEX
  5
9D6E
  8
0
 10
42.174176070600083
 20
170.42442102370001
 30
0.0
  0
VERTEX
  5
9D6F
  8
0
 10
41.722474152699988
 20
170.01207443349989
 30
0.0
  0
VERTEX
  5
9D70
  8
0
 10
41.229368393000073
 20
169.41260781459999
 30
0.0
  0
VERTEX
  5
9D71
  8
0
 10
40.709841560400037
 20
168.64423565690001
 30
0.0
  0
VERTEX
  5
9D72
  8
0
 10
40.179679214900027
 20
167.73030455950001
 30
0.0
  0
VERTEX
  5
9D73
  8
0
 10
39.65499007100005
 20
166.69858385629999
 30
0.0
  0
VERTEX
  5
9D74
  8
0
 10
39.151716542800052
 20
165.5804218589
 30
0.0
  0
VERTEX
  5
9D75
  8
0
 10
38.685150341899998
 20
164.4097933537
 30
0.0
  0
VERTEX
  5
9D76
  8
0
 10
38.269467846199973
 20
163.22226729549999
 30
0.0
  0
VERTEX
  5
9D77
  8
0
 10
37.917299357899992
 20
162.05392606269999
 30
0.0
  0
VERTEX
  5
9D78
  8
0
 10
37.639345338400062
 20
160.94026911239999
 30
0.0
  0
VERTEX
  5
9D79
  8
0
 10
37.444051279800078
 20
159.9151343474
 30
0.0
  0
VERTEX
  5
9D7A
  8
0
 10
37.337351093400002
 20
159.00966996899999
 30
0.0
  0
VERTEX
  5
9D7B
  8
0
 10
37.322486810400051
 20
158.25138805399999
 30
0.0
  0
VERTEX
  5
9D7C
  8
0
 10
37.39991007430001
 20
157.66332861469999
 30
0.0
  0
VERTEX
  5
9D7D
  8
0
 10
37.567268418600072
 20
157.26335953959989
 30
0.0
  0
VERTEX
  5
9D7E
  8
0
 10
37.803404843900012
 20
157.06932764019999
 30
0.0
  0
SEQEND
  5
9D7F
  8
0
  0
POLYLINE
  5
95A7
  8
0
 66
     1
 10
0.0
 20
0.0
 30
0.0
 70
   128
  0
VERTEX
  5
9D80
  8
0
 10
44.597350667800008
 20
168.6687463486
 30
0.0
  0
VERTEX
  5
9D81
  8
0
 10
44.592807183900042
 20
169.00540910599989
 30
0.0
  0
VERTEX
  5
9D82
  8
0
 10
44.51538392000009
 20
169.59346854529991
 30
0.0
  0
VERTEX
  5
9D83
  8
0
 10
44.348025575700028
 20
169.99343762039999
 30
0.0
  0
VERTEX
  5
9D84
  8
0
 10
44.111889150400089
 20
170.1874695198
 30
0.0
  0
VERTEX
  5
9D85
  8
0
 10
43.766422164199973
 20
170.18657753510001
 30
0.0
  0
VERTEX
  5
9D86
  8
0
 10
43.369848822500103
 20
169.9738799161
 30
0.0
  0
VERTEX
  5
9D87
  8
0
 10
42.9181469046
 20
169.56153332599999
 30
0.0
  0
VERTEX
  5
9D88
  8
0
 10
42.425041144900092
 20
168.96206670710001
 30
0.0
  0
VERTEX
  5
9D89
  8
0
 10
41.905514312300049
 20
168.19369454929989
 30
0.0
  0
VERTEX
  5
9D8A
  8
0
 10
41.375351966800046
 20
167.27976345190001
 30
0.0
  0
VERTEX
  5
9D8B
  8
0
 10
40.850662822900063
 20
166.24804274869999
 30
0.0
  0
VERTEX
  5
9D8C
  8
0
 10
40.347389294700058
 20
165.12988075129999
 30
0.0
  0
VERTEX
  5
9D8D
  8
0
 10
39.880823093800018
 20
163.95925224609999
 30
0.0
  0
VERTEX
  5
9D8E
  8
0
 10
39.465140598099993
 20
162.77172618799989
 30
0.0
  0
VERTEX
  5
9D8F
  8
0
 10
39.112972109800012
 20
161.60338495510001
 30
0.0
  0
VERTEX
  5
9D90
  8
0
 10
38.835018090200037
 20
160.48972800480001
 30
0.0
  0
VERTEX
  5
9D91
  8
0
 10
38.639724031699991
 20
159.46459323990001
 30
0.0
  0
VERTEX
  5
9D92
  8
0
 10
38.533023845300022
 20
158.55912886140001
 30
0.0
  0
VERTEX
  5
9D93
  8
0
 10
38.51815956230007
 20
157.80084694639999
 30
0.0
  0
VERTEX
  5
9D94
  8
0
 10
38.59558282620003
 20
157.21278750709999
 30
0.0
  0
VERTEX
  5
9D95
  8
0
 10
38.762941170500078
 20
156.81281843199989
 30
0.0
  0
VERTEX
  5
9D96
  8
0
 10
38.999077595800031
 20
156.61878653260001
 30
0.0
  0
VERTEX
  5
9D97
  8
0
 10
39.344544582000033
 20
156.61967851739999
 30
0.0
  0
VERTEX
  5
9D98
  8
0
 10
39.741117923700017
 20
156.83237613630001
 30
0.0
  0
VERTEX
  5
9D99
  8
0
 10
40.192819841599999
 20
157.24472272649999
 30
0.0
  0
VERTEX
  5
9D9A
  8
0
 10
40.366058346700008
 20
157.43949146269989
 30
0.0
  0
SEQEND
  5
9D9B
  8
0
  0
ARC
  5
95A8
  8
0
 10
139.0
 20
146.25
 30
0.0
 40
2.0000000000000271
 50
233.3001007670924
 51
270.0
  0
ARC
  5
95A9
  8
0
 10
139.0
 20
141.75
 30
0.0
 40
1.999999999999974
 50
90.0
 51
122.41610835649669
  0
ARC
  5
95AA
  8
0
 10
141.0
 20
146.0
 30
0.0
 40
3.9999999999970441
 50
180.0
 51
219.82250162509689
  0
LINE
  5
95AB
  8
0
 10
137.0
 20
146.0
 30
0.0
 11
137.0
 21
154.0
 31
0.0
  0
ARC
  5
95AC
  8
0
 10
137.99999999990001
 20
154.00000000009999
 30
0.0
 40
0.999999999865412
 50
117.582530010791
 51
180.0000000046997
  0
ARC
  5
95AD
  8
0
 10
139.0
 20
156.25
 30
0.0
 40
1.9999999999999709
 50
222.9866237142036
 51
270.0
  0
ARC
  5
95AE
  8
0
 10
139.0
 20
151.75
 30
0.0
 40
2.0
 50
90.0
 51
126.6998992329076
  0
ARC
  5
95AF
  8
0
 10
138.0708196786
 20
153.0
 30
0.0
 40
0.4424835924313025
 50
126.9633466894946
 51
233.03665331050539
  0
ARC
  5
95B0
  8
0
 10
139.0
 20
154.25
 30
0.0
 40
2.0000000000000471
 50
233.3001007670924
 51
270.0
  0
ARC
  5
95B1
  8
0
 10
139.0
 20
149.75
 30
0.0
 40
1.999999999999998
 50
90.0
 51
126.6998992329076
  0
ARC
  5
95B2
  8
0
 10
138.0708196786
 20
151.0
 30
0.0
 40
0.4424835924312984
 50
126.9633466894946
 51
233.03665331050539
  0
ARC
  5
95B3
  8
0
 10
139.0
 20
152.25
 30
0.0
 40
2.0000000000000471
 50
233.3001007670924
 51
270.0
  0
ARC
  5
95B4
  8
0
 10
139.0
 20
147.75
 30
0.0
 40
2.0
 50
90.0
 51
126.6998992329076
  0
ARC
  5
95B5
  8
0
 10
138.0708196786
 20
149.0
 30
0.0
 40
0.4424835924313055
 50
126.9633466894946
 51
233.03665331050539
  0
ARC
  5
95B6
  8
0
 10
139.0
 20
150.25
 30
0.0
 40
2.0000000000000271
 50
233.3001007670924
 51
270.0
  0
ARC
  5
95B7
  8
0
 10
139.0
 20
145.75
 30
0.0
 40
2.0000000000000271
 50
90.0
 51
126.6998992329076
  0
ARC
  5
95B8
  8
0
 10
138.0708196786
 20
147.0
 30
0.0
 40
0.4424835924312371
 50
126.9633466894946
 51
233.03665331050539
  0
ARC
  5
95B9
  8
0
 10
139.0
 20
148.25
 30
0.0
 40
2.000000000000056
 50
233.3001007670924
 51
270.0
  0
ARC
  5
95BA
  8
0
 10
139.0
 20
143.75
 30
0.0
 40
2.0000000000000302
 50
90.0
 51
126.6998992329076
  0
ARC
  5
95BB
  8
0
 10
138.0708196786
 20
145.0
 30
0.0
 40
0.4424835924312072
 50
126.9633466894946
 51
233.03665331050539
  0
LINE
  5
95BC
  8
0
 10
139.0
 20
147.75
 30
0.0
 11
153.0
 21
147.75
 31
0.0
  0
LINE
  5
95BD
  8
0
 10
153.3964466094001
 20
147.35355339060001
 30
0.0
 11
153.0
 21
147.75
 31
0.0
  0
LINE
  5
95BE
  8
0
 10
139.0
 20
148.25
 30
0.0
 11
153.0
 21
148.25
 31
0.0
  0
LINE
  5
95BF
  8
0
 10
153.0
 20
147.75
 30
0.0
 11
153.0
 21
148.25
 31
0.0
  0
LINE
  5
95C0
  8
0
 10
153.0
 20
148.25
 30
0.0
 11
153.3964466094001
 21
148.64644660939999
 31
0.0
  0
LINE
  5
95C1
  8
0
 10
139.0
 20
149.75
 30
0.0
 11
153.0
 21
149.75
 31
0.0
  0
LINE
  5
95C2
  8
0
 10
153.3964466094001
 20
149.35355339060001
 30
0.0
 11
153.0
 21
149.75
 31
0.0
  0
LINE
  5
95C3
  8
0
 10
139.0
 20
144.25
 30
0.0
 11
153.0
 21
144.25
 31
0.0
  0
LINE
  5
95C4
  8
0
 10
153.0
 20
143.75
 30
0.0
 11
153.0
 21
144.25
 31
0.0
  0
LINE
  5
95C5
  8
0
 10
139.0
 20
143.75
 30
0.0
 11
153.0
 21
143.75
 31
0.0
  0
LINE
  5
95C6
  8
0
 10
153.0
 20
144.25
 30
0.0
 11
153.3964466094001
 21
144.64644660939999
 31
0.0
  0
LINE
  5
95C7
  8
0
 10
153.0
 20
146.25
 30
0.0
 11
153.3964466094001
 21
146.64644660939999
 31
0.0
  0
LINE
  5
95C8
  8
0
 10
139.0
 20
146.25
 30
0.0
 11
153.0
 21
146.25
 31
0.0
  0
LINE
  5
95C9
  8
0
 10
139.0
 20
145.75
 30
0.0
 11
153.0
 21
145.75
 31
0.0
  0
LINE
  5
95CA
  8
0
 10
153.3964466094001
 20
145.35355339060001
 30
0.0
 11
153.0
 21
145.75
 31
0.0
  0
LINE
  5
95CB
  8
0
 10
153.0
 20
145.75
 30
0.0
 11
153.0
 21
146.25
 31
0.0
  0
ARC
  5
95CC
  8
0
 10
141.0
 20
146.0
 30
0.0
 40
4.0000000000000133
 50
219.82250162509689
 51
228.5903778906964
  0
LINE
  5
95CD
  8
0
 10
153.75
 20
143.0
 30
0.0
 11
153.0
 21
143.75
 31
0.0
  0
LINE
  5
95CE
  8
0
 10
138.35424868889999
 20
143.0
 30
0.0
 11
153.75
 21
143.0
 31
0.0
  0
ARC
  5
95CF
  8
0
 10
138.0
 20
154.0
 30
0.0
 40
1.0000000000000091
 50
90.0
 51
117.5825300153915
  0
LINE
  5
95D0
  8
0
 10
138.0
 20
155.0
 30
0.0
 11
182.0
 21
155.0
 31
0.0
  0
LINE
  5
95D1
  8
0
 10
153.0
 20
154.25
 30
0.0
 11
153.75
 21
155.0
 31
0.0
  0
LINE
  5
95D2
  8
0
 10
139.0
 20
154.25
 30
0.0
 11
153.0
 21
154.25
 31
0.0
  0
LINE
  5
95D3
  8
0
 10
153.0
 20
153.75
 30
0.0
 11
153.0
 21
154.25
 31
0.0
  0
LINE
  5
95D4
  8
0
 10
139.0
 20
153.75
 30
0.0
 11
153.0
 21
153.75
 31
0.0
  0
LINE
  5
95D5
  8
0
 10
153.0
 20
152.25
 30
0.0
 11
153.3964466094001
 21
152.64644660939999
 31
0.0
  0
LINE
  5
95D6
  8
0
 10
139.0
 20
152.25
 30
0.0
 11
153.0
 21
152.25
 31
0.0
  0
ARC
  5
95D7
  8
0
 10
153.0428932188
 20
145.0
 30
0.0
 40
0.5000000000000342
 50
314.99999999999341
 51
45.000000000006558
  0
ARC
  5
95D8
  8
0
 10
153.0428932188
 20
147.0
 30
0.0
 40
0.500000000000004
 50
314.99999999999341
 51
45.000000000006558
  0
ARC
  5
95D9
  8
0
 10
153.0428932188
 20
149.0
 30
0.0
 40
0.5000000000000191
 50
314.99999999999341
 51
45.000000000006558
  0
LINE
  5
95DA
  8
0
 10
153.0
 20
149.75
 30
0.0
 11
153.0
 21
150.25
 31
0.0
  0
LINE
  5
95DB
  8
0
 10
153.0
 20
150.25
 30
0.0
 11
153.3964466094001
 21
150.64644660939999
 31
0.0
  0
ARC
  5
95DC
  8
0
 10
153.0428932188
 20
151.0
 30
0.0
 40
0.5000000000000241
 50
314.99999999999341
 51
45.000000000006558
  0
LINE
  5
95DD
  8
0
 10
153.3964466094001
 20
151.35355339060001
 30
0.0
 11
153.0
 21
151.75
 31
0.0
  0
LINE
  5
95DE
  8
0
 10
153.0
 20
151.75
 30
0.0
 11
153.0
 21
152.25
 31
0.0
  0
ARC
  5
95DF
  8
0
 10
153.0428932188
 20
153.0
 30
0.0
 40
0.499999999999999
 50
314.99999999999341
 51
45.000000000006558
  0
LINE
  5
95E0
  8
0
 10
153.3964466094001
 20
153.35355339060001
 30
0.0
 11
153.0
 21
153.75
 31
0.0
  0
LINE
  5
95E2
  8
0
 10
155.0
 20
155.0
 30
0.0
 11
155.0
 21
142.5
 31
0.0
  0
ARC
  5
95E3
  8
0
 10
154.5
 20
142.5
 30
0.0
 40
0.5000000000000285
 50
0.0
 51
90.0
  0
LINE
  5
95E4
  8
0
 10
154.5
 20
143.0
 30
0.0
 11
153.75
 21
143.0
 31
0.0
  0
LINE
  5
95E5
  8
0
 10
139.0
 20
151.75
 30
0.0
 11
153.0
 21
151.75
 31
0.0
  0
ARC
  5
95E6
  8
0
 10
181.0
 20
148.25
 30
0.0
 40
2.000000000000056
 50
270.0
 51
306.69989923290763
  0
LINE
  5
95E7
  8
0
 10
167.0
 20
146.25
 30
0.0
 11
181.0
 21
146.25
 31
0.0
  0
LINE
  5
95E8
  8
0
 10
166.60355339060001
 20
146.64644660939999
 30
0.0
 11
167.0
 21
146.25
 31
0.0
  0
LINE
  5
95E9
  8
0
 10
139.0
 20
150.25
 30
0.0
 11
153.0
 21
150.25
 31
0.0
  0
LINE
  5
95EA
  8
0
 10
167.0
 20
145.75
 30
0.0
 11
181.0
 21
145.75
 31
0.0
  0
LINE
  5
95EB
  8
0
 10
167.0
 20
145.75
 30
0.0
 11
167.0
 21
146.25
 31
0.0
  0
LINE
  5
95EC
  8
0
 10
166.60355339060001
 20
144.64644660939999
 30
0.0
 11
167.0
 21
144.25
 31
0.0
  0
LINE
  5
95ED
  8
0
 10
167.0
 20
143.75
 30
0.0
 11
167.0
 21
144.25
 31
0.0
  0
LINE
  5
95EE
  8
0
 10
167.0
 20
143.75
 30
0.0
 11
166.25
 21
143.0
 31
0.0
  0
LINE
  5
95EF
  8
0
 10
166.25
 20
143.0
 30
0.0
 11
165.5
 21
143.0
 31
0.0
  0
ARC
  5
95F0
  8
0
 10
165.5
 20
142.5
 30
0.0
 40
0.5
 50
90.0
 51
180.0
  0
LINE
  5
95F1
  8
0
 10
165.0
 20
142.5
 30
0.0
 11
165.0
 21
155.0
 31
0.0
  0
LINE
  5
95F3
  8
0
 10
166.25
 20
155.0
 30
0.0
 11
167.0
 21
154.25
 31
0.0
  0
LINE
  5
95F4
  8
0
 10
167.0
 20
153.75
 30
0.0
 11
167.0
 21
154.25
 31
0.0
  0
LINE
  5
95F5
  8
0
 10
167.0
 20
153.75
 30
0.0
 11
166.60355339060001
 21
153.35355339060001
 31
0.0
  0
ARC
  5
95F6
  8
0
 10
166.9571067812
 20
153.0
 30
0.0
 40
0.4999999999999789
 50
134.99999999999341
 51
225.00000000000639
  0
LINE
  5
95F7
  8
0
 10
166.60355339060001
 20
152.64644660939999
 30
0.0
 11
167.0
 21
152.25
 31
0.0
  0
LINE
  5
95F8
  8
0
 10
167.0
 20
151.75
 30
0.0
 11
167.0
 21
152.25
 31
0.0
  0
LINE
  5
95F9
  8
0
 10
167.0
 20
151.75
 30
0.0
 11
166.60355339060001
 21
151.35355339060001
 31
0.0
  0
ARC
  5
95FA
  8
0
 10
166.9571067812
 20
151.0
 30
0.0
 40
0.5000000000000443
 50
134.99999999999341
 51
225.00000000000639
  0
LINE
  5
95FB
  8
0
 10
166.60355339060001
 20
150.64644660939999
 30
0.0
 11
167.0
 21
150.25
 31
0.0
  0
LINE
  5
95FC
  8
0
 10
167.0
 20
149.75
 30
0.0
 11
167.0
 21
150.25
 31
0.0
  0
LINE
  5
95FD
  8
0
 10
167.0
 20
149.75
 30
0.0
 11
166.60355339060001
 21
149.35355339060001
 31
0.0
  0
ARC
  5
95FE
  8
0
 10
166.9571067812
 20
149.0
 30
0.0
 40
0.5000000000000241
 50
134.99999999999341
 51
225.00000000000639
  0
LINE
  5
95FF
  8
0
 10
166.60355339060001
 20
148.64644660939999
 30
0.0
 11
167.0
 21
148.25
 31
0.0
  0
LINE
  5
9600
  8
0
 10
167.0
 20
147.75
 30
0.0
 11
167.0
 21
148.25
 31
0.0
  0
LINE
  5
9601
  8
0
 10
167.0
 20
147.75
 30
0.0
 11
166.60355339060001
 21
147.35355339060001
 31
0.0
  0
ARC
  5
9602
  8
0
 10
166.9571067812
 20
147.0
 30
0.0
 40
0.5000000000000241
 50
134.99999999999341
 51
225.00000000000639
  0
LINE
  5
9603
  8
0
 10
167.0
 20
145.75
 30
0.0
 11
166.60355339060001
 21
145.35355339060001
 31
0.0
  0
ARC
  5
9604
  8
0
 10
166.9571067812
 20
145.0
 30
0.0
 40
0.5000000000000443
 50
134.99999999999341
 51
225.00000000000639
  0
ARC
  5
9605
  8
0
 10
181.0
 20
145.75
 30
0.0
 40
2.000000000000056
 50
53.300100767092431
 51
90.0
  0
LINE
  5
9606
  8
0
 10
167.0
 20
147.75
 30
0.0
 11
181.0
 21
147.75
 31
0.0
  0
LINE
  5
9607
  8
0
 10
167.0
 20
148.25
 30
0.0
 11
181.0
 21
148.25
 31
0.0
  0
ARC
  5
9608
  8
0
 10
182.0
 20
154.0
 30
0.0
 40
1.0000000000000271
 50
62.417469984608502
 51
90.0
  0
ARC
  5
9609
  8
0
 10
181.0
 20
156.25
 30
0.0
 40
1.9999999999999789
 50
270.0
 51
317.01337628579643
  0
LINE
  5
960A
  8
0
 10
167.0
 20
154.25
 30
0.0
 11
181.0
 21
154.25
 31
0.0
  0
LINE
  5
960C
  8
0
 10
167.0
 20
153.75
 30
0.0
 11
181.0
 21
153.75
 31
0.0
  0
ARC
  5
960D
  8
0
 10
181.0
 20
146.25
 30
0.0
 40
2.000000000000056
 50
270.0
 51
306.69989923290763
  0
ARC
  5
960E
  8
0
 10
181.9291803214
 20
145.0
 30
0.0
 40
0.44248359243122
 50
306.96334668949459
 51
53.036653310505343
  0
ARC
  5
960F
  8
0
 10
181.0
 20
143.75
 30
0.0
 40
1.9999999999999709
 50
53.300100767092431
 51
90.0
  0
ARC
  5
9610
  8
0
 10
181.9291803214
 20
147.0
 30
0.0
 40
0.4424835924312598
 50
306.96334668949459
 51
53.036653310505343
  0
ARC
  5
9611
  8
0
 10
181.0
 20
150.25
 30
0.0
 40
2.0000000000000342
 50
270.0
 51
306.69989923290763
  0
ARC
  5
9612
  8
0
 10
181.9291803214
 20
149.0
 30
0.0
 40
0.4424835924312256
 50
306.96334668949459
 51
53.036653310505343
  0
ARC
  5
9613
  8
0
 10
181.0
 20
147.75
 30
0.0
 40
2.0
 50
53.300100767092431
 51
90.0
  0
ARC
  5
9614
  8
0
 10
181.0
 20
152.25
 30
0.0
 40
2.0000000000000471
 50
270.0
 51
306.69989923290763
  0
ARC
  5
9615
  8
0
 10
181.9291803214
 20
151.0
 30
0.0
 40
0.4424835924313317
 50
306.96334668949459
 51
53.036653310505343
  0
ARC
  5
9616
  8
0
 10
181.0
 20
149.75
 30
0.0
 40
2.0000000000000111
 50
53.300100767092431
 51
90.0
  0
ARC
  5
9617
  8
0
 10
181.0
 20
154.25
 30
0.0
 40
2.0000000000000271
 50
270.0
 51
306.69989923290763
  0
ARC
  5
9618
  8
0
 10
181.9291803214
 20
153.0
 30
0.0
 40
0.4424835924312215
 50
306.96334668949459
 51
53.036653310505343
  0
ARC
  5
9619
  8
0
 10
181.0
 20
151.75
 30
0.0
 40
2.0000000000000271
 50
53.300100767092431
 51
90.0
  0
ARC
  5
961A
  8
0
 10
182.00000000009999
 20
154.00000000009999
 30
0.0
 40
0.9999999998651497
 50
359.9999999953003
 51
62.417469989297643
  0
LINE
  5
961B
  8
0
 10
183.0
 20
146.0
 30
0.0
 11
183.0
 21
154.0
 31
0.0
  0
ARC
  5
961C
  8
0
 10
179.0
 20
146.0
 30
0.0
 40
4.000000000001168
 50
320.1774983749022
 51
0.0
  0
ARC
  5
961D
  8
0
 10
181.0
 20
141.75
 30
0.0
 40
2.0000000000000249
 50
57.583891643503321
 51
90.0
  0
LINE
  5
961E
  8
0
 10
167.0
 20
149.75
 30
0.0
 11
181.0
 21
149.75
 31
0.0
  0
LINE
  5
961F
  8
0
 10
167.0
 20
144.25
 30
0.0
 11
181.0
 21
144.25
 31
0.0
  0
LINE
  5
9620
  8
0
 10
167.0
 20
152.25
 30
0.0
 11
181.0
 21
152.25
 31
0.0
  0
LINE
  5
9621
  8
0
 10
167.0
 20
151.75
 30
0.0
 11
181.0
 21
151.75
 31
0.0
  0
LINE
  5
9622
  8
0
 10
167.0
 20
143.75
 30
0.0
 11
181.0
 21
143.75
 31
0.0
  0
ARC
  5
9623
  8
0
 10
179.0
 20
146.0
 30
0.0
 40
4.0000000000000231
 50
311.4096221093036
 51
320.1774983749022
  0
LINE
  5
9624
  8
0
 10
166.25
 20
143.0
 30
0.0
 11
181.64575131110001
 21
143.0
 31
0.0
  0
LINE
  5
9625
  8
0
 10
167.0
 20
150.25
 30
0.0
 11
181.0
 21
150.25
 31
0.0
  0
ARC
  5
9626
  8
0
 10
141.00000000020009
 20
146.00000000019989
 30
0.0
 40
4.0000000002371081
 50
228.5903778908006
 51
231.0575587308891
  0
ARC
  5
9627
  8
0
 10
178.9999999998
 20
146.00000000019989
 30
0.0
 40
4.0000000002754641
 50
308.94244126909638
 51
311.4096221091994
  0
ARC
  5
9628
  8
0
 10
138.5
 20
138.40065792319999
 30
0.0
 40
3.9999999999999929
 50
0.0
 51
71.790043135703286
  0
ARC
  5
9629
  8
0
 10
181.5
 20
138.40065792319999
 30
0.0
 40
4.000000000000016
 50
108.2099568642967
 51
180.0
  0
ARC
  5
962B
  8
0
 10
170.0
 20
136.0
 30
0.0
 40
0.5000000000000285
 50
0.0
 51
90.0
  0
LINE
  5
962C
  8
0
 10
163.0
 20
136.5
 30
0.0
 11
170.0
 21
136.5
 31
0.0
  0
LINE
  5
962D
  8
0
 10
163.0
 20
142.0
 30
0.0
 11
163.0
 21
136.5
 31
0.0
  0
LINE
  5
962E
  8
0
 10
163.0
 20
142.0
 30
0.0
 11
160.0
 21
142.0
 31
0.0
  0
LINE
  5
962F
  8
0
 10
160.0
 20
142.0
 30
0.0
 11
160.0
 21
136.5
 31
0.0
  0
LINE
  5
9630
  8
0
 10
150.0
 20
136.5
 30
0.0
 11
160.0
 21
136.5
 31
0.0
  0
ARC
  5
9631
  8
0
 10
150.0
 20
136.0
 30
0.0
 40
0.5
 50
90.0
 51
180.0
  0
LINE
  5
9635
  8
0
 10
149.5
 20
126.0
 30
0.0
 11
143.5
 21
126.0
 31
0.0
  0
LINE
  5
9636
  8
0
 10
142.5
 20
127.0
 30
0.0
 11
142.5
 21
138.40065792319999
 31
0.0
  0
ARC
  5
9637
  8
0
 10
143.5
 20
127.0
 30
0.0
 40
1.0000000000000271
 50
180.0
 51
270.0
  0
LINE
  5
963A
  8
0
 10
176.5
 20
126.0
 30
0.0
 11
170.5
 21
126.0
 31
0.0
  0
LINE
  5
963B
  8
0
 10
177.5
 20
138.40065792319999
 30
0.0
 11
177.5
 21
127.0
 31
0.0
  0
ARC
  5
963F
  8
0
 10
176.5
 20
127.0
 30
0.0
 40
1.0
 50
270.0
 51
0.0
  0
ARC
  5
9640
  8
0
 10
141.0
 20
146.0
 30
0.0
 40
4.0000000000000657
 50
231.0575587310037
 51
251.79004313570331
  0
ARC
  5
9641
  8
0
 10
179.0
 20
146.0
 30
0.0
 40
4.0000000000000169
 50
288.20995686429671
 51
308.94244126899622
  0
POLYLINE
  5
9645
  8
0
 66
     1
 10
0.0
 20
0.0
 30
0.0
 70
   128
  0
VERTEX
  5
9D9C
  8
0
 10
43.852664207900027
 20
168.94935144050001
 30
0.0
  0
VERTEX
  5
9D9D
  8
0
 10
43.719214584600081
 20
168.97287972230001
 30
0.0
  0
VERTEX
  5
9D9E
  8
0
 10
43.378168688900011
 20
168.86454414100001
 30
0.0
  0
SEQEND
  5
9D9F
  8
0
  0
POLYLINE
  5
9646
  8
0
 66
     1
 10
0.0
 20
0.0
 30
0.0
 70
   128
  0
VERTEX
  5
9DA0
  8
0
 10
39.311432673900072
 20
158.1257473224
 30
0.0
  0
VERTEX
  5
9DA1
  8
0
 10
39.210750845400071
 20
158.3677839069
 30
0.0
  0
VERTEX
  5
9DA2
  8
0
 10
39.128290547900072
 20
158.87143804350001
 30
0.0
  0
VERTEX
  5
9DA3
  8
0
 10
39.139105909399973
 20
159.5492424848
 30
0.0
  0
VERTEX
  5
9DA4
  8
0
 10
39.242781301800051
 20
160.37514958610001
 30
0.0
  0
VERTEX
  5
9DA5
  8
0
 10
39.435332537699992
 20
161.3174202008
 30
0.0
  0
VERTEX
  5
9DA6
  8
0
 10
39.709359981300061
 20
162.3398433975
 30
0.0
  0
VERTEX
  5
9DA7
  8
0
 10
40.054332911500069
 20
163.40312802619999
 30
0.0
  0
VERTEX
  5
9DA8
  8
0
 10
40.456994212100092
 20
164.46641265490001
 30
0.0
  0
VERTEX
  5
9DA9
  8
0
 10
40.901869835100001
 20
165.4888358517
 30
0.0
  0
VERTEX
  5
9DAA
  8
0
 10
41.371863459799997
 20
166.43110646630001
 30
0.0
  0
VERTEX
  5
9DAB
  8
0
 10
41.848913494900103
 20
167.25701356769989
 30
0.0
  0
VERTEX
  5
9DAC
  8
0
 10
42.314687174900087
 20
167.9348180088999
 30
0.0
  0
VERTEX
  5
9DAD
  8
0
 10
42.751285078500011
 20
168.4384721456
 30
0.0
  0
VERTEX
  5
9DAE
  8
0
 10
43.141928993299977
 20
168.74862083149989
 30
0.0
  0
VERTEX
  5
9DAF
  8
0
 10
43.378168688900011
 20
168.86454414100001
 30
0.0
  0
SEQEND
  5
9DB0
  8
0
  0
LINE
  5
964A
  8
0
 10
141.90000000000001
 20
136.0
 30
0.0
 11
135.85672328769999
 21
136.0
 31
0.0
  0
LINE
  5
964D
  8
0
 10
137.0
 20
152.5
 30
0.0
 11
135.8567175316
 21
152.5
 31
0.0
  0
LINE
  5
9650
  8
0
 10
138.0
 20
136.0
 30
0.0
 11
137.98953962069999
 21
136.0
 31
0.0
  0
LINE
  5
9654
  8
0
 10
149.5
 20
125.5
 30
0.0
 11
149.5
 21
136.0
 31
0.0
  0
LINE
  5
9655
  8
0
 10
158.0
 20
125.5
 30
0.0
 11
158.0
 21
136.5
 31
0.0
  0
LINE
  5
9656
  8
0
 10
158.0
 20
125.5
 30
0.0
 11
157.5
 21
125.0
 31
0.0
  0
LINE
  5
9659
  8
0
 10
149.5
 20
125.5
 30
0.0
 11
150.0
 21
125.0
 31
0.0
  0
LINE
  5
965B
  8
0
 10
162.5
 20
125.0
 30
0.0
 11
162.0
 21
125.5
 31
0.0
  0
LINE
  5
965F
  8
0
 10
162.0
 20
139.0
 30
0.0
 11
162.0
 21
125.5
 31
0.0
  0
LINE
  5
9660
  8
0
 10
170.5
 20
136.0
 30
0.0
 11
170.5
 21
125.5
 31
0.0
  0
LINE
  5
9662
  8
0
 10
170.0
 20
125.0
 30
0.0
 11
170.5
 21
125.5
 31
0.0
  0
LINE
  5
9665
  8
0
 10
158.0
 20
136.0
 30
0.0
 11
162.0
 21
136.0
 31
0.0
  0
ARC
  5
966F
  8
0
 10
138.0
 20
135.0
 30
0.0
 40
1.0
 50
90.0
 51
180.0
  0
LINE
  5
9672
  8
0
 10
137.0
 20
125.5
 30
0.0
 11
137.5
 21
125.0
 31
0.0
  0
LINE
  5
9673
  8
0
 10
182.5
 20
125.0
 30
0.0
 11
137.5
 21
125.0
 31
0.0
  0
LINE
  5
9674
  8
0
 10
137.0
 20
125.5
 30
0.0
 11
137.0
 21
135.0
 31
0.0
  0
LINE
  5
967A
  8
0
 10
182.5
 20
125.0
 30
0.0
 11
183.0
 21
125.5
 31
0.0
  0
ARC
  5
967C
  8
0
 10
182.0
 20
135.0
 30
0.0
 40
1.0
 50
0.0
 51
90.0
  0
LINE
  5
967D
  8
0
 10
178.09999999999999
 20
136.0
 30
0.0
 11
182.0
 21
136.0
 31
0.0
  0
LINE
  5
967E
  8
0
 10
183.0
 20
125.5
 30
0.0
 11
183.0
 21
135.0
 31
0.0
  0
LINE
  5
9681
  8
0
 10
139.0
 20
143.75
 30
0.0
 11
139.0
 21
144.25
 31
0.0
  0
LINE
  5
9682
  8
0
 10
139.0
 20
153.75
 30
0.0
 11
139.0
 21
154.25
 31
0.0
  0
LINE
  5
9683
  8
0
 10
139.0
 20
151.75
 30
0.0
 11
139.0
 21
152.25
 31
0.0
  0
LINE
  5
9684
  8
0
 10
139.0
 20
149.75
 30
0.0
 11
139.0
 21
150.25
 31
0.0
  0
LINE
  5
9685
  8
0
 10
139.0
 20
147.75
 30
0.0
 11
139.0
 21
148.25
 31
0.0
  0
LINE
  5
9686
  8
0
 10
139.0
 20
145.75
 30
0.0
 11
139.0
 21
146.25
 31
0.0
  0
LINE
  5
9688
  8
0
 10
181.0
 20
145.75
 30
0.0
 11
181.0
 21
146.25
 31
0.0
  0
LINE
  5
968A
  8
0
 10
181.0
 20
147.75
 30
0.0
 11
181.0
 21
148.25
 31
0.0
  0
LINE
  5
968B
  8
0
 10
181.0
 20
153.75
 30
0.0
 11
181.0
 21
154.25
 31
0.0
  0
LINE
  5
968C
  8
0
 10
181.0
 20
149.75
 30
0.0
 11
181.0
 21
150.25
 31
0.0
  0
LINE
  5
968D
  8
0
 10
181.0
 20
151.75
 30
0.0
 11
181.0
 21
152.25
 31
0.0
  0
LINE
  5
968E
  8
0
 10
181.0
 20
143.75
 30
0.0
 11
181.0
 21
144.25
 31
0.0
  0
POLYLINE
  5
9697
  8
0
 66
     1
 10
0.0
 20
0.0
 30
0.0
 70
   128
  0
VERTEX
  5
9DB1
  8
0
 10
141.3627599511
 20
142.5
 30
0.0
  0
VERTEX
  5
9DB2
  8
0
 10
140.37535184199999
 20
142.658846686
 30
0.0
  0
VERTEX
  5
9DB3
  8
0
 10
139.91988968919989
 20
142.71674890700001
 30
0.0
  0
SEQEND
  5
9DB4
  8
0
  0
POLYLINE
  5
969B
  8
0
 66
     1
 10
0.0
 20
0.0
 30
0.0
 70
   128
  0
VERTEX
  5
9DB5
  8
0
 10
180.08011031079999
 20
142.71674890700001
 30
0.0
  0
VERTEX
  5
9DB6
  8
0
 10
179.0938522834
 20
142.57775070939999
 30
0.0
  0
VERTEX
  5
9DB7
  8
0
 10
178.6372400489
 20
142.5
 30
0.0
  0
SEQEND
  5
9DB8
  8
0
  0
LINE
  5
969D
  8
0
 10
155.0
 20
142.5
 30
0.0
 11
141.3627599511
 21
142.5
 31
0.0
  0
LINE
  5
969E
  8
0
 10
178.6372400489
 20
142.5
 30
0.0
 11
165.0
 21
142.5
 31
0.0
  0
ARC
  5
969F
  8
0
 10
143.66711979350009
 20
179.99319217530001
 30
0.0
 40
37.464315771003903
 50
262.0505716142975
 51
264.25960214729361
  0
ARC
  5
96A0
  8
0
 10
176.2549892296
 20
180.6420788021999
 30
0.0
 40
38.117741262316549
 50
275.75933406279762
 51
277.93049217550077
  0
LINE
  5
96CA
  8
0
 10
554.0
 20
110.0
 30
0.0
 11
556.0
 21
108.0
 31
0.0
  0
LINE
  5
96CB
  8
0
 10
564.0
 20
108.0
 30
0.0
 11
566.0
 21
110.0
 31
0.0
  0
LINE
  5
96CC
  8
0
 10
554.0
 20
125.0
 30
0.0
 11
554.0
 21
110.0
 31
0.0
  0
LINE
  5
96CD
  8
0
 10
566.0
 20
110.0
 30
0.0
 11
566.0
 21
125.0
 31
0.0
  0
ARC
  5
96CE
  8
0
 10
688.88276039559992
 20
167.33635967449999
 30
0.0
 40
12.50000000000129
 50
233.5243355639947
 51
18.052412376600788
  0
ARC
  5
96CF
  8
0
 10
688.88276039559992
 20
167.33635967449999
 30
0.0
 40
12.500000000000281
 50
18.052412376600788
 51
167.76945741010189
  0
LINE
  5
96D0
  8
0
 10
681.00092240419986
 20
156.61878653260001
 30
0.0
 11
681.91048281579992
 21
156.9615177311
 31
0.0
  0
LINE
  5
96D1
  8
0
 10
676.79767126120009
 20
170.53020071829999
 30
0.0
 11
675.88811084960003
 21
170.1874695198
 31
0.0
  0
LINE
  5
96D2
  8
0
 10
675.4026493322001
 20
168.6687463486
 30
0.0
 11
629.34029699999985
 21
151.31200454410001
 31
0.0
  0
LINE
  5
96D3
  8
0
 10
633.57158932100015
 20
140.0827496581
 30
0.0
 11
679.63394165329976
 21
157.43949146269989
 31
0.0
  0
ARC
  5
96D4
  8
0
 10
623.51955802980024
 20
166.732407889
 30
0.0
 40
28.482408902690459
 50
270.0152862623047
 51
290.66606173630038
  0
ARC
  5
96D5
  8
0
 10
623.51906935969976
 20
166.73508929469989
 30
0.0
 40
16.485091278594439
 50
270.02810953960261
 51
290.67831279099829
  0
LINE
  5
96D6
  8
0
 10
582.71674692969816
 20
138.25
 30
0.0
 11
623.52715701130001
 21
138.25
 31
0.0
  0
LINE
  5
96D7
  8
0
 10
623.52715701130001
 20
150.25
 30
0.0
 11
582.75459185450825
 21
150.25
 31
0.0
  0
LINE
  5
96DA
  8
0
 10
574.0
 20
154.80000000000001
 30
0.0
 11
573.79999999999995
 21
155.0
 31
0.0
  0
LINE
  5
96DB
  8
0
 10
546.20000000000005
 20
155.0
 30
0.0
 11
546.0
 21
154.80000000000001
 31
0.0
  0
LINE
  5
96DC
  8
0
 10
574.0
 20
153.0
 30
0.0
 11
574.0
 21
154.80000000000001
 31
0.0
  0
LINE
  5
96DD
  8
0
 10
546.0
 20
154.80000000000001
 30
0.0
 11
546.0
 21
153.0
 31
0.0
  0
LINE
  5
96DE
  8
0
 10
546.0
 20
153.0
 30
0.0
 11
546.20000000000005
 21
152.80000000000001
 31
0.0
  0
LINE
  5
96DF
  8
0
 10
573.79999999999995
 20
152.80000000000001
 30
0.0
 11
574.0
 21
153.0
 31
0.0
  0
ARC
  5
96E0
  8
0
 10
547.35000000000014
 20
152.40000000000001
 30
0.0
 40
0.4000000000000057
 50
14.47751218592988
 51
90.0
  0
ARC
  5
96E1
  8
0
 10
572.64999999999998
 20
152.40000000000001
 30
0.0
 40
0.4000000000000909
 50
90.0
 51
165.52248781407761
  0
LINE
  5
96E2
  8
0
 10
584.64257525139976
 20
136.5
 30
0.0
 11
584.6425752514001
 21
138.25
 31
0.0
  0
LINE
  5
96E3
  8
0
 10
584.64257525139976
 20
150.25
 30
0.0
 11
584.64257525139976
 21
152.0
 31
0.0
  0
LINE
  5
96E4
  8
0
 10
539.21199501439992
 20
152.0
 30
0.0
 11
539.21199501439992
 21
136.5
 31
0.0
  0
LINE
  5
96E5
  8
0
 10
539.7119908684997
 20
152.5
 30
0.0
 11
539.21199501439992
 21
152.0
 31
0.0
  0
LINE
  5
96E6
  8
0
 10
584.64257525139976
 20
152.0
 30
0.0
 11
584.14255454739975
 21
152.5
 31
0.0
  0
LINE
  5
96E7
  8
0
 10
539.21199501439992
 20
136.5
 30
0.0
 11
539.71199086879994
 21
136.0
 31
0.0
  0
LINE
  5
96E8
  8
0
 10
584.14255454729982
 20
136.0
 30
0.0
 11
584.64257525139976
 21
136.5
 31
0.0
  0
LINE
  5
96E9
  8
0
 10
564.0
 20
108.0
 30
0.0
 11
556.0
 21
108.0
 31
0.0
  0
LINE
  5
96EB
  8
0
 10
560.0
 20
110.0
 30
0.0
 11
566.0
 21
110.0
 31
0.0
  0
LINE
  5
96EC
  8
0
 10
554.0
 20
110.0
 30
0.0
 11
560.0
 21
110.0
 31
0.0
  0
ARC
  5
96ED
  8
0
 10
689.43995758330016
 20
169.2156366747999
 30
0.0
 40
12.796600758590699
 50
176.5557043758003
 51
201.69548988340239
  0
ARC
  5
96EE
  8
0
 10
694.23436453980025
 20
168.86950972610001
 30
0.0
 40
17.25098379648038
 50
194.7235721096967
 51
222.18510319390049
  0
POLYLINE
  5
96EF
  8
0
 66
     1
 10
0.0
 20
0.0
 30
0.0
 70
   128
  0
VERTEX
  5
9DB9
  8
0
 10
676.35417385189987
 20
164.0345298645
 30
0.0
  0
VERTEX
  5
9DBA
  8
0
 10
676.00200536360012
 20
165.2028710973
 30
0.0
  0
VERTEX
  5
9DBB
  8
0
 10
675.72405134409985
 20
166.31652804769999
 30
0.0
  0
VERTEX
  5
9DBC
  8
0
 10
675.52875728549986
 20
167.34166281259999
 30
0.0
  0
VERTEX
  5
9DBD
  8
0
 10
675.4220570990999
 20
168.247127191
 30
0.0
  0
VERTEX
  5
9DBE
  8
0
 10
675.40719281609995
 20
169.00540910599989
 30
0.0
  0
VERTEX
  5
9DBF
  8
0
 10
675.48461608000002
 20
169.59346854529991
 30
0.0
  0
VERTEX
  5
9DC0
  8
0
 10
675.65197442429996
 20
169.99343762039999
 30
0.0
  0
VERTEX
  5
9DC1
  8
0
 10
675.88811084960003
 20
170.1874695198
 30
0.0
  0
SEQEND
  5
9DC2
  8
0
  0
POLYLINE
  5
96F0
  8
0
 66
     1
 10
0.0
 20
0.0
 30
0.0
 70
   128
  0
VERTEX
  5
9DC3
  8
0
 10
681.00092240419986
 20
156.61878653260001
 30
0.0
  0
VERTEX
  5
9DC4
  8
0
 10
680.98485050340014
 20
156.6130925791
 30
0.0
  0
VERTEX
  5
9DC5
  8
0
 10
680.65545541799986
 20
156.61967851739999
 30
0.0
  0
VERTEX
  5
9DC6
  8
0
 10
680.25888207629998
 20
156.83237613630001
 30
0.0
  0
VERTEX
  5
9DC7
  8
0
 10
679.80718015840012
 20
157.24472272649999
 30
0.0
  0
VERTEX
  5
9DC8
  8
0
 10
679.31407439870009
 20
157.8441893454
 30
0.0
  0
VERTEX
  5
9DC9
  8
0
 10
678.79454756609994
 20
158.61256150310001
 30
0.0
  0
VERTEX
  5
9DCA
  8
0
 10
678.26438522059993
 20
159.52649260059999
 30
0.0
  0
VERTEX
  5
9DCB
  8
0
 10
677.73969607669983
 20
160.55821330369989
 30
0.0
  0
VERTEX
  5
9DCC
  8
0
 10
677.23642254849995
 20
161.67637530109999
 30
0.0
  0
VERTEX
  5
9DCD
  8
0
 10
676.76985634760013
 20
162.84700380629999
 30
0.0
  0
VERTEX
  5
9DCE
  8
0
 10
676.35417385189987
 20
164.0345298645
 30
0.0
  0
SEQEND
  5
9DCF
  8
0
  0
ARC
  5
96F1
  8
0
 10
541.0
 20
146.0
 30
0.0
 40
4.0000000000009157
 50
180.0
 51
231.150663467897
  0
LINE
  5
96F2
  8
0
 10
537.0
 20
146.0
 30
0.0
 11
537.0
 21
154.0
 31
0.0
  0
ARC
  5
96F3
  8
0
 10
541.0
 20
146.0
 30
0.0
 40
4.0000000000000231
 50
231.150663467897
 51
243.44855080819551
  0
LINE
  5
96F4
  8
0
 10
583.0
 20
153.85216397179991
 30
0.0
 11
583.0
 21
152.5
 31
0.0
  0
ARC
  5
96FA
  8
0
 10
582.0
 20
154.0
 30
0.0
 40
1.0
 50
0.0
 51
90.0
  0
LINE
  5
96FB
  8
0
 10
583.0
 20
153.85216397179991
 30
0.0
 11
583.0
 21
154.0
 31
0.0
  0
LINE
  5
96FC
  8
0
 10
538.0
 20
155.0
 30
0.0
 11
582.0
 21
155.0
 31
0.0
  0
ARC
  5
96FE
  8
0
 10
538.0
 20
154.0
 30
0.0
 40
1.0
 50
90.0
 51
180.0
  0
LINE
  5
9705
  8
0
 10
573.79999999999995
 20
152.80000000000001
 30
0.0
 11
546.20000000000005
 21
152.80000000000001
 31
0.0
  0
POLYLINE
  5
9706
  8
0
 66
     1
 10
0.0
 20
0.0
 30
0.0
 70
   128
  0
VERTEX
  5
9DD0
  8
0
 10
584.1114677690714
 20
150.24999999999989
 30
0.0
  0
VERTEX
  5
9DD1
  8
0
 10
583.71535730009975
 20
150.78973891109999
 30
0.0
  0
VERTEX
  5
9DD2
  8
0
 10
583.17090727719983
 20
150.6950567332
 30
0.0
  0
VERTEX
  5
9DD3
  8
0
 10
582.57758112360011
 20
150.06076891859999
 30
0.0
  0
VERTEX
  5
9DD4
  8
0
 10
581.96466760250007
 20
148.90422661310001
 30
0.0
  0
VERTEX
  5
9DD5
  8
0
 10
581.81147826890015
 20
148.423820546
 30
0.0
  0
SEQEND
  5
9DD6
  8
0
  0
POLYLINE
  5
9707
  8
0
 66
     1
 10
0.0
 20
0.0
 30
0.0
 70
   128
  0
VERTEX
  5
9DD7
  8
0
 10
581.79868740679979
 20
140.05642682909999
 30
0.0
  0
VERTEX
  5
9DD8
  8
0
 10
581.95908858630014
 20
139.61000465750001
 30
0.0
  0
VERTEX
  5
9DD9
  8
0
 10
582.33874183300009
 20
138.82438448409999
 30
0.0
  0
VERTEX
  5
9DDA
  8
0
 10
582.71703615820002
 20
138.24956051289999
 30
0.0
  0
VERTEX
  5
9DDB
  8
0
 10
583.09492523879987
 20
137.85955362979999
 30
0.0
  0
VERTEX
  5
9DDC
  8
0
 10
583.68965178250005
 20
137.70004947009991
 30
0.0
  0
VERTEX
  5
9DDD
  8
0
 10
584.09453004500006
 20
138.14944336249999
 30
0.0
  0
VERTEX
  5
9DDE
  8
0
 10
584.12240950029059
 20
138.25
 30
0.0
  0
SEQEND
  5
9DDF
  8
0
  0
LINE
  5
970A
  8
0
 10
539.7119908684997
 20
152.5
 30
0.0
 11
584.14255454739975
 21
152.5
 31
0.0
  0
LINE
  5
970C
  8
0
 10
583.0
 20
135.0
 30
0.0
 11
583.0
 21
125.5
 31
0.0
  0
LINE
  5
970E
  8
0
 10
582.5
 20
125.0
 30
0.0
 11
537.5
 21
125.0
 31
0.0
  0
LINE
  5
970F
  8
0
 10
582.5
 20
125.0
 30
0.0
 11
583.0
 21
125.5
 31
0.0
  0
ARC
  5
9711
  8
0
 10
582.0
 20
135.0
 30
0.0
 40
1.0
 50
0.0
 51
90.0
  0
LINE
  5
9716
  8
0
 10
537.0
 20
125.5
 30
0.0
 11
537.0
 21
135.0
 31
0.0
  0
LINE
  5
9718
  8
0
 10
537.5
 20
125.0
 30
0.0
 11
537.0
 21
125.5
 31
0.0
  0
LINE
  5
9719
  8
0
 10
538.0
 20
136.0
 30
0.0
 11
584.14255454729982
 21
136.0
 31
0.0
  0
ARC
  5
971A
  8
0
 10
538.0
 20
135.0
 30
0.0
 40
1.000000000000113
 50
90.0
 51
180.0
  0
LINE
  5
9730
  8
0
 10
571.0
 20
125.0
 30
0.0
 11
571.0
 21
136.0
 31
0.0
  0
LINE
  5
9735
  8
0
 10
549.0
 20
136.0
 30
0.0
 11
549.0
 21
125.0
 31
0.0
  0
ARC
  5
9788
  8
5
 10
338.0
 20
143.91817611979999
 30
0.0
 40
5.0000000000000444
 50
6.3514372285012648
 51
50.321745820893739
  0
ARC
  5
9789
  8
5
 10
337.99998914579999
 20
143.9181785243
 30
0.0
 40
5.0000104568520589
 50
332.3562325836009
 51
6.3513967378000986
  0
ARC
  5
978A
  8
5
 10
331.9090189305
 20
152.86901862479999
 30
0.0
 40
2.0000000000000102
 50
50.321745820893739
 51
81.873925042603489
  0
LINE
  5
978B
  8
5
 10
333.18596951670003
 20
154.408303082
 30
0.0
 11
341.19237832729999
 21
147.7663861513
 31
0.0
  0
POLYLINE
  5
978C
  8
5
 66
     1
 10
0.0
 20
0.0
 30
0.0
 70
   128
  0
VERTEX
  5
9DE0
  8
5
 10
324.45534750820002
 20
155.83877171579999
 30
0.0
  0
VERTEX
  5
9DE1
  8
5
 10
324.52616155150002
 20
155.89189063009999
 30
0.0
  0
VERTEX
  5
9DE2
  8
5
 10
324.56938982010001
 20
155.9243174195
 30
0.0
  0
VERTEX
  5
9DE3
  8
5
 10
324.58392590289998
 20
155.9352194816
 30
0.0
  0
SEQEND
  5
9DE4
  8
5
  0
LINE
  5
978D
  8
5
 10
324.58392590289998
 20
155.9352194816
 30
0.0
 11
332.19172306360002
 21
154.84893786910001
 31
0.0
  0
POLYLINE
  5
978E
  8
5
 66
     1
 10
0.0
 20
0.0
 30
0.0
 70
   128
  0
VERTEX
  5
9DE5
  8
5
 10
322.3219259083001
 20
145.39916905760001
 30
0.0
  0
VERTEX
  5
9DE6
  8
5
 10
322.37330138689998
 20
145.4377090484
 30
0.0
  0
VERTEX
  5
9DE7
  8
5
 10
322.52509951589991
 20
145.55157440900001
 30
0.0
  0
VERTEX
  5
9DE8
  8
5
 10
322.77042850849989
 20
145.7355981618
 30
0.0
  0
SEQEND
  5
9DE9
  8
5
  0
ARC
  5
978F
  8
5
 10
322.47041802609999
 20
146.1355735091
 30
0.0
 40
0.4999865677864446
 50
306.87255367060328
 51
36.875480547695823
  0
POLYLINE
  5
9790
  8
5
 66
     1
 10
0.0
 20
0.0
 30
0.0
 70
   128
  0
VERTEX
  5
9DEA
  8
5
 10
322.87037804719989
 20
146.43560442329999
 30
0.0
  0
VERTEX
  5
9DEB
  8
5
 10
322.68635615709991
 20
146.68093155330001
 30
0.0
  0
VERTEX
  5
9DEC
  8
5
 10
322.5724889338
 20
146.832731545
 30
0.0
  0
VERTEX
  5
9DED
  8
5
 10
322.53395080569999
 20
146.88410888609999
 30
0.0
  0
SEQEND
  5
9DEE
  8
5
  0
LINE
  5
9791
  8
5
 10
322.53395080569999
 20
146.88410888609999
 30
0.0
 11
322.6046270132
 21
147.3790882081
 31
0.0
  0
POLYLINE
  5
9792
  8
5
 66
     1
 10
0.0
 20
0.0
 30
0.0
 70
   128
  0
VERTEX
  5
9DEF
  8
5
 10
322.6046270132
 20
147.3790882081
 30
0.0
  0
VERTEX
  5
9DF0
  8
5
 10
322.65600621699991
 20
147.41762819889999
 30
0.0
  0
VERTEX
  5
9DF1
  8
5
 10
322.80780434610011
 20
147.53149355950001
 30
0.0
  0
VERTEX
  5
9DF2
  8
5
 10
323.05313333869998
 20
147.71551731229999
 30
0.0
  0
SEQEND
  5
9DF3
  8
5
  0
ARC
  5
9793
  8
5
 10
322.75310864859989
 20
148.11549468819999
 30
0.0
 40
0.4999967158956354
 50
306.87371661350329
 51
36.87431760480343
  0
POLYLINE
  5
9794
  8
5
 66
     1
 10
0.0
 20
0.0
 30
0.0
 70
   128
  0
VERTEX
  5
9DF4
  8
5
 10
323.15308287739998
 20
148.41552357379999
 30
0.0
  0
VERTEX
  5
9DF5
  8
5
 10
322.96906098730011
 20
148.66085070369999
 30
0.0
  0
VERTEX
  5
9DF6
  8
5
 10
322.85519376399998
 20
148.8126506955
 30
0.0
  0
VERTEX
  5
9DF7
  8
5
 10
322.81665563589991
 20
148.86402803659999
 30
0.0
  0
SEQEND
  5
9DF8
  8
5
  0
LINE
  5
9795
  8
5
 10
322.81665563589991
 20
148.86402803659999
 30
0.0
 11
322.88733184340009
 21
149.3590073586
 31
0.0
  0
POLYLINE
  5
9796
  8
5
 66
     1
 10
0.0
 20
0.0
 30
0.0
 70
   128
  0
VERTEX
  5
9DF9
  8
5
 10
322.88733184340009
 20
149.3590073586
 30
0.0
  0
VERTEX
  5
9DFA
  8
5
 10
322.93870732189998
 20
149.3975473493
 30
0.0
  0
VERTEX
  5
9DFB
  8
5
 10
323.09050917629997
 20
149.51141271
 30
0.0
  0
VERTEX
  5
9DFC
  8
5
 10
323.33583444359999
 20
149.69543460009999
 30
0.0
  0
SEQEND
  5
9DFD
  8
5
  0
ARC
  5
9797
  8
5
 10
323.03579786580002
 20
150.0954166004
 30
0.0
 40
0.5000075484552259
 50
306.87448835049918
 51
36.872990888399613
  0
POLYLINE
  5
9798
  8
5
 66
     1
 10
0.0
 20
0.0
 30
0.0
 70
   128
  0
VERTEX
  5
9DFE
  8
5
 10
323.4357877075999
 20
150.3954427242
 30
0.0
  0
VERTEX
  5
9DFF
  8
5
 10
323.25176581739993
 20
150.64076985419999
 30
0.0
  0
VERTEX
  5
9E00
  8
5
 10
323.1378985941999
 20
150.7925698459
 30
0.0
  0
VERTEX
  5
9E01
  8
5
 10
323.09936046600001
 20
150.84394718710001
 30
0.0
  0
SEQEND
  5
9E02
  8
5
  0
LINE
  5
9799
  8
5
 10
323.09936046600001
 20
150.84394718710001
 30
0.0
 11
323.17003667360001
 21
151.338926509
 31
0.0
  0
POLYLINE
  5
979A
  8
5
 66
     1
 10
0.0
 20
0.0
 30
0.0
 70
   128
  0
VERTEX
  5
9E03
  8
5
 10
323.17003667360001
 20
151.338926509
 30
0.0
  0
VERTEX
  5
9E04
  8
5
 10
323.2214121520999
 20
151.37746463720001
 30
0.0
  0
VERTEX
  5
9E05
  8
5
 10
323.37321028119999
 20
151.49133186040001
 30
0.0
  0
VERTEX
  5
9E06
  8
5
 10
323.61853927380002
 20
151.67535375060001
 30
0.0
  0
SEQEND
  5
9E07
  8
5
  0
ARC
  5
979B
  8
5
 10
323.3185163707999
 20
152.07533166970001
 30
0.0
 40
0.499996078019634
 50
306.87351543619531
 51
36.87456144920251
  0
POLYLINE
  5
979C
  8
5
 66
     1
 10
0.0
 20
0.0
 30
0.0
 70
   128
  0
VERTEX
  5
9E08
  8
5
 10
323.71848881250003
 20
152.37536187469999
 30
0.0
  0
VERTEX
  5
9E09
  8
5
 10
323.5344669223
 20
152.62068900470001
 30
0.0
  0
VERTEX
  5
9E0A
  8
5
 10
323.42059969899992
 20
152.7724889964
 30
0.0
  0
VERTEX
  5
9E0B
  8
5
 10
323.38206157090002
 20
152.82386633749999
 30
0.0
  0
SEQEND
  5
9E0C
  8
5
  0
LINE
  5
979D
  8
5
 10
323.38206157090002
 20
152.82386633749999
 30
0.0
 11
323.45273777839998
 21
153.3188456595
 31
0.0
  0
POLYLINE
  5
979E
  8
5
 66
     1
 10
0.0
 20
0.0
 30
0.0
 70
   128
  0
VERTEX
  5
9E0D
  8
5
 10
323.45273777839998
 20
153.3188456595
 30
0.0
  0
VERTEX
  5
9E0E
  8
5
 10
323.5041169822
 20
153.35738378760001
 30
0.0
  0
VERTEX
  5
9E0F
  8
5
 10
323.65591511129992
 20
153.4712510109
 30
0.0
  0
VERTEX
  5
9E10
  8
5
 10
323.9012441038999
 20
153.65527290110001
 30
0.0
  0
SEQEND
  5
9E11
  8
5
  0
ARC
  5
979F
  8
5
 10
323.60122354679987
 20
154.05524968680001
 30
0.0
 40
0.4999937638109687
 50
306.8733783207997
 51
36.874655897503047
  0
POLYLINE
  5
97A0
  8
5
 66
     1
 10
0.0
 20
0.0
 30
0.0
 70
   128
  0
VERTEX
  5
9E12
  8
5
 10
324.0011936425999
 20
154.35527916250001
 30
0.0
  0
VERTEX
  5
9E13
  8
5
 10
323.81717175249992
 20
154.60060815509999
 30
0.0
  0
VERTEX
  5
9E14
  8
5
 10
323.70330452920001
 20
154.75240628419999
 30
0.0
  0
VERTEX
  5
9E15
  8
5
 10
323.6647664011
 20
154.8037836254
 30
0.0
  0
SEQEND
  5
9E16
  8
5
  0
LINE
  5
97A1
  8
5
 10
323.6647664011
 20
154.8037836254
 30
0.0
 11
323.7354426085999
 21
155.29876480999999
 31
0.0
  0
POLYLINE
  5
97A2
  8
5
 66
     1
 10
0.0
 20
0.0
 30
0.0
 70
   128
  0
VERTEX
  5
9E17
  8
5
 10
323.7354426085999
 20
155.29876480999999
 30
0.0
  0
VERTEX
  5
9E18
  8
5
 10
323.78288045530002
 20
155.33434878290001
 30
0.0
  0
VERTEX
  5
9E19
  8
5
 10
323.92320841550003
 20
155.43961058560001
 30
0.0
  0
VERTEX
  5
9E1A
  8
5
 10
324.15054053070003
 20
155.61013388629999
 30
0.0
  0
VERTEX
  5
9E1B
  8
5
 10
324.45534750820002
 20
155.83877171579999
 30
0.0
  0
SEQEND
  5
9E1C
  8
5
  0
POLYLINE
  5
97A3
  8
5
 66
     1
 10
0.0
 20
0.0
 30
0.0
 70
   128
  0
VERTEX
  5
9E1D
  8
5
 10
322.51571178440003
 20
144.5516226739
 30
0.0
  0
VERTEX
  5
9E1E
  8
5
 10
322.3705483972999
 20
144.7451440543
 30
0.0
  0
VERTEX
  5
9E1F
  8
5
 10
322.28133887049989
 20
144.8640739471
 30
0.0
  0
VERTEX
  5
9E20
  8
5
 10
322.25124970079992
 20
144.90418973569999
 30
0.0
  0
SEQEND
  5
9E21
  8
5
  0
LINE
  5
97A4
  8
5
 10
322.25124970079992
 20
144.90418973569999
 30
0.0
 11
322.3219259083001
 21
145.39916905760001
 31
0.0
  0
LINE
  5
97A5
  8
5
 10
323.79390251311457
 20
143.9263142280563
 30
0.0
 11
322.88770437239998
 21
144.05570644139999
 31
0.0
  0
POLYLINE
  5
97A6
  8
5
 66
     1
 10
0.0
 20
0.0
 30
0.0
 70
   128
  0
VERTEX
  5
9E22
  8
5
 10
322.88770437239998
 20
144.05570644139999
 30
0.0
  0
VERTEX
  5
9E23
  8
5
 10
322.76991441849998
 20
144.21273487810001
 30
0.0
  0
VERTEX
  5
9E24
  8
5
 10
322.64581009749998
 20
144.3781843335
 30
0.0
  0
VERTEX
  5
9E25
  8
5
 10
322.51571178440003
 20
144.5516226739
 30
0.0
  0
SEQEND
  5
9E26
  8
5
  0
POLYLINE
  5
97A7
  8
5
 66
     1
 10
0.0
 20
0.0
 30
0.0
 70
   128
  0
VERTEX
  5
9E27
  8
5
 10
342.42924548690002
 20
141.59830938280001
 30
0.0
  0
VERTEX
  5
9E28
  8
5
 10
342.32656344769998
 20
141.40226039289999
 30
0.0
  0
VERTEX
  5
9E29
  8
5
 10
342.24192112690002
 20
141.24065729980001
 30
0.0
  0
VERTEX
  5
9E2A
  8
5
 10
342.17654041949999
 20
141.11582654719999
 30
0.0
  0
SEQEND
  5
9E2B
  8
5
  0
ARC
  5
97AA
  8
5
 10
323.5594978563999
 20
143.45471324159999
 30
0.0
 40
0.5000000000000108
 50
351.87392504260032
 51
81.873925042603489
  0
LINE
  5
97AB
  8
5
 10
342.17654041945582
 20
141.1158265471949
 30
0.0
 11
336.35710053150001
 21
130.00496662410001
 31
0.0
  0
ARC
  5
97AC
  8
5
 10
328.51004056810001
 20
132.14135269489989
 30
0.0
 40
6.000000000000056
 50
171.87392504260021
 51
261.8739250426035
  0
ARC
  5
97AD
  8
5
 10
329.71323329080002
 20
133.4847679248
 30
0.0
 40
7.5000000000000586
 50
261.8739250426035
 51
332.35619218429889
  0
LINE
  5
97AE
  8
5
 10
328.65309402349999
 20
126.06007220879999
 30
0.0
 11
327.6619283855
 21
126.2015961036
 31
0.0
  0
LINE
  5
97AF
  8
5
 10
322.57028356199999
 20
132.98946338889999
 30
0.0
 11
324.05447759905661
 21
143.38403754309201
 31
0.0
  0
LINE
  5
97B0
  8
5
 10
325.00207856299988
 20
142.94602255519999
 30
0.0
 11
341.1564181
 21
140.63941965999999
 31
0.0
  0
ARC
  5
97B1
  8
5
 10
323.72267841190001
 20
143.43821669819999
 30
0.0
 40
0.4932667343797574
 50
17.072692903600799
 51
81.708256970792846
  0
ARC
  5
97B2
  8
5
 10
325.13411757519998
 20
143.94426192020001
 30
0.0
 40
1.0069340249419101
 50
201.02296406749869
 51
262.46511858370468
  0
ARC
  5
97B3
  8
5
 10
341.3422271938
 20
141.57193877890001
 30
0.0
 40
0.9508506330729568
 50
258.73111720210011
 51
331.3349324734998
  0
ARC
  5
97B4
  8
5
 10
323.4769311207001
 20
152.1256540384
 30
0.0
 40
2.0000000000000511
 50
73.567582953001391
 51
105.11976217470171
  0
ARC
  5
97B5
  8
5
 10
332.60613822699997
 20
146.30541267309999
 30
0.0
 40
5.0000000000000613
 50
29.59727436060184
 51
73.567582953001391
  0
LINE
  5
97B6
  8
5
 10
324.04270082709991
 20
154.04396224019999
 30
0.0
 11
334.0205593407
 21
151.10118220749999
 31
0.0
  0
ARC
  5
97B7
  8
5
 10
332.60613294770002
 20
146.3054106781
 30
0.0
 40
5.0000053427630977
 50
355.60206640660027
 51
29.597268241902331
  0
LINE
  5
97B8
  8
5
 10
319.55003325915618
 20
140.70605615901221
 30
0.0
 11
318.66638049490012
 21
140.46730193499999
 31
0.0
  0
POLYLINE
  5
97B9
  8
5
 66
     1
 10
0.0
 20
0.0
 30
0.0
 70
   128
  0
VERTEX
  5
9E2C
  8
5
 10
318.66638049490012
 20
140.46730193499999
 30
0.0
  0
VERTEX
  5
9E2D
  8
5
 10
318.4961794317
 20
140.56509359930001
 30
0.0
  0
VERTEX
  5
9E2E
  8
5
 10
318.31685140729991
 20
140.66813047229999
 30
0.0
  0
VERTEX
  5
9E2F
  8
5
 10
318.12886208300012
 20
140.77614153920001
 30
0.0
  0
SEQEND
  5
9E30
  8
5
  0
POLYLINE
  5
97BA
  8
5
 66
     1
 10
0.0
 20
0.0
 30
0.0
 70
   128
  0
VERTEX
  5
9E31
  8
5
 10
317.6162956655001
 20
141.47840160129999
 30
0.0
  0
VERTEX
  5
9E32
  8
5
 10
317.64829218389991
 20
141.53408910339999
 30
0.0
  0
VERTEX
  5
9E33
  8
5
 10
317.74282887580011
 20
141.698624
 30
0.0
  0
VERTEX
  5
9E34
  8
5
 10
317.8956104815
 20
141.9645333588
 30
0.0
  0
SEQEND
  5
9E35
  8
5
  0
ARC
  5
97BB
  8
5
 10
317.46208431999997
 20
142.2136296585
 30
0.0
 40
0.4999938992415214
 50
330.11910310659869
 51
60.12032702959791
  0
POLYLINE
  5
97BC
  8
5
 66
     1
 10
0.0
 20
0.0
 30
0.0
 70
   128
  0
VERTEX
  5
9E36
  8
5
 10
317.71117135880007
 20
142.647161141
 30
0.0
  0
VERTEX
  5
9E37
  8
5
 10
317.44526386259992
 20
142.79994274680001
 30
0.0
  0
VERTEX
  5
9E38
  8
5
 10
317.28072896600003
 20
142.89447943869999
 30
0.0
  0
VERTEX
  5
9E39
  8
5
 10
317.22503960139989
 20
142.92647595700001
 30
0.0
  0
SEQEND
  5
9E3A
  8
5
  0
LINE
  5
97BD
  8
5
 10
317.22503960139989
 20
142.92647595700001
 30
0.0
 11
317.09462091329988
 21
143.40916740899999
 31
0.0
  0
POLYLINE
  5
97BE
  8
5
 66
     1
 10
0.0
 20
0.0
 30
0.0
 70
   128
  0
VERTEX
  5
9E3B
  8
5
 10
317.09462091329988
 20
143.40916740899999
 30
0.0
  0
VERTEX
  5
9E3C
  8
5
 10
317.12661743170003
 20
143.464854911
 30
0.0
  0
VERTEX
  5
9E3D
  8
5
 10
317.22115412359989
 20
143.62938980760001
 30
0.0
  0
VERTEX
  5
9E3E
  8
5
 10
317.3739357293
 20
143.89529730379999
 30
0.0
  0
SEQEND
  5
9E3F
  8
5
  0
ARC
  5
97BF
  8
5
 10
316.9403892023002
 20
144.14438928390001
 30
0.0
 40
0.5000094055704981
 50
330.1206949134982
 51
60.118656487997342
  0
POLYLINE
  5
97C0
  8
5
 66
     1
 10
0.0
 20
0.0
 30
0.0
 70
   128
  0
VERTEX
  5
9E40
  8
5
 10
317.18949660660002
 20
144.5779269487
 30
0.0
  0
VERTEX
  5
9E41
  8
5
 10
316.92358538510013
 20
144.7307085544
 30
0.0
  0
VERTEX
  5
9E42
  8
5
 10
316.75905421380003
 20
144.8252452463
 30
0.0
  0
VERTEX
  5
9E43
  8
5
 10
316.70336484910013
 20
144.85724176470001
 30
0.0
  0
SEQEND
  5
9E44
  8
5
  0
LINE
  5
97C1
  8
5
 10
316.70336484910013
 20
144.85724176470001
 30
0.0
 11
316.57294616109988
 21
145.3399332166
 31
0.0
  0
POLYLINE
  5
97C2
  8
5
 66
     1
 10
0.0
 20
0.0
 30
0.0
 70
   128
  0
VERTEX
  5
9E45
  8
5
 10
316.57294616109988
 20
145.3399332166
 30
0.0
  0
VERTEX
  5
9E46
  8
5
 10
316.60494267939998
 20
145.39562071859999
 30
0.0
  0
VERTEX
  5
9E47
  8
5
 10
316.69947937130001
 20
145.56015561519999
 30
0.0
  0
VERTEX
  5
9E48
  8
5
 10
316.85226097709977
 20
145.8260631114
 30
0.0
  0
SEQEND
  5
9E49
  8
5
  0
ARC
  5
97C3
  8
5
 10
316.41871454390002
 20
146.07515511689999
 30
0.0
 40
0.5000093367843567
 50
330.1206870316978
 51
60.118664369895761
  0
POLYLINE
  5
97C4
  8
5
 66
     1
 10
0.0
 20
0.0
 30
0.0
 70
   128
  0
VERTEX
  5
9E4A
  8
5
 10
316.66782185440002
 20
146.50869275630001
 30
0.0
  0
VERTEX
  5
9E4B
  8
5
 10
316.4019106328999
 20
146.66147436200001
 30
0.0
  0
VERTEX
  5
9E4C
  8
5
 10
316.23737946160009
 20
146.75601105390001
 30
0.0
  0
VERTEX
  5
9E4D
  8
5
 10
316.18169009690001
 20
146.78800757229999
 30
0.0
  0
SEQEND
  5
9E4E
  8
5
  0
LINE
  5
97C5
  8
5
 10
316.18169009690001
 20
146.78800757229999
 30
0.0
 11
316.05127140880001
 21
147.27069902420001
 31
0.0
  0
POLYLINE
  5
97C6
  8
5
 66
     1
 10
0.0
 20
0.0
 30
0.0
 70
   128
  0
VERTEX
  5
9E4F
  8
5
 10
316.05127140880001
 20
147.27069902420001
 30
0.0
  0
VERTEX
  5
9E50
  8
5
 10
316.08326792719998
 20
147.3263865262
 30
0.0
  0
VERTEX
  5
9E51
  8
5
 10
316.17780461910002
 20
147.49091956020001
 30
0.0
  0
VERTEX
  5
9E52
  8
5
 10
316.33058622480007
 20
147.7568289191
 30
0.0
  0
SEQEND
  5
9E53
  8
5
  0
ARC
  5
97C7
  8
5
 10
315.89704992460003
 20
148.0059224794
 30
0.0
 40
0.5000013253726563
 50
330.11995408820138
 51
60.119476048106058
  0
POLYLINE
  5
97C8
  8
5
 66
     1
 10
0.0
 20
0.0
 30
0.0
 70
   128
  0
VERTEX
  5
9E54
  8
5
 10
316.14614710209997
 20
148.4394567013
 30
0.0
  0
VERTEX
  5
9E55
  8
5
 10
315.88023588060008
 20
148.59224016970001
 30
0.0
  0
VERTEX
  5
9E56
  8
5
 10
315.71570098400002
 20
148.68677499890001
 30
0.0
  0
VERTEX
  5
9E57
  8
5
 10
315.66001534460003
 20
148.71877151730001
 30
0.0
  0
SEQEND
  5
9E58
  8
5
  0
LINE
  5
97C9
  8
5
 10
315.66001534460003
 20
148.71877151730001
 30
0.0
 11
315.52959665660001
 21
149.20146296920001
 31
0.0
  0
POLYLINE
  5
97CA
  8
5
 66
     1
 10
0.0
 20
0.0
 30
0.0
 70
   128
  0
VERTEX
  5
9E59
  8
5
 10
315.52959665660001
 20
149.20146296920001
 30
0.0
  0
VERTEX
  5
9E5A
  8
5
 10
315.56159317499993
 20
149.25715047119999
 30
0.0
  0
VERTEX
  5
9E5B
  8
5
 10
315.65612986689979
 20
149.42168536779999
 30
0.0
  0
VERTEX
  5
9E5C
  8
5
 10
315.8089114725999
 20
149.68759472670001
 30
0.0
  0
SEQEND
  5
9E5D
  8
5
  0
ARC
  5
97CB
  8
5
 10
315.37537517240003
 20
149.93668828700001
 30
0.0
 40
0.5000013253726563
 50
330.11995408820138
 51
60.119476048106058
  0
POLYLINE
  5
97CC
  8
5
 66
     1
 10
0.0
 20
0.0
 30
0.0
 70
   128
  0
VERTEX
  5
9E5E
  8
5
 10
315.62447234990009
 20
150.37022250890001
 30
0.0
  0
VERTEX
  5
9E5F
  8
5
 10
315.35856112840003
 20
150.52300597729999
 30
0.0
  0
VERTEX
  5
9E60
  8
5
 10
315.19402623179991
 20
150.61754080649999
 30
0.0
  0
VERTEX
  5
9E61
  8
5
 10
315.13834059240003
 20
150.6495373249
 30
0.0
  0
SEQEND
  5
9E62
  8
5
  0
LINE
  5
97CD
  8
5
 10
315.13834059240003
 20
150.6495373249
 30
0.0
 11
315.00792190440012
 21
151.13222877679999
 31
0.0
  0
POLYLINE
  5
97CE
  8
5
 66
     1
 10
0.0
 20
0.0
 30
0.0
 70
   128
  0
VERTEX
  5
9E63
  8
5
 10
315.00792190440012
 20
151.13222877679999
 30
0.0
  0
VERTEX
  5
9E64
  8
5
 10
315.03746345640002
 20
151.18364709619999
 30
0.0
  0
VERTEX
  5
9E65
  8
5
 10
315.12485504149998
 20
151.3357488364
 30
0.0
  0
VERTEX
  5
9E66
  8
5
 10
315.266430974
 20
151.5821525753
 30
0.0
  0
VERTEX
  5
9E67
  8
5
 10
315.45625314120002
 20
151.91252808269999
 30
0.0
  0
SEQEND
  5
9E68
  8
5
  0
POLYLINE
  5
97CF
  8
5
 66
     1
 10
0.0
 20
0.0
 30
0.0
 70
   128
  0
VERTEX
  5
9E69
  8
5
 10
318.12886208300012
 20
140.77614153920001
 30
0.0
  0
VERTEX
  5
9E6A
  8
5
 10
317.91910216209999
 20
140.896662131
 30
0.0
  0
VERTEX
  5
9E6B
  8
5
 10
317.79019594200008
 20
140.97072649
 30
0.0
  0
VERTEX
  5
9E6C
  8
5
 10
317.7467143536
 20
140.9957101494
 30
0.0
  0
SEQEND
  5
9E6D
  8
5
  0
LINE
  5
97D0
  8
5
 10
317.7467143536
 20
140.9957101494
 30
0.0
 11
317.6162956655001
 21
141.47840160129999
 31
0.0
  0
POLYLINE
  5
97D1
  8
5
 66
     1
 10
0.0
 20
0.0
 30
0.0
 70
   128
  0
VERTEX
  5
9E6E
  8
5
 10
315.45625314120002
 20
151.91252808269999
 30
0.0
  0
VERTEX
  5
9E6F
  8
5
 10
315.50035685300008
 20
151.98928396400001
 30
0.0
  0
VERTEX
  5
9E70
  8
5
 10
315.52727952599997
 20
152.03614066540001
 30
0.0
  0
VERTEX
  5
9E71
  8
5
 10
315.53632825620002
 20
152.0518949181
 30
0.0
  0
SEQEND
  5
9E72
  8
5
  0
LINE
  5
97D2
  8
5
 10
315.53632825620002
 20
152.0518949181
 30
0.0
 11
322.95525506139978
 21
154.056419611
 31
0.0
  0
POLYLINE
  5
97D3
  8
5
 66
     1
 10
0.0
 20
0.0
 30
0.0
 70
   128
  0
VERTEX
  5
9E73
  8
5
 10
337.59141586719988
 20
145.9219949246
 30
0.0
  0
VERTEX
  5
9E74
  8
5
 10
337.57444530729998
 20
145.70133480429999
 30
0.0
  0
VERTEX
  5
9E75
  8
5
 10
337.5604549795998
 20
145.51944378019999
 30
0.0
  0
VERTEX
  5
9E76
  8
5
 10
337.54964977510008
 20
145.37894259390001
 30
0.0
  0
SEQEND
  5
9E77
  8
5
  0
ARC
  5
97D6
  8
5
 10
319.52083584749988
 20
140.1802382564
 30
0.0
 40
0.5000000000000358
 50
15.11976217469878
 51
105.11976217470171
  0
LINE
  5
97D7
  8
5
 10
337.54964977510241
 20
145.37894259394639
 30
0.0
 11
336.58783569929977
 21
132.87326506529999
 31
0.0
  0
LINE
  5
97D8
  8
5
 10
331.06620110569997
 20
126.2080222294
 30
0.0
 11
330.0996428727999
 21
125.94686709760001
 31
0.0
  0
ARC
  5
97D9
  8
5
 10
328.53461727850009
 20
131.7391634247
 30
0.0
 40
6.0000000000001172
 50
195.11976217469879
 51
285.11976217470169
  0
ARC
  5
97DA
  8
5
 10
329.10991945450002
 20
133.4483926703
 30
0.0
 40
7.5000000000000506
 50
285.11976217470169
 51
355.60202931640032
  0
LINE
  5
97DB
  8
5
 10
322.74232119319998
 20
130.17413857579999
 30
0.0
 11
320.00352720826743
 21
140.31065700597409
 31
0.0
  0
LINE
  5
97DC
  8
5
 10
321.04707568889989
 20
140.28219691659999
 30
0.0
 11
336.80036723619992
 21
144.5385916084
 31
0.0
  0
ARC
  5
97DD
  8
5
 10
319.67727900139988
 20
140.22947652920001
 30
0.0
 40
0.4932743886227366
 50
40.31919423040344
 51
104.9534909804995
  0
ARC
  5
97DE
  8
5
 10
320.77441281829988
 20
141.251502192
 30
0.0
 40
1.0069249017570261
 50
224.26845065640131
 51
285.71114450639737
  0
ARC
  5
97DF
  8
5
 10
336.60305069949999
 20
145.46874210510001
 30
0.0
 40
0.9508489691505555
 50
281.97683306979201
 51
354.58082995949991
  0
ARC
  5
97E0
  8
5
 10
360.0
 20
600.35850405940096
 30
0.0
 40
12.500000000000449
 50
299.90000046250339
 51
240.09999953749659
  0
LINE
  5
97E1
  8
5
 10
367.25
 20
589.55203892040095
 30
0.0
 11
367.25
 21
590.17579813220107
 31
0.0
  0
LINE
  5
97E2
  8
5
 10
352.75
 20
590.17579813220107
 30
0.0
 11
352.75
 21
589.55203892040095
 31
0.0
  0
LINE
  5
97E3
  8
5
 10
354.0
 20
588.16011778200107
 30
0.0
 11
354.0
 21
490.73604586541131
 31
0.0
  0
LINE
  5
97E4
  8
5
 10
366.0
 20
490.07363231297143
 30
0.0
 11
366.0
 21
588.16011778200107
 31
0.0
  0
ARC
  5
97E5
  8
5
 10
360.0
 20
603.797022623001
 30
0.0
 40
15.575442968441459
 50
246.41813030240149
 51
293.58186969759839
  0
POLYLINE
  5
97E6
  8
5
 66
     1
 10
0.0
 20
0.0
 30
0.0
 70
   128
  0
VERTEX
  5
9E78
  8
5
 10
367.04460276759983
 20
588.96598844310108
 30
0.0
  0
VERTEX
  5
9E79
  8
5
 10
366.64003379709987
 20
588.55650463360109
 30
0.0
  0
VERTEX
  5
9E7A
  8
5
 10
366.03371075969989
 20
588.17726962970096
 30
0.0
  0
VERTEX
  5
9E7B
  8
5
 10
365.24405647409998
 20
587.83980629500104
 30
0.0
  0
VERTEX
  5
9E7C
  8
5
 10
364.29506418609998
 20
587.55436828220104
 30
0.0
  0
VERTEX
  5
9E7D
  8
5
 10
363.21556854629989
 20
587.32962848090096
 30
0.0
  0
VERTEX
  5
9E7E
  8
5
 10
362.0383694832999
 20
587.17241549620098
 30
0.0
  0
VERTEX
  5
9E7F
  8
5
 10
360.79923559510007
 20
587.08750616510099
 30
0.0
  0
VERTEX
  5
9E80
  8
5
 10
359.53581733769988
 20
587.07748041460115
 30
0.0
  0
VERTEX
  5
9E81
  8
5
 10
358.28650303559988
 20
587.14264287220101
 30
0.0
  0
VERTEX
  5
9E82
  8
5
 10
357.08925247170009
 20
587.28101360940104
 30
0.0
  0
VERTEX
  5
9E83
  8
5
 10
355.98044349859993
 20
587.48838830160105
 30
0.0
  0
VERTEX
  5
9E84
  8
5
 10
354.99376671570008
 20
587.75846597350107
 30
0.0
  0
VERTEX
  5
9E85
  8
5
 10
354.15920179799991
 20
588.08304045190096
 30
0.0
  0
VERTEX
  5
9E86
  8
5
 10
353.502106578
 20
588.45224970530114
 30
0.0
  0
VERTEX
  5
9E87
  8
5
 10
353.0424465614999
 20
588.85487549760103
 30
0.0
  0
VERTEX
  5
9E88
  8
5
 10
352.7941882856
 20
589.27868424760095
 30
0.0
  0
VERTEX
  5
9E89
  8
5
 10
352.75
 20
589.55203892040095
 30
0.0
  0
SEQEND
  5
9E8A
  8
5
  0
POLYLINE
  5
97E7
  8
5
 66
     1
 10
0.0
 20
0.0
 30
0.0
 70
   128
  0
VERTEX
  5
9E8B
  8
5
 10
367.25
 20
589.55203892040095
 30
0.0
  0
VERTEX
  5
9E8C
  8
5
 10
367.23512504770002
 20
589.39327909970109
 30
0.0
  0
VERTEX
  5
9E8D
  8
5
 10
367.04460276759983
 20
588.96598844310108
 30
0.0
  0
SEQEND
  5
9E8E
  8
5
  0
ARC
  5
97E8
  8
5
 10
360.0
 20
333.50000025330098
 30
0.0
 40
12.50000000000002
 50
119.9000004625038
 51
180.0
  0
ARC
  5
97E9
  8
5
 10
360.0
 20
333.50000025330098
 30
0.0
 40
12.500000000000989
 50
180.0
 51
60.09999953749616
  0
LINE
  5
97EA
  8
5
 10
352.75
 20
344.30646539240092
 30
0.0
 11
352.75
 21
343.68270618050099
 31
0.0
  0
LINE
  5
97EB
  8
5
 10
367.25
 20
343.68270618050099
 30
0.0
 11
367.25
 21
344.30646539240092
 31
0.0
  0
LINE
  5
97EC
  8
5
 10
366.0
 20
345.69838653070099
 30
0.0
 11
366.0
 21
443.12245844739073
 31
0.0
  0
LINE
  5
97ED
  8
5
 10
354.0
 20
443.78487199984357
 30
0.0
 11
354.0
 21
345.69838653070099
 31
0.0
  0
ARC
  5
97EE
  8
5
 10
360.0
 20
330.09285992110102
 30
0.0
 40
15.546690221038769
 50
66.371866929898303
 51
113.6281330701016
  0
POLYLINE
  5
97EF
  8
5
 66
     1
 10
0.0
 20
0.0
 30
0.0
 70
   128
  0
VERTEX
  5
9E8F
  8
5
 10
352.75
 20
344.30646539240092
 30
0.0
  0
VERTEX
  5
9E90
  8
5
 10
352.82311506899993
 20
344.657735679501
 30
0.0
  0
VERTEX
  5
9E91
  8
5
 10
353.11049267630011
 20
345.078642720701
 30
0.0
  0
VERTEX
  5
9E92
  8
5
 10
353.6072044773
 20
345.47608754440091
 30
0.0
  0
VERTEX
  5
9E93
  8
5
 10
354.2981581352999
 20
345.83799399100099
 30
0.0
  0
VERTEX
  5
9E94
  8
5
 10
355.16235937319988
 20
346.15336571600102
 30
0.0
  0
VERTEX
  5
9E95
  8
5
 10
356.17354987350018
 20
346.41262030940089
 30
0.0
  0
VERTEX
  5
9E96
  8
5
 10
357.30100512460012
 20
346.6078804513009
 30
0.0
  0
VERTEX
  5
9E97
  8
5
 10
358.5104679692999
 20
346.733213261201
 30
0.0
  0
VERTEX
  5
9E98
  8
5
 10
359.765189491
 20
346.784810565101
 30
0.0
  0
VERTEX
  5
9E99
  8
5
 10
361.02704561119998
 20
346.76110460510102
 30
0.0
  0
VERTEX
  5
9E9A
  8
5
 10
362.25769547019991
 20
346.66281567470099
 30
0.0
  0
VERTEX
  5
9E9B
  8
5
 10
363.41974639479992
 20
346.49293023330102
 30
0.0
  0
VERTEX
  5
9E9C
  8
5
 10
364.47789005560003
 20
346.25661016410101
 30
0.0
  0
VERTEX
  5
9E9D
  8
5
 10
365.39997529309989
 20
345.96103593290093
 30
0.0
  0
VERTEX
  5
9E9E
  8
5
 10
366.1579850137
 20
345.6151884131009
 30
0.0
  0
VERTEX
  5
9E9F
  8
5
 10
366.72888747590008
 20
345.22957600650091
 30
0.0
  0
VERTEX
  5
9EA0
  8
5
 10
367.09533609699997
 20
344.81591535100102
 30
0.0
  0
VERTEX
  5
9EA1
  8
5
 10
367.24619652130008
 20
344.38677531630088
 30
0.0
  0
VERTEX
  5
9EA2
  8
5
 10
367.25
 20
344.30646539240092
 30
0.0
  0
SEQEND
  5
9EA3
  8
5
  0
LINE
  5
97F9
  8
3
 10
365.05299999995009
 20
109.0530005455233
 30
0.0
 11
365.05299999995009
 21
125.0000009239
 31
0.0
  0
LINE
  5
97FA
  8
3
 10
354.94699999995009
 20
109.0530005455704
 30
0.0
 11
354.94699999994958
 21
125.0000009239
 31
0.0
  0
LINE
  5
97FC
  8
3
 10
165.05299999995009
 20
109.0530005455233
 30
0.0
 11
165.05299999995009
 21
125.0000009239
 31
0.0
  0
LINE
  5
97FD
  8
3
 10
154.94699999995009
 20
109.0530005455704
 30
0.0
 11
154.94699999994961
 21
125.0000009239
 31
0.0
  0
LINE
  5
97FE
  8
3
 10
565.05299999994998
 20
109.0530005455233
 30
0.0
 11
565.05299999994998
 21
125.0000009239
 31
0.0
  0
LINE
  5
97FF
  8
3
 10
554.94699999995009
 20
109.0530005455704
 30
0.0
 11
554.94699999994964
 21
125.0000009239
 31
0.0
  0
POLYLINE
  5
9800
  8
0
 66
     1
 10
0.0
 20
0.0
 30
0.0
 70
   128
  0
VERTEX
  5
9EA4
  8
0
 10
39.311432673900072
 20
158.1257473224
 30
0.0
  0
VERTEX
  5
9EA5
  8
0
 10
39.489950315600019
 20
157.80490385409999
 30
0.0
  0
VERTEX
  5
9EA6
  8
0
 10
39.621371886800027
 20
157.72009655459999
 30
0.0
  0
SEQEND
  5
9EA7
  8
0
  0
LINE
  5
9803
  8
1
 10
160.0
 20
163.00000025329999
 30
0.0
 11
160.0
 21
100.0
 31
0.0
  0
LINE
  5
9804
  8
1
 10
560.0
 20
163.00000025329999
 30
0.0
 11
560.0
 21
100.0
 31
0.0
  0
ARC
  5
9806
  8
0
 10
594.79643387698536
 20
144.22026438783729
 30
0.0
 40
13.64840490748913
 50
162.0619306734032
 51
197.76289845054649
  0
LINE
  5
9808
  8
1
 10
392.5
 20
466.92925215640099
 30
0.0
 11
312.5
 21
466.92925215640099
 31
0.0
  0
LINE
  5
980B
  8
1
 10
360.0
 20
620.85850405940153
 30
0.0
 11
360.0
 21
313.0000002532999
 31
0.0
  0
LINE
  5
998D
  8
1
 10
337.5000000002392
 20
132.00000092389999
 30
0.0
 11
321.49999999976069
 21
132.00000092389999
 31
0.0
  0
LINE
  5
998E
  8
1
 10
329.5
 20
124.00000092366071
 30
0.0
 11
329.5
 21
140.00000092413919
 31
0.0
  0
LINE
  5
99DC
  8
1
 10
360.0
 20
466.92925215635069
 30
0.0
 11
399.83982199089297
 21
615.61349199086305
 31
0.0
  0
ENDSEC
  0
EOF
