  0
SECTION
  2
HEADER
  9
$ACADVER
  1
AC1009
  9
$INSBASE
 10
0.0
 20
0.0
 30
0.0
  9
$EXTMIN
 10
0.0
 20
-2.960436562073669
 30
0.0
  9
$EXTMAX
 10
343.27751242555701
 20
302.00000748038292
 30
0.0
  9
$LIMMIN
 10
0.0
 20
0.0
  9
$LIMMAX
 10
375.0
 20
270.0
  9
$ORTHOMODE
 70
     1
  9
$REGENMODE
 70
     1
  9
$FILLMODE
 70
     1
  9
$QTEXTMODE
 70
     0
  9
$MIRRTEXT
 70
     0
  9
$DRAGMODE
 70
     2
  9
$LTSCALE
 40
10.0
  9
$OSMODE
 70
  3071
  9
$ATTMODE
 70
     1
  9
$TEXTSIZE
 40
6.0
  9
$TRACEWID
 40
0.05
  9
$TEXTSTYLE
  7
STANDARD
  9
$CLAYER
  8
0
  9
$CELTYPE
  6
BYLAYER
  9
$CECOLOR
 62
   256
  9
$DIMSCALE
 40
1.0
  9
$DIMASZ
 40
3.0
  9
$DIMEXO
 40
2.0
  9
$DIMDLI
 40
0.3799999999999999
  9
$DIMRND
 40
0.0
  9
$DIMDLE
 40
0.0
  9
$DIMEXE
 40
2.0
  9
$DIMTP
 40
0.0
  9
$DIMTM
 40
0.0
  9
$DIMTXT
 40
3.2000000000000002
  9
$DIMCEN
 40
0.09
  9
$DIMTSZ
 40
0.0
  9
$DIMTOL
 70
     0
  9
$DIMLIM
 70
     0
  9
$DIMTIH
 70
     0
  9
$DIMTOH
 70
     0
  9
$DIMSE1
 70
     0
  9
$DIMSE2
 70
     0
  9
$DIMTAD
 70
     1
  9
$DIMZIN
 70
     9
  9
$DIMBLK
  1

  9
$DIMASO
 70
     0
  9
$DIMSHO
 70
     0
  9
$DIMPOST
  1

  9
$DIMAPOST
  1

  9
$DIMALT
 70
     0
  9
$DIMALTD
 70
     2
  9
$DIMALTF
 40
25.399999999999999
  9
$DIMLFAC
 40
1.0
  9
$DIMTOFL
 70
     0
  9
$DIMTVP
 40
0.0
  9
$DIMTIX
 70
     0
  9
$DIMSOXD
 70
     0
  9
$DIMSAH
 70
     0
  9
$DIMBLK1
  1

  9
$DIMBLK2
  1

  9
$DIMSTYLE
  2
STANDARD
  9
$DIMCLRD
 70
     0
  9
$DIMCLRE
 70
     0
  9
$DIMCLRT
 70
     0
  9
$DIMTFAC
 40
1.0
  9
$DIMGAP
 40
0.09
  9
$LUNITS
 70
     2
  9
$LUPREC
 70
     4
  9
$SKETCHINC
 40
0.1
  9
$FILLETRAD
 40
20.0
  9
$AUNITS
 70
     0
  9
$AUPREC
 70
     3
  9
$MENU
  1
E:\r13\win\SUPPORT\ACAD
  9
$ELEVATION
 40
0.0
  9
$PELEVATION
 40
0.0
  9
$THICKNESS
 40
0.0
  9
$LIMCHECK
 70
     0
  9
$BLIPMODE
 70
     0
  9
$CHAMFERA
 40
0.0
  9
$CHAMFERB
 40
0.0
  9
$SKPOLY
 70
     0
  9
$TDCREATE
 40
2449840.6320370371
  9
$TDUPDATE
 40
2456598.429704166
  9
$TDINDWG
 40
1.1196055903
  9
$TDUSRTIMER
 40
1.1196055903
  9
$USRTIMER
 70
     1
  9
$ANGBASE
 50
0.0
  9
$ANGDIR
 70
     0
  9
$PDMODE
 70
     0
  9
$PDSIZE
 40
0.0
  9
$PLINEWID
 40
0.0
  9
$COORDS
 70
     1
  9
$SPLFRAME
 70
     0
  9
$SPLINETYPE
 70
     6
  9
$SPLINESEGS
 70
     8
  9
$ATTDIA
 70
     0
  9
$ATTREQ
 70
     1
  9
$HANDLING
 70
     1
  9
$HANDSEED
  5
1625E
  9
$SURFTAB1
 70
     6
  9
$SURFTAB2
 70
     6
  9
$SURFTYPE
 70
     6
  9
$SURFU
 70
     6
  9
$SURFV
 70
     6
  9
$UCSNAME
  2

  9
$UCSORG
 10
0.0
 20
0.0
 30
0.0
  9
$UCSXDIR
 10
1.0
 20
0.0
 30
0.0
  9
$UCSYDIR
 10
0.0
 20
1.0
 30
0.0
  9
$PUCSNAME
  2

  9
$PUCSORG
 10
0.0
 20
0.0
 30
0.0
  9
$PUCSXDIR
 10
1.0
 20
0.0
 30
0.0
  9
$PUCSYDIR
 10
0.0
 20
1.0
 30
0.0
  9
$USERI1
 70
     0
  9
$USERI2
 70
     1
  9
$USERI3
 70
     0
  9
$USERI4
 70
     0
  9
$USERI5
 70
     0
  9
$USERR1
 40
0.0
  9
$USERR2
 40
0.0
  9
$USERR3
 40
0.0
  9
$USERR4
 40
0.0
  9
$USERR5
 40
0.0
  9
$WORLDVIEW
 70
     1
  9
$SHADEDGE
 70
     3
  9
$SHADEDIF
 70
    70
  9
$TILEMODE
 70
     1
  9
$MAXACTVP
 70
    16
  9
$PLIMCHECK
 70
     0
  9
$PEXTMIN
 10
1.0000000000000000E+020
 20
1.0000000000000000E+020
 30
1.0000000000000000E+020
  9
$PEXTMAX
 10
-1.0000000000000000E+020
 20
-1.0000000000000000E+020
 30
-1.0000000000000000E+020
  9
$PLIMMIN
 10
0.0
 20
0.0
  9
$PLIMMAX
 10
12.0
 20
9.0
  9
$UNITMODE
 70
     0
  9
$VISRETAIN
 70
     0
  9
$PLINEGEN
 70
     0
  9
$PSLTSCALE
 70
     0
  0
ENDSEC
  0
SECTION
  2
TABLES
  0
TABLE
  2
VPORT
 70
     1
  0
VPORT
  2
*ACTIVE
 70
     0
 10
0.0
 20
0.0
 11
1.0
 21
1.0
 12
187.49427839065231
 22
169.23124511548369
 13
0.0
 23
0.0
 14
10.0
 24
10.0
 15
10.0
 25
10.0
 16
0.0
 26
0.0
 36
1.0
 17
0.0
 27
0.0
 37
0.0
 40
348.36080450652059
 41
2.304913294797688
 42
50.0
 43
0.0
 44
0.0
 50
0.0
 51
0.0
 71
     0
 72
   500
 73
     1
 74
     0
 75
     0
 76
     0
 77
     0
 78
     0
  0
ENDTAB
  0
TABLE
  2
LTYPE
 70
     3
  0
LTYPE
  2
CONTINUOUS
 70
     0
  3
Solid Line
 72
    65
 73
     0
 40
0.0
  0
LTYPE
  2
CENTER
 70
     0
  3
____ _ ____ _ ____ _ ____ _ ____ _ ____ _ ____
 72
    65
 73
     4
 40
2.0
 49
1.25
 49
-0.25
 49
0.25
 49
-0.25
  0
LTYPE
  2
PHANTOM2
 70
     0
  3
___ _ _ ___ _ _ ___ _ _ ___ _ _
 72
    65
 73
     6
 40
1.25
 49
0.625
 49
-0.125
 49
0.125
 49
-0.125
 49
0.125
 49
-0.125
  0
ENDTAB
  0
TABLE
  2
LAYER
 70
     4
  0
LAYER
  2
0
 70
     0
 62
     7
  6
CONTINUOUS
  0
LAYER
  2
1
 70
     0
 62
     1
  6
CENTER
  0
LAYER
  2
DEFPOINTS
 70
     0
 62
     7
  6
CONTINUOUS
  0
LAYER
  2
3
 70
     0
 62
     3
  6
CONTINUOUS
  0
ENDTAB
  0
TABLE
  2
STYLE
 70
     2
  0
STYLE
  2
STANDARD
 70
     0
 40
0.0
 41
1.0
 50
0.0
 71
     0
 42
6.0
  3
TXT
  4
BIGFONT
  0
STYLE
  2
STANDARD1
 70
     0
 40
0.0
 41
1.0
 50
0.0
 71
     0
 42
3.0
  3
txt
  4

  0
ENDTAB
  0
TABLE
  2
VIEW
 70
     2
  0
VIEW
  2
ALL
 70
     0
 40
270.0
 10
213.25689075630251
 20
135.0
 41
0.0
 11
0.0
 21
0.0
 31
1.0
 12
0.0
 22
0.0
 32
0.0
 42
0.0
 43
0.0
 44
0.0
 50
0.0
 71
     0
  0
VIEW
  2
OLE1
 70
     0
 40
126.7198015921535
 10
180.69617633663901
 20
125.4282598630773
 41
160.35933655089519
 11
0.0
 21
0.0
 31
1.0
 12
0.0
 22
0.0
 32
0.0
 42
50.0
 43
0.0
 44
0.0
 50
0.0
 71
     0
  0
ENDTAB
  0
TABLE
  2
UCS
 70
     0
  0
ENDTAB
  0
TABLE
  2
APPID
 70
     6
  0
APPID
  2
ACAD
 70
     0
  0
APPID
  2
ACAD_EXEMPT_FROM_CAD_STANDARDS
 70
     0
  0
APPID
  2
ACAD_MLEADERVER
 70
     0
  0
APPID
  2
ACAD_DSTYLE_DIMJAG
 70
     0
  0
APPID
  2
ACAD_DSTYLE_DIMTALN
 70
     0
  0
APPID
  2
ACAD_NAV_VCDISPLAY
 70
     0
  0
ENDTAB
  0
TABLE
  2
DIMSTYLE
 70
     1
  0
DIMSTYLE
  2
STANDARD
 70
     0
  3

  4

  5

  6

  7

 40
1.0
 41
0.18
 42
0.0625
 43
0.38
 44
0.18
 45
0.0
 46
0.0
 47
0.0
 48
0.0
140
0.18
141
0.09
142
0.0
143
25.399999999999999
144
1.0
145
0.0
146
1.0
147
0.09
 71
     0
 72
     0
 73
     1
 74
     1
 75
     0
 76
     0
 77
     0
 78
     0
170
     0
171
     2
172
     0
173
     0
174
     0
175
     0
176
     0
177
     0
178
     0
  0
ENDTAB
  0
ENDSEC
  0
SECTION
  2
BLOCKS
  0
BLOCK
  8
0
  2
$MODEL_SPACE
 70
     0
 10
0.0
 20
0.0
 30
0.0
  3
$MODEL_SPACE
  1

  0
ENDBLK
  5
126
  8
0
  0
BLOCK
 67
     1
  8
0
  2
$PAPER_SPACE
 70
     0
 10
0.0
 20
0.0
 30
0.0
  3
$PAPER_SPACE
  1

  0
ENDBLK
  5
124
 67
     1
  8
0
  0
ENDSEC
  0
SECTION
  2
ENTITIES
  0
ARC
  5
C616
  8
0
 10
195.13044712197799
 20
255.53804784755221
 30
0.0
 40
2.851313406453754
 50
142.5032314598599
 51
170.7510319717511
  0
LINE
  5
C617
  8
0
 10
192.31620349921309
 20
255.99632494151589
 30
0.0
 11
193.4222384635361
 21
255.9971649944782
 31
0.0
  0
LINE
  5
C618
  8
0
 10
189.9219352100047
 20
255.9945060685277
 30
0.0
 11
189.92008187808119
 21
258.43544945120811
 31
0.0
  0
ARC
  5
C619
  8
0
 10
190.41720021177571
 20
251.5366347790235
 30
0.0
 40
3.8172642562508798
 50
71.496483276654061
 51
81.129597981822187
  0
LINE
  5
C61A
  8
0
 10
191.60758250392999
 20
255.3087006136775
 30
0.0
 11
191.00582146085819
 21
255.30824333429339
 31
0.0
  0
LINE
  5
C61B
  8
0
 10
188.2970474008473
 20
255.30618511140349
 30
0.0
 11
187.1910124365242
 21
255.30534505844119
 31
0.0
  0
ARC
  5
C61C
  8
0
 10
190.3094514968061
 20
251.92954182821001
 30
0.0
 40
0.9161142857051459
 50
270.04356074218799
 51
90.043445193018783
  0
LINE
  5
C61D
  8
0
 10
189.92572010494791
 20
251.0131354257465
 30
0.0
 11
190.31014771200739
 21
251.0134278610349
 31
0.0
  0
LINE
  5
C61E
  8
0
 10
189.92619880475129
 20
250.38330711424351
 30
0.0
 11
189.92572010494791
 21
251.0131354257465
 31
0.0
  0
LINE
  5
C61F
  8
0
 10
190.31062641181069
 20
250.38359954953191
 30
0.0
 11
189.92619880475129
 21
250.38330711424351
 31
0.0
  0
ARC
  5
C620
  8
0
 10
190.39905929692691
 20
252.04204564635069
 30
0.0
 40
1.6608022945178771
 50
266.94772457243488
 51
344.10813616549592
  0
LINE
  5
C621
  8
0
 10
192.71388568915449
 20
251.5878257155419
 30
0.0
 11
191.9963873270901
 21
251.58727996051309
 31
0.0
  0
ARC
  5
C622
  8
0
 10
190.4371854756962
 20
252.0795531915046
 30
0.0
 40
2.3291970680757088
 50
266.8970350705693
 51
347.8123147831692
  0
LINE
  5
C623
  8
0
 10
189.9266756419095
 20
249.7534788027406
 30
0.0
 11
190.3111051116141
 21
249.753771238029
 31
0.0
  0
LINE
  5
C624
  8
0
 10
189.92715434171279
 20
249.1236504912377
 30
0.0
 11
189.9266756419095
 21
249.7534788027406
 31
0.0
  0
LINE
  5
C625
  8
0
 10
190.31158381141739
 20
249.1239429265261
 30
0.0
 11
189.92715434171279
 21
249.1236504912377
 31
0.0
  0
ARC
  5
C626
  8
0
 10
190.47500333084551
 20
252.1170605024389
 30
0.0
 40
2.9975757930068081
 50
266.87483505939662
 51
349.84137374400859
  0
LINE
  5
C627
  8
0
 10
194.13472631014909
 20
251.58890511840579
 30
0.0
 11
193.42558749951439
 21
251.58836588263509
 31
0.0
  0
ARC
  5
C628
  8
0
 10
190.3410832014558
 20
251.83927654576789
 30
0.0
 40
3.8018977258946398
 50
149.16608930843901
 51
356.22408712698569
  0
ARC
  5
C629
  8
0
 10
190.30645659188301
 20
255.87271926225981
 30
0.0
 40
3.8442857142472988
 50
327.24635697690621
 51
212.8406935685438
  0
ARC
  5
C62A
  8
0
 10
190.68479676713491
 20
251.7986519249481
 30
0.0
 40
3.482280259220226
 50
7.8787040467270621
 51
34.936701865274941
  0
LINE
  5
C62B
  8
0
 10
193.42506595887269
 20
252.27545190602541
 30
0.0
 11
194.13420476950731
 21
252.27599021047351
 31
0.0
  0
ARC
  5
C62C
  8
0
 10
190.475288040278
 20
251.7422748962974
 30
0.0
 40
2.9975757930068241
 50
10.24567680144335
 51
93.21221548604484
  0
LINE
  5
C62D
  8
0
 10
189.92289260961141
 20
254.7348494455218
 30
0.0
 11
190.3073202166708
 21
254.73514094948769
 31
0.0
  0
LINE
  5
C62E
  8
0
 10
189.92245675064649
 20
255.30742004513741
 30
0.0
 11
189.92289260961141
 21
254.7348494455218
 31
0.0
  0
LINE
  5
C62F
  8
0
 10
189.0061880741271
 20
255.3067243471742
 30
0.0
 11
189.92245675064649
 21
255.30742004513741
 31
0.0
  0
ARC
  5
C630
  8
0
 10
185.54602333944101
 20
255.79300539472121
 30
0.0
 40
3.4941677243450311
 50
320.07115526315408
 51
352.00021456259469
  0
ARC
  5
C631
  8
0
 10
190.19564973696379
 20
255.9430447125425
 30
0.0
 40
3.0994533356261438
 50
230.53217560829779
 51
272.09133621754643
  0
LINE
  5
C632
  8
0
 10
187.1904908958825
 20
255.99243108183151
 30
0.0
 11
188.2965239975604
 21
255.99327113479379
 31
0.0
  0
ARC
  5
C633
  8
0
 10
190.43804185637711
 20
255.36073722818969
 30
0.0
 40
3.0855140002407908
 50
50.810202446700821
 51
85.335888723172374
  0
LINE
  5
C634
  8
0
 10
190.6889389548453
 20
258.4360333904624
 30
0.0
 11
190.69079228676881
 21
255.99509000778201
 31
0.0
  0
LINE
  5
C635
  8
0
 10
190.69079228676881
 20
255.99509000778201
 30
0.0
 11
191.60706096328821
 21
255.99578570574519
 31
0.0
  0
ARC
  5
C636
  8
0
 10
190.61915272358871
 20
255.75124314334349
 30
0.0
 40
2.838104455194348
 50
329.729058316541
 51
351.05750239331621
  0
ARC
  5
C637
  8
0
 10
195.1078285745993
 20
255.72699145202179
 30
0.0
 40
2.8221936627701809
 50
188.51243141082071
 51
199.4991308438222
  0
ARC
  5
C638
  8
0
 10
190.57040978080519
 20
251.61776546216541
 30
0.0
 40
3.681658045772469
 50
47.233819826918257
 51
59.346264167636747
  0
ARC
  5
C639
  8
0
 10
190.60869290846969
 20
255.53461285417461
 30
0.0
 40
2.851313406453674
 50
9.3360185736938348
 51
37.583819085590498
  0
ARC
  5
C63A
  8
0
 10
190.0045567500801
 20
255.7678972267241
 30
0.0
 40
2.8513134064537389
 50
189.33601857369621
 51
217.58381908559051
  0
ARC
  5
C63B
  8
0
 10
185.4828025365718
 20
255.76446223334651
 30
0.0
 40
2.8513134064537091
 50
322.50323145985988
 51
350.75103197175412
  0
LINE
  5
C63C
  8
0
 10
193.42276000417789
 20
255.3100789710879
 30
0.0
 11
192.3167250398549
 21
255.3092389181256
 31
0.0
  0
ARC
  5
C63D
  8
0
 10
185.54624419782931
 20
255.50227198201179
 30
0.0
 40
3.4941677243450049
 50
8.0868359828576057
 51
40.01589528229362
  0
ARC
  5
C63E
  8
0
 10
190.17564934280509
 20
255.36053789923369
 30
0.0
 40
3.0855140002407722
 50
94.751161822269793
 51
129.27684809874489
  0
LINE
  5
C63F
  8
0
 10
189.00566653348531
 20
255.99380943924189
 30
0.0
 11
189.9219352100047
 21
255.9945060685277
 31
0.0
  0
ARC
  5
C640
  8
0
 10
195.02660662759149
 20
255.70478041699721
 30
0.0
 40
3.441888582363708
 50
186.6080300229217
 51
189.1650058665885
  0
ARC
  5
C641
  8
0
 10
185.48298010178681
 20
255.53071905793641
 30
0.0
 40
2.8513134064536869
 50
9.3360185736938348
 51
37.583819085590498
  0
ARC
  5
C642
  8
0
 10
190.00473431529511
 20
255.534154051314
 30
0.0
 40
2.8513134064537931
 50
142.5032314598605
 51
170.7510319717548
  0
ARC
  5
C643
  8
0
 10
195.06722631910841
 20
255.50950468617731
 30
0.0
 40
3.4941677243449298
 50
140.07115526315221
 51
172.0002145625923
  0
ARC
  5
C644
  8
0
 10
189.63537056389671
 20
267.2353942916597
 30
0.0
 40
2.223020947430236
 50
87.418080654135167
 51
215.39795309899901
  0
LINE
  5
C645
  8
0
 10
193.2861349824818
 20
269.45885585620999
 30
0.0
 11
189.7355123702439
 21
269.45615828037262
 31
0.0
  0
LINE
  5
C646
  8
0
 10
193.2874053064736
 20
267.78885617852211
 30
0.0
 11
193.2861349824818
 21
269.45885585620999
 31
0.0
  0
LINE
  5
C647
  8
0
 10
189.73678083159049
 20
267.78615906834602
 30
0.0
 11
193.2874053064736
 21
267.78885617852211
 31
0.0
  0
ARC
  5
C648
  8
0
 10
189.73716186218161
 20
267.28515913271889
 30
0.0
 40
0.5009999999950109
 50
90.043525272713381
 51
270.04352527272641
  0
LINE
  5
C649
  8
0
 10
193.28816526569449
 20
266.78685646504158
 30
0.0
 11
189.7375426534565
 21
266.78415935486561
 31
0.0
  0
LINE
  5
C64A
  8
0
 10
193.28943558968629
 20
265.1168570201844
 30
0.0
 11
193.28816526569449
 21
266.78685646504158
 31
0.0
  0
LINE
  5
C64B
  8
0
 10
189.73881111480321
 20
265.11415973538527
 30
0.0
 11
193.28943558968629
 21
265.1168570201844
 31
0.0
  0
ARC
  5
C64C
  8
0
 10
189.739191671681
 20
264.61315990372759
 30
0.0
 40
0.5009999999949824
 50
90.043525272713381
 51
270.0435252727134
  0
LINE
  5
C64D
  8
0
 10
193.2914658728989
 20
262.44485786184669
 30
0.0
 11
193.29019554890709
 21
264.11485730670393
 31
0.0
  0
LINE
  5
C64E
  8
0
 10
189.74084139801579
 20
262.44216051884001
 30
0.0
 11
193.2914658728989
 21
262.44485786184669
 31
0.0
  0
ARC
  5
C64F
  8
0
 10
189.6373248822585
 20
264.66277003399341
 30
0.0
 40
2.2230209474302729
 50
144.68909744645151
 51
272.66896989130709
  0
LINE
  5
C650
  8
0
 10
193.29019554890709
 20
264.11485730670393
 30
0.0
 11
189.73957293666919
 21
264.11216005100869
 31
0.0
  0
LINE
  5
C651
  8
0
 10
193.29323911108099
 20
260.10685868561268
 30
0.0
 11
193.29197251237949
 21
261.77685789763927
 31
0.0
  0
LINE
  5
C652
  8
0
 10
187.31324293650709
 20
260.1023156940937
 30
0.0
 11
193.29323911108099
 21
260.10685868561268
 31
0.0
  0
LINE
  5
C653
  8
0
 10
187.3119744751605
 20
261.772315138951
 30
0.0
 11
187.31324293650709
 21
260.1023156940937
 31
0.0
  0
LINE
  5
C654
  8
0
 10
193.29197251237949
 20
261.77685789763927
 30
0.0
 11
187.3119744751605
 21
261.772315138951
 31
0.0
  0
LINE
  5
C655
  8
0
 10
191.99586578644829
 20
252.27436598390341
 30
0.0
 11
192.71336414851271
 21
252.27491080760959
 31
0.0
  0
LINE
  5
C656
  8
0
 10
190.30779891647421
 20
254.10531263798481
 30
0.0
 11
189.9233713094147
 21
254.10502020269629
 31
0.0
  0
ARC
  5
C657
  8
0
 10
190.3992301225862
 20
251.81717428266469
 30
0.0
 40
1.6608022945178069
 50
15.978914379951711
 51
93.139325973021144
  0
LINE
  5
C658
  8
0
 10
189.92385000921811
 20
253.47519189119339
 30
0.0
 11
190.30827761627759
 21
253.47548432648179
 31
0.0
  0
LINE
  5
C659
  8
0
 10
189.9233713094147
 20
254.10502020269629
 30
0.0
 11
189.92385000921811
 21
253.47519189119339
 31
0.0
  0
ARC
  5
C65A
  8
0
 10
190.43741324324191
 20
251.7797247065923
 30
0.0
 40
2.3291970680757599
 50
12.274735762278359
 51
93.190015474874471
  0
ARC
  5
C65B
  8
0
 10
189.73335550057229
 20
272.29515768672189
 30
0.0
 40
0.5009999999952614
 50
90.04347165964468
 51
270.04357888580819
  0
LINE
  5
C65C
  8
0
 10
189.73373726941671
 20
271.79415792226791
 30
0.0
 11
190.4812372568997
 21
271.7947255633772
 31
0.0
  0
LINE
  5
C65D
  8
0
 10
190.4804754350337
 20
272.7967257425189
 30
0.0
 11
189.73297544755059
 21
272.79615763574839
 31
0.0
  0
LINE
  5
C65E
  8
0
 10
193.2835980597886
 20
272.79885474592447
 30
0.0
 11
193.2823314610871
 21
274.46885395795113
 31
0.0
  0
LINE
  5
C65F
  8
0
 10
190.4812372568997
 20
271.7947255633772
 30
0.0
 11
190.4804754350337
 21
272.7967257425189
 31
0.0
  0
LINE
  5
C660
  8
0
 10
193.28562834300121
 20
270.12685535475612
 30
0.0
 11
193.2843617442997
 21
271.796855032444
 31
0.0
  0
LINE
  5
C661
  8
0
 10
189.73500573076331
 20
270.12415824457997
 30
0.0
 11
193.28562834300121
 21
270.12685535475612
 31
0.0
  0
ARC
  5
C662
  8
0
 10
189.73335550057229
 20
272.29515768672189
 30
0.0
 40
2.170999999978366
 50
90.043512900469779
 51
270.04353764497
  0
LINE
  5
C663
  8
0
 10
193.2823314610871
 20
274.46885395795113
 30
0.0
 11
189.73170698620399
 21
274.46615684777498
 31
0.0
  0
LINE
  5
C664
  8
0
 10
191.9754735473546
 20
272.79786102473741
 30
0.0
 11
193.2835980597886
 21
272.79885474592447
 31
0.0
  0
LINE
  5
C665
  8
0
 10
191.9762372318657
 20
271.79586131125689
 30
0.0
 11
191.9754735473546
 21
272.79786102473741
 31
0.0
  0
LINE
  5
C666
  8
0
 10
193.2843617442997
 20
271.796855032444
 30
0.0
 11
191.9762372318657
 21
271.79586131125689
 31
0.0
  0
CIRCLE
  5
C667
  8
0
 10
190.48047516439709
 20
277.94528851929738
 30
0.0
 40
1.0019999999900051
  0
CIRCLE
  5
C668
  8
0
 10
190.48047516439709
 20
277.94528851929738
 30
0.0
 40
2.8499999999999939
  0
LINE
  5
C6D1
  8
0
 10
169.40157872624721
 20
284.6339800208807
 30
0.0
 11
199.14353557862361
 21
284.6339800208807
 31
0.0
  0
LINE
  5
C6D6
  8
0
 10
199.14353557862361
 20
284.6339800208807
 30
0.0
 11
199.14353557862361
 21
244.3660319596529
 31
0.0
  0
LINE
  5
C6D7
  8
0
 10
199.14353557862361
 20
244.3660319596529
 30
0.0
 11
169.40157872624721
 21
244.3660319596529
 31
0.0
  0
LINE
  5
C6D8
  8
0
 10
169.40157872624741
 20
284.6339800208807
 30
0.0
 11
169.40157872624721
 21
244.3660319596529
 31
0.0
  0
ARC
  5
C6DB
  8
0
 10
190.27751111425459
 20
277.0000059902668
 30
0.0
 40
6.250000000000056
 50
0.0
 51
180.0
  0
LINE
  5
C6DC
  8
0
 10
184.0275108162316
 20
277.00000617653131
 30
0.0
 11
184.0275108162316
 21
252.00000580400231
 31
0.0
  0
ARC
  5
C6DD
  8
0
 10
190.27751111425459
 20
252.0000059902668
 30
0.0
 40
6.250000000000056
 50
180.0
 51
0.0
  0
LINE
  5
C6DE
  8
0
 10
196.52751007117351
 20
252.00000580400231
 30
0.0
 11
196.52751007117351
 21
277.00000617653131
 31
0.0
  0
POLYLINE
  5
C6DF
  8
0
 10
199.1435365180391
 20
284.63398058648249
 30
0.0
 66
     1
 70
     8
  0
VERTEX
  8
0
  5
15F52
 10
199.144
 20
284.634
 30
0.000000
  70
    32
  0
VERTEX
  8
0
  5
15F53
 10
199.160
 20
284.634
 30
0.000000
  70
    32
  0
VERTEX
  8
0
  5
15F54
 10
199.176
 20
284.634
 30
0.000000
  70
    32
  0
VERTEX
  8
0
  5
15F55
 10
199.193
 20
284.635
 30
0.000000
  70
    32
  0
VERTEX
  8
0
  5
15F56
 10
199.209
 20
284.635
 30
0.000000
  70
    32
  0
VERTEX
  8
0
  5
15F57
 10
199.225
 20
284.635
 30
0.000000
  70
    32
  0
VERTEX
  8
0
  5
15F58
 10
199.242
 20
284.636
 30
0.000000
  70
    32
  0
VERTEX
  8
0
  5
15F59
 10
199.258
 20
284.637
 30
0.000000
  70
    32
  0
VERTEX
  8
0
  5
15F5A
 10
199.274
 20
284.638
 30
0.000000
  70
    32
  0
VERTEX
  8
0
  5
15F5B
 10
199.291
 20
284.639
 30
0.000000
  70
    32
  0
VERTEX
  8
0
  5
15F5C
 10
199.307
 20
284.640
 30
0.000000
  70
    32
  0
VERTEX
  8
0
  5
15F5D
 10
199.323
 20
284.641
 30
0.000000
  70
    32
  0
VERTEX
  8
0
  5
15F5E
 10
199.340
 20
284.642
 30
0.000000
  70
    32
  0
VERTEX
  8
0
  5
15F5F
 10
199.356
 20
284.644
 30
0.000000
  70
    32
  0
VERTEX
  8
0
  5
15F60
 10
199.372
 20
284.645
 30
0.000000
  70
    32
  0
VERTEX
  8
0
  5
15F61
 10
199.389
 20
284.647
 30
0.000000
  70
    32
  0
VERTEX
  8
0
  5
15F62
 10
199.405
 20
284.649
 30
0.000000
  70
    32
  0
VERTEX
  8
0
  5
15F63
 10
199.421
 20
284.651
 30
0.000000
  70
    32
  0
VERTEX
  8
0
  5
15F64
 10
199.438
 20
284.653
 30
0.000000
  70
    32
  0
VERTEX
  8
0
  5
15F65
 10
199.454
 20
284.655
 30
0.000000
  70
    32
  0
VERTEX
  8
0
  5
15F66
 10
199.470
 20
284.657
 30
0.000000
  70
    32
  0
VERTEX
  8
0
  5
15F67
 10
199.487
 20
284.660
 30
0.000000
  70
    32
  0
VERTEX
  8
0
  5
15F68
 10
199.503
 20
284.662
 30
0.000000
  70
    32
  0
VERTEX
  8
0
  5
15F69
 10
199.519
 20
284.665
 30
0.000000
  70
    32
  0
VERTEX
  8
0
  5
15F6A
 10
199.536
 20
284.667
 30
0.000000
  70
    32
  0
VERTEX
  8
0
  5
15F6B
 10
199.552
 20
284.670
 30
0.000000
  70
    32
  0
VERTEX
  8
0
  5
15F6C
 10
199.568
 20
284.673
 30
0.000000
  70
    32
  0
VERTEX
  8
0
  5
15F6D
 10
199.584
 20
284.676
 30
0.000000
  70
    32
  0
VERTEX
  8
0
  5
15F6E
 10
199.601
 20
284.679
 30
0.000000
  70
    32
  0
VERTEX
  8
0
  5
15F6F
 10
199.617
 20
284.683
 30
0.000000
  70
    32
  0
VERTEX
  8
0
  5
15F70
 10
199.633
 20
284.686
 30
0.000000
  70
    32
  0
VERTEX
  8
0
  5
15F71
 10
199.649
 20
284.690
 30
0.000000
  70
    32
  0
VERTEX
  8
0
  5
15F72
 10
199.666
 20
284.693
 30
0.000000
  70
    32
  0
VERTEX
  8
0
  5
15F73
 10
199.682
 20
284.697
 30
0.000000
  70
    32
  0
VERTEX
  8
0
  5
15F74
 10
199.698
 20
284.701
 30
0.000000
  70
    32
  0
VERTEX
  8
0
  5
15F75
 10
199.714
 20
284.705
 30
0.000000
  70
    32
  0
VERTEX
  8
0
  5
15F76
 10
199.730
 20
284.709
 30
0.000000
  70
    32
  0
VERTEX
  8
0
  5
15F77
 10
199.747
 20
284.713
 30
0.000000
  70
    32
  0
VERTEX
  8
0
  5
15F78
 10
199.763
 20
284.718
 30
0.000000
  70
    32
  0
VERTEX
  8
0
  5
15F79
 10
199.779
 20
284.722
 30
0.000000
  70
    32
  0
VERTEX
  8
0
  5
15F7A
 10
199.795
 20
284.727
 30
0.000000
  70
    32
  0
VERTEX
  8
0
  5
15F7B
 10
199.811
 20
284.731
 30
0.000000
  70
    32
  0
VERTEX
  8
0
  5
15F7C
 10
199.827
 20
284.736
 30
0.000000
  70
    32
  0
VERTEX
  8
0
  5
15F7D
 10
199.843
 20
284.741
 30
0.000000
  70
    32
  0
VERTEX
  8
0
  5
15F7E
 10
199.860
 20
284.746
 30
0.000000
  70
    32
  0
VERTEX
  8
0
  5
15F7F
 10
199.876
 20
284.751
 30
0.000000
  70
    32
  0
VERTEX
  8
0
  5
15F80
 10
199.892
 20
284.756
 30
0.000000
  70
    32
  0
VERTEX
  8
0
  5
15F81
 10
199.908
 20
284.762
 30
0.000000
  70
    32
  0
VERTEX
  8
0
  5
15F82
 10
199.924
 20
284.767
 30
0.000000
  70
    32
  0
VERTEX
  8
0
  5
15F83
 10
199.940
 20
284.773
 30
0.000000
  70
    32
  0
VERTEX
  8
0
  5
15F84
 10
199.956
 20
284.778
 30
0.000000
  70
    32
  0
VERTEX
  8
0
  5
15F85
 10
199.972
 20
284.784
 30
0.000000
  70
    32
  0
VERTEX
  8
0
  5
15F86
 10
199.988
 20
284.790
 30
0.000000
  70
    32
  0
VERTEX
  8
0
  5
15F87
 10
200.004
 20
284.796
 30
0.000000
  70
    32
  0
VERTEX
  8
0
  5
15F88
 10
200.020
 20
284.802
 30
0.000000
  70
    32
  0
VERTEX
  8
0
  5
15F89
 10
200.036
 20
284.809
 30
0.000000
  70
    32
  0
VERTEX
  8
0
  5
15F8A
 10
200.052
 20
284.815
 30
0.000000
  70
    32
  0
VERTEX
  8
0
  5
15F8B
 10
200.068
 20
284.821
 30
0.000000
  70
    32
  0
VERTEX
  8
0
  5
15F8C
 10
200.084
 20
284.828
 30
0.000000
  70
    32
  0
VERTEX
  8
0
  5
15F8D
 10
200.100
 20
284.835
 30
0.000000
  70
    32
  0
VERTEX
  8
0
  5
15F8E
 10
200.115
 20
284.842
 30
0.000000
  70
    32
  0
VERTEX
  8
0
  5
15F8F
 10
200.131
 20
284.849
 30
0.000000
  70
    32
  0
VERTEX
  8
0
  5
15F90
 10
200.147
 20
284.856
 30
0.000000
  70
    32
  0
VERTEX
  8
0
  5
15F91
 10
200.163
 20
284.863
 30
0.000000
  70
    32
  0
VERTEX
  8
0
  5
15F92
 10
200.179
 20
284.870
 30
0.000000
  70
    32
  0
VERTEX
  8
0
  5
15F93
 10
200.195
 20
284.877
 30
0.000000
  70
    32
  0
VERTEX
  8
0
  5
15F94
 10
200.210
 20
284.885
 30
0.000000
  70
    32
  0
VERTEX
  8
0
  5
15F95
 10
200.226
 20
284.893
 30
0.000000
  70
    32
  0
VERTEX
  8
0
  5
15F96
 10
200.242
 20
284.900
 30
0.000000
  70
    32
  0
VERTEX
  8
0
  5
15F97
 10
200.258
 20
284.908
 30
0.000000
  70
    32
  0
VERTEX
  8
0
  5
15F98
 10
200.273
 20
284.916
 30
0.000000
  70
    32
  0
VERTEX
  8
0
  5
15F99
 10
200.289
 20
284.924
 30
0.000000
  70
    32
  0
VERTEX
  8
0
  5
15F9A
 10
200.305
 20
284.932
 30
0.000000
  70
    32
  0
VERTEX
  8
0
  5
15F9B
 10
200.320
 20
284.941
 30
0.000000
  70
    32
  0
VERTEX
  8
0
  5
15F9C
 10
200.336
 20
284.949
 30
0.000000
  70
    32
  0
VERTEX
  8
0
  5
15F9D
 10
200.352
 20
284.957
 30
0.000000
  70
    32
  0
VERTEX
  8
0
  5
15F9E
 10
200.367
 20
284.966
 30
0.000000
  70
    32
  0
VERTEX
  8
0
  5
15F9F
 10
200.383
 20
284.975
 30
0.000000
  70
    32
  0
VERTEX
  8
0
  5
15FA0
 10
200.398
 20
284.984
 30
0.000000
  70
    32
  0
VERTEX
  8
0
  5
15FA1
 10
200.414
 20
284.993
 30
0.000000
  70
    32
  0
VERTEX
  8
0
  5
15FA2
 10
200.429
 20
285.002
 30
0.000000
  70
    32
  0
VERTEX
  8
0
  5
15FA3
 10
200.445
 20
285.011
 30
0.000000
  70
    32
  0
VERTEX
  8
0
  5
15FA4
 10
200.460
 20
285.020
 30
0.000000
  70
    32
  0
VERTEX
  8
0
  5
15FA5
 10
200.476
 20
285.029
 30
0.000000
  70
    32
  0
VERTEX
  8
0
  5
15FA6
 10
200.491
 20
285.039
 30
0.000000
  70
    32
  0
VERTEX
  8
0
  5
15FA7
 10
200.506
 20
285.049
 30
0.000000
  70
    32
  0
VERTEX
  8
0
  5
15FA8
 10
200.522
 20
285.058
 30
0.000000
  70
    32
  0
VERTEX
  8
0
  5
15FA9
 10
200.537
 20
285.068
 30
0.000000
  70
    32
  0
VERTEX
  8
0
  5
15FAA
 10
200.553
 20
285.078
 30
0.000000
  70
    32
  0
VERTEX
  8
0
  5
15FAB
 10
200.568
 20
285.088
 30
0.000000
  70
    32
  0
VERTEX
  8
0
  5
15FAC
 10
200.583
 20
285.098
 30
0.000000
  70
    32
  0
VERTEX
  8
0
  5
15FAD
 10
200.598
 20
285.108
 30
0.000000
  70
    32
  0
VERTEX
  8
0
  5
15FAE
 10
200.614
 20
285.119
 30
0.000000
  70
    32
  0
VERTEX
  8
0
  5
15FAF
 10
200.629
 20
285.129
 30
0.000000
  70
    32
  0
VERTEX
  8
0
  5
15FB0
 10
200.644
 20
285.140
 30
0.000000
  70
    32
  0
VERTEX
  8
0
  5
15FB1
 10
200.659
 20
285.151
 30
0.000000
  70
    32
  0
VERTEX
  8
0
  5
15FB2
 10
200.674
 20
285.161
 30
0.000000
  70
    32
  0
VERTEX
  8
0
  5
15FB3
 10
200.689
 20
285.172
 30
0.000000
  70
    32
  0
VERTEX
  8
0
  5
15FB4
 10
200.704
 20
285.183
 30
0.000000
  70
    32
  0
VERTEX
  8
0
  5
15FB5
 10
200.720
 20
285.194
 30
0.000000
  70
    32
  0
VERTEX
  8
0
  5
15FB6
 10
200.735
 20
285.206
 30
0.000000
  70
    32
  0
VERTEX
  8
0
  5
15FB7
 10
200.750
 20
285.217
 30
0.000000
  70
    32
  0
VERTEX
  8
0
  5
15FB8
 10
200.765
 20
285.228
 30
0.000000
  70
    32
  0
VERTEX
  8
0
  5
15FB9
 10
200.779
 20
285.240
 30
0.000000
  70
    32
  0
VERTEX
  8
0
  5
15FBA
 10
200.794
 20
285.252
 30
0.000000
  70
    32
  0
VERTEX
  8
0
  5
15FBB
 10
200.809
 20
285.263
 30
0.000000
  70
    32
  0
VERTEX
  8
0
  5
15FBC
 10
200.824
 20
285.275
 30
0.000000
  70
    32
  0
VERTEX
  8
0
  5
15FBD
 10
200.839
 20
285.287
 30
0.000000
  70
    32
  0
VERTEX
  8
0
  5
15FBE
 10
200.854
 20
285.299
 30
0.000000
  70
    32
  0
VERTEX
  8
0
  5
15FBF
 10
200.869
 20
285.311
 30
0.000000
  70
    32
  0
VERTEX
  8
0
  5
15FC0
 10
200.883
 20
285.324
 30
0.000000
  70
    32
  0
VERTEX
  8
0
  5
15FC1
 10
200.898
 20
285.336
 30
0.000000
  70
    32
  0
VERTEX
  8
0
  5
15FC2
 10
200.913
 20
285.348
 30
0.000000
  70
    32
  0
VERTEX
  8
0
  5
15FC3
 10
200.927
 20
285.361
 30
0.000000
  70
    32
  0
VERTEX
  8
0
  5
15FC4
 10
200.942
 20
285.374
 30
0.000000
  70
    32
  0
VERTEX
  8
0
  5
15FC5
 10
200.957
 20
285.387
 30
0.000000
  70
    32
  0
VERTEX
  8
0
  5
15FC6
 10
200.971
 20
285.399
 30
0.000000
  70
    32
  0
VERTEX
  8
0
  5
15FC7
 10
200.986
 20
285.412
 30
0.000000
  70
    32
  0
VERTEX
  8
0
  5
15FC8
 10
201.000
 20
285.426
 30
0.000000
  70
    32
  0
VERTEX
  8
0
  5
15FC9
 10
201.015
 20
285.439
 30
0.000000
  70
    32
  0
VERTEX
  8
0
  5
15FCA
 10
201.029
 20
285.452
 30
0.000000
  70
    32
  0
VERTEX
  8
0
  5
15FCB
 10
201.044
 20
285.465
 30
0.000000
  70
    32
  0
VERTEX
  8
0
  5
15FCC
 10
201.058
 20
285.479
 30
0.000000
  70
    32
  0
VERTEX
  8
0
  5
15FCD
 10
201.072
 20
285.493
 30
0.000000
  70
    32
  0
VERTEX
  8
0
  5
15FCE
 10
201.087
 20
285.506
 30
0.000000
  70
    32
  0
VERTEX
  8
0
  5
15FCF
 10
201.101
 20
285.520
 30
0.000000
  70
    32
  0
VERTEX
  8
0
  5
15FD0
 10
201.115
 20
285.534
 30
0.000000
  70
    32
  0
VERTEX
  8
0
  5
15FD1
 10
201.129
 20
285.548
 30
0.000000
  70
    32
  0
VERTEX
  8
0
  5
15FD2
 10
201.144
 20
285.562
 30
0.000000
  70
    32
  0
SEQEND
  8
0
  5
15FD3
  0
POLYLINE
  5
C6E4
  8
0
 10
201.14353651803904
 20
243.43782816377583
 30
0.0
 66
     1
 70
     8
  0
VERTEX
  8
0
  5
15FD4
 10
201.144
 20
243.438
 30
0.000000
  70
    32
  0
VERTEX
  8
0
  5
15FD5
 10
201.129
 20
243.452
 30
0.000000
  70
    32
  0
VERTEX
  8
0
  5
15FD6
 10
201.115
 20
243.466
 30
0.000000
  70
    32
  0
VERTEX
  8
0
  5
15FD7
 10
201.101
 20
243.480
 30
0.000000
  70
    32
  0
VERTEX
  8
0
  5
15FD8
 10
201.087
 20
243.494
 30
0.000000
  70
    32
  0
VERTEX
  8
0
  5
15FD9
 10
201.072
 20
243.507
 30
0.000000
  70
    32
  0
VERTEX
  8
0
  5
15FDA
 10
201.058
 20
243.521
 30
0.000000
  70
    32
  0
VERTEX
  8
0
  5
15FDB
 10
201.044
 20
243.535
 30
0.000000
  70
    32
  0
VERTEX
  8
0
  5
15FDC
 10
201.029
 20
243.548
 30
0.000000
  70
    32
  0
VERTEX
  8
0
  5
15FDD
 10
201.015
 20
243.561
 30
0.000000
  70
    32
  0
VERTEX
  8
0
  5
15FDE
 10
201.000
 20
243.574
 30
0.000000
  70
    32
  0
VERTEX
  8
0
  5
15FDF
 10
200.986
 20
243.588
 30
0.000000
  70
    32
  0
VERTEX
  8
0
  5
15FE0
 10
200.971
 20
243.601
 30
0.000000
  70
    32
  0
VERTEX
  8
0
  5
15FE1
 10
200.957
 20
243.613
 30
0.000000
  70
    32
  0
VERTEX
  8
0
  5
15FE2
 10
200.942
 20
243.626
 30
0.000000
  70
    32
  0
VERTEX
  8
0
  5
15FE3
 10
200.927
 20
243.639
 30
0.000000
  70
    32
  0
VERTEX
  8
0
  5
15FE4
 10
200.913
 20
243.652
 30
0.000000
  70
    32
  0
VERTEX
  8
0
  5
15FE5
 10
200.898
 20
243.664
 30
0.000000
  70
    32
  0
VERTEX
  8
0
  5
15FE6
 10
200.883
 20
243.676
 30
0.000000
  70
    32
  0
VERTEX
  8
0
  5
15FE7
 10
200.869
 20
243.689
 30
0.000000
  70
    32
  0
VERTEX
  8
0
  5
15FE8
 10
200.854
 20
243.701
 30
0.000000
  70
    32
  0
VERTEX
  8
0
  5
15FE9
 10
200.839
 20
243.713
 30
0.000000
  70
    32
  0
VERTEX
  8
0
  5
15FEA
 10
200.824
 20
243.725
 30
0.000000
  70
    32
  0
VERTEX
  8
0
  5
15FEB
 10
200.809
 20
243.737
 30
0.000000
  70
    32
  0
VERTEX
  8
0
  5
15FEC
 10
200.794
 20
243.748
 30
0.000000
  70
    32
  0
VERTEX
  8
0
  5
15FED
 10
200.779
 20
243.760
 30
0.000000
  70
    32
  0
VERTEX
  8
0
  5
15FEE
 10
200.765
 20
243.772
 30
0.000000
  70
    32
  0
VERTEX
  8
0
  5
15FEF
 10
200.750
 20
243.783
 30
0.000000
  70
    32
  0
VERTEX
  8
0
  5
15FF0
 10
200.735
 20
243.794
 30
0.000000
  70
    32
  0
VERTEX
  8
0
  5
15FF1
 10
200.720
 20
243.806
 30
0.000000
  70
    32
  0
VERTEX
  8
0
  5
15FF2
 10
200.704
 20
243.817
 30
0.000000
  70
    32
  0
VERTEX
  8
0
  5
15FF3
 10
200.689
 20
243.828
 30
0.000000
  70
    32
  0
VERTEX
  8
0
  5
15FF4
 10
200.674
 20
243.839
 30
0.000000
  70
    32
  0
VERTEX
  8
0
  5
15FF5
 10
200.659
 20
243.849
 30
0.000000
  70
    32
  0
VERTEX
  8
0
  5
15FF6
 10
200.644
 20
243.860
 30
0.000000
  70
    32
  0
VERTEX
  8
0
  5
15FF7
 10
200.629
 20
243.871
 30
0.000000
  70
    32
  0
VERTEX
  8
0
  5
15FF8
 10
200.614
 20
243.881
 30
0.000000
  70
    32
  0
VERTEX
  8
0
  5
15FF9
 10
200.598
 20
243.892
 30
0.000000
  70
    32
  0
VERTEX
  8
0
  5
15FFA
 10
200.583
 20
243.902
 30
0.000000
  70
    32
  0
VERTEX
  8
0
  5
15FFB
 10
200.568
 20
243.912
 30
0.000000
  70
    32
  0
VERTEX
  8
0
  5
15FFC
 10
200.553
 20
243.922
 30
0.000000
  70
    32
  0
VERTEX
  8
0
  5
15FFD
 10
200.537
 20
243.932
 30
0.000000
  70
    32
  0
VERTEX
  8
0
  5
15FFE
 10
200.522
 20
243.942
 30
0.000000
  70
    32
  0
VERTEX
  8
0
  5
15FFF
 10
200.506
 20
243.951
 30
0.000000
  70
    32
  0
VERTEX
  8
0
  5
16000
 10
200.491
 20
243.961
 30
0.000000
  70
    32
  0
VERTEX
  8
0
  5
16001
 10
200.476
 20
243.971
 30
0.000000
  70
    32
  0
VERTEX
  8
0
  5
16002
 10
200.460
 20
243.980
 30
0.000000
  70
    32
  0
VERTEX
  8
0
  5
16003
 10
200.445
 20
243.989
 30
0.000000
  70
    32
  0
VERTEX
  8
0
  5
16004
 10
200.429
 20
243.998
 30
0.000000
  70
    32
  0
VERTEX
  8
0
  5
16005
 10
200.414
 20
244.007
 30
0.000000
  70
    32
  0
VERTEX
  8
0
  5
16006
 10
200.398
 20
244.016
 30
0.000000
  70
    32
  0
VERTEX
  8
0
  5
16007
 10
200.383
 20
244.025
 30
0.000000
  70
    32
  0
VERTEX
  8
0
  5
16008
 10
200.367
 20
244.034
 30
0.000000
  70
    32
  0
VERTEX
  8
0
  5
16009
 10
200.352
 20
244.043
 30
0.000000
  70
    32
  0
VERTEX
  8
0
  5
1600A
 10
200.336
 20
244.051
 30
0.000000
  70
    32
  0
VERTEX
  8
0
  5
1600B
 10
200.320
 20
244.059
 30
0.000000
  70
    32
  0
VERTEX
  8
0
  5
1600C
 10
200.305
 20
244.068
 30
0.000000
  70
    32
  0
VERTEX
  8
0
  5
1600D
 10
200.289
 20
244.076
 30
0.000000
  70
    32
  0
VERTEX
  8
0
  5
1600E
 10
200.273
 20
244.084
 30
0.000000
  70
    32
  0
VERTEX
  8
0
  5
1600F
 10
200.258
 20
244.092
 30
0.000000
  70
    32
  0
VERTEX
  8
0
  5
16010
 10
200.242
 20
244.100
 30
0.000000
  70
    32
  0
VERTEX
  8
0
  5
16011
 10
200.226
 20
244.107
 30
0.000000
  70
    32
  0
VERTEX
  8
0
  5
16012
 10
200.210
 20
244.115
 30
0.000000
  70
    32
  0
VERTEX
  8
0
  5
16013
 10
200.195
 20
244.123
 30
0.000000
  70
    32
  0
VERTEX
  8
0
  5
16014
 10
200.179
 20
244.130
 30
0.000000
  70
    32
  0
VERTEX
  8
0
  5
16015
 10
200.163
 20
244.137
 30
0.000000
  70
    32
  0
VERTEX
  8
0
  5
16016
 10
200.147
 20
244.144
 30
0.000000
  70
    32
  0
VERTEX
  8
0
  5
16017
 10
200.131
 20
244.151
 30
0.000000
  70
    32
  0
VERTEX
  8
0
  5
16018
 10
200.115
 20
244.158
 30
0.000000
  70
    32
  0
VERTEX
  8
0
  5
16019
 10
200.100
 20
244.165
 30
0.000000
  70
    32
  0
VERTEX
  8
0
  5
1601A
 10
200.084
 20
244.172
 30
0.000000
  70
    32
  0
VERTEX
  8
0
  5
1601B
 10
200.068
 20
244.179
 30
0.000000
  70
    32
  0
VERTEX
  8
0
  5
1601C
 10
200.052
 20
244.185
 30
0.000000
  70
    32
  0
VERTEX
  8
0
  5
1601D
 10
200.036
 20
244.191
 30
0.000000
  70
    32
  0
VERTEX
  8
0
  5
1601E
 10
200.020
 20
244.198
 30
0.000000
  70
    32
  0
VERTEX
  8
0
  5
1601F
 10
200.004
 20
244.204
 30
0.000000
  70
    32
  0
VERTEX
  8
0
  5
16020
 10
199.988
 20
244.210
 30
0.000000
  70
    32
  0
VERTEX
  8
0
  5
16021
 10
199.972
 20
244.216
 30
0.000000
  70
    32
  0
VERTEX
  8
0
  5
16022
 10
199.956
 20
244.222
 30
0.000000
  70
    32
  0
VERTEX
  8
0
  5
16023
 10
199.940
 20
244.227
 30
0.000000
  70
    32
  0
VERTEX
  8
0
  5
16024
 10
199.924
 20
244.233
 30
0.000000
  70
    32
  0
VERTEX
  8
0
  5
16025
 10
199.908
 20
244.238
 30
0.000000
  70
    32
  0
VERTEX
  8
0
  5
16026
 10
199.892
 20
244.244
 30
0.000000
  70
    32
  0
VERTEX
  8
0
  5
16027
 10
199.876
 20
244.249
 30
0.000000
  70
    32
  0
VERTEX
  8
0
  5
16028
 10
199.860
 20
244.254
 30
0.000000
  70
    32
  0
VERTEX
  8
0
  5
16029
 10
199.843
 20
244.259
 30
0.000000
  70
    32
  0
VERTEX
  8
0
  5
1602A
 10
199.827
 20
244.264
 30
0.000000
  70
    32
  0
VERTEX
  8
0
  5
1602B
 10
199.811
 20
244.269
 30
0.000000
  70
    32
  0
VERTEX
  8
0
  5
1602C
 10
199.795
 20
244.273
 30
0.000000
  70
    32
  0
VERTEX
  8
0
  5
1602D
 10
199.779
 20
244.278
 30
0.000000
  70
    32
  0
VERTEX
  8
0
  5
1602E
 10
199.763
 20
244.282
 30
0.000000
  70
    32
  0
VERTEX
  8
0
  5
1602F
 10
199.747
 20
244.287
 30
0.000000
  70
    32
  0
VERTEX
  8
0
  5
16030
 10
199.730
 20
244.291
 30
0.000000
  70
    32
  0
VERTEX
  8
0
  5
16031
 10
199.714
 20
244.295
 30
0.000000
  70
    32
  0
VERTEX
  8
0
  5
16032
 10
199.698
 20
244.299
 30
0.000000
  70
    32
  0
VERTEX
  8
0
  5
16033
 10
199.682
 20
244.303
 30
0.000000
  70
    32
  0
VERTEX
  8
0
  5
16034
 10
199.666
 20
244.307
 30
0.000000
  70
    32
  0
VERTEX
  8
0
  5
16035
 10
199.649
 20
244.310
 30
0.000000
  70
    32
  0
VERTEX
  8
0
  5
16036
 10
199.633
 20
244.314
 30
0.000000
  70
    32
  0
VERTEX
  8
0
  5
16037
 10
199.617
 20
244.317
 30
0.000000
  70
    32
  0
VERTEX
  8
0
  5
16038
 10
199.601
 20
244.321
 30
0.000000
  70
    32
  0
VERTEX
  8
0
  5
16039
 10
199.584
 20
244.324
 30
0.000000
  70
    32
  0
VERTEX
  8
0
  5
1603A
 10
199.568
 20
244.327
 30
0.000000
  70
    32
  0
VERTEX
  8
0
  5
1603B
 10
199.552
 20
244.330
 30
0.000000
  70
    32
  0
VERTEX
  8
0
  5
1603C
 10
199.536
 20
244.333
 30
0.000000
  70
    32
  0
VERTEX
  8
0
  5
1603D
 10
199.519
 20
244.335
 30
0.000000
  70
    32
  0
VERTEX
  8
0
  5
1603E
 10
199.503
 20
244.338
 30
0.000000
  70
    32
  0
VERTEX
  8
0
  5
1603F
 10
199.487
 20
244.340
 30
0.000000
  70
    32
  0
VERTEX
  8
0
  5
16040
 10
199.470
 20
244.343
 30
0.000000
  70
    32
  0
VERTEX
  8
0
  5
16041
 10
199.454
 20
244.345
 30
0.000000
  70
    32
  0
VERTEX
  8
0
  5
16042
 10
199.438
 20
244.347
 30
0.000000
  70
    32
  0
VERTEX
  8
0
  5
16043
 10
199.421
 20
244.349
 30
0.000000
  70
    32
  0
VERTEX
  8
0
  5
16044
 10
199.405
 20
244.351
 30
0.000000
  70
    32
  0
VERTEX
  8
0
  5
16045
 10
199.389
 20
244.353
 30
0.000000
  70
    32
  0
VERTEX
  8
0
  5
16046
 10
199.372
 20
244.355
 30
0.000000
  70
    32
  0
VERTEX
  8
0
  5
16047
 10
199.356
 20
244.356
 30
0.000000
  70
    32
  0
VERTEX
  8
0
  5
16048
 10
199.340
 20
244.358
 30
0.000000
  70
    32
  0
VERTEX
  8
0
  5
16049
 10
199.323
 20
244.359
 30
0.000000
  70
    32
  0
VERTEX
  8
0
  5
1604A
 10
199.307
 20
244.360
 30
0.000000
  70
    32
  0
VERTEX
  8
0
  5
1604B
 10
199.291
 20
244.361
 30
0.000000
  70
    32
  0
VERTEX
  8
0
  5
1604C
 10
199.274
 20
244.362
 30
0.000000
  70
    32
  0
VERTEX
  8
0
  5
1604D
 10
199.258
 20
244.363
 30
0.000000
  70
    32
  0
VERTEX
  8
0
  5
1604E
 10
199.242
 20
244.364
 30
0.000000
  70
    32
  0
VERTEX
  8
0
  5
1604F
 10
199.225
 20
244.365
 30
0.000000
  70
    32
  0
VERTEX
  8
0
  5
16050
 10
199.209
 20
244.365
 30
0.000000
  70
    32
  0
VERTEX
  8
0
  5
16051
 10
199.193
 20
244.366
 30
0.000000
  70
    32
  0
VERTEX
  8
0
  5
16052
 10
199.176
 20
244.366
 30
0.000000
  70
    32
  0
VERTEX
  8
0
  5
16053
 10
199.160
 20
244.366
 30
0.000000
  70
    32
  0
VERTEX
  8
0
  5
16054
 10
199.144
 20
244.366
 30
0.000000
  70
    32
  0
SEQEND
  8
0
  5
16055
  0
POLYLINE
  5
C6E6
  8
0
 10
169.40157827616119
 20
244.36603139405128
 30
0.0
 66
     1
 70
     8
  0
VERTEX
  8
0
  5
16056
 10
169.402
 20
244.366
 30
0.000000
  70
    32
  0
VERTEX
  8
0
  5
16057
 10
169.391
 20
244.366
 30
0.000000
  70
    32
  0
VERTEX
  8
0
  5
16058
 10
169.380
 20
244.366
 30
0.000000
  70
    32
  0
VERTEX
  8
0
  5
16059
 10
169.369
 20
244.366
 30
0.000000
  70
    32
  0
VERTEX
  8
0
  5
1605A
 10
169.358
 20
244.366
 30
0.000000
  70
    32
  0
VERTEX
  8
0
  5
1605B
 10
169.347
 20
244.365
 30
0.000000
  70
    32
  0
VERTEX
  8
0
  5
1605C
 10
169.336
 20
244.365
 30
0.000000
  70
    32
  0
VERTEX
  8
0
  5
1605D
 10
169.325
 20
244.365
 30
0.000000
  70
    32
  0
VERTEX
  8
0
  5
1605E
 10
169.314
 20
244.364
 30
0.000000
  70
    32
  0
VERTEX
  8
0
  5
1605F
 10
169.303
 20
244.364
 30
0.000000
  70
    32
  0
VERTEX
  8
0
  5
16060
 10
169.293
 20
244.363
 30
0.000000
  70
    32
  0
VERTEX
  8
0
  5
16061
 10
169.282
 20
244.363
 30
0.000000
  70
    32
  0
VERTEX
  8
0
  5
16062
 10
169.271
 20
244.362
 30
0.000000
  70
    32
  0
VERTEX
  8
0
  5
16063
 10
169.260
 20
244.362
 30
0.000000
  70
    32
  0
VERTEX
  8
0
  5
16064
 10
169.249
 20
244.361
 30
0.000000
  70
    32
  0
VERTEX
  8
0
  5
16065
 10
169.238
 20
244.360
 30
0.000000
  70
    32
  0
VERTEX
  8
0
  5
16066
 10
169.227
 20
244.359
 30
0.000000
  70
    32
  0
VERTEX
  8
0
  5
16067
 10
169.216
 20
244.359
 30
0.000000
  70
    32
  0
VERTEX
  8
0
  5
16068
 10
169.205
 20
244.358
 30
0.000000
  70
    32
  0
VERTEX
  8
0
  5
16069
 10
169.194
 20
244.357
 30
0.000000
  70
    32
  0
VERTEX
  8
0
  5
1606A
 10
169.184
 20
244.356
 30
0.000000
  70
    32
  0
VERTEX
  8
0
  5
1606B
 10
169.173
 20
244.355
 30
0.000000
  70
    32
  0
VERTEX
  8
0
  5
1606C
 10
169.162
 20
244.354
 30
0.000000
  70
    32
  0
VERTEX
  8
0
  5
1606D
 10
169.151
 20
244.352
 30
0.000000
  70
    32
  0
VERTEX
  8
0
  5
1606E
 10
169.140
 20
244.351
 30
0.000000
  70
    32
  0
VERTEX
  8
0
  5
1606F
 10
169.129
 20
244.350
 30
0.000000
  70
    32
  0
VERTEX
  8
0
  5
16070
 10
169.118
 20
244.349
 30
0.000000
  70
    32
  0
VERTEX
  8
0
  5
16071
 10
169.107
 20
244.347
 30
0.000000
  70
    32
  0
VERTEX
  8
0
  5
16072
 10
169.096
 20
244.346
 30
0.000000
  70
    32
  0
VERTEX
  8
0
  5
16073
 10
169.086
 20
244.344
 30
0.000000
  70
    32
  0
VERTEX
  8
0
  5
16074
 10
169.075
 20
244.343
 30
0.000000
  70
    32
  0
VERTEX
  8
0
  5
16075
 10
169.064
 20
244.341
 30
0.000000
  70
    32
  0
VERTEX
  8
0
  5
16076
 10
169.053
 20
244.340
 30
0.000000
  70
    32
  0
VERTEX
  8
0
  5
16077
 10
169.042
 20
244.338
 30
0.000000
  70
    32
  0
VERTEX
  8
0
  5
16078
 10
169.031
 20
244.336
 30
0.000000
  70
    32
  0
VERTEX
  8
0
  5
16079
 10
169.020
 20
244.334
 30
0.000000
  70
    32
  0
VERTEX
  8
0
  5
1607A
 10
169.010
 20
244.333
 30
0.000000
  70
    32
  0
VERTEX
  8
0
  5
1607B
 10
168.999
 20
244.331
 30
0.000000
  70
    32
  0
VERTEX
  8
0
  5
1607C
 10
168.988
 20
244.329
 30
0.000000
  70
    32
  0
VERTEX
  8
0
  5
1607D
 10
168.977
 20
244.327
 30
0.000000
  70
    32
  0
VERTEX
  8
0
  5
1607E
 10
168.966
 20
244.325
 30
0.000000
  70
    32
  0
VERTEX
  8
0
  5
1607F
 10
168.955
 20
244.323
 30
0.000000
  70
    32
  0
VERTEX
  8
0
  5
16080
 10
168.944
 20
244.321
 30
0.000000
  70
    32
  0
VERTEX
  8
0
  5
16081
 10
168.934
 20
244.318
 30
0.000000
  70
    32
  0
VERTEX
  8
0
  5
16082
 10
168.923
 20
244.316
 30
0.000000
  70
    32
  0
VERTEX
  8
0
  5
16083
 10
168.912
 20
244.314
 30
0.000000
  70
    32
  0
VERTEX
  8
0
  5
16084
 10
168.901
 20
244.312
 30
0.000000
  70
    32
  0
VERTEX
  8
0
  5
16085
 10
168.890
 20
244.309
 30
0.000000
  70
    32
  0
VERTEX
  8
0
  5
16086
 10
168.879
 20
244.307
 30
0.000000
  70
    32
  0
VERTEX
  8
0
  5
16087
 10
168.869
 20
244.304
 30
0.000000
  70
    32
  0
VERTEX
  8
0
  5
16088
 10
168.858
 20
244.302
 30
0.000000
  70
    32
  0
VERTEX
  8
0
  5
16089
 10
168.847
 20
244.299
 30
0.000000
  70
    32
  0
VERTEX
  8
0
  5
1608A
 10
168.836
 20
244.296
 30
0.000000
  70
    32
  0
VERTEX
  8
0
  5
1608B
 10
168.825
 20
244.294
 30
0.000000
  70
    32
  0
VERTEX
  8
0
  5
1608C
 10
168.815
 20
244.291
 30
0.000000
  70
    32
  0
VERTEX
  8
0
  5
1608D
 10
168.804
 20
244.288
 30
0.000000
  70
    32
  0
VERTEX
  8
0
  5
1608E
 10
168.793
 20
244.285
 30
0.000000
  70
    32
  0
VERTEX
  8
0
  5
1608F
 10
168.782
 20
244.282
 30
0.000000
  70
    32
  0
VERTEX
  8
0
  5
16090
 10
168.772
 20
244.280
 30
0.000000
  70
    32
  0
VERTEX
  8
0
  5
16091
 10
168.761
 20
244.277
 30
0.000000
  70
    32
  0
VERTEX
  8
0
  5
16092
 10
168.750
 20
244.273
 30
0.000000
  70
    32
  0
VERTEX
  8
0
  5
16093
 10
168.739
 20
244.270
 30
0.000000
  70
    32
  0
VERTEX
  8
0
  5
16094
 10
168.728
 20
244.267
 30
0.000000
  70
    32
  0
VERTEX
  8
0
  5
16095
 10
168.718
 20
244.264
 30
0.000000
  70
    32
  0
VERTEX
  8
0
  5
16096
 10
168.707
 20
244.261
 30
0.000000
  70
    32
  0
VERTEX
  8
0
  5
16097
 10
168.696
 20
244.257
 30
0.000000
  70
    32
  0
VERTEX
  8
0
  5
16098
 10
168.686
 20
244.254
 30
0.000000
  70
    32
  0
VERTEX
  8
0
  5
16099
 10
168.675
 20
244.251
 30
0.000000
  70
    32
  0
VERTEX
  8
0
  5
1609A
 10
168.664
 20
244.247
 30
0.000000
  70
    32
  0
VERTEX
  8
0
  5
1609B
 10
168.653
 20
244.244
 30
0.000000
  70
    32
  0
VERTEX
  8
0
  5
1609C
 10
168.643
 20
244.240
 30
0.000000
  70
    32
  0
VERTEX
  8
0
  5
1609D
 10
168.632
 20
244.237
 30
0.000000
  70
    32
  0
VERTEX
  8
0
  5
1609E
 10
168.621
 20
244.233
 30
0.000000
  70
    32
  0
VERTEX
  8
0
  5
1609F
 10
168.611
 20
244.229
 30
0.000000
  70
    32
  0
VERTEX
  8
0
  5
160A0
 10
168.600
 20
244.225
 30
0.000000
  70
    32
  0
VERTEX
  8
0
  5
160A1
 10
168.589
 20
244.222
 30
0.000000
  70
    32
  0
VERTEX
  8
0
  5
160A2
 10
168.578
 20
244.218
 30
0.000000
  70
    32
  0
VERTEX
  8
0
  5
160A3
 10
168.568
 20
244.214
 30
0.000000
  70
    32
  0
VERTEX
  8
0
  5
160A4
 10
168.557
 20
244.210
 30
0.000000
  70
    32
  0
VERTEX
  8
0
  5
160A5
 10
168.546
 20
244.206
 30
0.000000
  70
    32
  0
VERTEX
  8
0
  5
160A6
 10
168.536
 20
244.202
 30
0.000000
  70
    32
  0
VERTEX
  8
0
  5
160A7
 10
168.525
 20
244.198
 30
0.000000
  70
    32
  0
VERTEX
  8
0
  5
160A8
 10
168.515
 20
244.194
 30
0.000000
  70
    32
  0
VERTEX
  8
0
  5
160A9
 10
168.504
 20
244.189
 30
0.000000
  70
    32
  0
VERTEX
  8
0
  5
160AA
 10
168.493
 20
244.185
 30
0.000000
  70
    32
  0
VERTEX
  8
0
  5
160AB
 10
168.483
 20
244.181
 30
0.000000
  70
    32
  0
VERTEX
  8
0
  5
160AC
 10
168.472
 20
244.176
 30
0.000000
  70
    32
  0
VERTEX
  8
0
  5
160AD
 10
168.461
 20
244.172
 30
0.000000
  70
    32
  0
VERTEX
  8
0
  5
160AE
 10
168.451
 20
244.167
 30
0.000000
  70
    32
  0
VERTEX
  8
0
  5
160AF
 10
168.440
 20
244.163
 30
0.000000
  70
    32
  0
VERTEX
  8
0
  5
160B0
 10
168.430
 20
244.158
 30
0.000000
  70
    32
  0
VERTEX
  8
0
  5
160B1
 10
168.419
 20
244.154
 30
0.000000
  70
    32
  0
VERTEX
  8
0
  5
160B2
 10
168.409
 20
244.149
 30
0.000000
  70
    32
  0
VERTEX
  8
0
  5
160B3
 10
168.398
 20
244.144
 30
0.000000
  70
    32
  0
VERTEX
  8
0
  5
160B4
 10
168.387
 20
244.140
 30
0.000000
  70
    32
  0
VERTEX
  8
0
  5
160B5
 10
168.377
 20
244.135
 30
0.000000
  70
    32
  0
VERTEX
  8
0
  5
160B6
 10
168.366
 20
244.130
 30
0.000000
  70
    32
  0
VERTEX
  8
0
  5
160B7
 10
168.356
 20
244.125
 30
0.000000
  70
    32
  0
VERTEX
  8
0
  5
160B8
 10
168.345
 20
244.120
 30
0.000000
  70
    32
  0
VERTEX
  8
0
  5
160B9
 10
168.335
 20
244.115
 30
0.000000
  70
    32
  0
VERTEX
  8
0
  5
160BA
 10
168.324
 20
244.110
 30
0.000000
  70
    32
  0
VERTEX
  8
0
  5
160BB
 10
168.314
 20
244.105
 30
0.000000
  70
    32
  0
VERTEX
  8
0
  5
160BC
 10
168.303
 20
244.100
 30
0.000000
  70
    32
  0
VERTEX
  8
0
  5
160BD
 10
168.293
 20
244.095
 30
0.000000
  70
    32
  0
VERTEX
  8
0
  5
160BE
 10
168.282
 20
244.089
 30
0.000000
  70
    32
  0
VERTEX
  8
0
  5
160BF
 10
168.272
 20
244.084
 30
0.000000
  70
    32
  0
VERTEX
  8
0
  5
160C0
 10
168.261
 20
244.079
 30
0.000000
  70
    32
  0
VERTEX
  8
0
  5
160C1
 10
168.251
 20
244.073
 30
0.000000
  70
    32
  0
VERTEX
  8
0
  5
160C2
 10
168.240
 20
244.068
 30
0.000000
  70
    32
  0
VERTEX
  8
0
  5
160C3
 10
168.230
 20
244.062
 30
0.000000
  70
    32
  0
VERTEX
  8
0
  5
160C4
 10
168.220
 20
244.057
 30
0.000000
  70
    32
  0
VERTEX
  8
0
  5
160C5
 10
168.209
 20
244.051
 30
0.000000
  70
    32
  0
VERTEX
  8
0
  5
160C6
 10
168.199
 20
244.045
 30
0.000000
  70
    32
  0
VERTEX
  8
0
  5
160C7
 10
168.188
 20
244.040
 30
0.000000
  70
    32
  0
VERTEX
  8
0
  5
160C8
 10
168.178
 20
244.034
 30
0.000000
  70
    32
  0
VERTEX
  8
0
  5
160C9
 10
168.168
 20
244.028
 30
0.000000
  70
    32
  0
VERTEX
  8
0
  5
160CA
 10
168.157
 20
244.022
 30
0.000000
  70
    32
  0
VERTEX
  8
0
  5
160CB
 10
168.147
 20
244.016
 30
0.000000
  70
    32
  0
VERTEX
  8
0
  5
160CC
 10
168.136
 20
244.010
 30
0.000000
  70
    32
  0
VERTEX
  8
0
  5
160CD
 10
168.126
 20
244.004
 30
0.000000
  70
    32
  0
VERTEX
  8
0
  5
160CE
 10
168.116
 20
243.998
 30
0.000000
  70
    32
  0
VERTEX
  8
0
  5
160CF
 10
168.105
 20
243.992
 30
0.000000
  70
    32
  0
VERTEX
  8
0
  5
160D0
 10
168.095
 20
243.986
 30
0.000000
  70
    32
  0
VERTEX
  8
0
  5
160D1
 10
168.085
 20
243.980
 30
0.000000
  70
    32
  0
VERTEX
  8
0
  5
160D2
 10
168.075
 20
243.974
 30
0.000000
  70
    32
  0
VERTEX
  8
0
  5
160D3
 10
168.064
 20
243.967
 30
0.000000
  70
    32
  0
VERTEX
  8
0
  5
160D4
 10
168.054
 20
243.961
 30
0.000000
  70
    32
  0
VERTEX
  8
0
  5
160D5
 10
168.044
 20
243.955
 30
0.000000
  70
    32
  0
VERTEX
  8
0
  5
160D6
 10
168.033
 20
243.948
 30
0.000000
  70
    32
  0
SEQEND
  8
0
  5
160D7
  0
POLYLINE
  5
C6EB
  8
0
 10
168.03349770285848
 20
285.051802365963
 30
0.0
 66
     1
 70
     8
  0
VERTEX
  8
0
  5
160D8
 10
168.033
 20
285.052
 30
0.000000
  70
    32
  0
VERTEX
  8
0
  5
160D9
 10
168.044
 20
285.045
 30
0.000000
  70
    32
  0
VERTEX
  8
0
  5
160DA
 10
168.054
 20
285.039
 30
0.000000
  70
    32
  0
VERTEX
  8
0
  5
160DB
 10
168.064
 20
285.033
 30
0.000000
  70
    32
  0
VERTEX
  8
0
  5
160DC
 10
168.075
 20
285.026
 30
0.000000
  70
    32
  0
VERTEX
  8
0
  5
160DD
 10
168.085
 20
285.020
 30
0.000000
  70
    32
  0
VERTEX
  8
0
  5
160DE
 10
168.095
 20
285.014
 30
0.000000
  70
    32
  0
VERTEX
  8
0
  5
160DF
 10
168.105
 20
285.008
 30
0.000000
  70
    32
  0
VERTEX
  8
0
  5
160E0
 10
168.116
 20
285.002
 30
0.000000
  70
    32
  0
VERTEX
  8
0
  5
160E1
 10
168.126
 20
284.996
 30
0.000000
  70
    32
  0
VERTEX
  8
0
  5
160E2
 10
168.136
 20
284.990
 30
0.000000
  70
    32
  0
VERTEX
  8
0
  5
160E3
 10
168.147
 20
284.984
 30
0.000000
  70
    32
  0
VERTEX
  8
0
  5
160E4
 10
168.157
 20
284.978
 30
0.000000
  70
    32
  0
VERTEX
  8
0
  5
160E5
 10
168.168
 20
284.972
 30
0.000000
  70
    32
  0
VERTEX
  8
0
  5
160E6
 10
168.178
 20
284.966
 30
0.000000
  70
    32
  0
VERTEX
  8
0
  5
160E7
 10
168.188
 20
284.960
 30
0.000000
  70
    32
  0
VERTEX
  8
0
  5
160E8
 10
168.199
 20
284.955
 30
0.000000
  70
    32
  0
VERTEX
  8
0
  5
160E9
 10
168.209
 20
284.949
 30
0.000000
  70
    32
  0
VERTEX
  8
0
  5
160EA
 10
168.220
 20
284.943
 30
0.000000
  70
    32
  0
VERTEX
  8
0
  5
160EB
 10
168.230
 20
284.938
 30
0.000000
  70
    32
  0
VERTEX
  8
0
  5
160EC
 10
168.240
 20
284.932
 30
0.000000
  70
    32
  0
VERTEX
  8
0
  5
160ED
 10
168.251
 20
284.927
 30
0.000000
  70
    32
  0
VERTEX
  8
0
  5
160EE
 10
168.261
 20
284.921
 30
0.000000
  70
    32
  0
VERTEX
  8
0
  5
160EF
 10
168.272
 20
284.916
 30
0.000000
  70
    32
  0
VERTEX
  8
0
  5
160F0
 10
168.282
 20
284.911
 30
0.000000
  70
    32
  0
VERTEX
  8
0
  5
160F1
 10
168.293
 20
284.906
 30
0.000000
  70
    32
  0
VERTEX
  8
0
  5
160F2
 10
168.303
 20
284.900
 30
0.000000
  70
    32
  0
VERTEX
  8
0
  5
160F3
 10
168.314
 20
284.895
 30
0.000000
  70
    32
  0
VERTEX
  8
0
  5
160F4
 10
168.324
 20
284.890
 30
0.000000
  70
    32
  0
VERTEX
  8
0
  5
160F5
 10
168.335
 20
284.885
 30
0.000000
  70
    32
  0
VERTEX
  8
0
  5
160F6
 10
168.345
 20
284.880
 30
0.000000
  70
    32
  0
VERTEX
  8
0
  5
160F7
 10
168.356
 20
284.875
 30
0.000000
  70
    32
  0
VERTEX
  8
0
  5
160F8
 10
168.366
 20
284.870
 30
0.000000
  70
    32
  0
VERTEX
  8
0
  5
160F9
 10
168.377
 20
284.865
 30
0.000000
  70
    32
  0
VERTEX
  8
0
  5
160FA
 10
168.387
 20
284.860
 30
0.000000
  70
    32
  0
VERTEX
  8
0
  5
160FB
 10
168.398
 20
284.856
 30
0.000000
  70
    32
  0
VERTEX
  8
0
  5
160FC
 10
168.409
 20
284.851
 30
0.000000
  70
    32
  0
VERTEX
  8
0
  5
160FD
 10
168.419
 20
284.846
 30
0.000000
  70
    32
  0
VERTEX
  8
0
  5
160FE
 10
168.430
 20
284.842
 30
0.000000
  70
    32
  0
VERTEX
  8
0
  5
160FF
 10
168.440
 20
284.837
 30
0.000000
  70
    32
  0
VERTEX
  8
0
  5
16100
 10
168.451
 20
284.833
 30
0.000000
  70
    32
  0
VERTEX
  8
0
  5
16101
 10
168.461
 20
284.828
 30
0.000000
  70
    32
  0
VERTEX
  8
0
  5
16102
 10
168.472
 20
284.824
 30
0.000000
  70
    32
  0
VERTEX
  8
0
  5
16103
 10
168.483
 20
284.819
 30
0.000000
  70
    32
  0
VERTEX
  8
0
  5
16104
 10
168.493
 20
284.815
 30
0.000000
  70
    32
  0
VERTEX
  8
0
  5
16105
 10
168.504
 20
284.811
 30
0.000000
  70
    32
  0
VERTEX
  8
0
  5
16106
 10
168.515
 20
284.806
 30
0.000000
  70
    32
  0
VERTEX
  8
0
  5
16107
 10
168.525
 20
284.802
 30
0.000000
  70
    32
  0
VERTEX
  8
0
  5
16108
 10
168.536
 20
284.798
 30
0.000000
  70
    32
  0
VERTEX
  8
0
  5
16109
 10
168.546
 20
284.794
 30
0.000000
  70
    32
  0
VERTEX
  8
0
  5
1610A
 10
168.557
 20
284.790
 30
0.000000
  70
    32
  0
VERTEX
  8
0
  5
1610B
 10
168.568
 20
284.786
 30
0.000000
  70
    32
  0
VERTEX
  8
0
  5
1610C
 10
168.578
 20
284.782
 30
0.000000
  70
    32
  0
VERTEX
  8
0
  5
1610D
 10
168.589
 20
284.778
 30
0.000000
  70
    32
  0
VERTEX
  8
0
  5
1610E
 10
168.600
 20
284.775
 30
0.000000
  70
    32
  0
VERTEX
  8
0
  5
1610F
 10
168.611
 20
284.771
 30
0.000000
  70
    32
  0
VERTEX
  8
0
  5
16110
 10
168.621
 20
284.767
 30
0.000000
  70
    32
  0
VERTEX
  8
0
  5
16111
 10
168.632
 20
284.763
 30
0.000000
  70
    32
  0
VERTEX
  8
0
  5
16112
 10
168.643
 20
284.760
 30
0.000000
  70
    32
  0
VERTEX
  8
0
  5
16113
 10
168.653
 20
284.756
 30
0.000000
  70
    32
  0
VERTEX
  8
0
  5
16114
 10
168.664
 20
284.753
 30
0.000000
  70
    32
  0
VERTEX
  8
0
  5
16115
 10
168.675
 20
284.749
 30
0.000000
  70
    32
  0
VERTEX
  8
0
  5
16116
 10
168.686
 20
284.746
 30
0.000000
  70
    32
  0
VERTEX
  8
0
  5
16117
 10
168.696
 20
284.743
 30
0.000000
  70
    32
  0
VERTEX
  8
0
  5
16118
 10
168.707
 20
284.739
 30
0.000000
  70
    32
  0
VERTEX
  8
0
  5
16119
 10
168.718
 20
284.736
 30
0.000000
  70
    32
  0
VERTEX
  8
0
  5
1611A
 10
168.728
 20
284.733
 30
0.000000
  70
    32
  0
VERTEX
  8
0
  5
1611B
 10
168.739
 20
284.730
 30
0.000000
  70
    32
  0
VERTEX
  8
0
  5
1611C
 10
168.750
 20
284.727
 30
0.000000
  70
    32
  0
VERTEX
  8
0
  5
1611D
 10
168.761
 20
284.723
 30
0.000000
  70
    32
  0
VERTEX
  8
0
  5
1611E
 10
168.772
 20
284.720
 30
0.000000
  70
    32
  0
VERTEX
  8
0
  5
1611F
 10
168.782
 20
284.718
 30
0.000000
  70
    32
  0
VERTEX
  8
0
  5
16120
 10
168.793
 20
284.715
 30
0.000000
  70
    32
  0
VERTEX
  8
0
  5
16121
 10
168.804
 20
284.712
 30
0.000000
  70
    32
  0
VERTEX
  8
0
  5
16122
 10
168.815
 20
284.709
 30
0.000000
  70
    32
  0
VERTEX
  8
0
  5
16123
 10
168.825
 20
284.706
 30
0.000000
  70
    32
  0
VERTEX
  8
0
  5
16124
 10
168.836
 20
284.704
 30
0.000000
  70
    32
  0
VERTEX
  8
0
  5
16125
 10
168.847
 20
284.701
 30
0.000000
  70
    32
  0
VERTEX
  8
0
  5
16126
 10
168.858
 20
284.698
 30
0.000000
  70
    32
  0
VERTEX
  8
0
  5
16127
 10
168.869
 20
284.696
 30
0.000000
  70
    32
  0
VERTEX
  8
0
  5
16128
 10
168.879
 20
284.693
 30
0.000000
  70
    32
  0
VERTEX
  8
0
  5
16129
 10
168.890
 20
284.691
 30
0.000000
  70
    32
  0
VERTEX
  8
0
  5
1612A
 10
168.901
 20
284.688
 30
0.000000
  70
    32
  0
VERTEX
  8
0
  5
1612B
 10
168.912
 20
284.686
 30
0.000000
  70
    32
  0
VERTEX
  8
0
  5
1612C
 10
168.923
 20
284.684
 30
0.000000
  70
    32
  0
VERTEX
  8
0
  5
1612D
 10
168.934
 20
284.682
 30
0.000000
  70
    32
  0
VERTEX
  8
0
  5
1612E
 10
168.944
 20
284.679
 30
0.000000
  70
    32
  0
VERTEX
  8
0
  5
1612F
 10
168.955
 20
284.677
 30
0.000000
  70
    32
  0
VERTEX
  8
0
  5
16130
 10
168.966
 20
284.675
 30
0.000000
  70
    32
  0
VERTEX
  8
0
  5
16131
 10
168.977
 20
284.673
 30
0.000000
  70
    32
  0
VERTEX
  8
0
  5
16132
 10
168.988
 20
284.671
 30
0.000000
  70
    32
  0
VERTEX
  8
0
  5
16133
 10
168.999
 20
284.669
 30
0.000000
  70
    32
  0
VERTEX
  8
0
  5
16134
 10
169.010
 20
284.667
 30
0.000000
  70
    32
  0
VERTEX
  8
0
  5
16135
 10
169.020
 20
284.666
 30
0.000000
  70
    32
  0
VERTEX
  8
0
  5
16136
 10
169.031
 20
284.664
 30
0.000000
  70
    32
  0
VERTEX
  8
0
  5
16137
 10
169.042
 20
284.662
 30
0.000000
  70
    32
  0
VERTEX
  8
0
  5
16138
 10
169.053
 20
284.660
 30
0.000000
  70
    32
  0
VERTEX
  8
0
  5
16139
 10
169.064
 20
284.659
 30
0.000000
  70
    32
  0
VERTEX
  8
0
  5
1613A
 10
169.075
 20
284.657
 30
0.000000
  70
    32
  0
VERTEX
  8
0
  5
1613B
 10
169.086
 20
284.656
 30
0.000000
  70
    32
  0
VERTEX
  8
0
  5
1613C
 10
169.096
 20
284.654
 30
0.000000
  70
    32
  0
VERTEX
  8
0
  5
1613D
 10
169.107
 20
284.653
 30
0.000000
  70
    32
  0
VERTEX
  8
0
  5
1613E
 10
169.118
 20
284.651
 30
0.000000
  70
    32
  0
VERTEX
  8
0
  5
1613F
 10
169.129
 20
284.650
 30
0.000000
  70
    32
  0
VERTEX
  8
0
  5
16140
 10
169.140
 20
284.649
 30
0.000000
  70
    32
  0
VERTEX
  8
0
  5
16141
 10
169.151
 20
284.648
 30
0.000000
  70
    32
  0
VERTEX
  8
0
  5
16142
 10
169.162
 20
284.646
 30
0.000000
  70
    32
  0
VERTEX
  8
0
  5
16143
 10
169.173
 20
284.645
 30
0.000000
  70
    32
  0
VERTEX
  8
0
  5
16144
 10
169.184
 20
284.644
 30
0.000000
  70
    32
  0
VERTEX
  8
0
  5
16145
 10
169.194
 20
284.643
 30
0.000000
  70
    32
  0
VERTEX
  8
0
  5
16146
 10
169.205
 20
284.642
 30
0.000000
  70
    32
  0
VERTEX
  8
0
  5
16147
 10
169.216
 20
284.641
 30
0.000000
  70
    32
  0
VERTEX
  8
0
  5
16148
 10
169.227
 20
284.641
 30
0.000000
  70
    32
  0
VERTEX
  8
0
  5
16149
 10
169.238
 20
284.640
 30
0.000000
  70
    32
  0
VERTEX
  8
0
  5
1614A
 10
169.249
 20
284.639
 30
0.000000
  70
    32
  0
VERTEX
  8
0
  5
1614B
 10
169.260
 20
284.638
 30
0.000000
  70
    32
  0
VERTEX
  8
0
  5
1614C
 10
169.271
 20
284.638
 30
0.000000
  70
    32
  0
VERTEX
  8
0
  5
1614D
 10
169.282
 20
284.637
 30
0.000000
  70
    32
  0
VERTEX
  8
0
  5
1614E
 10
169.293
 20
284.637
 30
0.000000
  70
    32
  0
VERTEX
  8
0
  5
1614F
 10
169.303
 20
284.636
 30
0.000000
  70
    32
  0
VERTEX
  8
0
  5
16150
 10
169.314
 20
284.636
 30
0.000000
  70
    32
  0
VERTEX
  8
0
  5
16151
 10
169.325
 20
284.635
 30
0.000000
  70
    32
  0
VERTEX
  8
0
  5
16152
 10
169.336
 20
284.635
 30
0.000000
  70
    32
  0
VERTEX
  8
0
  5
16153
 10
169.347
 20
284.635
 30
0.000000
  70
    32
  0
VERTEX
  8
0
  5
16154
 10
169.358
 20
284.634
 30
0.000000
  70
    32
  0
VERTEX
  8
0
  5
16155
 10
169.369
 20
284.634
 30
0.000000
  70
    32
  0
VERTEX
  8
0
  5
16156
 10
169.380
 20
284.634
 30
0.000000
  70
    32
  0
VERTEX
  8
0
  5
16157
 10
169.391
 20
284.634
 30
0.000000
  70
    32
  0
VERTEX
  8
0
  5
16158
 10
169.402
 20
284.634
 30
0.000000
  70
    32
  0
SEQEND
  8
0
  5
16159
  0
LINE
  5
C6ED
  8
0
 10
168.03349752910461
 20
243.94820898771289
 30
0.0
 11
165.73627491481619
 21
242.50000610947609
 31
0.0
  0
LINE
  5
C6EE
  8
0
 10
202.08135911263551
 20
242.50000610947609
 30
0.0
 11
201.14353590644919
 21
243.43782745301721
 31
0.0
  0
LINE
  5
C6F0
  8
0
 10
165.73627491481619
 20
286.50000587105751
 30
0.0
 11
168.03349752910461
 21
285.0518029928208
 31
0.0
  0
LINE
  5
C6F2
  8
0
 10
201.14353590644919
 20
285.56218452751642
 30
0.0
 11
202.08135911263551
 21
286.50000587105751
 31
0.0
  0
LINE
  5
C705
  8
0
 10
165.73627491481619
 20
287.00000688433653
 30
0.0
 11
165.73627491481619
 21
286.50000587105751
 31
0.0
  0
LINE
  5
C707
  8
0
 10
165.73627491481619
 20
242.50000610947609
 30
0.0
 11
165.73627491481619
 21
242.0000050961971
 31
0.0
  0
LINE
  5
C70E
  8
0
 10
202.08135911263551
 20
242.50000610947609
 30
0.0
 11
202.08135911263551
 21
242.0000050961971
 31
0.0
  0
LINE
  5
C710
  8
0
 10
202.08135911263551
 20
287.00000688433653
 30
0.0
 11
202.08135911263551
 21
286.50000587105751
 31
0.0
  0
LINE
  5
C712
  8
0
 10
206.27751120366179
 20
242.0000050961971
 30
0.0
 11
157.7900172024969
 21
242.00000509619721
 31
0.0
  0
LINE
  5
C713
  8
0
 10
157.7900172024969
 20
287.0000068843367
 30
0.0
 11
206.27751120366179
 21
287.00000688433653
 31
0.0
  0
ARC
  5
C717
  8
0
 10
163.6917246766279
 20
243.0000059902668
 30
0.0
 40
1.000000000000028
 50
224.9999999999948
 51
270.0
  0
LINE
  5
C719
  8
0
 10
162.9846178740265
 20
242.2928985953331
 30
0.0
 11
160.57040432235249
 21
244.70711208879951
 31
0.0
  0
LINE
  5
C71B
  8
0
 10
160.57040432235249
 20
284.29289989173412
 30
0.0
 11
162.9846178740265
 21
286.7071133852005
 31
0.0
  0
ARC
  5
C71E
  8
0
 10
163.6917246766279
 20
286.0000059902668
 30
0.0
 40
1.000000000000028
 50
90.0
 51
135.0000000000052
  0
ARC
  5
C720
  8
0
 10
161.27751111425479
 20
283.58579242789369
 30
0.0
 40
1.0000000000000071
 50
134.99999999999599
 51
179.9999999999992
  0
LINE
  5
C721
  8
0
 10
160.27751111425479
 20
245.41421875357631
 30
0.0
 11
160.27751111425479
 21
283.58579322695732
 31
0.0
  0
ARC
  5
C723
  8
0
 10
161.27751111425479
 20
245.41421955263999
 30
0.0
 40
1.0000000000000071
 50
180.0
 51
225.00000000000401
  0
ARC
  5
C724
  8
0
 10
206.27751111425459
 20
285.0000059902668
 30
0.0
 40
2.0
 50
0.0
 51
90.0
  0
ARC
  5
C727
  8
0
 10
206.27751111425459
 20
244.0000059902668
 30
0.0
 40
2.0
 50
270.0
 51
0.0
  0
LINE
  5
C728
  8
0
 10
208.27751153148731
 20
285.00000655651093
 30
0.0
 11
208.27751153148731
 21
244.0000054240227
 31
0.0
  0
ARC
  5
C72B
  8
0
 10
187.3485789261201
 20
292.0000059902668
 30
0.0
 40
5.0
 50
225.00000000000401
 51
270.0
  0
ARC
  5
C72C
  8
0
 10
187.3485789261201
 20
237.0000059902668
 30
0.0
 40
5.0
 50
90.0
 51
135.0000000000052
  0
ARC
  5
C72F
  8
0
 10
172.27751111425459
 20
234.20000599026679
 30
0.0
 40
3.0
 50
270.0
 51
0.0
  0
ARC
  5
C733
  8
0
 10
165.27751111425479
 20
297.0000059902668
 30
0.0
 40
5.0
 50
90.0
 51
180.0
  0
ARC
  5
C739
  8
0
 10
168.27751111425479
 20
294.20000599026679
 30
0.0
 40
3.0
 50
180.0
 51
270.0
  0
LINE
  5
C73B
  8
0
 10
181.74197630025469
 20
290.53554020822048
 30
0.0
 11
183.81304585374909
 21
288.46447251737118
 31
0.0
  0
LINE
  5
C73E
  8
0
 10
168.2775114942344
 20
231.2000048160553
 30
0.0
 11
172.27751121856289
 21
231.2000048160553
 31
0.0
  0
ARC
  5
C743
  8
0
 10
168.27751111425479
 20
234.80000599026681
 30
0.0
 40
3.0
 50
90.0
 51
180.0
  0
ARC
  5
C745
  8
0
 10
185.27751111425459
 20
234.9289381784013
 30
0.0
 40
5.0
 50
135.0000000000052
 51
180.0
  0
LINE
  5
C749
  8
0
 10
180.27751066722001
 20
234.92893844842911
 30
0.0
 11
180.27751066722001
 21
232.0000071823597
 31
0.0
  0
LINE
  5
C74C
  8
0
 10
175.27751077897869
 20
234.20000530779359
 30
0.0
 11
175.27751077897869
 21
234.8000061511994
 31
0.0
  0
LINE
  5
C751
  8
0
 10
172.27751121856289
 20
237.80000664293769
 30
0.0
 11
168.2775114942344
 21
237.80000664293769
 31
0.0
  0
LINE
  5
C753
  8
0
 10
165.27751100249611
 20
234.8000061511994
 30
0.0
 11
165.27751100249611
 21
234.20000530779359
 31
0.0
  0
ARC
  5
C755
  8
0
 10
185.27751111425459
 20
294.07107380213222
 30
0.0
 40
5.0
 50
180.0
 51
225.00000000000401
  0
LINE
  5
C763
  8
0
 10
165.27751100249611
 20
302.00000748038292
 30
0.0
 11
175.27751077897869
 21
302.00000748038292
 31
0.0
  0
ARC
  5
C765
  8
0
 10
168.27751111425479
 20
234.20000599026679
 30
0.0
 40
3.0
 50
180.0
 51
270.0
  0
LINE
  5
C767
  8
0
 10
183.81304585374909
 20
240.53553946316239
 30
0.0
 11
181.74197630025469
 21
238.46447177231309
 31
0.0
  0
ARC
  5
C76A
  8
0
 10
172.27751111425459
 20
294.80000599026681
 30
0.0
 40
3.0
 50
0.0
 51
90.0
  0
LINE
  5
C76C
  8
0
 10
160.27751111425479
 20
287.00000688433653
 30
0.0
 11
160.27751111425479
 21
297.0000047981739
 31
0.0
  0
ARC
  5
C76D
  8
0
 10
175.27751111425459
 20
232.0000059902668
 30
0.0
 40
5.0000000000000284
 50
270.0
 51
0.0
  0
LINE
  5
C771
  8
0
 10
165.27751100249611
 20
294.80000667273998
 30
0.0
 11
165.27751100249611
 21
294.20000582933432
 31
0.0
  0
LINE
  5
C772
  8
0
 10
168.2775114942344
 20
291.200005337596
 30
0.0
 11
172.27751121856289
 21
291.200005337596
 31
0.0
  0
ARC
  5
C775
  8
0
 10
168.27751111425479
 20
294.80000599026681
 30
0.0
 40
3.0
 50
90.0
 51
180.0
  0
LINE
  5
C778
  8
0
 10
160.27751111425479
 20
232.0000071823597
 30
0.0
 11
160.27751111425479
 21
242.0000050961971
 31
0.0
  0
ARC
  5
C779
  8
0
 10
172.27751111425459
 20
234.80000599026681
 30
0.0
 40
3.0
 50
0.0
 51
90.0
  0
LINE
  5
C77B
  8
0
 10
172.27751121856289
 20
297.8000071644783
 30
0.0
 11
168.2775114942344
 21
297.8000071644783
 31
0.0
  0
LINE
  5
C77C
  8
0
 10
175.27751077897869
 20
294.20000582933432
 30
0.0
 11
175.27751077897869
 21
294.80000667273998
 31
0.0
  0
LINE
  5
C77E
  8
0
 10
180.27751066722001
 20
297.0000047981739
 30
0.0
 11
180.27751066722001
 21
294.07107353210449
 31
0.0
  0
ARC
  5
C782
  8
0
 10
175.27751111425459
 20
297.0000059902668
 30
0.0
 40
5.0
 50
0.0
 51
90.0
  0
ARC
  5
C783
  8
0
 10
172.27751111425459
 20
294.20000599026679
 30
0.0
 40
3.0
 50
270.0
 51
0.0
  0
ARC
  5
C784
  8
0
 10
165.27751111425479
 20
232.0000059902668
 30
0.0
 40
5.0000000000000284
 50
180.0
 51
270.0
  0
LINE
  5
C786
  8
0
 10
175.27751077897869
 20
227.00000450015071
 30
0.0
 11
165.27751100249611
 21
227.00000450015071
 31
0.0
  0
LINE
  5
C8EE
  8
0
 10
61.790015483275283
 20
172.00000368058679
 30
0.0
 11
60.790015785023797
 21
171.0000035166741
 31
0.0
  0
LINE
  5
C8EF
  8
0
 10
61.790015483275283
 20
154.0000025928021
 30
0.0
 11
61.790015483275283
 21
172.00000368058679
 31
0.0
  0
LINE
  5
C8F0
  8
0
 10
60.790015785023797
 20
155.00000275671479
 30
0.0
 11
61.790015483275283
 21
154.0000025928021
 31
0.0
  0
LINE
  5
C8F1
  8
0
 10
60.790015785023797
 20
155.00000275671479
 30
0.0
 11
60.790015785023797
 21
171.0000035166741
 31
0.0
  0
LINE
  5
C8F2
  8
0
 10
47.790015051141609
 20
155.00000275671479
 30
0.0
 11
60.790015785023797
 21
155.00000275671479
 31
0.0
  0
LINE
  5
C8F4
  8
0
 10
46.790014887228828
 20
154.0000025928021
 30
0.0
 11
47.790015051141609
 21
155.00000275671479
 31
0.0
  0
LINE
  5
C8F5
  8
0
 10
75.790015449747671
 20
155.00000275671479
 30
0.0
 11
88.790016183629859
 21
155.00000275671479
 31
0.0
  0
LINE
  5
C8F6
  8
0
 10
88.790016183629859
 20
155.00000275671479
 30
0.0
 11
89.790016347542633
 21
154.0000025928021
 31
0.0
  0
LINE
  5
C8F8
  8
0
 10
74.790015751496185
 20
154.0000025928021
 30
0.0
 11
75.790015449747671
 21
155.00000275671479
 31
0.0
  0
LINE
  5
C8F9
  8
0
 10
89.790016347542633
 20
172.00000368058679
 30
0.0
 11
88.790016183629859
 21
171.0000035166741
 31
0.0
  0
LINE
  5
C8FA
  8
0
 10
45.790014723315828
 20
172.0000036805869
 30
0.0
 11
90.790016511455406
 21
172.00000368058679
 31
0.0
  0
LINE
  5
C8FD
  8
0
 10
88.790016183629859
 20
155.00000275671479
 30
0.0
 11
88.790016183629859
 21
171.0000035166741
 31
0.0
  0
LINE
  5
C8FE
  8
0
 10
75.790015449747671
 20
171.0000035166741
 30
0.0
 11
74.790015751496185
 21
172.00000368058679
 31
0.0
  0
LINE
  5
C8FF
  8
0
 10
75.790015449747671
 20
155.00000275671479
 30
0.0
 11
75.790015449747671
 21
171.0000035166741
 31
0.0
  0
LINE
  5
C900
  8
0
 10
74.790015751496185
 20
154.0000025928021
 30
0.0
 11
74.790015751496185
 21
172.00000368058679
 31
0.0
  0
LINE
  5
C903
  8
0
 10
47.790015051141609
 20
171.0000035166741
 30
0.0
 11
46.790014887228828
 21
172.00000368058679
 31
0.0
  0
LINE
  5
C904
  8
0
 10
47.790015051141609
 20
171.0000035166741
 30
0.0
 11
47.790015051141609
 21
155.00000275671479
 31
0.0
  0
LINE
  5
C905
  8
0
 10
90.790016511455406
 20
154.00000259280199
 30
0.0
 11
45.790014723316062
 21
154.0000025928021
 31
0.0
  0
LINE
  5
C906
  8
0
 10
60.790015785023797
 20
171.0000035166741
 30
0.0
 11
47.790015051141609
 21
171.0000035166741
 31
0.0
  0
LINE
  5
C908
  8
0
 10
88.790016183629859
 20
171.0000035166741
 30
0.0
 11
75.790015449747671
 21
171.0000035166741
 31
0.0
  0
LINE
  5
C910
  8
0
 10
60.290015237406116
 20
145.0000029802323
 30
0.0
 11
31.290015140548579
 21
145.0000029802323
 31
0.0
  0
LINE
  5
C913
  8
0
 10
60.790015785023797
 20
145.50000300398099
 30
0.0
 11
60.290015237406116
 21
145.0000029802323
 31
0.0
  0
LINE
  5
C916
  8
0
 10
105.29001609422291
 20
145.0000029802323
 30
0.0
 11
76.290015997365344
 21
145.0000029802323
 31
0.0
  0
LINE
  5
C917
  8
0
 10
76.290015997365344
 20
145.0000029802323
 30
0.0
 11
75.790015449747671
 21
145.50000300398099
 31
0.0
  0
LINE
  5
C91A
  8
0
 10
105.29001609422291
 20
145.0000029802323
 30
0.0
 11
105.7900171075018
 21
145.50000300398099
 31
0.0
  0
LINE
  5
C91C
  8
0
 10
31.290015140548579
 20
145.0000029802323
 30
0.0
 11
30.790014127269622
 21
145.50000300398099
 31
0.0
  0
LINE
  5
C922
  8
0
 10
75.790015449747671
 20
145.50000300398099
 30
0.0
 11
60.790015785023797
 21
145.50000300398099
 31
0.0
  0
LINE
  5
C926
  8
0
 10
105.7900171075018
 20
152.0000031962991
 30
0.0
 11
105.7900171075018
 21
145.50000300398099
 31
0.0
  0
LINE
  5
C928
  8
0
 10
30.790014127269622
 20
145.50000300398099
 30
0.0
 11
30.790014127269622
 21
152.0000031962991
 31
0.0
  0
LINE
  5
C92A
  8
0
 10
90.790016511455406
 20
153.00000336021191
 30
0.0
 11
104.7900150809439
 21
153.00000336021191
 31
0.0
  0
ARC
  5
C92B
  8
0
 10
104.79001561738571
 20
152.00000298023221
 30
0.0
 40
1.0
 50
0.0
 51
90.0
  0
LINE
  5
C92D
  8
0
 10
31.79001561738573
 20
153.00000336021191
 30
0.0
 11
45.790014723316062
 21
153.00000336021191
 31
0.0
  0
ARC
  5
C92E
  8
0
 10
31.79001561738573
 20
152.00000298023221
 30
0.0
 40
1.0
 50
90.0
 51
180.0
  0
LINE
  5
C951
  8
0
 10
45.790014723316062
 20
153.00000336021191
 30
0.0
 11
45.790014723316062
 21
174.9226522445679
 31
0.0
  0
LINE
  5
C953
  8
0
 10
90.790016511455406
 20
174.9226522445679
 30
0.0
 11
90.790016511455406
 21
153.00000336021191
 31
0.0
  0
ARC
  5
C954
  8
0
 10
46.790015617385727
 20
174.9226527110425
 30
0.0
 40
1.000000000000008
 50
120.0000000000001
 51
180.0
  0
ARC
  5
C956
  8
0
 10
89.790015617385734
 20
174.9226527110425
 30
0.0
 40
1.000000000000008
 50
0.0
 51
59.999999999999879
  0
LINE
  5
C958
  8
0
 10
46.290015736595016
 20
175.78867793083191
 30
0.0
 11
48.156040933169379
 21
176.86602833320941
 31
0.0
  0
LINE
  5
C95A
  8
0
 10
88.423990213601414
 20
176.86602838401669
 30
0.0
 11
90.290015498176444
 21
175.78867793083191
 31
0.0
  0
ARC
  5
C95C
  8
0
 10
48.656041021170267
 20
176.00000298023221
 30
0.0
 40
1.000000000000008
 50
90.0
 51
120.0000000000001
  0
ARC
  5
C960
  8
0
 10
87.923990213601428
 20
176.00000298023221
 30
0.0
 40
1.000000000000008
 50
59.999999999999879
 51
90.0
  0
LINE
  5
C962
  8
0
 10
48.656040737405647
 20
177.00000450015071
 30
0.0
 11
87.923990497365821
 21
177.00000450015071
 31
0.0
  0
CIRCLE
  5
C9C1
  8
0
 10
290.77751093544089
 20
163.00000298023221
 30
0.0
 40
4.0000000000000311
  0
LINE
  5
CA08
  8
0
 10
297.77751055546128
 20
145.0000029802323
 30
0.0
 11
268.77751045860367
 21
145.0000029802323
 31
0.0
  0
LINE
  5
CA0B
  8
0
 10
298.27751110307901
 20
145.50000300398099
 30
0.0
 11
297.77751055546128
 21
145.0000029802323
 31
0.0
  0
LINE
  5
CA0E
  8
0
 10
342.7775114122781
 20
145.0000029802323
 30
0.0
 11
313.7775113154205
 21
145.0000029802323
 31
0.0
  0
LINE
  5
CA0F
  8
0
 10
313.7775113154205
 20
145.0000029802323
 30
0.0
 11
313.27751076780282
 21
145.50000300398099
 31
0.0
  0
LINE
  5
CA11
  8
0
 10
283.27751004137122
 20
145.50000300398099
 30
0.0
 11
283.27751093544089
 21
174.9226527110427
 31
0.0
  0
POLYLINE
  5
CA12
  8
0
 10
283.27751093544089
 20
172.50000298023221
 30
0.0
 66
     1
 70
     8
  0
VERTEX
  8
0
  5
1615A
 10
283.278
 20
172.500
 30
0.000000
  70
    32
  0
VERTEX
  8
0
  5
1615B
 10
283.278
 20
172.493
 30
0.000000
  70
    32
  0
VERTEX
  8
0
  5
1615C
 10
283.278
 20
172.486
 30
0.000000
  70
    32
  0
VERTEX
  8
0
  5
1615D
 10
283.279
 20
172.479
 30
0.000000
  70
    32
  0
VERTEX
  8
0
  5
1615E
 10
283.280
 20
172.472
 30
0.000000
  70
    32
  0
VERTEX
  8
0
  5
1615F
 10
283.281
 20
172.465
 30
0.000000
  70
    32
  0
VERTEX
  8
0
  5
16160
 10
283.283
 20
172.458
 30
0.000000
  70
    32
  0
VERTEX
  8
0
  5
16161
 10
283.285
 20
172.450
 30
0.000000
  70
    32
  0
VERTEX
  8
0
  5
16162
 10
283.287
 20
172.443
 30
0.000000
  70
    32
  0
VERTEX
  8
0
  5
16163
 10
283.290
 20
172.436
 30
0.000000
  70
    32
  0
VERTEX
  8
0
  5
16164
 10
283.293
 20
172.429
 30
0.000000
  70
    32
  0
VERTEX
  8
0
  5
16165
 10
283.296
 20
172.422
 30
0.000000
  70
    32
  0
VERTEX
  8
0
  5
16166
 10
283.299
 20
172.415
 30
0.000000
  70
    32
  0
VERTEX
  8
0
  5
16167
 10
283.303
 20
172.408
 30
0.000000
  70
    32
  0
VERTEX
  8
0
  5
16168
 10
283.307
 20
172.401
 30
0.000000
  70
    32
  0
VERTEX
  8
0
  5
16169
 10
283.311
 20
172.394
 30
0.000000
  70
    32
  0
VERTEX
  8
0
  5
1616A
 10
283.316
 20
172.387
 30
0.000000
  70
    32
  0
VERTEX
  8
0
  5
1616B
 10
283.321
 20
172.380
 30
0.000000
  70
    32
  0
VERTEX
  8
0
  5
1616C
 10
283.326
 20
172.374
 30
0.000000
  70
    32
  0
VERTEX
  8
0
  5
1616D
 10
283.332
 20
172.367
 30
0.000000
  70
    32
  0
VERTEX
  8
0
  5
1616E
 10
283.337
 20
172.360
 30
0.000000
  70
    32
  0
VERTEX
  8
0
  5
1616F
 10
283.344
 20
172.353
 30
0.000000
  70
    32
  0
VERTEX
  8
0
  5
16170
 10
283.350
 20
172.346
 30
0.000000
  70
    32
  0
VERTEX
  8
0
  5
16171
 10
283.357
 20
172.339
 30
0.000000
  70
    32
  0
VERTEX
  8
0
  5
16172
 10
283.364
 20
172.332
 30
0.000000
  70
    32
  0
VERTEX
  8
0
  5
16173
 10
283.371
 20
172.326
 30
0.000000
  70
    32
  0
VERTEX
  8
0
  5
16174
 10
283.378
 20
172.319
 30
0.000000
  70
    32
  0
VERTEX
  8
0
  5
16175
 10
283.386
 20
172.312
 30
0.000000
  70
    32
  0
VERTEX
  8
0
  5
16176
 10
283.394
 20
172.305
 30
0.000000
  70
    32
  0
VERTEX
  8
0
  5
16177
 10
283.403
 20
172.299
 30
0.000000
  70
    32
  0
VERTEX
  8
0
  5
16178
 10
283.412
 20
172.292
 30
0.000000
  70
    32
  0
VERTEX
  8
0
  5
16179
 10
283.420
 20
172.286
 30
0.000000
  70
    32
  0
VERTEX
  8
0
  5
1617A
 10
283.430
 20
172.279
 30
0.000000
  70
    32
  0
VERTEX
  8
0
  5
1617B
 10
283.439
 20
172.273
 30
0.000000
  70
    32
  0
VERTEX
  8
0
  5
1617C
 10
283.449
 20
172.266
 30
0.000000
  70
    32
  0
VERTEX
  8
0
  5
1617D
 10
283.459
 20
172.260
 30
0.000000
  70
    32
  0
VERTEX
  8
0
  5
1617E
 10
283.470
 20
172.253
 30
0.000000
  70
    32
  0
VERTEX
  8
0
  5
1617F
 10
283.480
 20
172.247
 30
0.000000
  70
    32
  0
VERTEX
  8
0
  5
16180
 10
283.491
 20
172.240
 30
0.000000
  70
    32
  0
VERTEX
  8
0
  5
16181
 10
283.502
 20
172.234
 30
0.000000
  70
    32
  0
VERTEX
  8
0
  5
16182
 10
283.514
 20
172.228
 30
0.000000
  70
    32
  0
VERTEX
  8
0
  5
16183
 10
283.525
 20
172.222
 30
0.000000
  70
    32
  0
VERTEX
  8
0
  5
16184
 10
283.537
 20
172.215
 30
0.000000
  70
    32
  0
VERTEX
  8
0
  5
16185
 10
283.550
 20
172.209
 30
0.000000
  70
    32
  0
VERTEX
  8
0
  5
16186
 10
283.562
 20
172.203
 30
0.000000
  70
    32
  0
VERTEX
  8
0
  5
16187
 10
283.575
 20
172.197
 30
0.000000
  70
    32
  0
VERTEX
  8
0
  5
16188
 10
283.588
 20
172.191
 30
0.000000
  70
    32
  0
VERTEX
  8
0
  5
16189
 10
283.601
 20
172.185
 30
0.000000
  70
    32
  0
VERTEX
  8
0
  5
1618A
 10
283.615
 20
172.179
 30
0.000000
  70
    32
  0
VERTEX
  8
0
  5
1618B
 10
283.628
 20
172.173
 30
0.000000
  70
    32
  0
VERTEX
  8
0
  5
1618C
 10
283.642
 20
172.168
 30
0.000000
  70
    32
  0
VERTEX
  8
0
  5
1618D
 10
283.657
 20
172.162
 30
0.000000
  70
    32
  0
VERTEX
  8
0
  5
1618E
 10
283.671
 20
172.156
 30
0.000000
  70
    32
  0
VERTEX
  8
0
  5
1618F
 10
283.686
 20
172.150
 30
0.000000
  70
    32
  0
VERTEX
  8
0
  5
16190
 10
283.701
 20
172.145
 30
0.000000
  70
    32
  0
VERTEX
  8
0
  5
16191
 10
283.716
 20
172.139
 30
0.000000
  70
    32
  0
VERTEX
  8
0
  5
16192
 10
283.731
 20
172.134
 30
0.000000
  70
    32
  0
VERTEX
  8
0
  5
16193
 10
283.747
 20
172.128
 30
0.000000
  70
    32
  0
VERTEX
  8
0
  5
16194
 10
283.763
 20
172.123
 30
0.000000
  70
    32
  0
VERTEX
  8
0
  5
16195
 10
283.779
 20
172.118
 30
0.000000
  70
    32
  0
VERTEX
  8
0
  5
16196
 10
283.796
 20
172.112
 30
0.000000
  70
    32
  0
VERTEX
  8
0
  5
16197
 10
283.812
 20
172.107
 30
0.000000
  70
    32
  0
VERTEX
  8
0
  5
16198
 10
283.829
 20
172.102
 30
0.000000
  70
    32
  0
VERTEX
  8
0
  5
16199
 10
283.846
 20
172.097
 30
0.000000
  70
    32
  0
VERTEX
  8
0
  5
1619A
 10
283.863
 20
172.092
 30
0.000000
  70
    32
  0
VERTEX
  8
0
  5
1619B
 10
283.881
 20
172.087
 30
0.000000
  70
    32
  0
VERTEX
  8
0
  5
1619C
 10
283.898
 20
172.082
 30
0.000000
  70
    32
  0
VERTEX
  8
0
  5
1619D
 10
283.916
 20
172.077
 30
0.000000
  70
    32
  0
VERTEX
  8
0
  5
1619E
 10
283.934
 20
172.072
 30
0.000000
  70
    32
  0
VERTEX
  8
0
  5
1619F
 10
283.953
 20
172.067
 30
0.000000
  70
    32
  0
VERTEX
  8
0
  5
161A0
 10
283.971
 20
172.063
 30
0.000000
  70
    32
  0
VERTEX
  8
0
  5
161A1
 10
283.990
 20
172.058
 30
0.000000
  70
    32
  0
VERTEX
  8
0
  5
161A2
 10
284.009
 20
172.054
 30
0.000000
  70
    32
  0
VERTEX
  8
0
  5
161A3
 10
284.028
 20
172.049
 30
0.000000
  70
    32
  0
VERTEX
  8
0
  5
161A4
 10
284.047
 20
172.045
 30
0.000000
  70
    32
  0
VERTEX
  8
0
  5
161A5
 10
284.066
 20
172.041
 30
0.000000
  70
    32
  0
VERTEX
  8
0
  5
161A6
 10
284.086
 20
172.036
 30
0.000000
  70
    32
  0
VERTEX
  8
0
  5
161A7
 10
284.106
 20
172.032
 30
0.000000
  70
    32
  0
VERTEX
  8
0
  5
161A8
 10
284.126
 20
172.028
 30
0.000000
  70
    32
  0
VERTEX
  8
0
  5
161A9
 10
284.146
 20
172.024
 30
0.000000
  70
    32
  0
VERTEX
  8
0
  5
161AA
 10
284.166
 20
172.020
 30
0.000000
  70
    32
  0
VERTEX
  8
0
  5
161AB
 10
284.187
 20
172.016
 30
0.000000
  70
    32
  0
VERTEX
  8
0
  5
161AC
 10
284.208
 20
172.012
 30
0.000000
  70
    32
  0
VERTEX
  8
0
  5
161AD
 10
284.228
 20
172.008
 30
0.000000
  70
    32
  0
VERTEX
  8
0
  5
161AE
 10
284.249
 20
172.005
 30
0.000000
  70
    32
  0
VERTEX
  8
0
  5
161AF
 10
284.270
 20
172.001
 30
0.000000
  70
    32
  0
VERTEX
  8
0
  5
161B0
 10
284.292
 20
171.998
 30
0.000000
  70
    32
  0
VERTEX
  8
0
  5
161B1
 10
284.313
 20
171.994
 30
0.000000
  70
    32
  0
VERTEX
  8
0
  5
161B2
 10
284.335
 20
171.991
 30
0.000000
  70
    32
  0
VERTEX
  8
0
  5
161B3
 10
284.356
 20
171.988
 30
0.000000
  70
    32
  0
VERTEX
  8
0
  5
161B4
 10
284.378
 20
171.984
 30
0.000000
  70
    32
  0
VERTEX
  8
0
  5
161B5
 10
284.400
 20
171.981
 30
0.000000
  70
    32
  0
VERTEX
  8
0
  5
161B6
 10
284.422
 20
171.978
 30
0.000000
  70
    32
  0
VERTEX
  8
0
  5
161B7
 10
284.445
 20
171.975
 30
0.000000
  70
    32
  0
VERTEX
  8
0
  5
161B8
 10
284.467
 20
171.972
 30
0.000000
  70
    32
  0
VERTEX
  8
0
  5
161B9
 10
284.490
 20
171.969
 30
0.000000
  70
    32
  0
VERTEX
  8
0
  5
161BA
 10
284.512
 20
171.967
 30
0.000000
  70
    32
  0
VERTEX
  8
0
  5
161BB
 10
284.535
 20
171.964
 30
0.000000
  70
    32
  0
VERTEX
  8
0
  5
161BC
 10
284.558
 20
171.961
 30
0.000000
  70
    32
  0
VERTEX
  8
0
  5
161BD
 10
284.581
 20
171.959
 30
0.000000
  70
    32
  0
VERTEX
  8
0
  5
161BE
 10
284.604
 20
171.956
 30
0.000000
  70
    32
  0
VERTEX
  8
0
  5
161BF
 10
284.627
 20
171.954
 30
0.000000
  70
    32
  0
VERTEX
  8
0
  5
161C0
 10
284.650
 20
171.952
 30
0.000000
  70
    32
  0
VERTEX
  8
0
  5
161C1
 10
284.673
 20
171.950
 30
0.000000
  70
    32
  0
VERTEX
  8
0
  5
161C2
 10
284.697
 20
171.948
 30
0.000000
  70
    32
  0
VERTEX
  8
0
  5
161C3
 10
284.720
 20
171.945
 30
0.000000
  70
    32
  0
VERTEX
  8
0
  5
161C4
 10
284.744
 20
171.944
 30
0.000000
  70
    32
  0
VERTEX
  8
0
  5
161C5
 10
284.768
 20
171.942
 30
0.000000
  70
    32
  0
VERTEX
  8
0
  5
161C6
 10
284.792
 20
171.940
 30
0.000000
  70
    32
  0
VERTEX
  8
0
  5
161C7
 10
284.815
 20
171.938
 30
0.000000
  70
    32
  0
VERTEX
  8
0
  5
161C8
 10
284.839
 20
171.937
 30
0.000000
  70
    32
  0
VERTEX
  8
0
  5
161C9
 10
284.863
 20
171.935
 30
0.000000
  70
    32
  0
VERTEX
  8
0
  5
161CA
 10
284.887
 20
171.934
 30
0.000000
  70
    32
  0
VERTEX
  8
0
  5
161CB
 10
284.911
 20
171.932
 30
0.000000
  70
    32
  0
VERTEX
  8
0
  5
161CC
 10
284.936
 20
171.931
 30
0.000000
  70
    32
  0
VERTEX
  8
0
  5
161CD
 10
284.960
 20
171.930
 30
0.000000
  70
    32
  0
VERTEX
  8
0
  5
161CE
 10
284.984
 20
171.929
 30
0.000000
  70
    32
  0
VERTEX
  8
0
  5
161CF
 10
285.008
 20
171.928
 30
0.000000
  70
    32
  0
VERTEX
  8
0
  5
161D0
 10
285.033
 20
171.927
 30
0.000000
  70
    32
  0
VERTEX
  8
0
  5
161D1
 10
285.057
 20
171.926
 30
0.000000
  70
    32
  0
VERTEX
  8
0
  5
161D2
 10
285.081
 20
171.925
 30
0.000000
  70
    32
  0
VERTEX
  8
0
  5
161D3
 10
285.106
 20
171.925
 30
0.000000
  70
    32
  0
VERTEX
  8
0
  5
161D4
 10
285.130
 20
171.924
 30
0.000000
  70
    32
  0
VERTEX
  8
0
  5
161D5
 10
285.155
 20
171.924
 30
0.000000
  70
    32
  0
VERTEX
  8
0
  5
161D6
 10
285.179
 20
171.923
 30
0.000000
  70
    32
  0
VERTEX
  8
0
  5
161D7
 10
285.204
 20
171.923
 30
0.000000
  70
    32
  0
VERTEX
  8
0
  5
161D8
 10
285.228
 20
171.923
 30
0.000000
  70
    32
  0
VERTEX
  8
0
  5
161D9
 10
285.253
 20
171.923
 30
0.000000
  70
    32
  0
VERTEX
  8
0
  5
161DA
 10
285.278
 20
171.923
 30
0.000000
  70
    32
  0
SEQEND
  8
0
  5
161DB
  0
LINE
  5
CA15
  8
0
 10
283.27751004137122
 20
145.50000300398099
 30
0.0
 11
283.77751105465018
 21
145.0000029802323
 31
0.0
  0
LINE
  5
CA16
  8
0
 10
298.27751110307901
 20
145.50000300398099
 30
0.0
 11
313.27751076780282
 21
145.50000300398099
 31
0.0
  0
LINE
  5
CA1B
  8
0
 10
328.27751182951062
 20
145.50000300398099
 30
0.0
 11
327.7775108162316
 21
145.0000029802323
 31
0.0
  0
POLYLINE
  5
CA1D
  8
0
 10
326.27751093544089
 20
171.92265271104256
 30
0.0
 66
     1
 70
     8
  0
VERTEX
  8
0
  5
161DC
 10
326.278
 20
171.923
 30
0.000000
  70
    32
  0
VERTEX
  8
0
  5
161DD
 10
326.302
 20
171.923
 30
0.000000
  70
    32
  0
VERTEX
  8
0
  5
161DE
 10
326.327
 20
171.923
 30
0.000000
  70
    32
  0
VERTEX
  8
0
  5
161DF
 10
326.351
 20
171.923
 30
0.000000
  70
    32
  0
VERTEX
  8
0
  5
161E0
 10
326.376
 20
171.923
 30
0.000000
  70
    32
  0
VERTEX
  8
0
  5
161E1
 10
326.400
 20
171.924
 30
0.000000
  70
    32
  0
VERTEX
  8
0
  5
161E2
 10
326.425
 20
171.924
 30
0.000000
  70
    32
  0
VERTEX
  8
0
  5
161E3
 10
326.449
 20
171.925
 30
0.000000
  70
    32
  0
VERTEX
  8
0
  5
161E4
 10
326.474
 20
171.925
 30
0.000000
  70
    32
  0
VERTEX
  8
0
  5
161E5
 10
326.498
 20
171.926
 30
0.000000
  70
    32
  0
VERTEX
  8
0
  5
161E6
 10
326.522
 20
171.927
 30
0.000000
  70
    32
  0
VERTEX
  8
0
  5
161E7
 10
326.547
 20
171.928
 30
0.000000
  70
    32
  0
VERTEX
  8
0
  5
161E8
 10
326.571
 20
171.929
 30
0.000000
  70
    32
  0
VERTEX
  8
0
  5
161E9
 10
326.595
 20
171.930
 30
0.000000
  70
    32
  0
VERTEX
  8
0
  5
161EA
 10
326.619
 20
171.931
 30
0.000000
  70
    32
  0
VERTEX
  8
0
  5
161EB
 10
326.644
 20
171.932
 30
0.000000
  70
    32
  0
VERTEX
  8
0
  5
161EC
 10
326.668
 20
171.934
 30
0.000000
  70
    32
  0
VERTEX
  8
0
  5
161ED
 10
326.692
 20
171.935
 30
0.000000
  70
    32
  0
VERTEX
  8
0
  5
161EE
 10
326.716
 20
171.937
 30
0.000000
  70
    32
  0
VERTEX
  8
0
  5
161EF
 10
326.740
 20
171.938
 30
0.000000
  70
    32
  0
VERTEX
  8
0
  5
161F0
 10
326.763
 20
171.940
 30
0.000000
  70
    32
  0
VERTEX
  8
0
  5
161F1
 10
326.787
 20
171.942
 30
0.000000
  70
    32
  0
VERTEX
  8
0
  5
161F2
 10
326.811
 20
171.944
 30
0.000000
  70
    32
  0
VERTEX
  8
0
  5
161F3
 10
326.835
 20
171.945
 30
0.000000
  70
    32
  0
VERTEX
  8
0
  5
161F4
 10
326.858
 20
171.948
 30
0.000000
  70
    32
  0
VERTEX
  8
0
  5
161F5
 10
326.882
 20
171.950
 30
0.000000
  70
    32
  0
VERTEX
  8
0
  5
161F6
 10
326.905
 20
171.952
 30
0.000000
  70
    32
  0
VERTEX
  8
0
  5
161F7
 10
326.928
 20
171.954
 30
0.000000
  70
    32
  0
VERTEX
  8
0
  5
161F8
 10
326.951
 20
171.956
 30
0.000000
  70
    32
  0
VERTEX
  8
0
  5
161F9
 10
326.974
 20
171.959
 30
0.000000
  70
    32
  0
VERTEX
  8
0
  5
161FA
 10
326.997
 20
171.961
 30
0.000000
  70
    32
  0
VERTEX
  8
0
  5
161FB
 10
327.020
 20
171.964
 30
0.000000
  70
    32
  0
VERTEX
  8
0
  5
161FC
 10
327.043
 20
171.967
 30
0.000000
  70
    32
  0
VERTEX
  8
0
  5
161FD
 10
327.065
 20
171.969
 30
0.000000
  70
    32
  0
VERTEX
  8
0
  5
161FE
 10
327.088
 20
171.972
 30
0.000000
  70
    32
  0
VERTEX
  8
0
  5
161FF
 10
327.110
 20
171.975
 30
0.000000
  70
    32
  0
VERTEX
  8
0
  5
16200
 10
327.133
 20
171.978
 30
0.000000
  70
    32
  0
VERTEX
  8
0
  5
16201
 10
327.155
 20
171.981
 30
0.000000
  70
    32
  0
VERTEX
  8
0
  5
16202
 10
327.177
 20
171.984
 30
0.000000
  70
    32
  0
VERTEX
  8
0
  5
16203
 10
327.199
 20
171.988
 30
0.000000
  70
    32
  0
VERTEX
  8
0
  5
16204
 10
327.220
 20
171.991
 30
0.000000
  70
    32
  0
VERTEX
  8
0
  5
16205
 10
327.242
 20
171.994
 30
0.000000
  70
    32
  0
VERTEX
  8
0
  5
16206
 10
327.263
 20
171.998
 30
0.000000
  70
    32
  0
VERTEX
  8
0
  5
16207
 10
327.285
 20
172.001
 30
0.000000
  70
    32
  0
VERTEX
  8
0
  5
16208
 10
327.306
 20
172.005
 30
0.000000
  70
    32
  0
VERTEX
  8
0
  5
16209
 10
327.327
 20
172.008
 30
0.000000
  70
    32
  0
VERTEX
  8
0
  5
1620A
 10
327.348
 20
172.012
 30
0.000000
  70
    32
  0
VERTEX
  8
0
  5
1620B
 10
327.368
 20
172.016
 30
0.000000
  70
    32
  0
VERTEX
  8
0
  5
1620C
 10
327.389
 20
172.020
 30
0.000000
  70
    32
  0
VERTEX
  8
0
  5
1620D
 10
327.409
 20
172.024
 30
0.000000
  70
    32
  0
VERTEX
  8
0
  5
1620E
 10
327.429
 20
172.028
 30
0.000000
  70
    32
  0
VERTEX
  8
0
  5
1620F
 10
327.449
 20
172.032
 30
0.000000
  70
    32
  0
VERTEX
  8
0
  5
16210
 10
327.469
 20
172.036
 30
0.000000
  70
    32
  0
VERTEX
  8
0
  5
16211
 10
327.489
 20
172.041
 30
0.000000
  70
    32
  0
VERTEX
  8
0
  5
16212
 10
327.508
 20
172.045
 30
0.000000
  70
    32
  0
VERTEX
  8
0
  5
16213
 10
327.527
 20
172.049
 30
0.000000
  70
    32
  0
VERTEX
  8
0
  5
16214
 10
327.546
 20
172.054
 30
0.000000
  70
    32
  0
VERTEX
  8
0
  5
16215
 10
327.565
 20
172.058
 30
0.000000
  70
    32
  0
VERTEX
  8
0
  5
16216
 10
327.584
 20
172.063
 30
0.000000
  70
    32
  0
VERTEX
  8
0
  5
16217
 10
327.602
 20
172.067
 30
0.000000
  70
    32
  0
VERTEX
  8
0
  5
16218
 10
327.621
 20
172.072
 30
0.000000
  70
    32
  0
VERTEX
  8
0
  5
16219
 10
327.639
 20
172.077
 30
0.000000
  70
    32
  0
VERTEX
  8
0
  5
1621A
 10
327.657
 20
172.082
 30
0.000000
  70
    32
  0
VERTEX
  8
0
  5
1621B
 10
327.674
 20
172.087
 30
0.000000
  70
    32
  0
VERTEX
  8
0
  5
1621C
 10
327.692
 20
172.092
 30
0.000000
  70
    32
  0
VERTEX
  8
0
  5
1621D
 10
327.709
 20
172.097
 30
0.000000
  70
    32
  0
VERTEX
  8
0
  5
1621E
 10
327.726
 20
172.102
 30
0.000000
  70
    32
  0
VERTEX
  8
0
  5
1621F
 10
327.743
 20
172.107
 30
0.000000
  70
    32
  0
VERTEX
  8
0
  5
16220
 10
327.759
 20
172.112
 30
0.000000
  70
    32
  0
VERTEX
  8
0
  5
16221
 10
327.776
 20
172.118
 30
0.000000
  70
    32
  0
VERTEX
  8
0
  5
16222
 10
327.792
 20
172.123
 30
0.000000
  70
    32
  0
VERTEX
  8
0
  5
16223
 10
327.808
 20
172.128
 30
0.000000
  70
    32
  0
VERTEX
  8
0
  5
16224
 10
327.824
 20
172.134
 30
0.000000
  70
    32
  0
VERTEX
  8
0
  5
16225
 10
327.839
 20
172.139
 30
0.000000
  70
    32
  0
VERTEX
  8
0
  5
16226
 10
327.854
 20
172.145
 30
0.000000
  70
    32
  0
VERTEX
  8
0
  5
16227
 10
327.869
 20
172.150
 30
0.000000
  70
    32
  0
VERTEX
  8
0
  5
16228
 10
327.884
 20
172.156
 30
0.000000
  70
    32
  0
VERTEX
  8
0
  5
16229
 10
327.898
 20
172.162
 30
0.000000
  70
    32
  0
VERTEX
  8
0
  5
1622A
 10
327.913
 20
172.168
 30
0.000000
  70
    32
  0
VERTEX
  8
0
  5
1622B
 10
327.927
 20
172.173
 30
0.000000
  70
    32
  0
VERTEX
  8
0
  5
1622C
 10
327.940
 20
172.179
 30
0.000000
  70
    32
  0
VERTEX
  8
0
  5
1622D
 10
327.954
 20
172.185
 30
0.000000
  70
    32
  0
VERTEX
  8
0
  5
1622E
 10
327.967
 20
172.191
 30
0.000000
  70
    32
  0
VERTEX
  8
0
  5
1622F
 10
327.980
 20
172.197
 30
0.000000
  70
    32
  0
VERTEX
  8
0
  5
16230
 10
327.993
 20
172.203
 30
0.000000
  70
    32
  0
VERTEX
  8
0
  5
16231
 10
328.005
 20
172.209
 30
0.000000
  70
    32
  0
VERTEX
  8
0
  5
16232
 10
328.018
 20
172.215
 30
0.000000
  70
    32
  0
VERTEX
  8
0
  5
16233
 10
328.030
 20
172.222
 30
0.000000
  70
    32
  0
VERTEX
  8
0
  5
16234
 10
328.041
 20
172.228
 30
0.000000
  70
    32
  0
VERTEX
  8
0
  5
16235
 10
328.053
 20
172.234
 30
0.000000
  70
    32
  0
VERTEX
  8
0
  5
16236
 10
328.064
 20
172.240
 30
0.000000
  70
    32
  0
VERTEX
  8
0
  5
16237
 10
328.075
 20
172.247
 30
0.000000
  70
    32
  0
VERTEX
  8
0
  5
16238
 10
328.085
 20
172.253
 30
0.000000
  70
    32
  0
VERTEX
  8
0
  5
16239
 10
328.096
 20
172.260
 30
0.000000
  70
    32
  0
VERTEX
  8
0
  5
1623A
 10
328.106
 20
172.266
 30
0.000000
  70
    32
  0
VERTEX
  8
0
  5
1623B
 10
328.116
 20
172.273
 30
0.000000
  70
    32
  0
VERTEX
  8
0
  5
1623C
 10
328.125
 20
172.279
 30
0.000000
  70
    32
  0
VERTEX
  8
0
  5
1623D
 10
328.135
 20
172.286
 30
0.000000
  70
    32
  0
VERTEX
  8
0
  5
1623E
 10
328.143
 20
172.292
 30
0.000000
  70
    32
  0
VERTEX
  8
0
  5
1623F
 10
328.152
 20
172.299
 30
0.000000
  70
    32
  0
VERTEX
  8
0
  5
16240
 10
328.161
 20
172.305
 30
0.000000
  70
    32
  0
VERTEX
  8
0
  5
16241
 10
328.169
 20
172.312
 30
0.000000
  70
    32
  0
VERTEX
  8
0
  5
16242
 10
328.177
 20
172.319
 30
0.000000
  70
    32
  0
VERTEX
  8
0
  5
16243
 10
328.184
 20
172.326
 30
0.000000
  70
    32
  0
VERTEX
  8
0
  5
16244
 10
328.191
 20
172.332
 30
0.000000
  70
    32
  0
VERTEX
  8
0
  5
16245
 10
328.198
 20
172.339
 30
0.000000
  70
    32
  0
VERTEX
  8
0
  5
16246
 10
328.205
 20
172.346
 30
0.000000
  70
    32
  0
VERTEX
  8
0
  5
16247
 10
328.211
 20
172.353
 30
0.000000
  70
    32
  0
VERTEX
  8
0
  5
16248
 10
328.218
 20
172.360
 30
0.000000
  70
    32
  0
VERTEX
  8
0
  5
16249
 10
328.223
 20
172.367
 30
0.000000
  70
    32
  0
VERTEX
  8
0
  5
1624A
 10
328.229
 20
172.374
 30
0.000000
  70
    32
  0
VERTEX
  8
0
  5
1624B
 10
328.234
 20
172.380
 30
0.000000
  70
    32
  0
VERTEX
  8
0
  5
1624C
 10
328.239
 20
172.387
 30
0.000000
  70
    32
  0
VERTEX
  8
0
  5
1624D
 10
328.244
 20
172.394
 30
0.000000
  70
    32
  0
VERTEX
  8
0
  5
1624E
 10
328.248
 20
172.401
 30
0.000000
  70
    32
  0
VERTEX
  8
0
  5
1624F
 10
328.252
 20
172.408
 30
0.000000
  70
    32
  0
VERTEX
  8
0
  5
16250
 10
328.256
 20
172.415
 30
0.000000
  70
    32
  0
VERTEX
  8
0
  5
16251
 10
328.259
 20
172.422
 30
0.000000
  70
    32
  0
VERTEX
  8
0
  5
16252
 10
328.262
 20
172.429
 30
0.000000
  70
    32
  0
VERTEX
  8
0
  5
16253
 10
328.265
 20
172.436
 30
0.000000
  70
    32
  0
VERTEX
  8
0
  5
16254
 10
328.268
 20
172.443
 30
0.000000
  70
    32
  0
VERTEX
  8
0
  5
16255
 10
328.270
 20
172.450
 30
0.000000
  70
    32
  0
VERTEX
  8
0
  5
16256
 10
328.272
 20
172.458
 30
0.000000
  70
    32
  0
VERTEX
  8
0
  5
16257
 10
328.274
 20
172.465
 30
0.000000
  70
    32
  0
VERTEX
  8
0
  5
16258
 10
328.275
 20
172.472
 30
0.000000
  70
    32
  0
VERTEX
  8
0
  5
16259
 10
328.276
 20
172.479
 30
0.000000
  70
    32
  0
VERTEX
  8
0
  5
1625A
 10
328.277
 20
172.486
 30
0.000000
  70
    32
  0
VERTEX
  8
0
  5
1625B
 10
328.277
 20
172.493
 30
0.000000
  70
    32
  0
VERTEX
  8
0
  5
1625C
 10
328.278
 20
172.500
 30
0.000000
  70
    32
  0
SEQEND
  8
0
  5
1625D
  0
LINE
  5
CA1E
  8
0
 10
328.27751093544089
 20
174.9226527110427
 30
0.0
 11
328.27751182951062
 21
145.50000300398099
 31
0.0
  0
CIRCLE
  5
CA1F
  8
0
 10
290.77751093544089
 20
163.00000298023221
 30
0.0
 40
4.25
  0
LINE
  5
CA30
  8
0
 10
326.83968947269051
 20
176.33013024926191
 30
0.0
 11
327.7775108162316
 21
175.78867793083191
 31
0.0
  0
ARC
  5
CA33
  8
0
 10
327.27751093544089
 20
174.9226527110427
 30
0.0
 40
1.0
 50
0.0
 51
60.000000000000533
  0
ARC
  5
CA34
  8
0
 10
284.27751093544089
 20
174.9226527110427
 30
0.0
 40
1.0
 50
119.9999999999994
 51
180.0
  0
LINE
  5
CA36
  8
0
 10
283.77751105465018
 20
175.78867793083191
 30
0.0
 11
284.71533239819132
 21
176.33013024926191
 31
0.0
  0
ARC
  5
CA39
  8
0
 10
286.14353633922519
 20
176.00000298023221
 30
0.0
 40
1.0
 50
90.0
 51
119.9999999999994
  0
POLYLINE
  5
CA3A
  8
0
 66
     1
 10
0.0
 20
0.0
 30
0.0
 70
   128
  0
VERTEX
  5
15F38
  8
0
 10
284.71533239819132
 20
176.33013024926191
 30
0.0
  0
VERTEX
  5
15F39
  8
0
 10
285.11615873314457
 20
176.56154528260231
 30
0.0
  0
VERTEX
  5
15F3A
  8
0
 10
285.40746339596831
 20
176.729730963707
 30
0.0
  0
VERTEX
  5
15F3B
  8
0
 10
285.58426381088822
 20
176.8318076431751
 30
0.0
  0
VERTEX
  5
15F3C
  8
0
 10
285.64353690482699
 20
176.8660281598568
 30
0.0
  0
SEQEND
  5
15F3D
  8
0
  0
LINE
  5
CA3B
  8
0
 10
286.1435360554608
 20
177.00000450015071
 30
0.0
 11
325.41148581542097
 21
177.00000450015071
 31
0.0
  0
ARC
  5
CA3D
  8
0
 10
325.41148553165641
 20
176.00000298023221
 30
0.0
 40
1.0
 50
60.000000000000533
 51
90.0
  0
POLYLINE
  5
CA3E
  8
0
 66
     1
 10
0.0
 20
0.0
 30
0.0
 70
   128
  0
VERTEX
  5
15F3E
  8
0
 10
325.91148496605479
 20
176.8660281598568
 30
0.0
  0
VERTEX
  5
15F3F
  8
0
 10
325.97075805999361
 20
176.8318076431751
 30
0.0
  0
VERTEX
  5
15F40
  8
0
 10
326.14755847491352
 20
176.729730963707
 30
0.0
  0
VERTEX
  5
15F41
  8
0
 10
326.4388631377372
 20
176.56154528260231
 30
0.0
  0
VERTEX
  5
15F42
  8
0
 10
326.83968947269051
 20
176.33013024926191
 30
0.0
  0
SEQEND
  5
15F43
  8
0
  0
LINE
  5
CA70
  8
0
 10
342.7775114122781
 20
145.0000029802323
 30
0.0
 11
343.27751242555701
 21
145.50000300398099
 31
0.0
  0
LINE
  5
CA73
  8
0
 10
268.27750944532482
 20
145.50000300398099
 30
0.0
 11
268.77751045860367
 21
145.0000029802323
 31
0.0
  0
LINE
  5
CA78
  8
0
 10
343.27751242555701
 20
152.0000031962991
 30
0.0
 11
343.27751242555701
 21
145.50000300398099
 31
0.0
  0
LINE
  5
CA7C
  8
0
 10
268.27750944532482
 20
145.50000300398099
 30
0.0
 11
268.27750944532482
 21
152.0000031962991
 31
0.0
  0
ARC
  5
CA7F
  8
0
 10
269.27751093544089
 20
152.00000298023221
 30
0.0
 40
1.0
 50
90.0
 51
180.0
  0
LINE
  5
CA80
  8
0
 10
269.27751147188269
 20
153.00000336021191
 30
0.0
 11
283.27751026927461
 21
153.00000336021191
 31
0.0
  0
ARC
  5
CA83
  8
0
 10
342.27751093544089
 20
152.00000298023221
 30
0.0
 40
1.0
 50
0.0
 51
90.0
  0
LINE
  5
CA84
  8
0
 10
328.2775116016071
 20
153.00000336021191
 30
0.0
 11
342.27751039899908
 21
153.00000336021191
 31
0.0
  0
LINE
  5
CAC8
  8
0
 10
326.28105101582992
 20
171.9226536154747
 30
0.0
 11
309.32302608606648
 21
171.9226536154747
 31
0.0
  0
ARC
  5
CBA8
  8
0
 10
179.27751111425459
 20
152.0000029802323
 30
0.0
 40
1.0
 50
0.0
 51
90.0
  0
ARC
  5
CBAC
  8
0
 10
161.27751111425479
 20
152.0000029802323
 30
0.0
 40
1.0
 50
90.0
 51
180.0
  0
LINE
  5
CBAE
  8
0
 10
180.27751066722001
 20
152.0000031962991
 30
0.0
 11
180.27751066722001
 21
145.50000300398099
 31
0.0
  0
LINE
  5
CBB1
  8
0
 10
160.27751111425479
 20
145.50000300398099
 30
0.0
 11
160.27751111425479
 21
154.0000025928021
 31
0.0
  0
LINE
  5
CBB2
  8
0
 10
180.27751066722001
 20
145.50000300398099
 30
0.0
 11
179.7775115165862
 21
145.0000029802323
 31
0.0
  0
LINE
  5
CBB4
  8
0
 10
207.7775105182084
 20
145.0000029802323
 30
0.0
 11
160.77751113800349
 21
145.0000029802323
 31
0.0
  0
LINE
  5
CBB5
  8
0
 10
160.77751113800349
 20
145.0000029802323
 30
0.0
 11
160.27751111425479
 21
145.50000300398099
 31
0.0
  0
ARC
  5
CBC8
  8
0
 10
182.74946751866349
 20
142.74647564451459
 30
0.0
 40
10.33342151483745
 50
63.572085076203948
 51
82.870611070285534
  0
LINE
  5
CBC9
  8
0
 10
161.27751111425479
 20
153.0000029802323
 30
0.0
 11
184.03195322491251
 21
153.00000336021191
 31
0.0
  0
LINE
  5
CBCA
  8
0
 10
187.3485791776331
 20
152.0000031962991
 30
0.0
 11
187.3485791776329
 21
145.0000029802323
 31
0.0
  0
LINE
  5
CBCF
  8
0
 10
162.9846178740265
 20
172.00000368058679
 30
0.0
 11
162.9846178740265
 21
174.17849756777289
 31
0.0
  0
LINE
  5
CBD3
  8
0
 10
208.27751153148731
 20
145.50000300398099
 30
0.0
 11
207.7775105182084
 21
145.0000029802323
 31
0.0
  0
ARC
  5
CBD8
  8
0
 10
165.49395862280511
 20
175.4944551687154
 30
0.0
 40
0.3811616705826553
 50
50.52577712941261
 51
105.1637935420199
  0
ARC
  5
CBDA
  8
0
 10
163.74314969662831
 20
174.42456302302949
 30
0.0
 40
0.7974451292535664
 50
119.56312658498101
 51
197.9729078784797
  0
ARC
  5
CBEB
  8
0
 10
207.27751111425459
 20
171.9226527110427
 30
0.0
 40
1.000000000000008
 50
0.0000000000008142
 51
59.999999999999858
  0
LINE
  5
CBED
  8
0
 10
165.73627491481619
 20
175.78867793083191
 30
0.0
 11
202.08135911263551
 21
175.78867793083191
 31
0.0
  0
LINE
  5
CBEF
  8
0
 10
208.27751153148731
 20
173.5000029951334
 30
0.0
 11
208.27751153148731
 21
145.50000300398099
 31
0.0
  0
ARC
  5
CBF0
  8
0
 10
202.33135961927471
 20
175.29593374234369
 30
0.0
 40
0.5525369567811928
 50
63.098417545875137
 51
116.90158245410881
  0
LINE
  5
CBFD
  8
0
 10
160.93549115901689
 20
174.2394881312668
 30
0.0
 11
167.69147769548019
 21
176.69846460223201
 31
0.0
  0
ARC
  5
CBFF
  8
0
 10
199.1435365180391
 20
172.0000029802323
 30
0.0
 40
4.999999999999992
 50
59.999999999999858
 51
90.0
  0
ARC
  5
CC01
  8
0
 10
169.40157827616119
 20
172.0000029802323
 30
0.0
 40
5.0000000000000089
 50
90.0
 51
110.0000000000034
  0
LINE
  5
CC03
  8
0
 10
169.40157872624721
 20
177.00000450015071
 30
0.0
 11
199.14353557862361
 21
177.00000450015071
 31
0.0
  0
LINE
  5
CC09
  8
0
 10
160.27751111425479
 20
172.00000368058679
 30
0.0
 11
160.27751111425479
 21
173.29979471862319
 31
0.0
  0
ARC
  5
CC0B
  8
0
 10
161.27751111425479
 20
173.2997954420226
 30
0.0
 40
1.0
 50
110.0000000000034
 51
180.0
  0
LINE
  5
CD3F
  8
0
 10
175.27751077897869
 20
20.0
 30
0.0
 11
165.27751100249611
 21
20.0
 31
0.0
  0
ARC
  5
CD41
  8
0
 10
165.27751111425479
 20
25.000001490116119
 30
0.0
 40
5.0
 50
180.0
 51
270.0
  0
ARC
  5
CD44
  8
0
 10
175.27751111425459
 20
25.000001490116119
 30
0.0
 40
5.0
 50
270.0
 51
0.0
  0
ARC
  5
CD46
  8
0
 10
172.27751111425459
 20
27.200001490116112
 30
0.0
 40
3.0
 50
270.0
 51
0.0
  0
LINE
  5
CD48
  8
0
 10
168.2775114942344
 20
24.200000315904621
 30
0.0
 11
172.27751121856289
 21
24.200000315904621
 31
0.0
  0
ARC
  5
CD4A
  8
0
 10
168.27751111425479
 20
27.200001490116112
 30
0.0
 40
3.0
 50
180.0
 51
270.0
  0
LINE
  5
CD4C
  8
0
 10
160.27751111425479
 20
25.000002682209011
 30
0.0
 11
160.27751111425479
 21
90.000001490116148
 31
0.0
  0
LINE
  5
CD4F
  8
0
 10
180.27751066722001
 20
27.928933948278431
 30
0.0
 11
180.27751066722001
 21
25.000002682209011
 31
0.0
  0
LINE
  5
CD50
  8
0
 10
175.27751077897869
 20
27.20000080764294
 30
0.0
 11
175.27751077897869
 21
27.80000165104866
 31
0.0
  0
LINE
  5
CD52
  8
0
 10
165.27751100249611
 20
27.80000165104866
 30
0.0
 11
165.27751100249611
 21
27.20000080764294
 31
0.0
  0
ARC
  5
CD54
  8
0
 10
172.27751111425459
 20
27.800001490116099
 30
0.0
 40
3.0000000000000031
 50
0.0
 51
90.0
  0
ARC
  5
CD57
  8
0
 10
168.27751111425479
 20
27.800001490116099
 30
0.0
 40
3.0
 50
90.0
 51
180.0
  0
ARC
  5
CD59
  8
0
 10
185.27751111425459
 20
27.92893367825064
 30
0.0
 40
5.0
 50
134.99999999999599
 51
180.0
  0
LINE
  5
CD5A
  8
0
 10
172.27751121856289
 20
30.80000214278698
 30
0.0
 11
168.2775114942344
 21
30.80000214278698
 31
0.0
  0
LINE
  5
CD5C
  8
0
 10
183.81304585374909
 20
33.535534963011742
 30
0.0
 11
181.74197630025469
 21
31.464467272162441
 31
0.0
  0
ARC
  5
CD5E
  8
0
 10
187.3485789261201
 20
30.000001490116119
 30
0.0
 40
5.0000000000000009
 50
90.0
 51
134.99999999999599
  0
ARC
  5
CD5F
  8
0
 10
206.27751111425459
 20
37.000001490116119
 30
0.0
 40
2.0
 50
270.0
 51
0.0
  0
LINE
  5
CD62
  8
0
 10
206.27751120366179
 20
35.000000596046448
 30
0.0
 11
187.3485791776331
 21
35.000000596046448
 31
0.0
  0
LINE
  5
CD65
  8
0
 10
208.27751153148731
 20
50.000001657754183
 30
0.0
 11
160.27751111425479
 21
50.000001657754183
 31
0.0
  0
LINE
  5
CD68
  8
0
 10
208.27751153148731
 20
78.000002056360273
 30
0.0
 11
208.27751153148731
 21
37.000001490116119
 31
0.0
  0
LINE
  5
CD6B
  8
0
 10
208.27751153148731
 20
65.000001322478056
 30
0.0
 11
160.27751111425479
 21
65.000001322478056
 31
0.0
  0
ARC
  5
CD81
  8
0
 10
206.27751111425459
 20
78.000001490116091
 30
0.0
 40
2.0
 50
0.0
 51
90.0
  0
LINE
  5
CD83
  8
0
 10
187.3485791776331
 20
80.000002384185819
 30
0.0
 11
206.27751120366179
 21
80.000002384185819
 31
0.0
  0
ARC
  5
CD85
  8
0
 10
187.3485789261201
 20
85.000001490116105
 30
0.0
 40
5.0
 50
225.00000000000401
 51
270.0
  0
LINE
  5
CD87
  8
0
 10
181.74197630025469
 20
83.53553570806983
 30
0.0
 11
183.81304585374909
 21
81.464468017220526
 31
0.0
  0
ARC
  5
CD89
  8
0
 10
185.27751111425459
 20
87.071069301981566
 30
0.0
 40
5.0
 50
180.0
 51
225.00000000000401
  0
LINE
  5
CD8B
  8
0
 10
168.2775114942344
 20
84.200000837445288
 30
0.0
 11
172.27751121856289
 21
84.200000837445288
 31
0.0
  0
ARC
  5
CD8E
  8
0
 10
168.27751111425479
 20
87.200001490116094
 30
0.0
 40
3.0
 50
180.0
 51
270.0
  0
ARC
  5
CD90
  8
0
 10
172.27751111425459
 20
87.200001490116094
 30
0.0
 40
3.0
 50
270.0
 51
0.0
  0
LINE
  5
CD92
  8
0
 10
180.27751066722001
 20
90.000000298023252
 30
0.0
 11
180.27751066722001
 21
87.07106903195384
 31
0.0
  0
LINE
  5
CD95
  8
0
 10
165.27751100249611
 20
87.80000217258933
 30
0.0
 11
165.27751100249611
 21
87.200001329183607
 31
0.0
  0
LINE
  5
CD96
  8
0
 10
175.27751077897869
 20
87.200001329183607
 30
0.0
 11
175.27751077897869
 21
87.80000217258933
 31
0.0
  0
ARC
  5
CD99
  8
0
 10
168.27751111425479
 20
87.800001490116117
 30
0.0
 40
3.0000000000000142
 50
90.0
 51
180.0
  0
ARC
  5
CD9A
  8
0
 10
172.27751111425459
 20
87.800001490116117
 30
0.0
 40
3.0000000000000142
 50
0.0
 51
90.0
  0
ARC
  5
CD9C
  8
0
 10
175.27751111425459
 20
90.000001490116148
 30
0.0
 40
5.0
 50
0.0
 51
90.0
  0
ARC
  5
CD9E
  8
0
 10
165.27751111425479
 20
90.000001490116148
 30
0.0
 40
5.0
 50
90.0
 51
180.0
  0
LINE
  5
CDA0
  8
0
 10
172.27751121856289
 20
90.80000266432765
 30
0.0
 11
168.2775114942344
 21
90.80000266432765
 31
0.0
  0
LINE
  5
CDA1
  8
0
 10
165.27751100249611
 20
95.000002980232267
 30
0.0
 11
175.27751077897869
 21
95.000002980232267
 31
0.0
  0
LINE
  5
11F47
  8
0
 10
48.497121715918411
 20
172.00000368058679
 30
0.0
 11
48.497121715918411
 21
173.29979471862319
 31
0.0
  0
LINE
  5
11F4C
  8
0
 10
88.082909518853057
 20
173.29979471862319
 30
0.0
 11
88.082909518853057
 21
172.00000368058679
 31
0.0
  0
ARC
  5
11F4F
  8
0
 10
86.89364814318219
 20
173.1407822237216
 30
0.0
 40
1.1998448204655681
 50
7.6156743050980147
 51
66.306270843807042
  0
LINE
  5
11F51
  8
0
 10
49.204228380695213
 20
174.23948802053931
 30
0.0
 11
87.375802854076255
 21
174.23948802053931
 31
0.0
  0
ARC
  5
11F52
  8
0
 10
49.686383091589732
 20
173.1407822237216
 30
0.0
 40
1.199844820465608
 50
113.693729156193
 51
172.384325694902
  0
LINE
  5
11F53
  8
0
 10
87.375802854076255
 20
174.23948802053931
 30
0.0
 11
89.790016347542633
 21
175.11819086968899
 31
0.0
  0
LINE
  5
11F58
  8
0
 10
46.790014887228828
 20
175.11819086968899
 30
0.0
 11
49.204228380695213
 21
174.23948802053931
 31
0.0
  0
LINE
  5
11F5B
  8
0
 10
89.790016347542633
 20
175.86234554648399
 30
0.0
 11
88.341811606660713
 21
176.69846460223201
 31
0.0
  0
LINE
  5
11F5C
  8
0
 10
89.790016347542633
 20
175.11819086968899
 30
0.0
 11
89.790016347542633
 21
175.86234554648399
 31
0.0
  0
LINE
  5
11F5D
  8
0
 10
46.790014887228828
 20
175.86234554648399
 30
0.0
 11
46.790014887228828
 21
175.11819086968899
 31
0.0
  0
LINE
  5
11F5E
  8
0
 10
48.238219628110748
 20
176.69846460223201
 30
0.0
 11
46.790014887228828
 21
175.86234554648399
 31
0.0
  0
ARC
  5
11F60
  8
0
 10
46.760773289830688
 20
174.1473737842694
 30
0.0
 40
0.9712573728733458
 50
88.274738112355934
 51
178.1636517519579
  0
ARC
  5
11F62
  8
0
 10
89.819257944941214
 20
174.1473737842694
 30
0.0
 40
0.9712573728733351
 50
1.836348248042097
 51
91.725261887644066
  0
ARC
  5
11F66
  8
0
 10
46.636708760835738
 20
175.1692309305208
 30
0.0
 40
0.7098666348345211
 50
77.527870419574484
 51
119.23493217202309
  0
ARC
  5
11F67
  8
0
 10
89.943322473936178
 20
175.1692309305208
 30
0.0
 40
0.7098666348344724
 50
60.765067827977667
 51
102.4721295804388
  0
POLYLINE
  5
11F6A
  8
0
 66
     1
 10
0.0
 20
0.0
 30
0.0
 70
   128
  0
VERTEX
  5
15F44
  8
0
 10
48.656040737405647
 20
177.00000450015071
 30
0.0
  0
VERTEX
  5
15F45
  8
0
 10
48.609195211902488
 20
176.9661937654019
 30
0.0
  0
VERTEX
  5
15F46
  8
0
 10
48.469290072098602
 20
176.8652272224426
 30
0.0
  0
VERTEX
  5
15F47
  8
0
 10
48.238219628110748
 20
176.69846460223201
 30
0.0
  0
SEQEND
  5
15F48
  8
0
  0
POLYLINE
  5
11F6B
  8
0
 66
     1
 10
0.0
 20
0.0
 30
0.0
 70
   128
  0
VERTEX
  5
15F49
  8
0
 10
88.341811606660713
 20
176.69846460223201
 30
0.0
  0
VERTEX
  5
15F4A
  8
0
 10
88.110741162672866
 20
176.8652272224426
 30
0.0
  0
VERTEX
  5
15F4B
  8
0
 10
87.97083602286898
 20
176.9661937654019
 30
0.0
  0
VERTEX
  5
15F4C
  8
0
 10
87.923990497365821
 20
177.00000450015071
 30
0.0
  0
SEQEND
  5
15F4D
  8
0
  0
LINE
  5
1348D
  8
0
 10
292.02751214141358
 20
163.72168840543881
 30
0.0
 11
290.77751093544089
 21
164.44337849197149
 31
0.0
  0
LINE
  5
1348E
  8
0
 10
290.77751093544089
 20
164.44337849197149
 30
0.0
 11
289.52751360147658
 21
163.72169511194119
 31
0.0
  0
LINE
  5
1348F
  8
0
 10
289.52750838750649
 20
163.7216951119411
 30
0.0
 11
289.5275057065985
 21
162.2783245229152
 31
0.0
  0
LINE
  5
13490
  8
0
 10
289.52750910365779
 20
162.27831863896679
 30
0.0
 11
290.77751093544089
 21
161.55662746849299
 31
0.0
  0
LINE
  5
13491
  8
0
 10
290.77751093544089
 20
161.55662746849299
 30
0.0
 11
292.02750826940468
 21
162.27831084852261
 31
0.0
  0
LINE
  5
13492
  8
0
 10
292.02751096975521
 20
162.27831552564899
 30
0.0
 11
292.02751214141358
 21
163.7216884054387
 31
0.0
  0
LINE
  5
13BBB
  8
0
 10
201.6435365180391
 20
176.33012999915451
 30
0.0
 11
207.77751111425459
 21
172.78867811482709
 31
0.0
  0
CIRCLE
  5
14380
  8
0
 10
53.290015617385727
 20
163.00000298023221
 30
0.0
 40
1.6209999999999991
  0
CIRCLE
  5
14381
  8
3
 10
53.290015617385727
 20
163.00000298023221
 30
0.0
 40
2.0
  0
LINE
  5
14382
  8
1
 10
53.290015617385727
 20
168.00000298023221
 30
0.0
 11
53.290015617385727
 21
158.00000298023221
 31
0.0
  0
LINE
  5
14383
  8
1
 10
48.290015617385727
 20
163.00000298023221
 30
0.0
 11
58.290015617385727
 21
163.00000298023221
 31
0.0
  0
CIRCLE
  5
14384
  8
0
 10
83.290015617385734
 20
163.00000298023221
 30
0.0
 40
1.6209999999999991
  0
CIRCLE
  5
14385
  8
3
 10
83.290015617385734
 20
163.00000298023221
 30
0.0
 40
2.0
  0
LINE
  5
14386
  8
1
 10
83.290015617385734
 20
168.00000298023221
 30
0.0
 11
83.290015617385734
 21
158.00000298023221
 31
0.0
  0
LINE
  5
14387
  8
1
 10
78.290015617385734
 20
163.00000298023221
 30
0.0
 11
88.290015617385734
 21
163.00000298023221
 31
0.0
  0
LINE
  5
143AE
  8
1
 10
223.2775094453248
 20
264.50000599026691
 30
0.0
 11
151.7900170385841
 21
264.50000599026691
 31
0.0
  0
LINE
  5
143AF
  8
1
 10
168.77751135639869
 20
300.80000716447842
 30
0.0
 11
168.77751135639869
 21
288.20000533759611
 31
0.0
  0
LINE
  5
143B0
  8
1
 10
171.7775116320702
 20
300.80000716447842
 30
0.0
 11
171.7775116320702
 21
288.20000533759611
 31
0.0
  0
LINE
  5
143B2
  8
1
 10
178.2775111589583
 20
294.50000625103718
 30
0.0
 11
156.7775110905061
 21
294.50000625103718
 31
0.0
  0
LINE
  5
143B3
  8
1
 10
168.77751135639869
 20
240.8000066429378
 30
0.0
 11
168.77751135639869
 21
228.20000481605541
 31
0.0
  0
LINE
  5
143B4
  8
1
 10
171.7775116320702
 20
240.8000066429378
 30
0.0
 11
171.7775116320702
 21
228.20000481605541
 31
0.0
  0
LINE
  5
143B5
  8
1
 10
178.2775111589583
 20
234.50000572949659
 30
0.0
 11
156.7775110905061
 21
234.50000572949659
 31
0.0
  0
LINE
  5
143BF
  8
1
 10
223.2775094453248
 20
57.500001490116013
 30
0.0
 11
151.79001703858401
 21
57.500001490116013
 31
0.0
  0
LINE
  5
143C0
  8
1
 10
168.77751135639869
 20
93.800002664327494
 30
0.0
 11
168.77751135639869
 21
81.200000837445145
 31
0.0
  0
LINE
  5
143C1
  8
1
 10
171.7775116320702
 20
93.800002664327494
 30
0.0
 11
171.7775116320702
 21
81.200000837445145
 31
0.0
  0
LINE
  5
143C3
  8
1
 10
178.2775111589583
 20
87.500001750886327
 30
0.0
 11
156.7775110905061
 21
87.500001750886312
 31
0.0
  0
LINE
  5
143C4
  8
1
 10
168.77751135639869
 20
33.800002142786873
 30
0.0
 11
168.77751135639869
 21
21.2000003159045
 31
0.0
  0
LINE
  5
143C5
  8
1
 10
171.7775116320702
 20
33.800002142786873
 30
0.0
 11
171.7775116320702
 21
21.2000003159045
 31
0.0
  0
LINE
  5
143C6
  8
1
 10
178.2775111589583
 20
27.500001229345688
 30
0.0
 11
156.7775110905061
 21
27.500001229345688
 31
0.0
  0
LINE
  5
14422
  8
1
 10
68.290015617385734
 20
182.00000450015071
 30
0.0
 11
68.290015617385734
 21
140.50000300398091
 31
0.0
  0
LINE
  5
14423
  8
1
 10
38.29001535661542
 20
142.00000298023221
 30
0.0
 11
38.29001535661542
 21
156.00000315665119
 31
0.0
  0
LINE
  5
14424
  8
1
 10
98.290015878156055
 20
142.00000298023221
 30
0.0
 11
98.290015878156055
 21
156.00000315665119
 31
0.0
  0
LINE
  5
14426
  8
1
 10
305.77751093544089
 20
182.00000450015071
 30
0.0
 11
305.77751093544089
 21
140.50000300398091
 31
0.0
  0
LINE
  5
14427
  8
1
 10
275.77751067467062
 20
142.0000029802321
 30
0.0
 11
275.77751067467062
 21
156.00000336021171
 31
0.0
  0
LINE
  5
14428
  8
1
 10
335.77751119621121
 20
142.00000298023221
 30
0.0
 11
335.77751119621121
 21
156.00000315665119
 31
0.0
  0
LINE
  5
14429
  8
1
 10
223.2775094453248
 20
163.00000298023241
 30
0.0
 11
151.7900170385841
 21
163.0000029802323
 31
0.0
  0
LINE
  5
1442A
  8
1
 10
168.77751097641911
 20
156.00000309712621
 30
0.0
 11
168.77751097641911
 21
142.0000029802323
 31
0.0
  0
LINE
  5
1442B
  8
1
 10
171.77751125209051
 20
156.0000031639228
 30
0.0
 11
171.77751125209051
 21
142.0000029802323
 31
0.0
  0
CIRCLE
  5
153A9
  8
0
 10
305.77751093544089
 20
163.00000298023221
 30
0.0
 40
9.0
  0
ARC
  5
153AB
  8
0
 10
305.77751093544089
 20
163.00000298023221
 30
0.0
 40
10.499999999999989
 50
205.20876529675769
 51
214.79123470324191
  0
LINE
  5
153AC
  8
0
 10
296.27751124091469
 20
158.5278666391969
 30
0.0
 11
296.27751124091469
 21
167.47213870286939
 31
0.0
  0
ARC
  5
153AD
  8
0
 10
305.77751093544089
 20
163.00000298023221
 30
0.0
 40
10.500000000000011
 50
145.20876529676011
 51
154.79123470324259
  0
ARC
  5
153AF
  8
0
 10
305.77751093544089
 20
163.00000298023221
 30
0.0
 40
10.50000000000003
 50
85.208765296759069
 51
94.791234703240903
  0
ARC
  5
153B1
  8
0
 10
305.77751093544089
 20
163.00000298023221
 30
0.0
 40
10.50000000000003
 50
25.208765296757331
 51
34.791234703239617
  0
LINE
  5
153B2
  8
0
 10
315.27751062996708
 20
167.47213870286939
 30
0.0
 11
315.27751062996708
 21
158.5278666391969
 31
0.0
  0
ARC
  5
153B3
  8
0
 10
305.77751093544089
 20
163.00000298023221
 30
0.0
 40
10.50000000000002
 50
325.20876529676042
 51
334.79123470324322
  0
ARC
  5
153B5
  8
0
 10
305.77751093544089
 20
163.00000298023221
 30
0.0
 40
10.5
 50
265.20876529675911
 51
274.79123470324089
  0
CIRCLE
  5
153B6
  8
0
 10
305.77751093544089
 20
163.00000298023221
 30
0.0
 40
5.0999999999999943
  0
LINE
  5
153B8
  8
0
 10
309.77751112543069
 20
160.69060161709791
 30
0.0
 11
309.77751112543069
 21
165.30940465629101
 31
0.0
  0
LINE
  5
153BB
  8
0
 10
301.77751074545108
 20
165.30940465629101
 30
0.0
 11
301.77751074545108
 21
160.69060161709791
 31
0.0
  0
LINE
  5
15636
  8
0
 10
165.54319777525981
 20
232.9656918346883
 30
0.0
 11
165.7775110844525
 21
233.20000514388099
 31
0.0
  0
LINE
  5
15637
  8
0
 10
165.7775110844525
 20
235.80000631511231
 30
0.0
 11
165.54319777525981
 21
236.03431962430491
 31
0.0
  0
LINE
  5
15638
  8
0
 10
160.27751111425479
 20
236.50000512599959
 30
0.0
 11
160.0084512075411
 21
236.50000512599959
 31
0.0
  0
LINE
  5
15639
  8
0
 10
160.0084512075411
 20
232.5000044703485
 30
0.0
 11
160.27751111425479
 21
232.5000044703485
 31
0.0
  0
LINE
  5
1563A
  8
0
 10
160.0084512075411
 20
236.50000512599959
 30
0.0
 11
159.7775110905061
 21
236.10000580549249
 31
0.0
  0
LINE
  5
1563B
  8
0
 10
159.7775110905061
 20
232.90000751614591
 30
0.0
 11
160.0084512075411
 21
232.5000044703485
 31
0.0
  0
LINE
  5
1563C
  8
0
 10
165.54319777525981
 20
292.96569235622877
 30
0.0
 11
165.7775110844525
 21
293.20000566542149
 31
0.0
  0
LINE
  5
1563D
  8
0
 10
165.7775110844525
 20
295.80000683665281
 30
0.0
 11
165.54319777525981
 21
296.03432014584541
 31
0.0
  0
LINE
  5
1563E
  8
0
 10
160.27751111425479
 20
296.5000075101853
 30
0.0
 11
160.0084512075411
 21
296.5000075101853
 31
0.0
  0
LINE
  5
1563F
  8
0
 10
160.0084512075411
 20
292.50000685453421
 30
0.0
 11
160.27751111425479
 21
292.50000685453421
 31
0.0
  0
LINE
  5
15640
  8
0
 10
160.0084512075411
 20
296.5000075101853
 30
0.0
 11
159.7775110905061
 21
296.10000446438789
 31
0.0
  0
LINE
  5
15641
  8
0
 10
159.7775110905061
 20
292.9000061750412
 30
0.0
 11
160.0084512075411
 21
292.50000685453421
 31
0.0
  0
LINE
  5
15642
  8
0
 10
217.7775121573361
 20
255.00000629574069
 30
0.0
 11
218.2775094453248
 21
255.50000637769699
 31
0.0
  0
LINE
  5
15643
  8
0
 10
218.2775094453248
 20
273.50000560283672
 30
0.0
 11
217.7775121573361
 21
274.00000568479311
 31
0.0
  0
LINE
  5
15644
  8
0
 10
165.7775110844525
 20
235.80000631511231
 30
0.0
 11
165.7775110844525
 21
233.20000514388099
 31
0.0
  0
LINE
  5
15646
  8
0
 10
160.0084512075411
 20
236.50000512599959
 30
0.0
 11
160.0084512075411
 21
232.5000044703485
 31
0.0
  0
LINE
  5
15647
  8
0
 10
159.7775110905061
 20
232.90000751614591
 30
0.0
 11
159.7775110905061
 21
236.10000580549249
 31
0.0
  0
LINE
  5
15648
  8
0
 10
165.7775110844525
 20
295.8000068366527
 30
0.0
 11
165.7775110844525
 21
293.20000566542149
 31
0.0
  0
LINE
  5
1564A
  8
0
 10
160.0084512075411
 20
296.5000075101853
 30
0.0
 11
160.0084512075411
 21
292.50000685453421
 31
0.0
  0
LINE
  5
1564B
  8
0
 10
159.7775110905061
 20
292.9000061750412
 30
0.0
 11
159.7775110905061
 21
296.10000446438789
 31
0.0
  0
LINE
  5
156A7
  8
0
 10
156.7900170385841
 20
286.00000672042381
 30
0.0
 11
156.7900170385841
 21
243.00000526010999
 31
0.0
  0
LINE
  5
156A8
  8
0
 10
157.7900172024969
 20
287.00000688433653
 30
0.0
 11
155.79001710750191
 21
285.00000655651098
 31
0.0
  0
LINE
  5
156AA
  8
0
 10
156.7900170385841
 20
271.00000612437731
 30
0.0
 11
155.79001710750191
 21
272.00000582262879
 31
0.0
  0
LINE
  5
156AB
  8
0
 10
155.79001710750191
 20
272.00000582262879
 30
0.0
 11
155.79001710750191
 21
285.00000655651098
 31
0.0
  0
LINE
  5
156AD
  8
0
 10
157.7900172024969
 20
242.00000509619721
 30
0.0
 11
155.79001710750191
 21
244.0000054240227
 31
0.0
  0
LINE
  5
156AE
  8
0
 10
155.79001710750191
 20
244.0000054240227
 30
0.0
 11
155.79001710750191
 21
257.00000615790492
 31
0.0
  0
LINE
  5
156AF
  8
0
 10
155.79001710750191
 20
257.00000615790492
 30
0.0
 11
156.7900170385841
 21
258.00000585615641
 31
0.0
  0
LINE
  5
156B0
  8
0
 10
218.2775094453248
 20
255.50000637769699
 30
0.0
 11
218.2775094453248
 21
273.50000560283672
 31
0.0
  0
LINE
  5
156B2
  8
0
 10
216.77751013077821
 20
255.00000629574069
 30
0.0
 11
216.77751013077821
 21
255.87702251970771
 31
0.0
  0
ARC
  5
156B3
  8
0
 10
209.60722409953669
 20
259.75000593927689
 30
0.0
 40
8.1494173005237283
 50
331.62458821893358
 51
28.375411781068159
  0
LINE
  5
156B4
  8
0
 10
216.77751013077821
 20
263.6229893588461
 30
0.0
 11
216.77751013077821
 21
265.3770226216875
 31
0.0
  0
ARC
  5
156B5
  8
0
 10
209.5828666056434
 20
269.25000604125682
 30
0.0
 40
8.1708565047993478
 50
331.70576033678873
 51
28.29423966321124
  0
LINE
  5
156B6
  8
0
 10
216.77751013077821
 20
273.12298946082598
 30
0.0
 11
216.77751013077821
 21
274.00000568479311
 31
0.0
  0
LINE
  5
156B9
  8
0
 10
216.77751013077821
 20
273.12298946082598
 30
0.0
 11
208.27751153148731
 21
273.12298946082598
 31
0.0
  0
LINE
  5
156BA
  8
0
 10
208.27751153148731
 20
265.3770226216875
 30
0.0
 11
216.77751013077821
 21
265.3770226216875
 31
0.0
  0
LINE
  5
156BC
  8
0
 10
216.77751013077821
 20
263.6229893588461
 30
0.0
 11
208.27751153148731
 21
263.6229893588461
 31
0.0
  0
LINE
  5
156BD
  8
0
 10
208.27751153148731
 20
255.87702251970771
 30
0.0
 11
216.77751013077821
 21
255.87702251970771
 31
0.0
  0
LINE
  5
156BF
  8
0
 10
208.27751153148731
 20
274.00000568479311
 30
0.0
 11
217.7775121573361
 21
274.00000568479311
 31
0.0
  0
LINE
  5
156C0
  8
0
 10
217.7775121573361
 20
255.0000062957406
 30
0.0
 11
208.27751153148731
 21
255.00000629574069
 31
0.0
  0
LINE
  5
15B2F
  8
0
 10
165.54319777525981
 20
85.965687856078176
 30
0.0
 11
165.7775110844525
 21
86.200001165270834
 31
0.0
  0
LINE
  5
15B30
  8
0
 10
165.7775110844525
 20
88.800002336502104
 30
0.0
 11
165.54319777525981
 21
89.034315645694761
 31
0.0
  0
LINE
  5
15B31
  8
0
 10
160.27751111425479
 20
89.50000301003459
 30
0.0
 11
160.0084512075411
 21
89.50000301003459
 31
0.0
  0
LINE
  5
15B32
  8
0
 10
160.0084512075411
 20
85.500002354383497
 30
0.0
 11
160.27751111425479
 21
85.500002354383497
 31
0.0
  0
LINE
  5
15B33
  8
0
 10
160.0084512075411
 20
89.50000301003459
 30
0.0
 11
159.7775110905061
 21
89.099999964237242
 31
0.0
  0
LINE
  5
15B34
  8
0
 10
159.7775110905061
 20
85.900001674890547
 30
0.0
 11
160.0084512075411
 21
85.500002354383497
 31
0.0
  0
LINE
  5
15B35
  8
0
 10
165.54319777525981
 20
25.965687334537542
 30
0.0
 11
165.7775110844525
 21
26.200000643730188
 31
0.0
  0
LINE
  5
15B36
  8
0
 10
165.7775110844525
 20
28.800001814961458
 30
0.0
 11
165.54319777525981
 21
29.034315124154119
 31
0.0
  0
LINE
  5
15B37
  8
0
 10
160.27751111425479
 20
29.500000625848799
 30
0.0
 11
160.0084512075411
 21
29.500000625848799
 31
0.0
  0
LINE
  5
15B38
  8
0
 10
160.0084512075411
 20
25.49999997019771
 30
0.0
 11
160.27751111425479
 21
25.49999997019771
 31
0.0
  0
LINE
  5
15B39
  8
0
 10
160.0084512075411
 20
29.500000625848799
 30
0.0
 11
159.7775110905061
 21
29.100001305341749
 31
0.0
  0
LINE
  5
15B3A
  8
0
 10
159.7775110905061
 20
25.900003015995061
 30
0.0
 11
160.0084512075411
 21
25.49999997019771
 31
0.0
  0
LINE
  5
15B3B
  8
0
 10
217.7775121573361
 20
48.000002078711923
 30
0.0
 11
218.2775094453248
 21
48.500002160668309
 31
0.0
  0
LINE
  5
15B3C
  8
0
 10
218.2775094453248
 20
66.500001385807934
 30
0.0
 11
217.7775121573361
 21
67.000001467764321
 31
0.0
  0
LINE
  5
15B3D
  8
0
 10
165.7775110844525
 20
88.800002336502104
 30
0.0
 11
165.7775110844525
 21
86.200001165270834
 31
0.0
  0
LINE
  5
15B3E
  8
0
 10
160.0084512075411
 20
89.50000301003459
 30
0.0
 11
160.0084512075411
 21
85.500002354383497
 31
0.0
  0
LINE
  5
15B41
  8
0
 10
159.7775110905061
 20
85.900001674890547
 30
0.0
 11
159.7775110905061
 21
89.099999964237185
 31
0.0
  0
LINE
  5
15B42
  8
0
 10
165.7775110844525
 20
28.800001814961458
 30
0.0
 11
165.7775110844525
 21
26.200000643730188
 31
0.0
  0
LINE
  5
15B43
  8
0
 10
160.0084512075411
 20
29.500000625848759
 30
0.0
 11
160.0084512075411
 21
25.49999997019771
 31
0.0
  0
LINE
  5
15B46
  8
0
 10
159.7775110905061
 20
25.900003015995061
 30
0.0
 11
159.7775110905061
 21
29.100001305341749
 31
0.0
  0
LINE
  5
15B47
  8
0
 10
157.7900172024967
 20
80.000002980232225
 30
0.0
 11
160.27751111425479
 21
80.000002980232225
 31
0.0
  0
LINE
  5
15B48
  8
0
 10
160.27751111425479
 20
35.000001192092881
 30
0.0
 11
157.7900172024967
 21
35.000001192092881
 31
0.0
  0
LINE
  5
15B4B
  8
0
 10
156.79001703858401
 20
79.000002816319423
 30
0.0
 11
156.79001703858401
 21
36.000001356005647
 31
0.0
  0
LINE
  5
15B4E
  8
0
 10
155.7900171075018
 20
37.000001519918413
 30
0.0
 11
155.7900171075018
 21
50.000002253800602
 31
0.0
  0
LINE
  5
15B4F
  8
0
 10
155.7900171075018
 20
50.000002253800602
 30
0.0
 11
156.79001703858401
 21
51.000001952052102
 31
0.0
  0
LINE
  5
15B50
  8
0
 10
157.7900172024967
 20
35.000000959262159
 30
0.0
 11
155.7900171075018
 21
37.000001519918413
 31
0.0
  0
LINE
  5
15B51
  8
0
 10
155.7900171075018
 20
65.000001918524475
 30
0.0
 11
155.7900171075018
 21
78.000002652406664
 31
0.0
  0
LINE
  5
15B52
  8
0
 10
155.7900171075018
 20
78.000002652406664
 30
0.0
 11
157.7900172024967
 21
80.000002980232225
 31
0.0
  0
LINE
  5
15B53
  8
0
 10
156.79001703858401
 20
64.000002220273004
 30
0.0
 11
155.7900171075018
 21
65.000001918524475
 31
0.0
  0
LINE
  5
15B54
  8
0
 10
218.2775094453248
 20
48.500002160668309
 30
0.0
 11
218.2775094453248
 21
66.500001385807934
 31
0.0
  0
ARC
  5
15B55
  8
0
 10
209.58137357569149
 20
62.250001824228072
 30
0.0
 40
8.1721711856588648
 50
331.71072205107362
 51
28.28927794892725
  0
LINE
  5
15B56
  8
0
 10
216.77751013077821
 20
66.122985243797274
 30
0.0
 11
216.77751013077821
 21
67.000001467764349
 31
0.0
  0
LINE
  5
15B59
  8
0
 10
216.77751013077821
 20
48.000002078711958
 30
0.0
 11
216.77751013077821
 21
48.877018302679041
 31
0.0
  0
ARC
  5
15B5A
  8
0
 10
209.57066495904789
 20
52.750001722248243
 30
0.0
 40
8.1816024040251403
 50
331.74626274013968
 51
28.253737259861119
  0
LINE
  5
15B5B
  8
0
 10
216.77751013077821
 20
56.622985141817459
 30
0.0
 11
216.77751013077821
 21
58.37701840465887
 31
0.0
  0
LINE
  5
15B5C
  8
0
 10
216.77751013077821
 20
66.122985243797274
 30
0.0
 11
208.27751153148731
 21
66.122985243797274
 31
0.0
  0
LINE
  5
15B5D
  8
0
 10
208.27751153148731
 20
58.37701840465887
 30
0.0
 11
216.77751013077821
 21
58.37701840465887
 31
0.0
  0
LINE
  5
15B5E
  8
0
 10
216.77751013077821
 20
56.622985141817459
 30
0.0
 11
208.27751153148731
 21
56.622985141817459
 31
0.0
  0
LINE
  5
15B5F
  8
0
 10
208.27751153148731
 20
48.877018302679041
 30
0.0
 11
216.77751013077821
 21
48.877018302679041
 31
0.0
  0
LINE
  5
15B60
  8
0
 10
217.7775121573361
 20
48.000002078711958
 30
0.0
 11
208.27751153148731
 21
48.000002078711958
 31
0.0
  0
LINE
  5
15B61
  8
0
 10
208.27751153148731
 20
67.000001467764349
 30
0.0
 11
217.7775121573361
 21
67.000001467764349
 31
0.0
  0
CIRCLE
  5
15C7A
  8
3
 10
38.29001561738562
 20
149.00000298023221
 30
0.0
 40
1.6209999999999991
  0
CIRCLE
  5
15C7B
  8
0
 10
38.29001561738562
 20
149.00000298023221
 30
0.0
 40
2.0
  0
LINE
  5
15C7C
  8
0
 10
39.290015616571338
 20
149.57735324895219
 30
0.0
 11
39.290015616571338
 21
148.422652710573
 31
0.0
  0
LINE
  5
15C7D
  8
0
 10
39.290015616570429
 20
148.42265271151231
 30
0.0
 11
38.290015616571338
 21
147.84530244232261
 31
0.0
  0
LINE
  5
15C7E
  8
0
 10
38.290015617385343
 20
147.84530244279321
 30
0.0
 11
37.290015617385343
 21
148.42265271198261
 31
0.0
  0
LINE
  5
15C7F
  8
0
 10
37.290015618199327
 20
148.42265271151291
 30
0.0
 11
37.290015618199327
 21
149.5773532498921
 31
0.0
  0
LINE
  5
15C80
  8
0
 10
37.290015618199327
 20
149.57735324895211
 30
0.0
 11
38.290015618199341
 21
150.1547035181419
 31
0.0
  0
LINE
  5
15C81
  8
0
 10
38.290015617385343
 20
150.15470351767121
 30
0.0
 11
39.290015617385343
 21
149.57735324848181
 31
0.0
  0
CIRCLE
  5
15C82
  8
3
 10
98.290015617385734
 20
149.00000298023221
 30
0.0
 40
1.6209999999999991
  0
CIRCLE
  5
15C83
  8
0
 10
98.290015617385734
 20
149.00000298023221
 30
0.0
 40
2.0
  0
LINE
  5
15C84
  8
0
 10
99.290015616571452
 20
149.57735324895219
 30
0.0
 11
99.290015616571452
 21
148.42265271057309
 31
0.0
  0
LINE
  5
15C85
  8
0
 10
99.290015616570543
 20
148.4226527115124
 30
0.0
 11
98.290015616571452
 21
147.84530244232261
 31
0.0
  0
LINE
  5
15C86
  8
0
 10
98.29001561738545
 20
147.8453024427933
 30
0.0
 11
97.29001561738545
 21
148.42265271198269
 31
0.0
  0
LINE
  5
15C87
  8
0
 10
97.290015618199448
 20
148.42265271151291
 30
0.0
 11
97.290015618199448
 21
149.5773532498921
 31
0.0
  0
LINE
  5
15C88
  8
0
 10
97.290015618199448
 20
149.57735324895211
 30
0.0
 11
98.290015618199448
 21
150.1547035181419
 31
0.0
  0
LINE
  5
15C89
  8
0
 10
98.29001561738545
 20
150.15470351767121
 30
0.0
 11
99.290015617385436
 21
149.57735324848181
 31
0.0
  0
LINE
  5
15C8C
  8
1
 10
33.29001561738562
 20
149.00000298023221
 30
0.0
 11
43.29001561738562
 21
149.00000298023221
 31
0.0
  0
LINE
  5
15C8D
  8
1
 10
93.290015617385734
 20
149.00000298023221
 30
0.0
 11
103.29001561738571
 21
149.00000298023221
 31
0.0
  0
LINE
  5
15C8E
  8
0
 10
160.27751111425479
 20
151.0000030323863
 30
0.0
 11
160.0084512075411
 21
151.0000030323863
 31
0.0
  0
LINE
  5
15C8F
  8
0
 10
160.0084512075411
 20
147.0000030752272
 30
0.0
 11
160.27751111425479
 21
147.0000030752272
 31
0.0
  0
LINE
  5
15C90
  8
0
 10
160.0084512075411
 20
151.0000030323863
 30
0.0
 11
159.7775110905061
 21
150.60000278055671
 31
0.0
  0
LINE
  5
15C91
  8
0
 10
159.7775110905061
 20
147.40000309422609
 30
0.0
 11
160.0084512075411
 21
147.0000030752272
 31
0.0
  0
LINE
  5
15C92
  8
0
 10
216.77751013077821
 20
152.5000028125942
 30
0.0
 11
218.2775094453248
 21
154.0000025928021
 31
0.0
  0
LINE
  5
15C93
  8
0
 10
218.2775094453248
 20
172.00000368058679
 30
0.0
 11
216.77751013077821
 21
173.5000029951334
 31
0.0
  0
LINE
  5
15C94
  8
0
 10
216.77751013077821
 20
173.5000029951334
 30
0.0
 11
208.27751153148731
 21
173.5000029951334
 31
0.0
  0
LINE
  5
15C95
  8
0
 10
208.27751153148731
 20
152.5000028125942
 30
0.0
 11
216.77751013077821
 21
152.5000028125942
 31
0.0
  0
LINE
  5
15C97
  8
0
 10
160.0084512075411
 20
151.0000030323863
 30
0.0
 11
160.0084512075411
 21
147.00000307522711
 31
0.0
  0
LINE
  5
15C98
  8
0
 10
159.7775110905061
 20
147.40000309422609
 30
0.0
 11
159.7775110905061
 21
150.60000278055671
 31
0.0
  0
LINE
  5
15C9A
  8
0
 10
156.79001703858401
 20
172.00000368058679
 30
0.0
 11
155.7900171075018
 21
171.0000035166741
 31
0.0
  0
LINE
  5
15C9C
  8
0
 10
157.7900172024967
 20
172.00000368058679
 30
0.0
 11
157.7900172024967
 21
154.0000025928021
 31
0.0
  0
LINE
  5
15C9E
  8
0
 10
155.7900171075018
 20
155.00000275671479
 30
0.0
 11
156.79001703858401
 21
154.0000025928021
 31
0.0
  0
LINE
  5
15C9F
  8
0
 10
155.7900171075018
 20
155.00000275671479
 30
0.0
 11
155.7900171075018
 21
171.0000035166741
 31
0.0
  0
LINE
  5
15CA0
  8
0
 10
181.7900176439436
 20
171.50000266730791
 30
0.0
 11
181.2900166306647
 21
172.00000368058679
 31
0.0
  0
LINE
  5
15CA1
  8
0
 10
181.7900176439436
 20
171.50000266730791
 30
0.0
 11
181.7900176439436
 21
154.50000267475841
 31
0.0
  0
LINE
  5
15CA2
  8
0
 10
181.2900166306647
 20
154.0000025928021
 30
0.0
 11
181.7900176439436
 21
154.50000267475841
 31
0.0
  0
LINE
  5
15CA3
  8
0
 10
156.7900170385839
 20
154.0000025928021
 30
0.0
 11
181.2900166306647
 21
154.0000025928021
 31
0.0
  0
LINE
  5
15CA4
  8
0
 10
156.7900170385839
 20
172.00000368058679
 30
0.0
 11
181.2900166306647
 21
172.00000368058679
 31
0.0
  0
LINE
  5
15CA5
  8
0
 10
208.27751153148731
 20
168.99117611348629
 30
0.0
 11
216.77751013077821
 21
168.99117611348629
 31
0.0
  0
LINE
  5
15CA6
  8
0
 10
216.77751013077821
 20
167.47213870286939
 30
0.0
 11
216.77751013077821
 21
168.99117611348629
 31
0.0
  0
LINE
  5
15CA7
  8
0
 10
216.77751013077821
 20
167.47213870286939
 30
0.0
 11
208.27751153148731
 21
167.47213870286939
 31
0.0
  0
LINE
  5
15CA9
  8
0
 10
218.2775094453248
 20
154.0000025928021
 30
0.0
 11
218.2775094453248
 21
172.00000368058679
 31
0.0
  0
ARC
  5
15CAA
  8
0
 10
214.6433574765575
 20
154.77276144549251
 30
0.0
 40
3.0910526818672568
 50
313.66408373825288
 51
46.335916261747073
  0
LINE
  5
15CAB
  8
0
 10
216.77751013077821
 20
157.00882922858
 30
0.0
 11
216.77751013077821
 21
158.5278666391969
 31
0.0
  0
ARC
  5
15CAC
  8
0
 10
207.01477877344541
 20
163.0000026710332
 30
0.0
 40
10.73829242676393
 50
335.38831481424222
 51
24.611685185758251
  0
ARC
  5
15CAD
  8
0
 10
214.66020408758951
 20
171.2272443622351
 30
0.0
 40
3.0794457445433201
 50
313.43733035663689
 51
46.562669643363087
  0
LINE
  5
15CAE
  8
0
 10
216.77751013077821
 20
173.46331261098391
 30
0.0
 11
216.77751013077821
 21
173.5000029951334
 31
0.0
  0
LINE
  5
15CAF
  8
0
 10
216.77751013077821
 20
152.5000028125942
 30
0.0
 11
216.77751013077821
 21
152.53669366240501
 31
0.0
  0
LINE
  5
15CB0
  8
0
 10
208.27751153148731
 20
158.5278666391969
 30
0.0
 11
216.77751013077821
 21
158.5278666391969
 31
0.0
  0
LINE
  5
15CB1
  8
0
 10
216.77751013077821
 20
157.00882922858
 30
0.0
 11
208.27751153148731
 21
157.00882922858
 31
0.0
  0
LINE
  5
15CB2
  8
0
 10
208.27751153148731
 20
152.53669366240501
 30
0.0
 11
216.77751013077821
 21
152.53669366240501
 31
0.0
  0
LINE
  5
15CB3
  8
0
 10
216.77751013077821
 20
173.46331261098391
 30
0.0
 11
208.27751153148731
 21
173.46331261098391
 31
0.0
  0
LINE
  5
15CFF
  8
0
 10
185.27751148678379
 20
172.5000028312206
 30
0.0
 11
179.27751050330721
 21
172.5000028312206
 31
0.0
  0
LINE
  5
15D00
  8
0
 10
178.7775113526734
 20
154.0000025928021
 30
0.0
 11
179.27751050330721
 21
153.50000344216821
 31
0.0
  0
ARC
  5
15D01
  8
0
 10
185.27751111425479
 20
154.00000298023221
 30
0.0
 40
0.5
 50
270.0
 51
0.0
  0
LINE
  5
15D02
  8
0
 10
179.27751050330721
 20
153.50000344216821
 30
0.0
 11
185.27751148678379
 21
153.50000344216821
 31
0.0
  0
ARC
  5
15D03
  8
0
 10
185.27751111425479
 20
172.0000029802323
 30
0.0
 40
0.5
 50
0.0
 51
90.0
  0
LINE
  5
15D04
  8
0
 10
179.27751050330721
 20
172.5000028312206
 30
0.0
 11
178.7775113526734
 21
172.00000368058679
 31
0.0
  0
LINE
  5
15D06
  8
0
 10
185.77751063741769
 20
154.0000025928021
 30
0.0
 11
185.77751063741769
 21
172.00000368058679
 31
0.0
  0
LINE
  5
15D29
  8
0
 10
183.2775111589583
 20
171.0000035166741
 30
0.0
 11
181.7900176439436
 21
171.0000035166741
 31
0.0
  0
ARC
  5
15D2C
  8
0
 10
183.27751111425479
 20
156.00000298023221
 30
0.0
 40
1.0
 50
270.0
 51
0.0
  0
ARC
  5
15D2E
  8
0
 10
183.27751111425479
 20
170.00000298023221
 30
0.0
 40
1.0
 50
0.0
 51
90.0
  0
LINE
  5
15D30
  8
0
 10
184.27751132287111
 20
156.00000292062759
 30
0.0
 11
184.27751132287111
 21
170.0000033527613
 31
0.0
  0
LINE
  5
15D31
  8
0
 10
181.7900176439436
 20
155.00000275671479
 30
0.0
 11
183.2775111589583
 21
155.00000275671479
 31
0.0
  0
CIRCLE
  5
15DCC
  8
0
 10
320.77751093544089
 20
163.00000298023221
 30
0.0
 40
4.0000000000000311
  0
CIRCLE
  5
15DCD
  8
0
 10
320.77751093544089
 20
163.00000298023221
 30
0.0
 40
4.25
  0
LINE
  5
15DCE
  8
0
 10
319.52750972946819
 20
163.72168840543881
 30
0.0
 11
320.77751093544089
 21
164.44337849197149
 31
0.0
  0
LINE
  5
15DCF
  8
0
 10
320.77751093544089
 20
164.44337849197149
 30
0.0
 11
322.02750826940519
 21
163.72169511194119
 31
0.0
  0
LINE
  5
15DD0
  8
0
 10
322.02751348337529
 20
163.7216951119411
 30
0.0
 11
322.02751616428333
 21
162.2783245229152
 31
0.0
  0
LINE
  5
15DD1
  8
0
 10
322.02751276722393
 20
162.27831863896679
 30
0.0
 11
320.77751093544089
 21
161.55662746849299
 31
0.0
  0
LINE
  5
15DD2
  8
0
 10
320.77751093544089
 20
161.55662746849299
 30
0.0
 11
319.5275136014771
 21
162.27831084852261
 31
0.0
  0
LINE
  5
15DD3
  8
0
 10
319.52751090112662
 20
162.27831552564899
 30
0.0
 11
319.52750972946819
 21
163.7216884054387
 31
0.0
  0
LINE
  5
15DD4
  8
1
 10
156.7775110905061
 20
149.0000029373914
 30
0.0
 11
163.27751111425479
 21
149.0000029373914
 31
0.0
  0
LINE
  5
15DD7
  8
0
 10
304.900494768702
 20
152.53669373831039
 30
0.0
 11
297.15452794320208
 21
157.00882977014669
 31
0.0
  0
LINE
  5
15DD8
  8
0
 10
306.65452763772828
 20
173.46331191295491
 30
0.0
 11
314.4004944632282
 21
168.99117588111861
 31
0.0
  0
LINE
  5
15DD9
  8
0
 10
306.65452710217983
 20
152.53669373831039
 30
0.0
 11
314.40049392767969
 21
157.00882977014669
 31
0.0
  0
LINE
  5
15DDA
  8
0
 10
304.90049423315349
 20
173.46331191295491
 30
0.0
 11
297.15452740765357
 21
168.99117588111861
 31
0.0
  0
LINE
  5
15DDB
  8
0
 10
309.77751127844448
 20
165.30940407833879
 30
0.0
 11
305.7775105114265
 21
167.61880559793539
 31
0.0
  0
LINE
  5
15DDC
  8
0
 10
301.77751032143669
 20
160.69060203858791
 30
0.0
 11
305.77751108845467
 21
158.38120051899131
 31
0.0
  0
LINE
  5
15DDD
  8
0
 10
301.77751003292269
 20
165.30940357861769
 30
0.0
 11
305.77751051142661
 21
167.61880559793539
 31
0.0
  0
LINE
  5
15DDE
  8
0
 10
309.77751156695871
 20
160.69060253830901
 30
0.0
 11
305.77751108845479
 21
158.38120051899131
 31
0.0
  0
CIRCLE
  5
15DDF
  8
0
 10
305.77751093544089
 20
163.00000298023221
 30
0.0
 40
4.0000001899898052
  0
LINE
  5
15DE0
  8
0
 10
302.2319957848153
 20
171.9226536154747
 30
0.0
 11
285.27751036919682
 21
171.9226536154747
 31
0.0
  0
LINE
  5
15DE3
  8
1
 10
318.27751062996708
 20
163.00000298023221
 30
0.0
 11
293.27751124091469
 21
163.00000298023221
 31
0.0
  0
LINE
  5
15E46
  8
3
 10
159.78963555429991
 20
150.6210029802323
 30
0.0
 11
160.27751111425479
 21
150.6210029802323
 31
0.0
  0
LINE
  5
15E47
  8
3
 10
159.78963551188889
 20
147.37900298023229
 30
0.0
 11
160.27751111425479
 21
147.37900298023229
 31
0.0
  0
LINE
  5
15E49
  8
3
 10
159.78963555429991
 20
296.12100629387811
 30
0.0
 11
160.27751111425479
 21
296.12100629387811
 31
0.0
  0
LINE
  5
15E4A
  8
3
 10
159.78963551188889
 20
292.87900629387809
 30
0.0
 11
160.27751111425479
 21
292.87900629387809
 31
0.0
  0
LINE
  5
15E4D
  8
3
 10
159.78963555429991
 20
236.1210067036601
 30
0.0
 11
160.27751111425479
 21
236.1210067036601
 31
0.0
  0
LINE
  5
15E4E
  8
3
 10
159.78963551188889
 20
232.87900670366
 30
0.0
 11
160.27751111425479
 21
232.87900670366
 31
0.0
  0
LINE
  5
15E4F
  8
3
 10
159.78963555429999
 20
89.121001793727174
 30
0.0
 11
160.27751111425491
 21
89.121001793727174
 31
0.0
  0
LINE
  5
15E50
  8
3
 10
159.789635511889
 20
85.879001793727156
 30
0.0
 11
160.27751111425491
 21
85.879001793727156
 31
0.0
  0
LINE
  5
15E51
  8
3
 10
159.78963555429991
 20
29.121001272186561
 30
0.0
 11
160.27751111425479
 21
29.121001272186561
 31
0.0
  0
LINE
  5
15E52
  8
3
 10
159.78963551188889
 20
25.879001272186549
 30
0.0
 11
160.27751111425479
 21
25.879001272186549
 31
0.0
  0
TEXT
  5
15EE3
  8
0
 62
     3
 10
0.0
 20
0.0
 30
0.0
 40
10.0
  1
QLSCH32H
  7
STANDARD1
  0
ENDSEC
  0
EOF
