  0
SECTION
  2
HEADER
  9
$ACADVER
  1
AC1009
  9
$INSBASE
 10
0.0
 20
0.0
 30
0.0
  9
$EXTMIN
 10
0.0
 20
-2.960436562073669
 30
0.0
  9
$EXTMAX
 10
395.38066283107361
 20
357.00000450015068
 30
0.0
  9
$LIMMIN
 10
0.0
 20
0.0
  9
$LIMMAX
 10
375.0
 20
270.0
  9
$ORTHOMODE
 70
     1
  9
$REGENMODE
 70
     1
  9
$FILLMODE
 70
     1
  9
$QTEXTMODE
 70
     0
  9
$MIRRTEXT
 70
     0
  9
$DRAGMODE
 70
     2
  9
$LTSCALE
 40
10.0
  9
$OSMODE
 70
  3071
  9
$ATTMODE
 70
     1
  9
$TEXTSIZE
 40
6.0
  9
$TRACEWID
 40
0.05
  9
$TEXTSTYLE
  7
STANDARD
  9
$CLAYER
  8
0
  9
$CELTYPE
  6
BYLAYER
  9
$CECOLOR
 62
   256
  9
$DIMSCALE
 40
1.0
  9
$DIMASZ
 40
3.0
  9
$DIMEXO
 40
2.0
  9
$DIMDLI
 40
0.3799999999999999
  9
$DIMRND
 40
0.0
  9
$DIMDLE
 40
0.0
  9
$DIMEXE
 40
2.0
  9
$DIMTP
 40
0.0
  9
$DIMTM
 40
0.0
  9
$DIMTXT
 40
3.2000000000000002
  9
$DIMCEN
 40
0.09
  9
$DIMTSZ
 40
0.0
  9
$DIMTOL
 70
     0
  9
$DIMLIM
 70
     0
  9
$DIMTIH
 70
     0
  9
$DIMTOH
 70
     0
  9
$DIMSE1
 70
     0
  9
$DIMSE2
 70
     0
  9
$DIMTAD
 70
     1
  9
$DIMZIN
 70
     9
  9
$DIMBLK
  1

  9
$DIMASO
 70
     0
  9
$DIMSHO
 70
     0
  9
$DIMPOST
  1

  9
$DIMAPOST
  1

  9
$DIMALT
 70
     0
  9
$DIMALTD
 70
     2
  9
$DIMALTF
 40
25.399999999999999
  9
$DIMLFAC
 40
1.0
  9
$DIMTOFL
 70
     0
  9
$DIMTVP
 40
0.0
  9
$DIMTIX
 70
     0
  9
$DIMSOXD
 70
     0
  9
$DIMSAH
 70
     0
  9
$DIMBLK1
  1

  9
$DIMBLK2
  1

  9
$DIMSTYLE
  2
STANDARD
  9
$DIMCLRD
 70
     0
  9
$DIMCLRE
 70
     0
  9
$DIMCLRT
 70
     0
  9
$DIMTFAC
 40
1.0
  9
$DIMGAP
 40
0.09
  9
$LUNITS
 70
     2
  9
$LUPREC
 70
     4
  9
$SKETCHINC
 40
0.1
  9
$FILLETRAD
 40
20.0
  9
$AUNITS
 70
     0
  9
$AUPREC
 70
     3
  9
$MENU
  1
E:\r13\win\SUPPORT\ACAD
  9
$ELEVATION
 40
0.0
  9
$PELEVATION
 40
0.0
  9
$THICKNESS
 40
0.0
  9
$LIMCHECK
 70
     0
  9
$BLIPMODE
 70
     0
  9
$CHAMFERA
 40
0.0
  9
$CHAMFERB
 40
0.0
  9
$SKPOLY
 70
     0
  9
$TDCREATE
 40
2449840.6320370371
  9
$TDUPDATE
 40
2456598.42971456
  9
$TDINDWG
 40
0.8586063773
  9
$TDUSRTIMER
 40
0.8586063773
  9
$USRTIMER
 70
     1
  9
$ANGBASE
 50
0.0
  9
$ANGDIR
 70
     0
  9
$PDMODE
 70
     0
  9
$PDSIZE
 40
0.0
  9
$PLINEWID
 40
0.0
  9
$COORDS
 70
     1
  9
$SPLFRAME
 70
     0
  9
$SPLINETYPE
 70
     6
  9
$SPLINESEGS
 70
     8
  9
$ATTDIA
 70
     0
  9
$ATTREQ
 70
     1
  9
$HANDLING
 70
     1
  9
$HANDSEED
  5
14FF2
  9
$SURFTAB1
 70
     6
  9
$SURFTAB2
 70
     6
  9
$SURFTYPE
 70
     6
  9
$SURFU
 70
     6
  9
$SURFV
 70
     6
  9
$UCSNAME
  2

  9
$UCSORG
 10
0.0
 20
0.0
 30
0.0
  9
$UCSXDIR
 10
1.0
 20
0.0
 30
0.0
  9
$UCSYDIR
 10
0.0
 20
1.0
 30
0.0
  9
$PUCSNAME
  2

  9
$PUCSORG
 10
0.0
 20
0.0
 30
0.0
  9
$PUCSXDIR
 10
1.0
 20
0.0
 30
0.0
  9
$PUCSYDIR
 10
0.0
 20
1.0
 30
0.0
  9
$USERI1
 70
     0
  9
$USERI2
 70
     1
  9
$USERI3
 70
     0
  9
$USERI4
 70
     0
  9
$USERI5
 70
     0
  9
$USERR1
 40
0.0
  9
$USERR2
 40
0.0
  9
$USERR3
 40
0.0
  9
$USERR4
 40
0.0
  9
$USERR5
 40
0.0
  9
$WORLDVIEW
 70
     1
  9
$SHADEDGE
 70
     3
  9
$SHADEDIF
 70
    70
  9
$TILEMODE
 70
     1
  9
$MAXACTVP
 70
    16
  9
$PLIMCHECK
 70
     0
  9
$PEXTMIN
 10
1.0000000000000000E+020
 20
1.0000000000000000E+020
 30
1.0000000000000000E+020
  9
$PEXTMAX
 10
-1.0000000000000000E+020
 20
-1.0000000000000000E+020
 30
-1.0000000000000000E+020
  9
$PLIMMIN
 10
0.0
 20
0.0
  9
$PLIMMAX
 10
12.0
 20
9.0
  9
$UNITMODE
 70
     0
  9
$VISRETAIN
 70
     0
  9
$PLINEGEN
 70
     0
  9
$PSLTSCALE
 70
     0
  0
ENDSEC
  0
SECTION
  2
TABLES
  0
TABLE
  2
VPORT
 70
     1
  0
VPORT
  2
*ACTIVE
 70
     0
 10
0.0
 20
0.0
 11
1.0
 21
1.0
 12
197.69033233610421
 22
197.93462127619509
 13
0.0
 23
0.0
 14
10.0
 24
10.0
 15
10.0
 25
10.0
 16
0.0
 26
0.0
 36
1.0
 17
0.0
 27
0.0
 37
0.0
 40
406.87528059275809
 41
2.304913294797688
 42
50.0
 43
0.0
 44
0.0
 50
0.0
 51
0.0
 71
     0
 72
   500
 73
     1
 74
     0
 75
     0
 76
     0
 77
     0
 78
     0
  0
ENDTAB
  0
TABLE
  2
LTYPE
 70
     3
  0
LTYPE
  2
CONTINUOUS
 70
     0
  3
Solid Line
 72
    65
 73
     0
 40
0.0
  0
LTYPE
  2
CENTER
 70
     0
  3
____ _ ____ _ ____ _ ____ _ ____ _ ____ _ ____
 72
    65
 73
     4
 40
2.0
 49
1.25
 49
-0.25
 49
0.25
 49
-0.25
  0
LTYPE
  2
PHANTOM2
 70
     0
  3
___ _ _ ___ _ _ ___ _ _ ___ _ _
 72
    65
 73
     6
 40
1.25
 49
0.625
 49
-0.125
 49
0.125
 49
-0.125
 49
0.125
 49
-0.125
  0
ENDTAB
  0
TABLE
  2
LAYER
 70
     4
  0
LAYER
  2
0
 70
     0
 62
     7
  6
CONTINUOUS
  0
LAYER
  2
1
 70
     0
 62
     1
  6
CENTER
  0
LAYER
  2
DEFPOINTS
 70
     0
 62
     7
  6
CONTINUOUS
  0
LAYER
  2
3
 70
     0
 62
     3
  6
CONTINUOUS
  0
ENDTAB
  0
TABLE
  2
STYLE
 70
     2
  0
STYLE
  2
STANDARD
 70
     0
 40
0.0
 41
1.0
 50
0.0
 71
     0
 42
6.0
  3
TXT
  4
BIGFONT
  0
STYLE
  2
STANDARD1
 70
     0
 40
0.0
 41
1.0
 50
0.0
 71
     0
 42
3.0
  3
txt
  4

  0
ENDTAB
  0
TABLE
  2
VIEW
 70
     1
  0
VIEW
  2
ALL
 70
     0
 40
270.0
 10
213.25689075630251
 20
135.0
 41
0.0
 11
0.0
 21
0.0
 31
1.0
 12
0.0
 22
0.0
 32
0.0
 42
0.0
 43
0.0
 44
0.0
 50
0.0
 71
     0
  0
ENDTAB
  0
TABLE
  2
UCS
 70
     0
  0
ENDTAB
  0
TABLE
  2
APPID
 70
     7
  0
APPID
  2
ACAD
 70
     0
  0
APPID
  2
ACAD_EXEMPT_FROM_CAD_STANDARDS
 70
     0
  0
APPID
  2
ACAD_MLEADERVER
 70
     0
  0
APPID
  2
ACAD_DSTYLE_DIMJAG
 70
     0
  0
APPID
  2
ACAD_DSTYLE_DIMTALN
 70
     0
  0
APPID
  2
ACAD_DSTYLE_DIMRADIAL_EXTENSION
 70
     0
  0
APPID
  2
ACAD_NAV_VCDISPLAY
 70
     0
  0
ENDTAB
  0
TABLE
  2
DIMSTYLE
 70
     1
  0
DIMSTYLE
  2
STANDARD
 70
     0
  3

  4

  5

  6

  7

 40
1.0
 41
0.18
 42
0.0625
 43
0.38
 44
0.18
 45
0.0
 46
0.0
 47
0.0
 48
0.0
140
0.18
141
0.09
142
0.0
143
25.399999999999999
144
1.0
145
0.0
146
1.0
147
0.09
 71
     0
 72
     0
 73
     1
 74
     1
 75
     0
 76
     0
 77
     0
 78
     0
170
     0
171
     2
172
     0
173
     0
174
     0
175
     0
176
     0
177
     0
178
     0
  0
ENDTAB
  0
ENDSEC
  0
SECTION
  2
BLOCKS
  0
BLOCK
  8
0
  2
$MODEL_SPACE
 70
     0
 10
0.0
 20
0.0
 30
0.0
  3
$MODEL_SPACE
  1

  0
ENDBLK
  5
126
  8
0
  0
BLOCK
 67
     1
  8
0
  2
$PAPER_SPACE
 70
     0
 10
0.0
 20
0.0
 30
0.0
  3
$PAPER_SPACE
  1

  0
ENDBLK
  5
124
 67
     1
  8
0
  0
ENDSEC
  0
SECTION
  2
ENTITIES
  0
LINE
  5
B709
  8
0
 10
224.1014306271131
 20
313.00000287592411
 30
0.0
 11
225.301462116247
 21
313.00000287592411
 31
0.0
  0
LINE
  5
B70A
  8
0
 10
225.301462116247
 20
326.00000314414501
 30
0.0
 11
224.1014306271131
 21
326.00000314414501
 31
0.0
  0
LINE
  5
B70B
  8
0
 10
225.301462116247
 20
313.00000287592411
 30
0.0
 11
225.50146177650049
 21
313.20000300183892
 31
0.0
  0
LINE
  5
B70C
  8
0
 10
225.50146177650049
 20
325.8000030182302
 30
0.0
 11
225.301462116247
 21
326.00000314414501
 31
0.0
  0
POLYLINE
  5
B70D
  8
0
 66
     1
 10
0.0
 20
0.0
 30
0.0
 70
   128
  0
VERTEX
  5
149DF
  8
0
 10
237.40360948835419
 20
256.10217722883101
 30
0.0
  0
VERTEX
  5
149E0
  8
0
 10
237.42251739144879
 20
256.11645355820662
 30
0.0
  0
VERTEX
  5
149E1
  8
0
 10
237.4870915734823
 20
256.14852085709572
 30
0.0
  0
SEQEND
  5
149E2
  8
0
  0
POLYLINE
  5
B70E
  8
0
 66
     1
 10
0.0
 20
0.0
 30
0.0
 70
   128
  0
VERTEX
  5
149E3
  8
0
 10
228.73838514328551
 20
310.73103658854961
 30
0.0
  0
VERTEX
  5
149E4
  8
0
 10
229.74361375213221
 20
309.56187471747398
 30
0.0
  0
VERTEX
  5
149E5
  8
0
 10
230.7374615991171
 20
308.18440765142441
 30
0.0
  0
VERTEX
  5
149E6
  8
0
 10
231.66666820884299
 20
306.59093894064432
 30
0.0
  0
VERTEX
  5
149E7
  8
0
 10
232.45220899820879
 20
304.8352487385273
 30
0.0
  0
VERTEX
  5
149E8
  8
0
 10
233.0262836837824
 20
303.06769907474518
 30
0.0
  0
VERTEX
  5
149E9
  8
0
 10
233.40231076121881
 20
301.32049880921841
 30
0.0
  0
VERTEX
  5
149EA
  8
0
 10
233.61698806524831
 20
299.28265698254108
 30
0.0
  0
VERTEX
  5
149EB
  8
0
 10
233.60273510456639
 20
297.33915813267231
 30
0.0
  0
VERTEX
  5
149EC
  8
0
 10
233.44628781319221
 20
295.46959511935711
 30
0.0
  0
VERTEX
  5
149ED
  8
0
 10
233.26060816884589
 20
293.55905391275883
 30
0.0
  0
VERTEX
  5
149EE
  8
0
 10
233.077241929775
 20
291.58520326018328
 30
0.0
  0
VERTEX
  5
149EF
  8
0
 10
232.96853795886591
 20
290.3108112514019
 30
0.0
  0
VERTEX
  5
149F0
  8
0
 10
232.85612732410979
 20
289.0041247010231
 30
0.0
  0
VERTEX
  5
149F1
  8
0
 10
232.7307750308569
 20
287.66394406557077
 30
0.0
  0
VERTEX
  5
149F2
  8
0
 10
232.64952272415709
 20
286.26277670264238
 30
0.0
  0
VERTEX
  5
149F3
  8
0
 10
232.74845153332311
 20
285.1264625787735
 30
0.0
  0
VERTEX
  5
149F4
  8
0
 10
233.07711526990491
 20
284.0402945876121
 30
0.0
  0
VERTEX
  5
149F5
  8
0
 10
233.48465457797599
 20
282.98860788345343
 30
0.0
  0
VERTEX
  5
149F6
  8
0
 10
233.85904252768111
 20
281.95464238524443
 30
0.0
  0
VERTEX
  5
149F7
  8
0
 10
234.1928359890039
 20
280.93672543764109
 30
0.0
  0
VERTEX
  5
149F8
  8
0
 10
234.51933362464769
 20
279.75558888285678
 30
0.0
  0
SEQEND
  5
149F9
  8
0
  0
ARC
  5
B710
  8
0
 10
240.0378325982783
 20
261.56863812282842
 30
0.0
 40
6.1662126541064799
 50
216.92073744694471
 51
233.6731140453621
  0
POLYLINE
  5
B718
  8
0
 66
     1
 10
0.0
 20
0.0
 30
0.0
 70
   128
  0
VERTEX
  5
149FA
  8
0
 10
236.83112010598731
 20
256.29987195134157
 30
0.0
  0
VERTEX
  5
149FB
  8
0
 10
236.41557514906481
 20
256.5766535699367
 30
0.0
  0
VERTEX
  5
149FC
  8
0
 10
236.3850219038716
 20
256.60082647920802
 30
0.0
  0
SEQEND
  5
149FD
  8
0
  0
POLYLINE
  5
B71A
  8
0
 66
     1
 10
0.0
 20
0.0
 30
0.0
 70
   128
  0
VERTEX
  5
149FE
  8
0
 10
237.40364274849989
 20
256.1021703617281
 30
0.0
  0
VERTEX
  5
149FF
  8
0
 10
237.42256954551291
 20
256.11643865704542
 30
0.0
  0
VERTEX
  5
14A00
  8
0
 10
237.4870915734823
 20
256.14852085709572
 30
0.0
  0
SEQEND
  5
14A01
  8
0
  0
LINE
  5
B71B
  8
0
 10
226.04722798109611
 20
322.50000303611159
 30
0.0
 11
225.50146177650049
 21
322.50000303611159
 31
0.0
  0
LINE
  5
B71C
  8
0
 10
222.00097784638959
 20
311.50000263005489
 30
0.0
 11
223.6014333391245
 21
311.50000263005489
 31
0.0
  0
LINE
  5
B71D
  8
0
 10
223.6014333391245
 20
327.50000339001417
 30
0.0
 11
222.00097784638959
 21
327.50000339001417
 31
0.0
  0
LINE
  5
B71E
  8
0
 10
223.6014333391245
 20
311.50000263005489
 30
0.0
 11
224.1014306271131
 21
312.00000317767262
 31
0.0
  0
LINE
  5
B71F
  8
0
 10
224.1014306271131
 20
327.0000028423965
 30
0.0
 11
223.6014333391245
 21
327.50000339001417
 31
0.0
  0
LINE
  5
B720
  8
0
 10
234.9236261868532
 20
318.50000296253711
 30
0.0
 11
236.07832834363541
 21
318.50000296253711
 31
0.0
  0
LINE
  5
B721
  8
0
 10
236.07832834363541
 20
318.50000296253711
 30
0.0
 11
236.6556812846716
 21
319.50000301003462
 31
0.0
  0
LINE
  5
B722
  8
0
 10
236.6556812846716
 20
319.50000301003462
 30
0.0
 11
236.07832834363541
 21
320.50000305753201
 31
0.0
  0
LINE
  5
B723
  8
0
 10
234.9236261868532
 20
320.50000305753201
 30
0.0
 11
234.3462769711073
 21
319.50000301003462
 31
0.0
  0
LINE
  5
B724
  8
0
 10
234.3462769711073
 20
319.50000301003462
 30
0.0
 11
234.9236261868532
 21
318.50000296253711
 31
0.0
  0
LINE
  5
B726
  8
0
 10
236.07832834363541
 20
320.50000305753201
 30
0.0
 11
234.9236261868532
 21
320.50000305753201
 31
0.0
  0
LINE
  5
B729
  8
0
 10
225.301462116247
 20
313.00000287592411
 30
0.0
 11
225.3014621162468
 21
326.00000314414501
 31
0.0
  0
LINE
  5
B72A
  8
0
 10
225.50146177650049
 20
325.8000030182302
 30
0.0
 11
225.50146177650049
 21
313.20000300183892
 31
0.0
  0
ARC
  5
B72C
  8
0
 10
203.4568218154748
 20
327.29515470648948
 30
0.0
 40
0.500999999995233
 50
90.043471659651189
 51
270.04357888579523
  0
LINE
  5
B72D
  8
0
 10
203.4572035843189
 20
326.79415494203568
 30
0.0
 11
204.2047035718019
 21
326.7947225831449
 31
0.0
  0
LINE
  5
B72E
  8
0
 10
203.4584720456655
 20
325.12415526434779
 30
0.0
 11
207.00909465790349
 21
325.12685237452388
 31
0.0
  0
LINE
  5
B72F
  8
0
 10
207.0070643746908
 20
327.79885176569218
 30
0.0
 11
207.00579777598929
 21
329.46885097771877
 31
0.0
  0
LINE
  5
B730
  8
0
 10
205.69893986225679
 20
327.79785804450512
 30
0.0
 11
207.0070643746908
 21
327.79885176569218
 31
0.0
  0
LINE
  5
B731
  8
0
 10
205.69970354676801
 20
326.79585833102459
 30
0.0
 11
205.69893986225679
 21
327.79785804450512
 31
0.0
  0
LINE
  5
B732
  8
0
 10
207.00782805920201
 20
326.79685205221182
 30
0.0
 11
205.69970354676801
 21
326.79585833102459
 31
0.0
  0
LINE
  5
B733
  8
0
 10
204.2047035718019
 20
326.7947225831449
 30
0.0
 11
204.20394174993589
 21
327.79672276228672
 31
0.0
  0
LINE
  5
B734
  8
0
 10
207.00579777598929
 20
329.46885097771877
 30
0.0
 11
203.45517330110621
 21
329.46615386754269
 31
0.0
  0
LINE
  5
B735
  8
0
 10
204.20394174993589
 20
327.79672276228672
 30
0.0
 11
203.4564417624529
 21
327.79615465551609
 31
0.0
  0
LINE
  5
B736
  8
0
 10
207.00909465790349
 20
325.12685237452388
 30
0.0
 11
207.00782805920201
 21
326.79685205221182
 31
0.0
  0
ARC
  5
B737
  8
0
 10
203.4568218154748
 20
327.29515470648948
 30
0.0
 40
2.170999999978338
 50
90.043512900476287
 51
270.04353764497648
  0
CIRCLE
  5
B738
  8
0
 10
204.2039414792996
 20
332.94528553906508
 30
0.0
 40
1.001999999989976
  0
CIRCLE
  5
B739
  8
0
 10
204.2039414792996
 20
332.94528553906508
 30
0.0
 40
2.8499999999999939
  0
LINE
  5
B73A
  8
0
 10
206.03966981411531
 20
310.99632196128368
 30
0.0
 11
207.14570477843839
 21
310.99716201424599
 31
0.0
  0
LINE
  5
B73B
  8
0
 10
202.72913284838751
 20
310.99380645900959
 30
0.0
 11
203.6454015249069
 21
310.99450308829552
 31
0.0
  0
ARC
  5
B73C
  8
0
 10
203.72802306498241
 20
310.76789424649178
 30
0.0
 40
2.8513134064537389
 50
189.33601857369621
 51
217.5838190855911
  0
LINE
  5
B73D
  8
0
 10
203.64966511965349
 20
305.38330413401133
 30
0.0
 11
203.64918641985011
 21
306.0131324455142
 31
0.0
  0
LINE
  5
B73E
  8
0
 10
204.034092726713
 20
305.3835965692997
 30
0.0
 11
203.64966511965349
 21
305.38330413401133
 31
0.0
  0
ARC
  5
B73F
  8
0
 10
204.1225256118291
 20
307.04204266611839
 30
0.0
 40
1.660802294517846
 50
266.94772457243488
 51
344.1081361654974
  0
LINE
  5
B740
  8
0
 10
206.43735200405669
 20
306.5878227353096
 30
0.0
 11
205.71985364199239
 21
306.58727698028088
 31
0.0
  0
ARC
  5
B741
  8
0
 10
204.16065179059859
 20
307.07955021127242
 30
0.0
 40
2.329197068075703
 50
266.89703507056282
 51
347.8123147831692
  0
LINE
  5
B742
  8
0
 10
204.0350501263197
 20
304.12393994629377
 30
0.0
 11
203.6506206566151
 21
304.1236475110054
 31
0.0
  0
LINE
  5
B743
  8
0
 10
207.85819262505129
 20
306.58890213817358
 30
0.0
 11
207.1490538144167
 21
306.58836290240288
 31
0.0
  0
ARC
  5
B744
  8
0
 10
199.26948965434349
 20
310.79300241448902
 30
0.0
 40
3.4941677243450489
 50
320.07115526315278
 51
352.00021456259481
  0
ARC
  5
B745
  8
0
 10
199.2064464166892
 20
310.53071607770431
 30
0.0
 40
2.851313406453782
 50
9.3360185736930337
 51
37.583819085589198
  0
ARC
  5
B746
  8
0
 10
208.79069263401081
 20
310.50950170594513
 30
0.0
 40
3.4941677243449298
 50
140.0711552631528
 51
172.0002145625931
  0
LINE
  5
B747
  8
0
 10
204.41425860167101
 20
310.99508702754969
 30
0.0
 11
205.3305272781904
 21
310.99578272551298
 31
0.0
  0
ARC
  5
B748
  8
0
 10
204.34261903849119
 20
310.75124016311122
 30
0.0
 40
2.838104455194288
 50
329.729058316541
 51
351.05750239331621
  0
ARC
  5
B749
  8
0
 10
204.332159223372
 20
310.53460987394237
 30
0.0
 40
2.8513134064537939
 50
9.3360185736946395
 51
37.583819085590498
  0
ARC
  5
B74A
  8
0
 10
204.02992290678549
 20
310.87271628202762
 30
0.0
 40
3.8442857142473059
 50
327.246356976909
 51
212.84069356853971
  0
ARC
  5
B74B
  8
0
 10
208.8539134368805
 20
310.53804486732002
 30
0.0
 40
2.8513134064537708
 50
142.5032314598599
 51
170.75103197175301
  0
LINE
  5
B74C
  8
0
 10
207.14622631908011
 20
310.31007599085569
 30
0.0
 11
206.0401913547571
 21
310.30923593789339
 31
0.0
  0
ARC
  5
B74D
  8
0
 10
204.1987543551802
 20
306.74227191606519
 30
0.0
 40
2.9975757930068192
 50
10.245676801441389
 51
93.212215486051349
  0
ARC
  5
B74E
  8
0
 10
204.2938760957077
 20
306.61776248193308
 30
0.0
 40
3.6816580457725219
 50
47.233819826918257
 51
59.346264167636747
  0
ARC
  5
B74F
  8
0
 10
208.83129488950181
 20
310.72698847178953
 30
0.0
 40
2.8221936627701529
 50
188.51243141082071
 51
199.4991308438222
  0
LINE
  5
B750
  8
0
 10
203.6454015249069
 20
310.99450308829552
 30
0.0
 11
203.64354819298339
 21
313.43544647097588
 31
0.0
  0
ARC
  5
B751
  8
0
 10
208.75007294249389
 20
310.70477743676503
 30
0.0
 40
3.4418885823637129
 50
186.60803002292079
 51
189.1650058665895
  0
ARC
  5
B752
  8
0
 10
199.26971051273171
 20
310.5022690017795
 30
0.0
 40
3.4941677243448881
 50
8.0868359828569094
 51
40.015895282298423
  0
ARC
  5
B753
  8
0
 10
204.16150817127959
 20
310.36073424795751
 30
0.0
 40
3.0855140002407859
 50
50.810202446700821
 51
85.335888723178854
  0
LINE
  5
B754
  8
0
 10
204.4124052697475
 20
313.43603041023022
 30
0.0
 11
204.41425860167101
 21
310.99508702754969
 31
0.0
  0
ARC
  5
B755
  8
0
 10
204.1406665266781
 20
306.53663179879129
 30
0.0
 40
3.8172642562508541
 50
71.496483276654061
 51
81.129597981815749
  0
LINE
  5
B756
  8
0
 10
205.33104881883219
 20
310.30869763344532
 30
0.0
 11
204.72928777576041
 21
310.30824035406113
 31
0.0
  0
LINE
  5
B757
  8
0
 10
200.9139572107847
 20
310.99242810159922
 30
0.0
 11
202.0199903124626
 21
310.99326815456152
 31
0.0
  0
ARC
  5
B758
  8
0
 10
203.72820063019751
 20
310.53415107108168
 30
0.0
 40
2.8513134064536918
 50
142.5032314598599
 51
170.75103197175301
  0
LINE
  5
B759
  8
0
 10
207.14853227377489
 20
307.27544892579323
 30
0.0
 11
207.8576710844095
 21
307.2759872302413
 31
0.0
  0
LINE
  5
B75A
  8
0
 10
202.0205137157495
 20
310.30618213117123
 30
0.0
 11
200.91447875142649
 21
310.30534207820892
 31
0.0
  0
ARC
  5
B75B
  8
0
 10
199.20626885147399
 20
310.76445925311418
 30
0.0
 40
2.8513134064537371
 50
322.5032314598605
 51
350.75103197175468
  0
ARC
  5
B75C
  8
0
 10
204.03291781170859
 20
306.92953884797771
 30
0.0
 40
0.9161142857051462
 50
270.04356074218799
 51
90.043445193025306
  0
LINE
  5
B75D
  8
0
 10
203.64918641985011
 20
306.0131324455142
 30
0.0
 11
204.03361402690959
 21
306.01342488080257
 31
0.0
  0
ARC
  5
B75E
  8
0
 10
204.19846964574799
 20
307.11705752220672
 30
0.0
 40
2.997575793006749
 50
266.8748350594031
 51
349.8413737440066
  0
ARC
  5
B75F
  8
0
 10
203.9191160518663
 20
310.94304173231018
 30
0.0
 40
3.0994533356261469
 50
230.53217560829779
 51
272.09133621753989
  0
ARC
  5
B760
  8
0
 10
203.8991156577076
 20
310.36053491900151
 30
0.0
 40
3.0855140002408299
 50
94.751161822269793
 51
129.27684809874489
  0
ARC
  5
B761
  8
0
 10
204.40826308203711
 20
306.79864894471581
 30
0.0
 40
3.4822802592202891
 50
7.8787040467279539
 51
34.936701865271871
  0
LINE
  5
B762
  8
0
 10
203.65014195681169
 20
304.75347582250828
 30
0.0
 11
204.03457142651629
 21
304.75376825779682
 31
0.0
  0
LINE
  5
B763
  8
0
 10
203.6506206566151
 20
304.1236475110054
 30
0.0
 11
203.65014195681169
 21
304.75347582250828
 31
0.0
  0
LINE
  5
B764
  8
0
 10
203.64592306554869
 20
310.30741706490522
 30
0.0
 11
203.64635892451361
 21
309.73484646528959
 31
0.0
  0
LINE
  5
B765
  8
0
 10
202.72965438902929
 20
310.30672136694187
 30
0.0
 11
203.64592306554869
 21
310.30741706490522
 31
0.0
  0
ARC
  5
B766
  8
0
 10
204.064549516358
 20
306.83927356553568
 30
0.0
 40
3.8018977258946931
 50
149.1660893084383
 51
356.2240871269853
  0
LINE
  5
B767
  8
0
 10
203.64635892451361
 20
309.73484646528959
 30
0.0
 11
204.03078653157311
 21
309.73513796925539
 31
0.0
  0
ARC
  5
B768
  8
0
 10
203.35883687879891
 20
322.23539131142741
 30
0.0
 40
2.2230209474302658
 50
87.418080654141676
 51
215.39795309899759
  0
LINE
  5
B769
  8
0
 10
207.01163158059671
 20
321.7868534848094
 30
0.0
 11
203.46100896835881
 21
321.78415637463331
 31
0.0
  0
LINE
  5
B76A
  8
0
 10
203.46227742970541
 20
320.11415675515309
 30
0.0
 11
207.01290190458849
 21
320.11685403995222
 31
0.0
  0
ARC
  5
B76B
  8
0
 10
203.46265798658351
 20
319.61315692349541
 30
0.0
 40
0.5009999999949824
 50
90.043525272726427
 51
270.04352527271988
  0
LINE
  5
B76C
  8
0
 10
207.0136618638094
 20
319.11485432647169
 30
0.0
 11
203.46303925157139
 21
319.11215707077639
 31
0.0
  0
LINE
  5
B76D
  8
0
 10
207.01493218780121
 20
317.44485488161439
 30
0.0
 11
207.0136618638094
 21
319.11485432647169
 31
0.0
  0
LINE
  5
B76E
  8
0
 10
203.4602471464928
 20
322.78615608811378
 30
0.0
 11
207.0108716213758
 21
322.78885319828993
 31
0.0
  0
LINE
  5
B76F
  8
0
 10
207.01290190458849
 20
320.11685403995222
 30
0.0
 11
207.01163158059671
 21
321.7868534848094
 31
0.0
  0
LINE
  5
B770
  8
0
 10
203.4643077129181
 20
317.44215753860772
 30
0.0
 11
207.01493218780121
 21
317.44485488161439
 31
0.0
  0
ARC
  5
B771
  8
0
 10
203.36079119716101
 20
319.66276705376117
 30
0.0
 40
2.2230209474303142
 50
144.68909744645211
 51
272.66896989130709
  0
LINE
  5
B772
  8
0
 10
207.00960129738411
 20
324.4588528759777
 30
0.0
 11
203.45897868514609
 21
324.45615530014038
 31
0.0
  0
LINE
  5
B773
  8
0
 10
207.0108716213758
 20
322.78885319828993
 30
0.0
 11
207.00960129738411
 21
324.4588528759777
 31
0.0
  0
ARC
  5
B774
  8
0
 10
203.46062817708409
 20
322.28515615248671
 30
0.0
 40
0.5009999999949825
 50
90.043525272719876
 51
270.04352527272641
  0
LINE
  5
B775
  8
0
 10
207.01543882728171
 20
316.77685491740698
 30
0.0
 11
201.03544079006269
 21
316.77231215871871
 31
0.0
  0
LINE
  5
B776
  8
0
 10
201.03670925140929
 20
315.10231271386152
 30
0.0
 11
207.01670542598319
 21
315.10685570538038
 31
0.0
  0
LINE
  5
B777
  8
0
 10
201.03544079006269
 20
316.77231215871871
 30
0.0
 11
201.03670925140929
 21
315.10231271386152
 31
0.0
  0
LINE
  5
B778
  8
0
 10
207.01670542598319
 20
315.10685570538038
 30
0.0
 11
207.01543882728171
 21
316.77685491740698
 31
0.0
  0
LINE
  5
B779
  8
0
 10
204.03126523137641
 20
309.10530965775251
 30
0.0
 11
203.64683762431699
 21
309.10501722246408
 31
0.0
  0
LINE
  5
B77A
  8
0
 10
205.7193321013506
 20
307.27436300367123
 30
0.0
 11
206.43683046341491
 21
307.27490782737732
 31
0.0
  0
ARC
  5
B77B
  8
0
 10
204.12269643748871
 20
306.81717130243248
 30
0.0
 40
1.660802294517804
 50
15.978914379953499
 51
93.139325973021144
  0
LINE
  5
B77C
  8
0
 10
203.64731632412031
 20
308.47518891096109
 30
0.0
 11
204.03174393117979
 21
308.47548134624958
 31
0.0
  0
LINE
  5
B77D
  8
0
 10
203.64683762431699
 20
309.10501722246408
 30
0.0
 11
203.64731632412031
 21
308.47518891096109
 31
0.0
  0
ARC
  5
B77E
  8
0
 10
204.16087955814439
 20
306.77972172635998
 30
0.0
 40
2.3291970680757541
 50
12.27473576227815
 51
93.190015474880965
  0
POLYLINE
  5
B783
  8
0
 66
     1
 10
0.0
 20
0.0
 30
0.0
 70
   128
  0
VERTEX
  5
14A02
  8
0
 10
242.18803540111139
 20
309.88058261573309
 30
0.0
  0
VERTEX
  5
14A03
  8
0
 10
241.7707060301359
 20
305.11048249900341
 30
0.0
  0
VERTEX
  5
14A04
  8
0
 10
241.35619297862601
 20
300.37255771458149
 30
0.0
  0
VERTEX
  5
14A05
  8
0
 10
240.9466569149549
 20
295.69153673946857
 30
0.0
  0
VERTEX
  5
14A06
  8
0
 10
240.5410473072584
 20
291.05543531477451
 30
0.0
  0
VERTEX
  5
14A07
  8
0
 10
240.13851478934839
 20
286.45440563559532
 30
0.0
  0
VERTEX
  5
14A08
  8
0
 10
239.57830563426569
 20
280.05121648311609
 30
0.0
  0
VERTEX
  5
14A09
  8
0
 10
239.01410296798301
 20
273.60238507390022
 30
0.0
  0
VERTEX
  5
14A0A
  8
0
 10
238.86405572534159
 20
271.88729122281069
 30
0.0
  0
VERTEX
  5
14A0B
  8
0
 10
238.7125854218061
 20
270.15602588653559
 30
0.0
  0
VERTEX
  5
14A0C
  8
0
 10
238.5595132434423
 20
268.40641349554062
 30
0.0
  0
VERTEX
  5
14A0D
  8
0
 10
238.40574071050241
 20
266.64871349930758
 30
0.0
  0
VERTEX
  5
14A0E
  8
0
 10
238.2526908838804
 20
264.89939913153648
 30
0.0
  0
VERTEX
  5
14A0F
  8
0
 10
238.09168383718091
 20
263.05908709764481
 30
0.0
  0
SEQEND
  5
14A10
  8
0
  0
POLYLINE
  5
B784
  8
0
 66
     1
 10
0.0
 20
0.0
 30
0.0
 70
   128
  0
VERTEX
  5
14A11
  8
0
 10
238.0917136395033
 20
263.05941492319113
 30
0.0
  0
VERTEX
  5
14A12
  8
0
 10
238.3027662360723
 20
265.82331955432892
 30
0.0
  0
VERTEX
  5
14A13
  8
0
 10
238.45215037704071
 20
268.58049258589739
 30
0.0
  0
VERTEX
  5
14A14
  8
0
 10
238.54082718730521
 20
271.33556082844729
 30
0.0
  0
VERTEX
  5
14A15
  8
0
 10
238.56898293138099
 20
274.09155294299131
 30
0.0
  0
VERTEX
  5
14A16
  8
0
 10
238.53642389417249
 20
276.84852480888372
 30
0.0
  0
VERTEX
  5
14A17
  8
0
 10
238.294972928768
 20
282.26679190993309
 30
0.0
  0
VERTEX
  5
14A18
  8
0
 10
237.8170554363783
 20
287.68863156437868
 30
0.0
  0
VERTEX
  5
14A19
  8
0
 10
237.2984801256712
 20
291.78226925432682
 30
0.0
  0
VERTEX
  5
14A1A
  8
0
 10
236.6481114947851
 20
295.84641009569168
 30
0.0
  0
VERTEX
  5
14A1B
  8
0
 10
235.85612222791269
 20
299.87386986613268
 30
0.0
  0
VERTEX
  5
14A1C
  8
0
 10
235.3578199470098
 20
301.86285823583597
 30
0.0
  0
VERTEX
  5
14A1D
  8
0
 10
234.7351153218801
 20
303.8153275847435
 30
0.0
  0
VERTEX
  5
14A1E
  8
0
 10
233.94792050362179
 20
305.71258440613752
 30
0.0
  0
VERTEX
  5
14A1F
  8
0
 10
232.98586800933441
 20
307.53348581492901
 30
0.0
  0
VERTEX
  5
14A20
  8
0
 10
231.85864731908401
 20
309.2592554166913
 30
0.0
  0
VERTEX
  5
14A21
  8
0
 10
230.5923764431532
 20
310.89507136493921
 30
0.0
  0
SEQEND
  5
14A22
  8
0
  0
POLYLINE
  5
B786
  8
0
 66
     1
 10
0.0
 20
0.0
 30
0.0
 70
   128
  0
VERTEX
  5
14A23
  8
0
 10
239.10665408015799
 20
257.44962692260742
 30
0.0
  0
VERTEX
  5
14A24
  8
0
 10
239.11800131440711
 20
257.57933408021933
 30
0.0
  0
VERTEX
  5
14A25
  8
0
 10
239.14886906982019
 20
257.932148873806
 30
0.0
  0
VERTEX
  5
14A26
  8
0
 10
239.1947050416525
 20
258.45609977841377
 30
0.0
  0
VERTEX
  5
14A27
  8
0
 10
239.2508973205145
 20
259.09833610057831
 30
0.0
  0
VERTEX
  5
14A28
  8
0
 10
239.33352425933441
 20
260.0428201258182
 30
0.0
  0
VERTEX
  5
14A29
  8
0
 10
239.4255240285452
 20
261.0943615436554
 30
0.0
  0
VERTEX
  5
14A2A
  8
0
 10
239.52343955874991
 20
262.21350952982903
 30
0.0
  0
VERTEX
  5
14A2B
  8
0
 10
239.6421496594007
 20
263.57041671872139
 30
0.0
  0
VERTEX
  5
14A2C
  8
0
 10
239.76116523385599
 20
264.93073999881739
 30
0.0
  0
VERTEX
  5
14A2D
  8
0
 10
239.8801286542471
 20
266.29048213362688
 30
0.0
  0
VERTEX
  5
14A2E
  8
0
 10
239.99877915025311
 20
267.64665171504021
 30
0.0
  0
VERTEX
  5
14A2F
  8
0
 10
240.11729553580841
 20
269.00134980678558
 30
0.0
  0
VERTEX
  5
14A30
  8
0
 10
240.5159239494856
 20
273.55772256851202
 30
0.0
  0
VERTEX
  5
14A31
  8
0
 10
240.91519311309409
 20
278.12131494283682
 30
0.0
  0
VERTEX
  5
14A32
  8
0
 10
241.3148646080549
 20
282.68964216113091
 30
0.0
  0
VERTEX
  5
14A33
  8
0
 10
241.71480432391721
 20
287.26094961166382
 30
0.0
  0
VERTEX
  5
14A34
  8
0
 10
242.11474403977951
 20
291.83224402368069
 30
0.0
  0
VERTEX
  5
14A35
  8
0
 10
242.42836877942639
 20
295.41706666350359
 30
0.0
  0
VERTEX
  5
14A36
  8
0
 10
242.74112180114341
 20
298.9918477833271
 30
0.0
  0
VERTEX
  5
14A37
  8
0
 10
243.05424735189041
 20
302.57084220647812
 30
0.0
  0
VERTEX
  5
14A38
  8
0
 10
243.3680881583746
 20
306.15810584276909
 30
0.0
  0
VERTEX
  5
14A39
  8
0
 10
243.682331296211
 20
309.74984914064407
 30
0.0
  0
SEQEND
  5
14A3A
  8
0
  0
ARC
  5
B787
  8
0
 10
237.61235948586679
 20
257.58036100681488
 30
0.0
 40
1.500000000000111
 50
264.99999999885591
 51
354.99999999885102
  0
POLYLINE
  5
B788
  8
0
 66
     1
 10
0.0
 20
0.0
 30
0.0
 70
   128
  0
VERTEX
  5
14A3B
  8
0
 10
238.09168383718091
 20
263.05908709764481
 30
0.0
  0
VERTEX
  5
14A3C
  8
0
 10
237.99273267627311
 20
261.92803308367729
 30
0.0
  0
VERTEX
  5
14A3D
  8
0
 10
237.88808182120869
 20
260.73187589645391
 30
0.0
  0
VERTEX
  5
14A3E
  8
0
 10
237.79041961074429
 20
259.61556285619741
 30
0.0
  0
VERTEX
  5
14A3F
  8
0
 10
237.70010367274841
 20
258.58327746391302
 30
0.0
  0
VERTEX
  5
14A40
  8
0
 10
237.61697009444791
 20
257.6330378651619
 30
0.0
  0
VERTEX
  5
14A41
  8
0
 10
237.57965013623789
 20
257.2065144777298
 30
0.0
  0
VERTEX
  5
14A42
  8
0
 10
237.54721030831891
 20
256.8356953561306
 30
0.0
  0
VERTEX
  5
14A43
  8
0
 10
237.5200976455267
 20
256.52576610445982
 30
0.0
  0
VERTEX
  5
14A44
  8
0
 10
237.49933287740311
 20
256.28849491477013
 30
0.0
  0
VERTEX
  5
14A45
  8
0
 10
237.4870915734823
 20
256.14852085709572
 30
0.0
  0
SEQEND
  5
14A46
  8
0
  0
POLYLINE
  5
B791
  8
0
 66
     1
 10
0.0
 20
0.0
 30
0.0
 70
   128
  0
VERTEX
  5
14A47
  8
0
 10
242.18803540111139
 20
309.88058261573309
 30
0.0
  0
VERTEX
  5
14A48
  8
0
 10
242.42411449790549
 20
311.5382231771946
 30
0.0
  0
VERTEX
  5
14A49
  8
0
 10
242.7898262465055
 20
313.1845211610198
 30
0.0
  0
VERTEX
  5
14A4A
  8
0
 10
243.20853397489151
 20
314.82618348672992
 30
0.0
  0
VERTEX
  5
14A4B
  8
0
 10
243.66580590844711
 20
316.76416681148112
 30
0.0
  0
VERTEX
  5
14A4C
  8
0
 10
243.96478280664039
 20
318.7159993685782
 30
0.0
  0
SEQEND
  5
14A4D
  8
0
  0
POLYLINE
  5
B792
  8
0
 66
     1
 10
0.0
 20
0.0
 30
0.0
 70
   128
  0
VERTEX
  5
14A4E
  8
0
 10
226.96433484793261
 20
313.02839610725641
 30
0.0
  0
VERTEX
  5
14A4F
  8
0
 10
227.0942394459303
 20
312.94209277257318
 30
0.0
  0
VERTEX
  5
14A50
  8
0
 10
227.24775120854929
 20
312.86694575101137
 30
0.0
  0
VERTEX
  5
14A51
  8
0
 10
227.42486641049939
 20
312.80295457690949
 30
0.0
  0
VERTEX
  5
14A52
  8
0
 10
227.8103631758745
 20
312.71015852689737
 30
0.0
  0
VERTEX
  5
14A53
  8
0
 10
228.27528313041279
 20
312.62507196515799
 30
0.0
  0
VERTEX
  5
14A54
  8
0
 10
228.72527584672531
 20
312.52504186704749
 30
0.0
  0
VERTEX
  5
14A55
  8
0
 10
229.11308229208541
 20
312.38410854712129
 30
0.0
  0
VERTEX
  5
14A56
  8
0
 10
229.537027778631
 20
312.066366430372
 30
0.0
  0
VERTEX
  5
14A57
  8
0
 10
229.8992936337049
 20
311.68546620756388
 30
0.0
  0
VERTEX
  5
14A58
  8
0
 10
230.5923764431532
 20
310.89507136493921
 30
0.0
  0
SEQEND
  5
14A59
  8
0
  0
POLYLINE
  5
B795
  8
0
 66
     1
 10
0.0
 20
0.0
 30
0.0
 70
   128
  0
VERTEX
  5
14A5A
  8
0
 10
236.83112010598731
 20
256.29987195134157
 30
0.0
  0
VERTEX
  5
14A5B
  8
0
 10
237.1405725205
 20
256.15648552775377
 30
0.0
  0
VERTEX
  5
14A5C
  8
0
 10
237.48162284732419
 20
256.0860700905323
 30
0.0
  0
SEQEND
  5
14A5D
  8
0
  0
LINE
  5
B796
  8
0
 10
228.39622840524271
 20
311.08720973134041
 30
0.0
 11
228.73838514328551
 21
310.73103658854961
 31
0.0
  0
POLYLINE
  5
B798
  8
0
 66
     1
 10
0.0
 20
0.0
 30
0.0
 70
   128
  0
VERTEX
  5
14A5E
  8
0
 10
234.51933362464769
 20
279.75558888285678
 30
0.0
  0
VERTEX
  5
14A5F
  8
0
 10
235.0616034889276
 20
277.38941088318819
 30
0.0
  0
VERTEX
  5
14A60
  8
0
 10
235.4197268211897
 20
274.80316907167429
 30
0.0
  0
VERTEX
  5
14A61
  8
0
 10
235.53988978505691
 20
272.84036204218859
 30
0.0
  0
VERTEX
  5
14A62
  8
0
 10
235.53286388755399
 20
270.87247371673578
 30
0.0
  0
VERTEX
  5
14A63
  8
0
 10
235.39918557048401
 20
268.92120391130447
 30
0.0
  0
VERTEX
  5
14A64
  8
0
 10
235.12559280038431
 20
266.9216245412826
 30
0.0
  0
VERTEX
  5
14A65
  8
0
 10
234.8608140671308
 20
265.59732854366302
 30
0.0
  0
VERTEX
  5
14A66
  8
0
 10
234.55774307489949
 20
264.38123732805252
 30
0.0
  0
VERTEX
  5
14A67
  8
0
 10
234.2571531260069
 20
263.29687237739557
 30
0.0
  0
VERTEX
  5
14A68
  8
0
 10
234.07060548902109
 20
262.53155246376991
 30
0.0
  0
VERTEX
  5
14A69
  8
0
 10
233.96193132043439
 20
261.78769022226328
 30
0.0
  0
VERTEX
  5
14A6A
  8
0
 10
233.96173388004851
 20
261.05820760130882
 30
0.0
  0
VERTEX
  5
14A6B
  8
0
 10
234.0529029095228
 20
260.35537570714951
 30
0.0
  0
VERTEX
  5
14A6C
  8
0
 10
234.21079188824251
 20
259.69349592924118
 30
0.0
  0
VERTEX
  5
14A6D
  8
0
 10
234.42827433586669
 20
259.07555222511292
 30
0.0
  0
VERTEX
  5
14A6E
  8
0
 10
235.03105238318989
 20
257.97214731574059
 30
0.0
  0
VERTEX
  5
14A6F
  8
0
 10
235.1081472659167
 20
257.86453485488869
 30
0.0
  0
SEQEND
  5
14A70
  8
0
  0
POLYLINE
  5
B7A2
  8
0
 66
     1
 10
0.0
 20
0.0
 30
0.0
 70
   128
  0
VERTEX
  5
14A71
  8
0
 10
244.1943128430899
 20
321.82937441393727
 30
0.0
  0
VERTEX
  5
14A72
  8
0
 10
244.34686348081189
 20
320.08566148579121
 30
0.0
  0
VERTEX
  5
14A73
  8
0
 10
244.4667284214552
 20
318.71560134459293
 30
0.0
  0
SEQEND
  5
14A74
  8
0
  0
ARC
  5
B7A3
  8
0
 10
244.42052051183941
 20
576.94356125462105
 30
0.0
 40
258.22796404430341
 50
269.89888058512429
 51
270.01025263946519
  0
POLYLINE
  5
B7A4
  8
0
 66
     1
 10
0.0
 20
0.0
 30
0.0
 70
   128
  0
VERTEX
  5
14A75
  8
0
 10
226.65690899134231
 20
312.63407459482551
 30
0.0
  0
VERTEX
  5
14A76
  8
0
 10
226.67849332333159
 20
312.66176048666239
 30
0.0
  0
VERTEX
  5
14A77
  8
0
 10
226.70702159643719
 20
312.69835075363522
 30
0.0
  0
VERTEX
  5
14A78
  8
0
 10
226.74695298314651
 20
312.74956883862609
 30
0.0
  0
VERTEX
  5
14A79
  8
0
 10
226.79610818863469
 20
312.81261937692761
 30
0.0
  0
VERTEX
  5
14A7A
  8
0
 10
226.8511717045362
 20
312.88324855268002
 30
0.0
  0
VERTEX
  5
14A7B
  8
0
 10
226.96433484793261
 20
313.02839610725641
 30
0.0
  0
SEQEND
  5
14A7C
  8
0
  0
ARC
  5
B7A5
  8
0
 10
215.589297136255
 20
298.43818447658919
 30
0.0
 40
18.000425784517031
 50
44.64459272521205
 51
52.058776116730812
  0
POLYLINE
  5
B7A6
  8
0
 66
     1
 10
0.0
 20
0.0
 30
0.0
 70
   128
  0
VERTEX
  5
14A7D
  8
0
 10
236.28537997842389
 20
328.46575509756798
 30
0.0
  0
VERTEX
  5
14A7E
  8
0
 10
237.9761104309614
 20
328.01272533833981
 30
0.0
  0
VERTEX
  5
14A7F
  8
0
 10
239.30454150081229
 20
327.6567729189992
 30
0.0
  0
SEQEND
  5
14A80
  8
0
  0
POLYLINE
  5
B7AC
  8
0
 66
     1
 10
0.0
 20
0.0
 30
0.0
 70
   128
  0
VERTEX
  5
14A81
  8
0
 10
244.4667284214552
 20
318.71560134459293
 30
0.0
  0
VERTEX
  5
14A82
  8
0
 10
244.3203096115644
 20
317.04199430532748
 30
0.0
  0
VERTEX
  5
14A83
  8
0
 10
244.17388335109311
 20
315.36838691681618
 30
0.0
  0
VERTEX
  5
14A84
  8
0
 10
244.02746454120231
 20
313.69478022679692
 30
0.0
  0
VERTEX
  5
14A85
  8
0
 10
243.85489419341641
 20
311.72231445088983
 30
0.0
  0
VERTEX
  5
14A86
  8
0
 10
243.682331296211
 20
309.74984914064407
 30
0.0
  0
SEQEND
  5
14A87
  8
0
  0
ARC
  5
B7AD
  8
0
 10
234.16359167663899
 20
319.44952094253409
 30
0.0
 40
9.2625301044579782
 50
76.757544579704714
 51
107.3778401910015
  0
ARC
  5
B7AF
  8
0
 10
235.32288369434539
 20
319.2593351849593
 30
0.0
 40
9.8463821652701444
 50
113.4969033585988
 51
173.51440240383431
  0
ARC
  5
B7B1
  8
0
 10
235.50094795776749
 20
319.49997341036061
 30
0.0
 40
9.0000390035165463
 50
15.000128538013991
 51
64.999910764914361
  0
ARC
  5
B7B2
  8
0
 10
228.50147580302021
 20
315.00001149944501
 30
0.0
 40
3.000014026531193
 50
180.0001584353696
 51
232.05877989351231
  0
LINE
  5
B7B3
  8
0
 10
225.50146177650049
 20
319.50000301003462
 30
0.0
 11
225.53951561689931
 21
320.37151808617642
 31
0.0
  0
CIRCLE
  5
B7B4
  8
0
 10
235.50097742915699
 20
319.50000301003462
 30
0.0
 40
5.999999999999944
  0
CIRCLE
  5
B7B8
  8
0
 10
235.50097742915699
 20
319.50000301003462
 30
0.0
 40
6.0
  0
CIRCLE
  5
B7B9
  8
0
 10
235.50097742915699
 20
319.50000301003462
 30
0.0
 40
5.5
  0
LINE
  5
B7BB
  8
0
 10
170.91393832356289
 20
299.00000267662102
 30
0.0
 11
172.91393841855779
 21
297.00000211596489
 31
0.0
  0
LINE
  5
B7BE
  8
0
 10
171.9139384874756
 20
341.00000374019152
 30
0.0
 11
171.9139384874758
 21
298.00000227987738
 31
0.0
  0
LINE
  5
B7C0
  8
0
 10
220.00097742915699
 20
342.00000390410418
 30
0.0
 11
172.91393841855779
 21
342.00000390410418
 31
0.0
  0
LINE
  5
B7C2
  8
0
 10
170.91393832356289
 20
299.00000244379038
 30
0.0
 11
170.91393832356289
 21
312.00000317767262
 31
0.0
  0
LINE
  5
B7C3
  8
0
 10
170.91393832356289
 20
312.00000317767262
 30
0.0
 11
171.9139384874756
 21
313.00000287592411
 31
0.0
  0
LINE
  5
B7C4
  8
0
 10
170.91393832356289
 20
327.0000028423965
 30
0.0
 11
170.91393832356289
 21
340.00000357627869
 31
0.0
  0
LINE
  5
B7C5
  8
0
 10
170.91393832356289
 20
340.00000357627869
 30
0.0
 11
172.91393865138841
 21
342.00000390410418
 31
0.0
  0
LINE
  5
B7C6
  8
0
 10
171.9139384874756
 20
326.00000314414501
 30
0.0
 11
170.91393832356289
 21
327.0000028423965
 31
0.0
  0
LINE
  5
B7C7
  8
0
 10
223.6014333391245
 20
311.50000263005489
 30
0.0
 11
223.6014333391245
 21
327.50000339001417
 31
0.0
  0
LINE
  5
B7C8
  8
0
 10
224.1014306271131
 20
327.0000028423965
 30
0.0
 11
224.1014306271131
 21
312.00000317767262
 31
0.0
  0
POLYLINE
  5
B7CE
  8
0
 10
214.86700283294155
 20
298.43782518354351
 30
0.0
 66
     1
 70
     8
  0
VERTEX
  8
0
  5
14CE6
 10
214.867
 20
298.438
 30
0.000000
  70
    32
  0
VERTEX
  8
0
  5
14CE7
 10
214.853
 20
298.452
 30
0.000000
  70
    32
  0
VERTEX
  8
0
  5
14CE8
 10
214.839
 20
298.466
 30
0.000000
  70
    32
  0
VERTEX
  8
0
  5
14CE9
 10
214.824
 20
298.480
 30
0.000000
  70
    32
  0
VERTEX
  8
0
  5
14CEA
 10
214.810
 20
298.494
 30
0.000000
  70
    32
  0
VERTEX
  8
0
  5
14CEB
 10
214.796
 20
298.507
 30
0.000000
  70
    32
  0
VERTEX
  8
0
  5
14CEC
 10
214.781
 20
298.521
 30
0.000000
  70
    32
  0
VERTEX
  8
0
  5
14CED
 10
214.767
 20
298.535
 30
0.000000
  70
    32
  0
VERTEX
  8
0
  5
14CEE
 10
214.753
 20
298.548
 30
0.000000
  70
    32
  0
VERTEX
  8
0
  5
14CEF
 10
214.738
 20
298.561
 30
0.000000
  70
    32
  0
VERTEX
  8
0
  5
14CF0
 10
214.724
 20
298.574
 30
0.000000
  70
    32
  0
VERTEX
  8
0
  5
14CF1
 10
214.709
 20
298.588
 30
0.000000
  70
    32
  0
VERTEX
  8
0
  5
14CF2
 10
214.695
 20
298.601
 30
0.000000
  70
    32
  0
VERTEX
  8
0
  5
14CF3
 10
214.680
 20
298.613
 30
0.000000
  70
    32
  0
VERTEX
  8
0
  5
14CF4
 10
214.665
 20
298.626
 30
0.000000
  70
    32
  0
VERTEX
  8
0
  5
14CF5
 10
214.651
 20
298.639
 30
0.000000
  70
    32
  0
VERTEX
  8
0
  5
14CF6
 10
214.636
 20
298.652
 30
0.000000
  70
    32
  0
VERTEX
  8
0
  5
14CF7
 10
214.621
 20
298.664
 30
0.000000
  70
    32
  0
VERTEX
  8
0
  5
14CF8
 10
214.607
 20
298.676
 30
0.000000
  70
    32
  0
VERTEX
  8
0
  5
14CF9
 10
214.592
 20
298.689
 30
0.000000
  70
    32
  0
VERTEX
  8
0
  5
14CFA
 10
214.577
 20
298.701
 30
0.000000
  70
    32
  0
VERTEX
  8
0
  5
14CFB
 10
214.562
 20
298.713
 30
0.000000
  70
    32
  0
VERTEX
  8
0
  5
14CFC
 10
214.548
 20
298.725
 30
0.000000
  70
    32
  0
VERTEX
  8
0
  5
14CFD
 10
214.533
 20
298.737
 30
0.000000
  70
    32
  0
VERTEX
  8
0
  5
14CFE
 10
214.518
 20
298.748
 30
0.000000
  70
    32
  0
VERTEX
  8
0
  5
14CFF
 10
214.503
 20
298.760
 30
0.000000
  70
    32
  0
VERTEX
  8
0
  5
14D00
 10
214.488
 20
298.772
 30
0.000000
  70
    32
  0
VERTEX
  8
0
  5
14D01
 10
214.473
 20
298.783
 30
0.000000
  70
    32
  0
VERTEX
  8
0
  5
14D02
 10
214.458
 20
298.794
 30
0.000000
  70
    32
  0
VERTEX
  8
0
  5
14D03
 10
214.443
 20
298.806
 30
0.000000
  70
    32
  0
VERTEX
  8
0
  5
14D04
 10
214.428
 20
298.817
 30
0.000000
  70
    32
  0
VERTEX
  8
0
  5
14D05
 10
214.413
 20
298.828
 30
0.000000
  70
    32
  0
VERTEX
  8
0
  5
14D06
 10
214.398
 20
298.839
 30
0.000000
  70
    32
  0
VERTEX
  8
0
  5
14D07
 10
214.383
 20
298.849
 30
0.000000
  70
    32
  0
VERTEX
  8
0
  5
14D08
 10
214.367
 20
298.860
 30
0.000000
  70
    32
  0
VERTEX
  8
0
  5
14D09
 10
214.352
 20
298.871
 30
0.000000
  70
    32
  0
VERTEX
  8
0
  5
14D0A
 10
214.337
 20
298.881
 30
0.000000
  70
    32
  0
VERTEX
  8
0
  5
14D0B
 10
214.322
 20
298.892
 30
0.000000
  70
    32
  0
VERTEX
  8
0
  5
14D0C
 10
214.307
 20
298.902
 30
0.000000
  70
    32
  0
VERTEX
  8
0
  5
14D0D
 10
214.291
 20
298.912
 30
0.000000
  70
    32
  0
VERTEX
  8
0
  5
14D0E
 10
214.276
 20
298.922
 30
0.000000
  70
    32
  0
VERTEX
  8
0
  5
14D0F
 10
214.261
 20
298.932
 30
0.000000
  70
    32
  0
VERTEX
  8
0
  5
14D10
 10
214.245
 20
298.942
 30
0.000000
  70
    32
  0
VERTEX
  8
0
  5
14D11
 10
214.230
 20
298.951
 30
0.000000
  70
    32
  0
VERTEX
  8
0
  5
14D12
 10
214.215
 20
298.961
 30
0.000000
  70
    32
  0
VERTEX
  8
0
  5
14D13
 10
214.199
 20
298.971
 30
0.000000
  70
    32
  0
VERTEX
  8
0
  5
14D14
 10
214.184
 20
298.980
 30
0.000000
  70
    32
  0
VERTEX
  8
0
  5
14D15
 10
214.168
 20
298.989
 30
0.000000
  70
    32
  0
VERTEX
  8
0
  5
14D16
 10
214.153
 20
298.998
 30
0.000000
  70
    32
  0
VERTEX
  8
0
  5
14D17
 10
214.137
 20
299.007
 30
0.000000
  70
    32
  0
VERTEX
  8
0
  5
14D18
 10
214.122
 20
299.016
 30
0.000000
  70
    32
  0
VERTEX
  8
0
  5
14D19
 10
214.106
 20
299.025
 30
0.000000
  70
    32
  0
VERTEX
  8
0
  5
14D1A
 10
214.091
 20
299.034
 30
0.000000
  70
    32
  0
VERTEX
  8
0
  5
14D1B
 10
214.075
 20
299.043
 30
0.000000
  70
    32
  0
VERTEX
  8
0
  5
14D1C
 10
214.059
 20
299.051
 30
0.000000
  70
    32
  0
VERTEX
  8
0
  5
14D1D
 10
214.044
 20
299.059
 30
0.000000
  70
    32
  0
VERTEX
  8
0
  5
14D1E
 10
214.028
 20
299.068
 30
0.000000
  70
    32
  0
VERTEX
  8
0
  5
14D1F
 10
214.012
 20
299.076
 30
0.000000
  70
    32
  0
VERTEX
  8
0
  5
14D20
 10
213.997
 20
299.084
 30
0.000000
  70
    32
  0
VERTEX
  8
0
  5
14D21
 10
213.981
 20
299.092
 30
0.000000
  70
    32
  0
VERTEX
  8
0
  5
14D22
 10
213.965
 20
299.100
 30
0.000000
  70
    32
  0
VERTEX
  8
0
  5
14D23
 10
213.950
 20
299.107
 30
0.000000
  70
    32
  0
VERTEX
  8
0
  5
14D24
 10
213.934
 20
299.115
 30
0.000000
  70
    32
  0
VERTEX
  8
0
  5
14D25
 10
213.918
 20
299.123
 30
0.000000
  70
    32
  0
VERTEX
  8
0
  5
14D26
 10
213.902
 20
299.130
 30
0.000000
  70
    32
  0
VERTEX
  8
0
  5
14D27
 10
213.886
 20
299.137
 30
0.000000
  70
    32
  0
VERTEX
  8
0
  5
14D28
 10
213.871
 20
299.144
 30
0.000000
  70
    32
  0
VERTEX
  8
0
  5
14D29
 10
213.855
 20
299.151
 30
0.000000
  70
    32
  0
VERTEX
  8
0
  5
14D2A
 10
213.839
 20
299.158
 30
0.000000
  70
    32
  0
VERTEX
  8
0
  5
14D2B
 10
213.823
 20
299.165
 30
0.000000
  70
    32
  0
VERTEX
  8
0
  5
14D2C
 10
213.807
 20
299.172
 30
0.000000
  70
    32
  0
VERTEX
  8
0
  5
14D2D
 10
213.791
 20
299.179
 30
0.000000
  70
    32
  0
VERTEX
  8
0
  5
14D2E
 10
213.775
 20
299.185
 30
0.000000
  70
    32
  0
VERTEX
  8
0
  5
14D2F
 10
213.759
 20
299.191
 30
0.000000
  70
    32
  0
VERTEX
  8
0
  5
14D30
 10
213.743
 20
299.198
 30
0.000000
  70
    32
  0
VERTEX
  8
0
  5
14D31
 10
213.727
 20
299.204
 30
0.000000
  70
    32
  0
VERTEX
  8
0
  5
14D32
 10
213.711
 20
299.210
 30
0.000000
  70
    32
  0
VERTEX
  8
0
  5
14D33
 10
213.695
 20
299.216
 30
0.000000
  70
    32
  0
VERTEX
  8
0
  5
14D34
 10
213.679
 20
299.222
 30
0.000000
  70
    32
  0
VERTEX
  8
0
  5
14D35
 10
213.663
 20
299.227
 30
0.000000
  70
    32
  0
VERTEX
  8
0
  5
14D36
 10
213.647
 20
299.233
 30
0.000000
  70
    32
  0
VERTEX
  8
0
  5
14D37
 10
213.631
 20
299.238
 30
0.000000
  70
    32
  0
VERTEX
  8
0
  5
14D38
 10
213.615
 20
299.244
 30
0.000000
  70
    32
  0
VERTEX
  8
0
  5
14D39
 10
213.599
 20
299.249
 30
0.000000
  70
    32
  0
VERTEX
  8
0
  5
14D3A
 10
213.583
 20
299.254
 30
0.000000
  70
    32
  0
VERTEX
  8
0
  5
14D3B
 10
213.567
 20
299.259
 30
0.000000
  70
    32
  0
VERTEX
  8
0
  5
14D3C
 10
213.551
 20
299.264
 30
0.000000
  70
    32
  0
VERTEX
  8
0
  5
14D3D
 10
213.535
 20
299.269
 30
0.000000
  70
    32
  0
VERTEX
  8
0
  5
14D3E
 10
213.519
 20
299.273
 30
0.000000
  70
    32
  0
VERTEX
  8
0
  5
14D3F
 10
213.502
 20
299.278
 30
0.000000
  70
    32
  0
VERTEX
  8
0
  5
14D40
 10
213.486
 20
299.282
 30
0.000000
  70
    32
  0
VERTEX
  8
0
  5
14D41
 10
213.470
 20
299.287
 30
0.000000
  70
    32
  0
VERTEX
  8
0
  5
14D42
 10
213.454
 20
299.291
 30
0.000000
  70
    32
  0
VERTEX
  8
0
  5
14D43
 10
213.438
 20
299.295
 30
0.000000
  70
    32
  0
VERTEX
  8
0
  5
14D44
 10
213.422
 20
299.299
 30
0.000000
  70
    32
  0
VERTEX
  8
0
  5
14D45
 10
213.405
 20
299.303
 30
0.000000
  70
    32
  0
VERTEX
  8
0
  5
14D46
 10
213.389
 20
299.307
 30
0.000000
  70
    32
  0
VERTEX
  8
0
  5
14D47
 10
213.373
 20
299.310
 30
0.000000
  70
    32
  0
VERTEX
  8
0
  5
14D48
 10
213.357
 20
299.314
 30
0.000000
  70
    32
  0
VERTEX
  8
0
  5
14D49
 10
213.340
 20
299.317
 30
0.000000
  70
    32
  0
VERTEX
  8
0
  5
14D4A
 10
213.324
 20
299.321
 30
0.000000
  70
    32
  0
VERTEX
  8
0
  5
14D4B
 10
213.308
 20
299.324
 30
0.000000
  70
    32
  0
VERTEX
  8
0
  5
14D4C
 10
213.292
 20
299.327
 30
0.000000
  70
    32
  0
VERTEX
  8
0
  5
14D4D
 10
213.275
 20
299.330
 30
0.000000
  70
    32
  0
VERTEX
  8
0
  5
14D4E
 10
213.259
 20
299.333
 30
0.000000
  70
    32
  0
VERTEX
  8
0
  5
14D4F
 10
213.243
 20
299.335
 30
0.000000
  70
    32
  0
VERTEX
  8
0
  5
14D50
 10
213.226
 20
299.338
 30
0.000000
  70
    32
  0
VERTEX
  8
0
  5
14D51
 10
213.210
 20
299.340
 30
0.000000
  70
    32
  0
VERTEX
  8
0
  5
14D52
 10
213.194
 20
299.343
 30
0.000000
  70
    32
  0
VERTEX
  8
0
  5
14D53
 10
213.178
 20
299.345
 30
0.000000
  70
    32
  0
VERTEX
  8
0
  5
14D54
 10
213.161
 20
299.347
 30
0.000000
  70
    32
  0
VERTEX
  8
0
  5
14D55
 10
213.145
 20
299.349
 30
0.000000
  70
    32
  0
VERTEX
  8
0
  5
14D56
 10
213.129
 20
299.351
 30
0.000000
  70
    32
  0
VERTEX
  8
0
  5
14D57
 10
213.112
 20
299.353
 30
0.000000
  70
    32
  0
VERTEX
  8
0
  5
14D58
 10
213.096
 20
299.355
 30
0.000000
  70
    32
  0
VERTEX
  8
0
  5
14D59
 10
213.080
 20
299.356
 30
0.000000
  70
    32
  0
VERTEX
  8
0
  5
14D5A
 10
213.063
 20
299.358
 30
0.000000
  70
    32
  0
VERTEX
  8
0
  5
14D5B
 10
213.047
 20
299.359
 30
0.000000
  70
    32
  0
VERTEX
  8
0
  5
14D5C
 10
213.031
 20
299.360
 30
0.000000
  70
    32
  0
VERTEX
  8
0
  5
14D5D
 10
213.014
 20
299.361
 30
0.000000
  70
    32
  0
VERTEX
  8
0
  5
14D5E
 10
212.998
 20
299.362
 30
0.000000
  70
    32
  0
VERTEX
  8
0
  5
14D5F
 10
212.982
 20
299.363
 30
0.000000
  70
    32
  0
VERTEX
  8
0
  5
14D60
 10
212.965
 20
299.364
 30
0.000000
  70
    32
  0
VERTEX
  8
0
  5
14D61
 10
212.949
 20
299.365
 30
0.000000
  70
    32
  0
VERTEX
  8
0
  5
14D62
 10
212.932
 20
299.365
 30
0.000000
  70
    32
  0
VERTEX
  8
0
  5
14D63
 10
212.916
 20
299.366
 30
0.000000
  70
    32
  0
VERTEX
  8
0
  5
14D64
 10
212.900
 20
299.366
 30
0.000000
  70
    32
  0
VERTEX
  8
0
  5
14D65
 10
212.883
 20
299.366
 30
0.000000
  70
    32
  0
VERTEX
  8
0
  5
14D66
 10
212.867
 20
299.366
 30
0.000000
  70
    32
  0
SEQEND
  8
0
  5
14D67
  0
LINE
  5
B7D3
  8
0
 10
197.75097713113379
 20
332.00000319629908
 30
0.0
 11
197.75097713113379
 21
307.00000282376999
 31
0.0
  0
ARC
  5
B7D4
  8
0
 10
204.00097742915699
 20
307.00000301003462
 30
0.0
 40
6.250000000000056
 50
180.0
 51
0.0
  0
LINE
  5
B7D5
  8
0
 10
210.25097638607579
 20
307.00000282376999
 30
0.0
 11
210.25097638607579
 21
332.00000319629908
 31
0.0
  0
ARC
  5
B7D6
  8
0
 10
204.00097742915699
 20
332.00000301003462
 30
0.0
 40
6.250000000000056
 50
0.0
 51
180.0
  0
LINE
  5
B7D7
  8
0
 10
183.12504504114941
 20
339.63397704064852
 30
0.0
 11
212.8670018935259
 21
339.63397704064852
 31
0.0
  0
LINE
  5
B7D8
  8
0
 10
212.8670018935259
 20
339.63397704064852
 30
0.0
 11
212.86700189352601
 21
299.36602897942061
 31
0.0
  0
LINE
  5
B7D9
  8
0
 10
183.12504504114941
 20
339.63397704064852
 30
0.0
 11
183.12504504114941
 21
299.36602897942061
 31
0.0
  0
POLYLINE
  5
B7DA
  8
0
 10
181.75696401776074
 20
340.05179938573065
 30
0.0
 66
     1
 70
     8
  0
VERTEX
  8
0
  5
14D68
 10
181.757
 20
340.052
 30
0.000000
  70
    32
  0
VERTEX
  8
0
  5
14D69
 10
181.767
 20
340.045
 30
0.000000
  70
    32
  0
VERTEX
  8
0
  5
14D6A
 10
181.777
 20
340.039
 30
0.000000
  70
    32
  0
VERTEX
  8
0
  5
14D6B
 10
181.788
 20
340.033
 30
0.000000
  70
    32
  0
VERTEX
  8
0
  5
14D6C
 10
181.798
 20
340.026
 30
0.000000
  70
    32
  0
VERTEX
  8
0
  5
14D6D
 10
181.808
 20
340.020
 30
0.000000
  70
    32
  0
VERTEX
  8
0
  5
14D6E
 10
181.819
 20
340.014
 30
0.000000
  70
    32
  0
VERTEX
  8
0
  5
14D6F
 10
181.829
 20
340.008
 30
0.000000
  70
    32
  0
VERTEX
  8
0
  5
14D70
 10
181.839
 20
340.002
 30
0.000000
  70
    32
  0
VERTEX
  8
0
  5
14D71
 10
181.850
 20
339.996
 30
0.000000
  70
    32
  0
VERTEX
  8
0
  5
14D72
 10
181.860
 20
339.990
 30
0.000000
  70
    32
  0
VERTEX
  8
0
  5
14D73
 10
181.870
 20
339.984
 30
0.000000
  70
    32
  0
VERTEX
  8
0
  5
14D74
 10
181.881
 20
339.978
 30
0.000000
  70
    32
  0
VERTEX
  8
0
  5
14D75
 10
181.891
 20
339.972
 30
0.000000
  70
    32
  0
VERTEX
  8
0
  5
14D76
 10
181.901
 20
339.966
 30
0.000000
  70
    32
  0
VERTEX
  8
0
  5
14D77
 10
181.912
 20
339.960
 30
0.000000
  70
    32
  0
VERTEX
  8
0
  5
14D78
 10
181.922
 20
339.955
 30
0.000000
  70
    32
  0
VERTEX
  8
0
  5
14D79
 10
181.933
 20
339.949
 30
0.000000
  70
    32
  0
VERTEX
  8
0
  5
14D7A
 10
181.943
 20
339.943
 30
0.000000
  70
    32
  0
VERTEX
  8
0
  5
14D7B
 10
181.953
 20
339.938
 30
0.000000
  70
    32
  0
VERTEX
  8
0
  5
14D7C
 10
181.964
 20
339.932
 30
0.000000
  70
    32
  0
VERTEX
  8
0
  5
14D7D
 10
181.974
 20
339.927
 30
0.000000
  70
    32
  0
VERTEX
  8
0
  5
14D7E
 10
181.985
 20
339.921
 30
0.000000
  70
    32
  0
VERTEX
  8
0
  5
14D7F
 10
181.995
 20
339.916
 30
0.000000
  70
    32
  0
VERTEX
  8
0
  5
14D80
 10
182.006
 20
339.911
 30
0.000000
  70
    32
  0
VERTEX
  8
0
  5
14D81
 10
182.016
 20
339.905
 30
0.000000
  70
    32
  0
VERTEX
  8
0
  5
14D82
 10
182.027
 20
339.900
 30
0.000000
  70
    32
  0
VERTEX
  8
0
  5
14D83
 10
182.037
 20
339.895
 30
0.000000
  70
    32
  0
VERTEX
  8
0
  5
14D84
 10
182.048
 20
339.890
 30
0.000000
  70
    32
  0
VERTEX
  8
0
  5
14D85
 10
182.058
 20
339.885
 30
0.000000
  70
    32
  0
VERTEX
  8
0
  5
14D86
 10
182.069
 20
339.880
 30
0.000000
  70
    32
  0
VERTEX
  8
0
  5
14D87
 10
182.079
 20
339.875
 30
0.000000
  70
    32
  0
VERTEX
  8
0
  5
14D88
 10
182.090
 20
339.870
 30
0.000000
  70
    32
  0
VERTEX
  8
0
  5
14D89
 10
182.100
 20
339.865
 30
0.000000
  70
    32
  0
VERTEX
  8
0
  5
14D8A
 10
182.111
 20
339.860
 30
0.000000
  70
    32
  0
VERTEX
  8
0
  5
14D8B
 10
182.121
 20
339.856
 30
0.000000
  70
    32
  0
VERTEX
  8
0
  5
14D8C
 10
182.132
 20
339.851
 30
0.000000
  70
    32
  0
VERTEX
  8
0
  5
14D8D
 10
182.143
 20
339.846
 30
0.000000
  70
    32
  0
VERTEX
  8
0
  5
14D8E
 10
182.153
 20
339.842
 30
0.000000
  70
    32
  0
VERTEX
  8
0
  5
14D8F
 10
182.164
 20
339.837
 30
0.000000
  70
    32
  0
VERTEX
  8
0
  5
14D90
 10
182.174
 20
339.833
 30
0.000000
  70
    32
  0
VERTEX
  8
0
  5
14D91
 10
182.185
 20
339.828
 30
0.000000
  70
    32
  0
VERTEX
  8
0
  5
14D92
 10
182.196
 20
339.824
 30
0.000000
  70
    32
  0
VERTEX
  8
0
  5
14D93
 10
182.206
 20
339.819
 30
0.000000
  70
    32
  0
VERTEX
  8
0
  5
14D94
 10
182.217
 20
339.815
 30
0.000000
  70
    32
  0
VERTEX
  8
0
  5
14D95
 10
182.227
 20
339.811
 30
0.000000
  70
    32
  0
VERTEX
  8
0
  5
14D96
 10
182.238
 20
339.806
 30
0.000000
  70
    32
  0
VERTEX
  8
0
  5
14D97
 10
182.249
 20
339.802
 30
0.000000
  70
    32
  0
VERTEX
  8
0
  5
14D98
 10
182.259
 20
339.798
 30
0.000000
  70
    32
  0
VERTEX
  8
0
  5
14D99
 10
182.270
 20
339.794
 30
0.000000
  70
    32
  0
VERTEX
  8
0
  5
14D9A
 10
182.281
 20
339.790
 30
0.000000
  70
    32
  0
VERTEX
  8
0
  5
14D9B
 10
182.291
 20
339.786
 30
0.000000
  70
    32
  0
VERTEX
  8
0
  5
14D9C
 10
182.302
 20
339.782
 30
0.000000
  70
    32
  0
VERTEX
  8
0
  5
14D9D
 10
182.313
 20
339.778
 30
0.000000
  70
    32
  0
VERTEX
  8
0
  5
14D9E
 10
182.323
 20
339.775
 30
0.000000
  70
    32
  0
VERTEX
  8
0
  5
14D9F
 10
182.334
 20
339.771
 30
0.000000
  70
    32
  0
VERTEX
  8
0
  5
14DA0
 10
182.345
 20
339.767
 30
0.000000
  70
    32
  0
VERTEX
  8
0
  5
14DA1
 10
182.355
 20
339.763
 30
0.000000
  70
    32
  0
VERTEX
  8
0
  5
14DA2
 10
182.366
 20
339.760
 30
0.000000
  70
    32
  0
VERTEX
  8
0
  5
14DA3
 10
182.377
 20
339.756
 30
0.000000
  70
    32
  0
VERTEX
  8
0
  5
14DA4
 10
182.388
 20
339.753
 30
0.000000
  70
    32
  0
VERTEX
  8
0
  5
14DA5
 10
182.398
 20
339.749
 30
0.000000
  70
    32
  0
VERTEX
  8
0
  5
14DA6
 10
182.409
 20
339.746
 30
0.000000
  70
    32
  0
VERTEX
  8
0
  5
14DA7
 10
182.420
 20
339.743
 30
0.000000
  70
    32
  0
VERTEX
  8
0
  5
14DA8
 10
182.430
 20
339.739
 30
0.000000
  70
    32
  0
VERTEX
  8
0
  5
14DA9
 10
182.441
 20
339.736
 30
0.000000
  70
    32
  0
VERTEX
  8
0
  5
14DAA
 10
182.452
 20
339.733
 30
0.000000
  70
    32
  0
VERTEX
  8
0
  5
14DAB
 10
182.463
 20
339.730
 30
0.000000
  70
    32
  0
VERTEX
  8
0
  5
14DAC
 10
182.473
 20
339.727
 30
0.000000
  70
    32
  0
VERTEX
  8
0
  5
14DAD
 10
182.484
 20
339.723
 30
0.000000
  70
    32
  0
VERTEX
  8
0
  5
14DAE
 10
182.495
 20
339.720
 30
0.000000
  70
    32
  0
VERTEX
  8
0
  5
14DAF
 10
182.506
 20
339.718
 30
0.000000
  70
    32
  0
VERTEX
  8
0
  5
14DB0
 10
182.517
 20
339.715
 30
0.000000
  70
    32
  0
VERTEX
  8
0
  5
14DB1
 10
182.527
 20
339.712
 30
0.000000
  70
    32
  0
VERTEX
  8
0
  5
14DB2
 10
182.538
 20
339.709
 30
0.000000
  70
    32
  0
VERTEX
  8
0
  5
14DB3
 10
182.549
 20
339.706
 30
0.000000
  70
    32
  0
VERTEX
  8
0
  5
14DB4
 10
182.560
 20
339.704
 30
0.000000
  70
    32
  0
VERTEX
  8
0
  5
14DB5
 10
182.571
 20
339.701
 30
0.000000
  70
    32
  0
VERTEX
  8
0
  5
14DB6
 10
182.581
 20
339.698
 30
0.000000
  70
    32
  0
VERTEX
  8
0
  5
14DB7
 10
182.592
 20
339.696
 30
0.000000
  70
    32
  0
VERTEX
  8
0
  5
14DB8
 10
182.603
 20
339.693
 30
0.000000
  70
    32
  0
VERTEX
  8
0
  5
14DB9
 10
182.614
 20
339.691
 30
0.000000
  70
    32
  0
VERTEX
  8
0
  5
14DBA
 10
182.625
 20
339.688
 30
0.000000
  70
    32
  0
VERTEX
  8
0
  5
14DBB
 10
182.635
 20
339.686
 30
0.000000
  70
    32
  0
VERTEX
  8
0
  5
14DBC
 10
182.646
 20
339.684
 30
0.000000
  70
    32
  0
VERTEX
  8
0
  5
14DBD
 10
182.657
 20
339.682
 30
0.000000
  70
    32
  0
VERTEX
  8
0
  5
14DBE
 10
182.668
 20
339.679
 30
0.000000
  70
    32
  0
VERTEX
  8
0
  5
14DBF
 10
182.679
 20
339.677
 30
0.000000
  70
    32
  0
VERTEX
  8
0
  5
14DC0
 10
182.690
 20
339.675
 30
0.000000
  70
    32
  0
VERTEX
  8
0
  5
14DC1
 10
182.700
 20
339.673
 30
0.000000
  70
    32
  0
VERTEX
  8
0
  5
14DC2
 10
182.711
 20
339.671
 30
0.000000
  70
    32
  0
VERTEX
  8
0
  5
14DC3
 10
182.722
 20
339.669
 30
0.000000
  70
    32
  0
VERTEX
  8
0
  5
14DC4
 10
182.733
 20
339.667
 30
0.000000
  70
    32
  0
VERTEX
  8
0
  5
14DC5
 10
182.744
 20
339.666
 30
0.000000
  70
    32
  0
VERTEX
  8
0
  5
14DC6
 10
182.755
 20
339.664
 30
0.000000
  70
    32
  0
VERTEX
  8
0
  5
14DC7
 10
182.766
 20
339.662
 30
0.000000
  70
    32
  0
VERTEX
  8
0
  5
14DC8
 10
182.776
 20
339.660
 30
0.000000
  70
    32
  0
VERTEX
  8
0
  5
14DC9
 10
182.787
 20
339.659
 30
0.000000
  70
    32
  0
VERTEX
  8
0
  5
14DCA
 10
182.798
 20
339.657
 30
0.000000
  70
    32
  0
VERTEX
  8
0
  5
14DCB
 10
182.809
 20
339.656
 30
0.000000
  70
    32
  0
VERTEX
  8
0
  5
14DCC
 10
182.820
 20
339.654
 30
0.000000
  70
    32
  0
VERTEX
  8
0
  5
14DCD
 10
182.831
 20
339.653
 30
0.000000
  70
    32
  0
VERTEX
  8
0
  5
14DCE
 10
182.842
 20
339.651
 30
0.000000
  70
    32
  0
VERTEX
  8
0
  5
14DCF
 10
182.853
 20
339.650
 30
0.000000
  70
    32
  0
VERTEX
  8
0
  5
14DD0
 10
182.863
 20
339.649
 30
0.000000
  70
    32
  0
VERTEX
  8
0
  5
14DD1
 10
182.874
 20
339.648
 30
0.000000
  70
    32
  0
VERTEX
  8
0
  5
14DD2
 10
182.885
 20
339.646
 30
0.000000
  70
    32
  0
VERTEX
  8
0
  5
14DD3
 10
182.896
 20
339.645
 30
0.000000
  70
    32
  0
VERTEX
  8
0
  5
14DD4
 10
182.907
 20
339.644
 30
0.000000
  70
    32
  0
VERTEX
  8
0
  5
14DD5
 10
182.918
 20
339.643
 30
0.000000
  70
    32
  0
VERTEX
  8
0
  5
14DD6
 10
182.929
 20
339.642
 30
0.000000
  70
    32
  0
VERTEX
  8
0
  5
14DD7
 10
182.940
 20
339.641
 30
0.000000
  70
    32
  0
VERTEX
  8
0
  5
14DD8
 10
182.951
 20
339.641
 30
0.000000
  70
    32
  0
VERTEX
  8
0
  5
14DD9
 10
182.961
 20
339.640
 30
0.000000
  70
    32
  0
VERTEX
  8
0
  5
14DDA
 10
182.972
 20
339.639
 30
0.000000
  70
    32
  0
VERTEX
  8
0
  5
14DDB
 10
182.983
 20
339.638
 30
0.000000
  70
    32
  0
VERTEX
  8
0
  5
14DDC
 10
182.994
 20
339.638
 30
0.000000
  70
    32
  0
VERTEX
  8
0
  5
14DDD
 10
183.005
 20
339.637
 30
0.000000
  70
    32
  0
VERTEX
  8
0
  5
14DDE
 10
183.016
 20
339.637
 30
0.000000
  70
    32
  0
VERTEX
  8
0
  5
14DDF
 10
183.027
 20
339.636
 30
0.000000
  70
    32
  0
VERTEX
  8
0
  5
14DE0
 10
183.038
 20
339.636
 30
0.000000
  70
    32
  0
VERTEX
  8
0
  5
14DE1
 10
183.049
 20
339.635
 30
0.000000
  70
    32
  0
VERTEX
  8
0
  5
14DE2
 10
183.060
 20
339.635
 30
0.000000
  70
    32
  0
VERTEX
  8
0
  5
14DE3
 10
183.071
 20
339.635
 30
0.000000
  70
    32
  0
VERTEX
  8
0
  5
14DE4
 10
183.081
 20
339.634
 30
0.000000
  70
    32
  0
VERTEX
  8
0
  5
14DE5
 10
183.092
 20
339.634
 30
0.000000
  70
    32
  0
VERTEX
  8
0
  5
14DE6
 10
183.103
 20
339.634
 30
0.000000
  70
    32
  0
VERTEX
  8
0
  5
14DE7
 10
183.114
 20
339.634
 30
0.000000
  70
    32
  0
VERTEX
  8
0
  5
14DE8
 10
183.125
 20
339.634
 30
0.000000
  70
    32
  0
SEQEND
  8
0
  5
14DE9
  0
LINE
  5
B7DD
  8
0
 10
212.8670018935259
 20
299.36602897942061
 30
0.0
 11
183.12504504114941
 21
299.36602897942061
 31
0.0
  0
POLYLINE
  5
B7DF
  8
0
 10
183.12504459106341
 20
299.36602841381898
 30
0.0
 66
     1
 70
     8
  0
VERTEX
  8
0
  5
14DEA
 10
183.125
 20
299.366
 30
0.000000
  70
    32
  0
VERTEX
  8
0
  5
14DEB
 10
183.114
 20
299.366
 30
0.000000
  70
    32
  0
VERTEX
  8
0
  5
14DEC
 10
183.103
 20
299.366
 30
0.000000
  70
    32
  0
VERTEX
  8
0
  5
14DED
 10
183.092
 20
299.366
 30
0.000000
  70
    32
  0
VERTEX
  8
0
  5
14DEE
 10
183.081
 20
299.366
 30
0.000000
  70
    32
  0
VERTEX
  8
0
  5
14DEF
 10
183.071
 20
299.365
 30
0.000000
  70
    32
  0
VERTEX
  8
0
  5
14DF0
 10
183.060
 20
299.365
 30
0.000000
  70
    32
  0
VERTEX
  8
0
  5
14DF1
 10
183.049
 20
299.365
 30
0.000000
  70
    32
  0
VERTEX
  8
0
  5
14DF2
 10
183.038
 20
299.364
 30
0.000000
  70
    32
  0
VERTEX
  8
0
  5
14DF3
 10
183.027
 20
299.364
 30
0.000000
  70
    32
  0
VERTEX
  8
0
  5
14DF4
 10
183.016
 20
299.363
 30
0.000000
  70
    32
  0
VERTEX
  8
0
  5
14DF5
 10
183.005
 20
299.363
 30
0.000000
  70
    32
  0
VERTEX
  8
0
  5
14DF6
 10
182.994
 20
299.362
 30
0.000000
  70
    32
  0
VERTEX
  8
0
  5
14DF7
 10
182.983
 20
299.362
 30
0.000000
  70
    32
  0
VERTEX
  8
0
  5
14DF8
 10
182.972
 20
299.361
 30
0.000000
  70
    32
  0
VERTEX
  8
0
  5
14DF9
 10
182.961
 20
299.360
 30
0.000000
  70
    32
  0
VERTEX
  8
0
  5
14DFA
 10
182.951
 20
299.359
 30
0.000000
  70
    32
  0
VERTEX
  8
0
  5
14DFB
 10
182.940
 20
299.359
 30
0.000000
  70
    32
  0
VERTEX
  8
0
  5
14DFC
 10
182.929
 20
299.358
 30
0.000000
  70
    32
  0
VERTEX
  8
0
  5
14DFD
 10
182.918
 20
299.357
 30
0.000000
  70
    32
  0
VERTEX
  8
0
  5
14DFE
 10
182.907
 20
299.356
 30
0.000000
  70
    32
  0
VERTEX
  8
0
  5
14DFF
 10
182.896
 20
299.355
 30
0.000000
  70
    32
  0
VERTEX
  8
0
  5
14E00
 10
182.885
 20
299.354
 30
0.000000
  70
    32
  0
VERTEX
  8
0
  5
14E01
 10
182.874
 20
299.352
 30
0.000000
  70
    32
  0
VERTEX
  8
0
  5
14E02
 10
182.863
 20
299.351
 30
0.000000
  70
    32
  0
VERTEX
  8
0
  5
14E03
 10
182.853
 20
299.350
 30
0.000000
  70
    32
  0
VERTEX
  8
0
  5
14E04
 10
182.842
 20
299.349
 30
0.000000
  70
    32
  0
VERTEX
  8
0
  5
14E05
 10
182.831
 20
299.347
 30
0.000000
  70
    32
  0
VERTEX
  8
0
  5
14E06
 10
182.820
 20
299.346
 30
0.000000
  70
    32
  0
VERTEX
  8
0
  5
14E07
 10
182.809
 20
299.344
 30
0.000000
  70
    32
  0
VERTEX
  8
0
  5
14E08
 10
182.798
 20
299.343
 30
0.000000
  70
    32
  0
VERTEX
  8
0
  5
14E09
 10
182.787
 20
299.341
 30
0.000000
  70
    32
  0
VERTEX
  8
0
  5
14E0A
 10
182.776
 20
299.340
 30
0.000000
  70
    32
  0
VERTEX
  8
0
  5
14E0B
 10
182.766
 20
299.338
 30
0.000000
  70
    32
  0
VERTEX
  8
0
  5
14E0C
 10
182.755
 20
299.336
 30
0.000000
  70
    32
  0
VERTEX
  8
0
  5
14E0D
 10
182.744
 20
299.334
 30
0.000000
  70
    32
  0
VERTEX
  8
0
  5
14E0E
 10
182.733
 20
299.333
 30
0.000000
  70
    32
  0
VERTEX
  8
0
  5
14E0F
 10
182.722
 20
299.331
 30
0.000000
  70
    32
  0
VERTEX
  8
0
  5
14E10
 10
182.711
 20
299.329
 30
0.000000
  70
    32
  0
VERTEX
  8
0
  5
14E11
 10
182.700
 20
299.327
 30
0.000000
  70
    32
  0
VERTEX
  8
0
  5
14E12
 10
182.690
 20
299.325
 30
0.000000
  70
    32
  0
VERTEX
  8
0
  5
14E13
 10
182.679
 20
299.323
 30
0.000000
  70
    32
  0
VERTEX
  8
0
  5
14E14
 10
182.668
 20
299.321
 30
0.000000
  70
    32
  0
VERTEX
  8
0
  5
14E15
 10
182.657
 20
299.318
 30
0.000000
  70
    32
  0
VERTEX
  8
0
  5
14E16
 10
182.646
 20
299.316
 30
0.000000
  70
    32
  0
VERTEX
  8
0
  5
14E17
 10
182.635
 20
299.314
 30
0.000000
  70
    32
  0
VERTEX
  8
0
  5
14E18
 10
182.625
 20
299.312
 30
0.000000
  70
    32
  0
VERTEX
  8
0
  5
14E19
 10
182.614
 20
299.309
 30
0.000000
  70
    32
  0
VERTEX
  8
0
  5
14E1A
 10
182.603
 20
299.307
 30
0.000000
  70
    32
  0
VERTEX
  8
0
  5
14E1B
 10
182.592
 20
299.304
 30
0.000000
  70
    32
  0
VERTEX
  8
0
  5
14E1C
 10
182.581
 20
299.302
 30
0.000000
  70
    32
  0
VERTEX
  8
0
  5
14E1D
 10
182.571
 20
299.299
 30
0.000000
  70
    32
  0
VERTEX
  8
0
  5
14E1E
 10
182.560
 20
299.296
 30
0.000000
  70
    32
  0
VERTEX
  8
0
  5
14E1F
 10
182.549
 20
299.294
 30
0.000000
  70
    32
  0
VERTEX
  8
0
  5
14E20
 10
182.538
 20
299.291
 30
0.000000
  70
    32
  0
VERTEX
  8
0
  5
14E21
 10
182.527
 20
299.288
 30
0.000000
  70
    32
  0
VERTEX
  8
0
  5
14E22
 10
182.517
 20
299.285
 30
0.000000
  70
    32
  0
VERTEX
  8
0
  5
14E23
 10
182.506
 20
299.282
 30
0.000000
  70
    32
  0
VERTEX
  8
0
  5
14E24
 10
182.495
 20
299.280
 30
0.000000
  70
    32
  0
VERTEX
  8
0
  5
14E25
 10
182.484
 20
299.277
 30
0.000000
  70
    32
  0
VERTEX
  8
0
  5
14E26
 10
182.473
 20
299.273
 30
0.000000
  70
    32
  0
VERTEX
  8
0
  5
14E27
 10
182.463
 20
299.270
 30
0.000000
  70
    32
  0
VERTEX
  8
0
  5
14E28
 10
182.452
 20
299.267
 30
0.000000
  70
    32
  0
VERTEX
  8
0
  5
14E29
 10
182.441
 20
299.264
 30
0.000000
  70
    32
  0
VERTEX
  8
0
  5
14E2A
 10
182.430
 20
299.261
 30
0.000000
  70
    32
  0
VERTEX
  8
0
  5
14E2B
 10
182.420
 20
299.257
 30
0.000000
  70
    32
  0
VERTEX
  8
0
  5
14E2C
 10
182.409
 20
299.254
 30
0.000000
  70
    32
  0
VERTEX
  8
0
  5
14E2D
 10
182.398
 20
299.251
 30
0.000000
  70
    32
  0
VERTEX
  8
0
  5
14E2E
 10
182.388
 20
299.247
 30
0.000000
  70
    32
  0
VERTEX
  8
0
  5
14E2F
 10
182.377
 20
299.244
 30
0.000000
  70
    32
  0
VERTEX
  8
0
  5
14E30
 10
182.366
 20
299.240
 30
0.000000
  70
    32
  0
VERTEX
  8
0
  5
14E31
 10
182.355
 20
299.237
 30
0.000000
  70
    32
  0
VERTEX
  8
0
  5
14E32
 10
182.345
 20
299.233
 30
0.000000
  70
    32
  0
VERTEX
  8
0
  5
14E33
 10
182.334
 20
299.229
 30
0.000000
  70
    32
  0
VERTEX
  8
0
  5
14E34
 10
182.323
 20
299.225
 30
0.000000
  70
    32
  0
VERTEX
  8
0
  5
14E35
 10
182.313
 20
299.222
 30
0.000000
  70
    32
  0
VERTEX
  8
0
  5
14E36
 10
182.302
 20
299.218
 30
0.000000
  70
    32
  0
VERTEX
  8
0
  5
14E37
 10
182.291
 20
299.214
 30
0.000000
  70
    32
  0
VERTEX
  8
0
  5
14E38
 10
182.281
 20
299.210
 30
0.000000
  70
    32
  0
VERTEX
  8
0
  5
14E39
 10
182.270
 20
299.206
 30
0.000000
  70
    32
  0
VERTEX
  8
0
  5
14E3A
 10
182.259
 20
299.202
 30
0.000000
  70
    32
  0
VERTEX
  8
0
  5
14E3B
 10
182.249
 20
299.198
 30
0.000000
  70
    32
  0
VERTEX
  8
0
  5
14E3C
 10
182.238
 20
299.194
 30
0.000000
  70
    32
  0
VERTEX
  8
0
  5
14E3D
 10
182.227
 20
299.189
 30
0.000000
  70
    32
  0
VERTEX
  8
0
  5
14E3E
 10
182.217
 20
299.185
 30
0.000000
  70
    32
  0
VERTEX
  8
0
  5
14E3F
 10
182.206
 20
299.181
 30
0.000000
  70
    32
  0
VERTEX
  8
0
  5
14E40
 10
182.196
 20
299.176
 30
0.000000
  70
    32
  0
VERTEX
  8
0
  5
14E41
 10
182.185
 20
299.172
 30
0.000000
  70
    32
  0
VERTEX
  8
0
  5
14E42
 10
182.174
 20
299.167
 30
0.000000
  70
    32
  0
VERTEX
  8
0
  5
14E43
 10
182.164
 20
299.163
 30
0.000000
  70
    32
  0
VERTEX
  8
0
  5
14E44
 10
182.153
 20
299.158
 30
0.000000
  70
    32
  0
VERTEX
  8
0
  5
14E45
 10
182.143
 20
299.154
 30
0.000000
  70
    32
  0
VERTEX
  8
0
  5
14E46
 10
182.132
 20
299.149
 30
0.000000
  70
    32
  0
VERTEX
  8
0
  5
14E47
 10
182.121
 20
299.144
 30
0.000000
  70
    32
  0
VERTEX
  8
0
  5
14E48
 10
182.111
 20
299.140
 30
0.000000
  70
    32
  0
VERTEX
  8
0
  5
14E49
 10
182.100
 20
299.135
 30
0.000000
  70
    32
  0
VERTEX
  8
0
  5
14E4A
 10
182.090
 20
299.130
 30
0.000000
  70
    32
  0
VERTEX
  8
0
  5
14E4B
 10
182.079
 20
299.125
 30
0.000000
  70
    32
  0
VERTEX
  8
0
  5
14E4C
 10
182.069
 20
299.120
 30
0.000000
  70
    32
  0
VERTEX
  8
0
  5
14E4D
 10
182.058
 20
299.115
 30
0.000000
  70
    32
  0
VERTEX
  8
0
  5
14E4E
 10
182.048
 20
299.110
 30
0.000000
  70
    32
  0
VERTEX
  8
0
  5
14E4F
 10
182.037
 20
299.105
 30
0.000000
  70
    32
  0
VERTEX
  8
0
  5
14E50
 10
182.027
 20
299.100
 30
0.000000
  70
    32
  0
VERTEX
  8
0
  5
14E51
 10
182.016
 20
299.095
 30
0.000000
  70
    32
  0
VERTEX
  8
0
  5
14E52
 10
182.006
 20
299.089
 30
0.000000
  70
    32
  0
VERTEX
  8
0
  5
14E53
 10
181.995
 20
299.084
 30
0.000000
  70
    32
  0
VERTEX
  8
0
  5
14E54
 10
181.985
 20
299.079
 30
0.000000
  70
    32
  0
VERTEX
  8
0
  5
14E55
 10
181.974
 20
299.073
 30
0.000000
  70
    32
  0
VERTEX
  8
0
  5
14E56
 10
181.964
 20
299.068
 30
0.000000
  70
    32
  0
VERTEX
  8
0
  5
14E57
 10
181.953
 20
299.062
 30
0.000000
  70
    32
  0
VERTEX
  8
0
  5
14E58
 10
181.943
 20
299.057
 30
0.000000
  70
    32
  0
VERTEX
  8
0
  5
14E59
 10
181.933
 20
299.051
 30
0.000000
  70
    32
  0
VERTEX
  8
0
  5
14E5A
 10
181.922
 20
299.045
 30
0.000000
  70
    32
  0
VERTEX
  8
0
  5
14E5B
 10
181.912
 20
299.040
 30
0.000000
  70
    32
  0
VERTEX
  8
0
  5
14E5C
 10
181.901
 20
299.034
 30
0.000000
  70
    32
  0
VERTEX
  8
0
  5
14E5D
 10
181.891
 20
299.028
 30
0.000000
  70
    32
  0
VERTEX
  8
0
  5
14E5E
 10
181.881
 20
299.022
 30
0.000000
  70
    32
  0
VERTEX
  8
0
  5
14E5F
 10
181.870
 20
299.016
 30
0.000000
  70
    32
  0
VERTEX
  8
0
  5
14E60
 10
181.860
 20
299.010
 30
0.000000
  70
    32
  0
VERTEX
  8
0
  5
14E61
 10
181.850
 20
299.004
 30
0.000000
  70
    32
  0
VERTEX
  8
0
  5
14E62
 10
181.839
 20
298.998
 30
0.000000
  70
    32
  0
VERTEX
  8
0
  5
14E63
 10
181.829
 20
298.992
 30
0.000000
  70
    32
  0
VERTEX
  8
0
  5
14E64
 10
181.819
 20
298.986
 30
0.000000
  70
    32
  0
VERTEX
  8
0
  5
14E65
 10
181.808
 20
298.980
 30
0.000000
  70
    32
  0
VERTEX
  8
0
  5
14E66
 10
181.798
 20
298.974
 30
0.000000
  70
    32
  0
VERTEX
  8
0
  5
14E67
 10
181.788
 20
298.967
 30
0.000000
  70
    32
  0
VERTEX
  8
0
  5
14E68
 10
181.777
 20
298.961
 30
0.000000
  70
    32
  0
VERTEX
  8
0
  5
14E69
 10
181.767
 20
298.955
 30
0.000000
  70
    32
  0
VERTEX
  8
0
  5
14E6A
 10
181.757
 20
298.948
 30
0.000000
  70
    32
  0
SEQEND
  8
0
  5
14E6B
  0
POLYLINE
  5
B7E2
  8
0
 10
212.86700283294161
 20
339.63397760625014
 30
0.0
 66
     1
 70
     8
  0
VERTEX
  8
0
  5
14E6C
 10
212.867
 20
339.634
 30
0.000000
  70
    32
  0
VERTEX
  8
0
  5
14E6D
 10
212.883
 20
339.634
 30
0.000000
  70
    32
  0
VERTEX
  8
0
  5
14E6E
 10
212.900
 20
339.634
 30
0.000000
  70
    32
  0
VERTEX
  8
0
  5
14E6F
 10
212.916
 20
339.634
 30
0.000000
  70
    32
  0
VERTEX
  8
0
  5
14E70
 10
212.932
 20
339.635
 30
0.000000
  70
    32
  0
VERTEX
  8
0
  5
14E71
 10
212.949
 20
339.635
 30
0.000000
  70
    32
  0
VERTEX
  8
0
  5
14E72
 10
212.965
 20
339.636
 30
0.000000
  70
    32
  0
VERTEX
  8
0
  5
14E73
 10
212.982
 20
339.637
 30
0.000000
  70
    32
  0
VERTEX
  8
0
  5
14E74
 10
212.998
 20
339.638
 30
0.000000
  70
    32
  0
VERTEX
  8
0
  5
14E75
 10
213.014
 20
339.639
 30
0.000000
  70
    32
  0
VERTEX
  8
0
  5
14E76
 10
213.031
 20
339.640
 30
0.000000
  70
    32
  0
VERTEX
  8
0
  5
14E77
 10
213.047
 20
339.641
 30
0.000000
  70
    32
  0
VERTEX
  8
0
  5
14E78
 10
213.063
 20
339.642
 30
0.000000
  70
    32
  0
VERTEX
  8
0
  5
14E79
 10
213.080
 20
339.644
 30
0.000000
  70
    32
  0
VERTEX
  8
0
  5
14E7A
 10
213.096
 20
339.645
 30
0.000000
  70
    32
  0
VERTEX
  8
0
  5
14E7B
 10
213.112
 20
339.647
 30
0.000000
  70
    32
  0
VERTEX
  8
0
  5
14E7C
 10
213.129
 20
339.649
 30
0.000000
  70
    32
  0
VERTEX
  8
0
  5
14E7D
 10
213.145
 20
339.651
 30
0.000000
  70
    32
  0
VERTEX
  8
0
  5
14E7E
 10
213.161
 20
339.653
 30
0.000000
  70
    32
  0
VERTEX
  8
0
  5
14E7F
 10
213.178
 20
339.655
 30
0.000000
  70
    32
  0
VERTEX
  8
0
  5
14E80
 10
213.194
 20
339.657
 30
0.000000
  70
    32
  0
VERTEX
  8
0
  5
14E81
 10
213.210
 20
339.660
 30
0.000000
  70
    32
  0
VERTEX
  8
0
  5
14E82
 10
213.226
 20
339.662
 30
0.000000
  70
    32
  0
VERTEX
  8
0
  5
14E83
 10
213.243
 20
339.665
 30
0.000000
  70
    32
  0
VERTEX
  8
0
  5
14E84
 10
213.259
 20
339.667
 30
0.000000
  70
    32
  0
VERTEX
  8
0
  5
14E85
 10
213.275
 20
339.670
 30
0.000000
  70
    32
  0
VERTEX
  8
0
  5
14E86
 10
213.292
 20
339.673
 30
0.000000
  70
    32
  0
VERTEX
  8
0
  5
14E87
 10
213.308
 20
339.676
 30
0.000000
  70
    32
  0
VERTEX
  8
0
  5
14E88
 10
213.324
 20
339.679
 30
0.000000
  70
    32
  0
VERTEX
  8
0
  5
14E89
 10
213.340
 20
339.683
 30
0.000000
  70
    32
  0
VERTEX
  8
0
  5
14E8A
 10
213.357
 20
339.686
 30
0.000000
  70
    32
  0
VERTEX
  8
0
  5
14E8B
 10
213.373
 20
339.690
 30
0.000000
  70
    32
  0
VERTEX
  8
0
  5
14E8C
 10
213.389
 20
339.693
 30
0.000000
  70
    32
  0
VERTEX
  8
0
  5
14E8D
 10
213.405
 20
339.697
 30
0.000000
  70
    32
  0
VERTEX
  8
0
  5
14E8E
 10
213.422
 20
339.701
 30
0.000000
  70
    32
  0
VERTEX
  8
0
  5
14E8F
 10
213.438
 20
339.705
 30
0.000000
  70
    32
  0
VERTEX
  8
0
  5
14E90
 10
213.454
 20
339.709
 30
0.000000
  70
    32
  0
VERTEX
  8
0
  5
14E91
 10
213.470
 20
339.713
 30
0.000000
  70
    32
  0
VERTEX
  8
0
  5
14E92
 10
213.486
 20
339.718
 30
0.000000
  70
    32
  0
VERTEX
  8
0
  5
14E93
 10
213.502
 20
339.722
 30
0.000000
  70
    32
  0
VERTEX
  8
0
  5
14E94
 10
213.519
 20
339.727
 30
0.000000
  70
    32
  0
VERTEX
  8
0
  5
14E95
 10
213.535
 20
339.731
 30
0.000000
  70
    32
  0
VERTEX
  8
0
  5
14E96
 10
213.551
 20
339.736
 30
0.000000
  70
    32
  0
VERTEX
  8
0
  5
14E97
 10
213.567
 20
339.741
 30
0.000000
  70
    32
  0
VERTEX
  8
0
  5
14E98
 10
213.583
 20
339.746
 30
0.000000
  70
    32
  0
VERTEX
  8
0
  5
14E99
 10
213.599
 20
339.751
 30
0.000000
  70
    32
  0
VERTEX
  8
0
  5
14E9A
 10
213.615
 20
339.756
 30
0.000000
  70
    32
  0
VERTEX
  8
0
  5
14E9B
 10
213.631
 20
339.762
 30
0.000000
  70
    32
  0
VERTEX
  8
0
  5
14E9C
 10
213.647
 20
339.767
 30
0.000000
  70
    32
  0
VERTEX
  8
0
  5
14E9D
 10
213.663
 20
339.773
 30
0.000000
  70
    32
  0
VERTEX
  8
0
  5
14E9E
 10
213.679
 20
339.778
 30
0.000000
  70
    32
  0
VERTEX
  8
0
  5
14E9F
 10
213.695
 20
339.784
 30
0.000000
  70
    32
  0
VERTEX
  8
0
  5
14EA0
 10
213.711
 20
339.790
 30
0.000000
  70
    32
  0
VERTEX
  8
0
  5
14EA1
 10
213.727
 20
339.796
 30
0.000000
  70
    32
  0
VERTEX
  8
0
  5
14EA2
 10
213.743
 20
339.802
 30
0.000000
  70
    32
  0
VERTEX
  8
0
  5
14EA3
 10
213.759
 20
339.809
 30
0.000000
  70
    32
  0
VERTEX
  8
0
  5
14EA4
 10
213.775
 20
339.815
 30
0.000000
  70
    32
  0
VERTEX
  8
0
  5
14EA5
 10
213.791
 20
339.821
 30
0.000000
  70
    32
  0
VERTEX
  8
0
  5
14EA6
 10
213.807
 20
339.828
 30
0.000000
  70
    32
  0
VERTEX
  8
0
  5
14EA7
 10
213.823
 20
339.835
 30
0.000000
  70
    32
  0
VERTEX
  8
0
  5
14EA8
 10
213.839
 20
339.842
 30
0.000000
  70
    32
  0
VERTEX
  8
0
  5
14EA9
 10
213.855
 20
339.849
 30
0.000000
  70
    32
  0
VERTEX
  8
0
  5
14EAA
 10
213.871
 20
339.856
 30
0.000000
  70
    32
  0
VERTEX
  8
0
  5
14EAB
 10
213.886
 20
339.863
 30
0.000000
  70
    32
  0
VERTEX
  8
0
  5
14EAC
 10
213.902
 20
339.870
 30
0.000000
  70
    32
  0
VERTEX
  8
0
  5
14EAD
 10
213.918
 20
339.877
 30
0.000000
  70
    32
  0
VERTEX
  8
0
  5
14EAE
 10
213.934
 20
339.885
 30
0.000000
  70
    32
  0
VERTEX
  8
0
  5
14EAF
 10
213.950
 20
339.893
 30
0.000000
  70
    32
  0
VERTEX
  8
0
  5
14EB0
 10
213.965
 20
339.900
 30
0.000000
  70
    32
  0
VERTEX
  8
0
  5
14EB1
 10
213.981
 20
339.908
 30
0.000000
  70
    32
  0
VERTEX
  8
0
  5
14EB2
 10
213.997
 20
339.916
 30
0.000000
  70
    32
  0
VERTEX
  8
0
  5
14EB3
 10
214.012
 20
339.924
 30
0.000000
  70
    32
  0
VERTEX
  8
0
  5
14EB4
 10
214.028
 20
339.932
 30
0.000000
  70
    32
  0
VERTEX
  8
0
  5
14EB5
 10
214.044
 20
339.941
 30
0.000000
  70
    32
  0
VERTEX
  8
0
  5
14EB6
 10
214.059
 20
339.949
 30
0.000000
  70
    32
  0
VERTEX
  8
0
  5
14EB7
 10
214.075
 20
339.957
 30
0.000000
  70
    32
  0
VERTEX
  8
0
  5
14EB8
 10
214.091
 20
339.966
 30
0.000000
  70
    32
  0
VERTEX
  8
0
  5
14EB9
 10
214.106
 20
339.975
 30
0.000000
  70
    32
  0
VERTEX
  8
0
  5
14EBA
 10
214.122
 20
339.984
 30
0.000000
  70
    32
  0
VERTEX
  8
0
  5
14EBB
 10
214.137
 20
339.993
 30
0.000000
  70
    32
  0
VERTEX
  8
0
  5
14EBC
 10
214.153
 20
340.002
 30
0.000000
  70
    32
  0
VERTEX
  8
0
  5
14EBD
 10
214.168
 20
340.011
 30
0.000000
  70
    32
  0
VERTEX
  8
0
  5
14EBE
 10
214.184
 20
340.020
 30
0.000000
  70
    32
  0
VERTEX
  8
0
  5
14EBF
 10
214.199
 20
340.029
 30
0.000000
  70
    32
  0
VERTEX
  8
0
  5
14EC0
 10
214.215
 20
340.039
 30
0.000000
  70
    32
  0
VERTEX
  8
0
  5
14EC1
 10
214.230
 20
340.049
 30
0.000000
  70
    32
  0
VERTEX
  8
0
  5
14EC2
 10
214.245
 20
340.058
 30
0.000000
  70
    32
  0
VERTEX
  8
0
  5
14EC3
 10
214.261
 20
340.068
 30
0.000000
  70
    32
  0
VERTEX
  8
0
  5
14EC4
 10
214.276
 20
340.078
 30
0.000000
  70
    32
  0
VERTEX
  8
0
  5
14EC5
 10
214.291
 20
340.088
 30
0.000000
  70
    32
  0
VERTEX
  8
0
  5
14EC6
 10
214.307
 20
340.098
 30
0.000000
  70
    32
  0
VERTEX
  8
0
  5
14EC7
 10
214.322
 20
340.108
 30
0.000000
  70
    32
  0
VERTEX
  8
0
  5
14EC8
 10
214.337
 20
340.119
 30
0.000000
  70
    32
  0
VERTEX
  8
0
  5
14EC9
 10
214.352
 20
340.129
 30
0.000000
  70
    32
  0
VERTEX
  8
0
  5
14ECA
 10
214.367
 20
340.140
 30
0.000000
  70
    32
  0
VERTEX
  8
0
  5
14ECB
 10
214.383
 20
340.151
 30
0.000000
  70
    32
  0
VERTEX
  8
0
  5
14ECC
 10
214.398
 20
340.161
 30
0.000000
  70
    32
  0
VERTEX
  8
0
  5
14ECD
 10
214.413
 20
340.172
 30
0.000000
  70
    32
  0
VERTEX
  8
0
  5
14ECE
 10
214.428
 20
340.183
 30
0.000000
  70
    32
  0
VERTEX
  8
0
  5
14ECF
 10
214.443
 20
340.194
 30
0.000000
  70
    32
  0
VERTEX
  8
0
  5
14ED0
 10
214.458
 20
340.206
 30
0.000000
  70
    32
  0
VERTEX
  8
0
  5
14ED1
 10
214.473
 20
340.217
 30
0.000000
  70
    32
  0
VERTEX
  8
0
  5
14ED2
 10
214.488
 20
340.228
 30
0.000000
  70
    32
  0
VERTEX
  8
0
  5
14ED3
 10
214.503
 20
340.240
 30
0.000000
  70
    32
  0
VERTEX
  8
0
  5
14ED4
 10
214.518
 20
340.252
 30
0.000000
  70
    32
  0
VERTEX
  8
0
  5
14ED5
 10
214.533
 20
340.263
 30
0.000000
  70
    32
  0
VERTEX
  8
0
  5
14ED6
 10
214.548
 20
340.275
 30
0.000000
  70
    32
  0
VERTEX
  8
0
  5
14ED7
 10
214.562
 20
340.287
 30
0.000000
  70
    32
  0
VERTEX
  8
0
  5
14ED8
 10
214.577
 20
340.299
 30
0.000000
  70
    32
  0
VERTEX
  8
0
  5
14ED9
 10
214.592
 20
340.311
 30
0.000000
  70
    32
  0
VERTEX
  8
0
  5
14EDA
 10
214.607
 20
340.324
 30
0.000000
  70
    32
  0
VERTEX
  8
0
  5
14EDB
 10
214.621
 20
340.336
 30
0.000000
  70
    32
  0
VERTEX
  8
0
  5
14EDC
 10
214.636
 20
340.348
 30
0.000000
  70
    32
  0
VERTEX
  8
0
  5
14EDD
 10
214.651
 20
340.361
 30
0.000000
  70
    32
  0
VERTEX
  8
0
  5
14EDE
 10
214.665
 20
340.374
 30
0.000000
  70
    32
  0
VERTEX
  8
0
  5
14EDF
 10
214.680
 20
340.387
 30
0.000000
  70
    32
  0
VERTEX
  8
0
  5
14EE0
 10
214.695
 20
340.399
 30
0.000000
  70
    32
  0
VERTEX
  8
0
  5
14EE1
 10
214.709
 20
340.412
 30
0.000000
  70
    32
  0
VERTEX
  8
0
  5
14EE2
 10
214.724
 20
340.426
 30
0.000000
  70
    32
  0
VERTEX
  8
0
  5
14EE3
 10
214.738
 20
340.439
 30
0.000000
  70
    32
  0
VERTEX
  8
0
  5
14EE4
 10
214.753
 20
340.452
 30
0.000000
  70
    32
  0
VERTEX
  8
0
  5
14EE5
 10
214.767
 20
340.465
 30
0.000000
  70
    32
  0
VERTEX
  8
0
  5
14EE6
 10
214.781
 20
340.479
 30
0.000000
  70
    32
  0
VERTEX
  8
0
  5
14EE7
 10
214.796
 20
340.493
 30
0.000000
  70
    32
  0
VERTEX
  8
0
  5
14EE8
 10
214.810
 20
340.506
 30
0.000000
  70
    32
  0
VERTEX
  8
0
  5
14EE9
 10
214.824
 20
340.520
 30
0.000000
  70
    32
  0
VERTEX
  8
0
  5
14EEA
 10
214.839
 20
340.534
 30
0.000000
  70
    32
  0
VERTEX
  8
0
  5
14EEB
 10
214.853
 20
340.548
 30
0.000000
  70
    32
  0
VERTEX
  8
0
  5
14EEC
 10
214.867
 20
340.562
 30
0.000000
  70
    32
  0
SEQEND
  8
0
  5
14EED
  0
LINE
  5
B7E5
  8
0
 10
179.4597412297185
 20
341.50000289082527
 30
0.0
 11
181.7569638440068
 21
340.0518000125885
 31
0.0
  0
LINE
  5
B7E7
  8
0
 10
214.86700222135141
 20
340.56218154728413
 30
0.0
 11
215.80482542753771
 21
341.50000289082527
 31
0.0
  0
LINE
  5
B7E8
  8
0
 10
181.7569638440068
 20
298.94820600748062
 30
0.0
 11
179.4597412297185
 21
297.50000312924379
 31
0.0
  0
LINE
  5
B7E9
  8
0
 10
215.80482542753771
 20
297.50000312924379
 30
0.0
 11
214.86700222135141
 21
298.437824472785
 31
0.0
  0
LINE
  5
B7FD
  8
0
 10
179.4597412297185
 20
342.00000390410418
 30
0.0
 11
179.4597412297185
 21
341.50000289082527
 31
0.0
  0
LINE
  5
B7FF
  8
0
 10
179.4597412297185
 20
297.50000312924379
 30
0.0
 11
179.4597412297185
 21
297.00000211596489
 31
0.0
  0
LINE
  5
B806
  8
0
 10
215.80482542753771
 20
297.50000312924379
 30
0.0
 11
215.80482542753771
 21
297.00000211596489
 31
0.0
  0
LINE
  5
B808
  8
0
 10
215.80482542753771
 20
342.00000390410418
 30
0.0
 11
215.80482542753771
 21
341.50000289082527
 31
0.0
  0
LINE
  5
B80A
  8
0
 10
220.00097751856401
 20
297.00000211596489
 30
0.0
 11
172.91393841855779
 21
297.00000211596489
 31
0.0
  0
LINE
  5
B80F
  8
0
 10
174.29387063725471
 20
339.29289691150188
 30
0.0
 11
176.70808418892869
 21
341.70711040496832
 31
0.0
  0
ARC
  5
B812
  8
0
 10
177.4151909915301
 20
298.00000301003462
 30
0.0
 40
1.0
 50
225.0
 51
270.0
  0
LINE
  5
B814
  8
0
 10
176.70808418892869
 20
297.2928956151008
 30
0.0
 11
174.29387063725471
 21
299.70710910856718
 31
0.0
  0
ARC
  5
B816
  8
0
 10
177.4151909915301
 20
341.0000030100345
 30
0.0
 40
1.0
 50
90.0
 51
135.00000000000051
  0
ARC
  5
B818
  8
0
 10
175.00097742915699
 20
338.58578944766151
 30
0.0
 40
1.0
 50
135.0
 51
180.0
  0
LINE
  5
B819
  8
0
 10
174.00097742915699
 20
300.41421577334398
 30
0.0
 11
174.00097742915699
 21
338.58579024672508
 31
0.0
  0
ARC
  5
B81B
  8
0
 10
175.00097742915699
 20
300.41421657240761
 30
0.0
 40
1.0
 50
180.0
 51
225.0
  0
ARC
  5
B81C
  8
0
 10
220.00097742915699
 20
340.00000301003462
 30
0.0
 40
2.0
 50
0.0
 51
90.0
  0
ARC
  5
B81F
  8
0
 10
220.00097742915699
 20
299.0000030100345
 30
0.0
 40
2.0
 50
270.0
 51
0.0
  0
LINE
  5
B820
  8
0
 10
222.00097784638959
 20
340.00000357627869
 30
0.0
 11
222.00097784638959
 21
299.00000244379038
 31
0.0
  0
ARC
  5
B823
  8
0
 10
201.07204524102261
 20
347.0000030100345
 30
0.0
 40
5.0000000000000284
 50
225.0
 51
270.0
  0
ARC
  5
B824
  8
0
 10
201.07204524102261
 20
292.00000301003462
 30
0.0
 40
5.0
 50
90.0
 51
135.00000000000051
  0
ARC
  5
B827
  8
0
 10
189.00097742915699
 20
352.00000301003462
 30
0.0
 40
5.0
 50
0.0
 51
90.0
  0
ARC
  5
B82B
  8
0
 10
189.00097742915699
 20
287.00000301003462
 30
0.0
 40
5.0
 50
270.0
 51
0.0
  0
LINE
  5
B82F
  8
0
 10
179.00097731739831
 20
357.00000450015068
 30
0.0
 11
189.00097709388089
 21
357.00000450015068
 31
0.0
  0
LINE
  5
B84E
  8
0
 10
174.00097742915699
 20
342.00000390410418
 30
0.0
 11
174.00097742915699
 21
352.00000181794172
 31
0.0
  0
LINE
  5
B84F
  8
0
 10
194.00097698212221
 20
289.92893546819693
 30
0.0
 11
194.00097698212221
 21
287.0000042021274
 31
0.0
  0
LINE
  5
B851
  8
0
 10
194.00097698212221
 20
352.00000181794172
 30
0.0
 11
194.00097698212221
 21
349.0710705518722
 31
0.0
  0
ARC
  5
B853
  8
0
 10
182.00097742915699
 20
289.20000301003461
 30
0.0
 40
3.000000000000056
 50
180.0
 51
270.0
  0
LINE
  5
B856
  8
0
 10
197.5365121686514
 20
295.53553648293018
 30
0.0
 11
195.46544261515689
 21
293.46446879208088
 31
0.0
  0
ARC
  5
B858
  8
0
 10
199.00097742915699
 20
289.92893519816897
 30
0.0
 40
5.0
 50
135.00000000000051
 51
180.0
  0
LINE
  5
B859
  8
0
 10
189.00097709388089
 20
289.20000232756138
 30
0.0
 11
189.00097709388089
 21
289.8000031709671
 31
0.0
  0
LINE
  5
B85D
  8
0
 10
186.0009775334652
 20
292.80000366270542
 30
0.0
 11
182.0009778091366
 21
292.80000366270542
 31
0.0
  0
LINE
  5
B85F
  8
0
 10
189.00097709388089
 20
282.00000151991838
 30
0.0
 11
179.00097731739831
 21
282.00000151991838
 31
0.0
  0
ARC
  5
B861
  8
0
 10
199.00097742915699
 20
349.07107082189998
 30
0.0
 40
5.0
 50
180.0
 51
224.9999999999994
  0
LINE
  5
B863
  8
0
 10
195.46544261515689
 20
345.53553722798819
 30
0.0
 11
197.5365121686514
 21
343.46446953713888
 31
0.0
  0
ARC
  5
B865
  8
0
 10
182.00097742915699
 20
349.20000301003461
 30
0.0
 40
3.000000000000056
 50
180.0
 51
270.0
  0
ARC
  5
B868
  8
0
 10
182.00097742915699
 20
349.80000301003452
 30
0.0
 40
3.000000000000056
 50
90.0
 51
180.0
  0
ARC
  5
B86A
  8
0
 10
179.00097742915699
 20
352.00000301003462
 30
0.0
 40
5.0
 50
90.0
 51
180.0
  0
ARC
  5
B86B
  8
0
 10
182.00097742915699
 20
289.80000301003452
 30
0.0
 40
3.000000000000056
 50
90.0
 51
180.0
  0
ARC
  5
B86D
  8
0
 10
186.00097742915699
 20
349.20000301003461
 30
0.0
 40
3.0
 50
270.0
 51
0.0
  0
LINE
  5
B871
  8
0
 10
186.0009775334652
 20
352.80000418424612
 30
0.0
 11
182.0009778091366
 21
352.80000418424612
 31
0.0
  0
ARC
  5
B872
  8
0
 10
186.00097742915699
 20
289.80000301003452
 30
0.0
 40
3.0
 50
0.0
 51
90.0
  0
ARC
  5
B873
  8
0
 10
179.00097742915699
 20
287.00000301003462
 30
0.0
 40
5.0
 50
180.0
 51
270.0
  0
LINE
  5
B875
  8
0
 10
174.00097742915699
 20
287.0000042021274
 30
0.0
 11
174.00097742915699
 21
297.00000211596489
 31
0.0
  0
LINE
  5
B876
  8
0
 10
182.0009778091366
 20
286.200001835823
 30
0.0
 11
186.0009775334652
 21
286.200001835823
 31
0.0
  0
LINE
  5
B878
  8
0
 10
179.00097731739831
 20
349.80000369250769
 30
0.0
 11
179.00097731739831
 21
349.20000284910202
 31
0.0
  0
LINE
  5
B879
  8
0
 10
182.0009778091366
 20
346.2000023573637
 30
0.0
 11
186.0009775334652
 21
346.2000023573637
 31
0.0
  0
ARC
  5
B87B
  8
0
 10
186.00097742915699
 20
349.80000301003452
 30
0.0
 40
3.000000000000028
 50
0.0
 51
90.0
  0
LINE
  5
B87C
  8
0
 10
189.00097709388089
 20
349.20000284910202
 30
0.0
 11
189.00097709388089
 21
349.80000369250769
 31
0.0
  0
ARC
  5
B87D
  8
0
 10
186.00097742915699
 20
289.20000301003461
 30
0.0
 40
3.0
 50
270.0
 51
0.0
  0
LINE
  5
B87E
  8
0
 10
179.00097731739831
 20
289.8000031709671
 30
0.0
 11
179.00097731739831
 21
289.20000232756138
 31
0.0
  0
ARC
  5
B97C
  8
0
 10
113.90723642746519
 20
190.50740663663311
 30
0.0
 40
7.0067018960976606
 50
359.93943967880671
 51
89.724580097702813
  0
POLYLINE
  5
B97E
  8
0
 66
     1
 10
0.0
 20
0.0
 30
0.0
 70
   128
  0
VERTEX
  5
14A88
  8
0
 10
80.000002384185791
 20
194.13059040904031
 30
0.0
  0
VERTEX
  5
14A89
  8
0
 10
82.148572877049446
 20
193.6236659437416
 30
0.0
  0
VERTEX
  5
14A8A
  8
0
 10
84.593173563480363
 20
193.03649500012381
 30
0.0
  0
VERTEX
  5
14A8B
  8
0
 10
87.053230479359627
 20
192.55736865103231
 30
0.0
  0
VERTEX
  5
14A8C
  8
0
 10
88.292144685983644
 20
192.39266984164701
 30
0.0
  0
VERTEX
  5
14A8D
  8
0
 10
89.541908800601945
 20
192.29782581329329
 30
0.0
  0
VERTEX
  5
14A8E
  8
0
 10
90.82550972700119
 20
192.29275569319711
 30
0.0
  0
VERTEX
  5
14A8F
  8
0
 10
91.788694709539413
 20
192.34039656817899
 30
0.0
  0
VERTEX
  5
14A90
  8
0
 10
92.726614773273454
 20
192.41824023425559
 30
0.0
  0
VERTEX
  5
14A91
  8
0
 10
93.650006204843521
 20
192.51817300915701
 30
0.0
  0
VERTEX
  5
14A92
  8
0
 10
94.574831873178482
 20
192.63407424092281
 30
0.0
  0
VERTEX
  5
14A93
  8
0
 10
97.068537473678575
 20
193.0047182738779
 30
0.0
  0
VERTEX
  5
14A94
  8
0
 10
99.610593616962433
 20
193.4389958530663
 30
0.0
  0
VERTEX
  5
14A95
  8
0
 10
102.19683542847631
 20
193.89255367219431
 30
0.0
  0
VERTEX
  5
14A96
  8
0
 10
104.15964245796199
 20
194.2160522937773
 30
0.0
  0
VERTEX
  5
14A97
  8
0
 10
106.1275307834148
 20
194.50126238167269
 30
0.0
  0
VERTEX
  5
14A98
  8
0
 10
108.07880058884621
 20
194.72469784319381
 30
0.0
  0
VERTEX
  5
14A99
  8
0
 10
110.078379958868
 20
194.8605349659918
 30
0.0
  0
VERTEX
  5
14A9A
  8
0
 10
111.4026759564876
 20
194.86994877457599
 30
0.0
  0
VERTEX
  5
14A9B
  8
0
 10
112.6187671720981
 20
194.8004143685101
 30
0.0
  0
VERTEX
  5
14A9C
  8
0
 10
113.70313212275499
 20
194.65766683220849
 30
0.0
  0
VERTEX
  5
14A9D
  8
0
 10
114.4684520363807
 20
194.5036651939152
 30
0.0
  0
VERTEX
  5
14A9E
  8
0
 10
115.2123142778873
 20
194.30319428443889
 30
0.0
  0
VERTEX
  5
14A9F
  8
0
 10
115.9417968988418
 20
194.053225442767
 30
0.0
  0
VERTEX
  5
14AA0
  8
0
 10
116.6446287930011
 20
193.75533819198591
 30
0.0
  0
VERTEX
  5
14AA1
  8
0
 10
117.3065085709095
 20
193.41328203678111
 30
0.0
  0
VERTEX
  5
14AA2
  8
0
 10
117.92445227503769
 20
193.03491920232759
 30
0.0
  0
VERTEX
  5
14AA3
  8
0
 10
119.0278571844101
 20
192.20482580363731
 30
0.0
  0
VERTEX
  5
14AA4
  8
0
 10
119.95352476835249
 20
191.33615329861621
 30
0.0
  0
VERTEX
  5
14AA5
  8
0
 10
120.70013254880899
 20
190.5000007152556
 30
0.0
  0
SEQEND
  5
14AA6
  8
0
  0
POLYLINE
  5
B97F
  8
0
 66
     1
 10
0.0
 20
0.0
 30
0.0
 70
   128
  0
VERTEX
  5
14AA7
  8
0
 10
80.000002384185791
 20
186.8740257248281
 30
0.0
  0
VERTEX
  5
14AA8
  8
0
 10
81.585281044244766
 20
187.2331902757285
 30
0.0
  0
VERTEX
  5
14AA9
  8
0
 10
83.983131200075135
 20
187.81678307801471
 30
0.0
  0
VERTEX
  5
14AAA
  8
0
 10
86.385816782712936
 20
188.3281322568653
 30
0.0
  0
VERTEX
  5
14AAB
  8
0
 10
88.200258538126945
 20
188.59670706093291
 30
0.0
  0
VERTEX
  5
14AAC
  8
0
 10
90.028990507125854
 20
188.716281428933
 30
0.0
  0
VERTEX
  5
14AAD
  8
0
 10
90.953287184238434
 20
188.70444059371931
 30
0.0
  0
VERTEX
  5
14AAE
  8
0
 10
91.86383381485939
 20
188.6543913185595
 30
0.0
  0
VERTEX
  5
14AAF
  8
0
 10
92.742372751235962
 20
188.5796936601399
 30
0.0
  0
VERTEX
  5
14AB0
  8
0
 10
93.600638657808304
 20
188.4875318408011
 30
0.0
  0
VERTEX
  5
14AB1
  8
0
 10
95.899042189121246
 20
188.1791802495716
 30
0.0
  0
VERTEX
  5
14AB2
  8
0
 10
98.239716589450836
 20
187.80162207782249
 30
0.0
  0
VERTEX
  5
14AB3
  8
0
 10
100.6233957409858
 20
187.38545499742011
 30
0.0
  0
VERTEX
  5
14AB4
  8
0
 10
103.036258816719
 20
186.96744576096521
 30
0.0
  0
VERTEX
  5
14AB5
  8
0
 10
105.4658968746662
 20
186.58891063183529
 30
0.0
  0
VERTEX
  5
14AB6
  8
0
 10
107.90043741464611
 20
186.29225272685269
 30
0.0
  0
VERTEX
  5
14AB7
  8
0
 10
109.7213071584701
 20
186.1540099978445
 30
0.0
  0
VERTEX
  5
14AB8
  8
0
 10
111.5266349911689
 20
186.13363545387969
 30
0.0
  0
VERTEX
  5
14AB9
  8
0
 10
112.7152335643768
 20
186.20955687016229
 30
0.0
  0
VERTEX
  5
14ABA
  8
0
 10
113.8867516815662
 20
186.37570016086079
 30
0.0
  0
VERTEX
  5
14ABB
  8
0
 10
115.0695872306823
 20
186.6550587490199
 30
0.0
  0
VERTEX
  5
14ABC
  8
0
 10
115.9561206400394
 20
186.95257999002919
 30
0.0
  0
VERTEX
  5
14ABD
  8
0
 10
116.8163609504699
 20
187.32527013868079
 30
0.0
  0
VERTEX
  5
14ABE
  8
0
 10
117.6299569010734
 20
187.7681848034261
 30
0.0
  0
VERTEX
  5
14ABF
  8
0
 10
118.3846820890903
 20
188.27042005956159
 30
0.0
  0
VERTEX
  5
14AC0
  8
0
 10
119.0717262029648
 20
188.8176316767929
 30
0.0
  0
VERTEX
  5
14AC1
  8
0
 10
119.68786686658861
 20
189.38768863677959
 30
0.0
  0
VERTEX
  5
14AC2
  8
0
 10
120.2312749624252
 20
189.95650507509691
 30
0.0
  0
VERTEX
  5
14AC3
  8
0
 10
120.70013254880899
 20
190.5000007152556
 30
0.0
  0
SEQEND
  5
14AC4
  8
0
  0
ARC
  5
B980
  8
0
 10
113.8977501164776
 20
190.50202750315319
 30
0.0
 40
7.0161845858831127
 50
270.35251622535822
 51
359.9834487829267
  0
POLYLINE
  5
B981
  8
0
 66
     1
 10
0.0
 20
0.0
 30
0.0
 70
   128
  0
VERTEX
  5
14AC5
  8
0
 10
113.9409174025057
 20
183.48597571253759
 30
0.0
  0
VERTEX
  5
14AC6
  8
0
 10
110.5052535235881
 20
183.63465391099439
 30
0.0
  0
VERTEX
  5
14AC7
  8
0
 10
107.0784558355808
 20
184.0015652030705
 30
0.0
  0
VERTEX
  5
14AC8
  8
0
 10
103.6448408663273
 20
184.35677163302881
 30
0.0
  0
VERTEX
  5
14AC9
  8
0
 10
100.19855245947829
 20
184.6253278106449
 30
0.0
  0
VERTEX
  5
14ACA
  8
0
 10
96.744619756937027
 20
184.82432257384039
 30
0.0
  0
VERTEX
  5
14ACB
  8
0
 10
93.285527527332306
 20
184.95047580450759
 30
0.0
  0
VERTEX
  5
14ACC
  8
0
 10
89.823592901229844
 20
184.9992948025463
 30
0.0
  0
VERTEX
  5
14ACD
  8
0
 10
85.785657614469514
 20
184.93411060422639
 30
0.0
  0
VERTEX
  5
14ACE
  8
0
 10
81.759704723954201
 20
184.66901615262009
 30
0.0
  0
VERTEX
  5
14ACF
  8
0
 10
80.000002384185791
 20
184.46603998541809
 30
0.0
  0
SEQEND
  5
14AD0
  8
0
  0
LINE
  5
B98A
  8
0
 10
37.000000923871987
 20
182.50000126659879
 30
0.0
 11
50.000001657754183
 21
182.50000126659879
 31
0.0
  0
LINE
  5
B98B
  8
0
 10
50.000001657754183
 20
182.50000126659879
 30
0.0
 11
51.000001356005662
 21
181.50000110268601
 31
0.0
  0
LINE
  5
B98D
  8
0
 10
36.000000759959221
 20
181.50000110268601
 30
0.0
 11
37.000000923871987
 21
182.50000126659879
 31
0.0
  0
LINE
  5
B98E
  8
0
 10
51.000001356005662
 20
199.50000219047081
 30
0.0
 11
50.000001657754183
 21
198.50000202655801
 31
0.0
  0
LINE
  5
B98F
  8
0
 10
51.000001356005662
 20
181.50000110268601
 30
0.0
 11
51.000001356005662
 21
199.50000219047081
 31
0.0
  0
LINE
  5
B990
  8
0
 10
50.000001657754183
 20
182.50000126659879
 30
0.0
 11
50.000001657754183
 21
198.50000202655801
 31
0.0
  0
LINE
  5
B991
  8
0
 10
79.000002220273004
 20
199.50000219047081
 30
0.0
 11
78.000002056360245
 21
198.50000202655801
 31
0.0
  0
LINE
  5
B992
  8
0
 10
35.000000596046561
 20
199.50000219047081
 30
0.0
 11
80.000002384185791
 21
199.50000219047081
 31
0.0
  0
LINE
  5
B994
  8
0
 10
80.000002384185791
 20
181.50000110268601
 30
0.0
 11
35.000000596046561
 21
181.50000110268601
 31
0.0
  0
LINE
  5
B995
  8
0
 10
78.000002056360245
 20
182.50000126659879
 30
0.0
 11
79.000002220273004
 21
181.50000110268601
 31
0.0
  0
LINE
  5
B996
  8
0
 10
78.000002056360245
 20
182.50000126659879
 30
0.0
 11
78.000002056360245
 21
198.50000202655801
 31
0.0
  0
LINE
  5
B997
  8
0
 10
65.000001322478056
 20
198.50000202655801
 30
0.0
 11
64.00000162422657
 21
199.50000219047081
 31
0.0
  0
LINE
  5
B998
  8
0
 10
65.000001322478056
 20
182.50000126659879
 30
0.0
 11
65.000001322478056
 21
198.50000202655801
 31
0.0
  0
LINE
  5
B999
  8
0
 10
64.00000162422657
 20
181.50000110268601
 30
0.0
 11
65.000001322478056
 21
182.50000126659879
 31
0.0
  0
LINE
  5
B99A
  8
0
 10
64.00000162422657
 20
181.50000110268601
 30
0.0
 11
64.00000162422657
 21
199.50000219047081
 31
0.0
  0
LINE
  5
B99B
  8
0
 10
65.000001322478056
 20
182.50000126659879
 30
0.0
 11
78.000002056360245
 21
182.50000126659879
 31
0.0
  0
LINE
  5
B99D
  8
0
 10
35.000000596046448
 20
180.50000187009579
 30
0.0
 11
35.000000596046448
 21
202.4226512209267
 31
0.0
  0
LINE
  5
B99F
  8
0
 10
37.000000923871987
 20
198.50000202655801
 30
0.0
 11
36.000000759959221
 21
199.50000219047081
 31
0.0
  0
LINE
  5
B9A0
  8
0
 10
37.000000923871987
 20
198.50000202655801
 30
0.0
 11
37.000000923871987
 21
182.50000126659879
 31
0.0
  0
LINE
  5
B9A2
  8
0
 10
50.000001657754183
 20
198.50000202655801
 30
0.0
 11
37.000000923871987
 21
198.50000202655801
 31
0.0
  0
LINE
  5
B9A4
  8
0
 10
78.000002056360245
 20
198.50000202655801
 30
0.0
 11
65.000001322478056
 21
198.50000202655801
 31
0.0
  0
LINE
  5
B9AF
  8
0
 10
94.500001966953263
 20
172.5000014901162
 30
0.0
 11
95.000002980232225
 21
173.0000015138649
 31
0.0
  0
LINE
  5
B9B1
  8
0
 10
94.500001966953263
 20
172.5000014901162
 30
0.0
 11
65.500001870095716
 21
172.5000014901162
 31
0.0
  0
LINE
  5
B9B2
  8
0
 10
65.500001870095716
 20
172.5000014901162
 30
0.0
 11
65.000001322478056
 21
173.0000015138649
 31
0.0
  0
LINE
  5
B9B4
  8
0
 10
20.500001013278961
 20
172.5000014901162
 30
0.0
 11
20.0
 21
173.0000015138649
 31
0.0
  0
LINE
  5
B9B7
  8
0
 10
49.500001110136502
 20
172.5000014901162
 30
0.0
 11
20.500001013278961
 21
172.5000014901162
 31
0.0
  0
LINE
  5
B9B9
  8
0
 10
50.000001657754183
 20
173.0000015138649
 30
0.0
 11
49.500001110136502
 21
172.5000014901162
 31
0.0
  0
LINE
  5
B9BB
  8
0
 10
95.000002980232225
 20
179.50000170618301
 30
0.0
 11
95.000002980232225
 21
173.0000015138649
 31
0.0
  0
LINE
  5
B9C2
  8
0
 10
65.000001322478056
 20
173.0000015138649
 30
0.0
 11
50.000001657754183
 21
173.0000015138649
 31
0.0
  0
LINE
  5
B9C4
  8
0
 10
20.0
 20
173.0000015138649
 30
0.0
 11
20.0
 21
179.50000170618301
 31
0.0
  0
ARC
  5
B9C5
  8
0
 10
21.000001490116119
 20
179.5000014901162
 30
0.0
 40
1.0
 50
90.0
 51
180.0
  0
LINE
  5
B9C6
  8
0
 10
21.000002026557919
 20
180.50000187009579
 30
0.0
 11
35.000000596046448
 21
180.50000187009579
 31
0.0
  0
LINE
  5
B9CB
  8
0
 10
80.000002384185791
 20
180.50000187009579
 30
0.0
 11
94.000000953674316
 21
180.50000187009579
 31
0.0
  0
ARC
  5
B9CC
  8
0
 10
94.000001490116119
 20
179.5000014901162
 30
0.0
 40
1.0
 50
0.0
 51
90.0
  0
LINE
  5
B9EF
  8
0
 10
80.000002384185791
 20
202.42265075445181
 30
0.0
 11
80.000002384185791
 21
180.50000187009579
 31
0.0
  0
ARC
  5
B9F0
  8
0
 10
36.000001490116119
 20
202.4226512209267
 30
0.0
 40
1.000000000000022
 50
120.0000000000001
 51
180.0
  0
ARC
  5
B9F2
  8
0
 10
79.000001490116119
 20
202.4226512209267
 30
0.0
 40
1.000000000000008
 50
0.0
 51
59.999999999999858
  0
LINE
  5
B9F4
  8
0
 10
35.500001609325409
 20
203.2886764407159
 30
0.0
 11
37.366026805899537
 21
204.36602684309329
 31
0.0
  0
LINE
  5
B9F6
  8
0
 10
77.633976174332474
 20
204.36602684309329
 30
0.0
 11
79.500001370906816
 21
203.2886764407159
 31
0.0
  0
ARC
  5
B9F8
  8
0
 10
37.866026893900433
 20
203.5000014901162
 30
0.0
 40
1.0
 50
90.0
 51
120.0000000000001
  0
ARC
  5
B9FC
  8
0
 10
77.133976086331586
 20
203.5000014901162
 30
0.0
 40
1.0
 50
59.999999999999858
 51
90.0
  0
LINE
  5
B9FE
  8
0
 10
37.866026610136032
 20
204.5000030100347
 30
0.0
 11
77.133976370096207
 21
204.5000030100347
 31
0.0
  0
LINE
  5
BA0F
  8
0
 10
367.0929279947336
 20
184.00000151246789
 30
0.0
 11
367.0929279947336
 21
187.2500015795232
 31
0.0
  0
LINE
  5
BA10
  8
0
 10
367.0929279947336
 20
193.75000171363359
 30
0.0
 11
367.0929279947336
 21
197.0000008493663
 31
0.0
  0
POLYLINE
  5
BA11
  8
0
 66
     1
 10
0.0
 20
0.0
 30
0.0
 70
   128
  0
VERTEX
  5
14AD1
  8
0
 10
366.36012520880058
 20
183.5000014305115
 30
0.0
  0
VERTEX
  5
14AD2
  8
0
 10
366.59438915789679
 20
183.50828461349019
 30
0.0
  0
VERTEX
  5
14AD3
  8
0
 10
366.75914291531399
 20
183.534855246544
 30
0.0
  0
VERTEX
  5
14AD4
  8
0
 10
366.86576538026878
 20
183.58100693672901
 30
0.0
  0
VERTEX
  5
14AD5
  8
0
 10
366.94038853288248
 20
183.6457720398904
 30
0.0
  0
VERTEX
  5
14AD6
  8
0
 10
366.97209261596748
 20
183.6841425299645
 30
0.0
  0
VERTEX
  5
14AD7
  8
0
 10
366.98694348574242
 20
183.7045655027033
 30
0.0
  0
VERTEX
  5
14AD8
  8
0
 10
367.0011293911989
 20
183.7256962805987
 30
0.0
  0
VERTEX
  5
14AD9
  8
0
 10
367.01460656017622
 20
183.74744173139339
 30
0.0
  0
VERTEX
  5
14ADA
  8
0
 10
367.02730421215853
 20
183.76970592886221
 30
0.0
  0
VERTEX
  5
14ADB
  8
0
 10
367.05000519991472
 20
183.81539661437279
 30
0.0
  0
VERTEX
  5
14ADC
  8
0
 10
367.08203803986862
 20
183.90872258692991
 30
0.0
  0
VERTEX
  5
14ADD
  8
0
 10
367.0929279947336
 20
184.00000151246789
 30
0.0
  0
SEQEND
  5
14ADE
  8
0
  0
POLYLINE
  5
BA12
  8
0
 66
     1
 10
0.0
 20
0.0
 30
0.0
 70
   128
  0
VERTEX
  5
14ADF
  8
0
 10
367.0929279947336
 20
197.0000008493663
 30
0.0
  0
VERTEX
  5
14AE0
  8
0
 10
367.08428438991859
 20
197.09110841155061
 30
0.0
  0
VERTEX
  5
14AE1
  8
0
 10
367.07314018399069
 20
197.13776394724849
 30
0.0
  0
VERTEX
  5
14AE2
  8
0
 10
367.06581346929619
 20
197.16108426451689
 30
0.0
  0
VERTEX
  5
14AE3
  8
0
 10
367.05731142551258
 20
197.18427978456029
 30
0.0
  0
VERTEX
  5
14AE4
  8
0
 10
367.04762660205921
 20
197.2072536498309
 30
0.0
  0
VERTEX
  5
14AE5
  8
0
 10
367.03674223512962
 20
197.22991086542609
 30
0.0
  0
VERTEX
  5
14AE6
  8
0
 10
367.01124355435923
 20
197.27388232946399
 30
0.0
  0
VERTEX
  5
14AE7
  8
0
 10
366.94316108018711
 20
197.3537991195918
 30
0.0
  0
VERTEX
  5
14AE8
  8
0
 10
366.80762104929039
 20
197.436267733574
 30
0.0
  0
VERTEX
  5
14AE9
  8
0
 10
366.61209266871771
 20
197.48491816222679
 30
0.0
  0
VERTEX
  5
14AEA
  8
0
 10
366.36012520880058
 20
197.50000186264521
 30
0.0
  0
SEQEND
  5
14AEB
  8
0
  0
LINE
  5
BA13
  8
0
 10
363.8806613931115
 20
187.2500015795232
 30
0.0
 11
363.8806613931115
 21
193.75000171363359
 31
0.0
  0
LINE
  5
BA14
  8
0
 10
351.88066128880342
 20
193.75000171363359
 30
0.0
 11
351.88066128880342
 21
187.2500015795232
 31
0.0
  0
ARC
  5
BA17
  8
0
 10
357.88066134095737
 20
190.5000014901162
 30
0.0
 40
6.5
 50
337.3801350519546
 51
22.619864948032411
  0
ARC
  5
BA18
  8
0
 10
357.88066134095737
 20
190.5000014901162
 30
0.0
 40
6.5
 50
157.38013505196761
 51
202.6198649480454
  0
CIRCLE
  5
BA19
  8
0
 10
372.88066134095737
 20
190.5000014901162
 30
0.0
 40
3.9999999999999689
  0
LINE
  5
BA21
  8
0
 10
357.09625967551568
 20
184.00000151246789
 30
0.0
 11
367.0929279947336
 21
184.00000151246789
 31
0.0
  0
LINE
  5
BA27
  8
0
 10
367.0929279947336
 20
197.00000084936619
 30
0.0
 11
357.09625967551568
 21
197.0000008493663
 31
0.0
  0
POLYLINE
  5
BA39
  8
0
 66
     1
 10
0.0
 20
0.0
 30
0.0
 70
   128
  0
VERTEX
  5
14AEC
  8
0
 10
357.09625967551568
 20
197.0000008493663
 30
0.0
  0
VERTEX
  5
14AED
  8
0
 10
355.4226526362504
 20
196.90847605466851
 30
0.0
  0
VERTEX
  5
14AEE
  8
0
 10
353.7490452477391
 20
196.68593652546409
 30
0.0
  0
VERTEX
  5
14AEF
  8
0
 10
352.07543855771968
 20
196.41043268144139
 30
0.0
  0
VERTEX
  5
14AF0
  8
0
 10
350.1029727818127
 20
196.12390570342549
 30
0.0
  0
VERTEX
  5
14AF1
  8
0
 10
348.13050747156689
 20
196.0000006854535
 30
0.0
  0
SEQEND
  5
14AF2
  8
0
  0
LINE
  5
BA3B
  8
0
 10
348.26124094665602
 20
197.50000186264521
 30
0.0
 11
366.36012520880058
 21
197.50000186264521
 31
0.0
  0
POLYLINE
  5
BA3C
  8
0
 66
     1
 10
0.0
 20
0.0
 30
0.0
 70
   128
  0
VERTEX
  5
14AF3
  8
0
 10
348.13050747156689
 20
185.00000167638069
 30
0.0
  0
VERTEX
  5
14AF4
  8
0
 10
349.8041146272476
 20
184.9084768816829
 30
0.0
  0
VERTEX
  5
14AF5
  8
0
 10
351.47772178292831
 20
184.68593735247859
 30
0.0
  0
VERTEX
  5
14AF6
  8
0
 10
353.15132847294763
 20
184.41043350845581
 30
0.0
  0
VERTEX
  5
14AF7
  8
0
 10
355.12379424885472
 20
184.12390559911739
 30
0.0
  0
VERTEX
  5
14AF8
  8
0
 10
357.09625967551568
 20
184.00000151246789
 30
0.0
  0
SEQEND
  5
14AF9
  8
0
  0
LINE
  5
BA3E
  8
0
 10
366.36012520880058
 20
183.5000014305115
 30
0.0
 11
348.26124094665602
 21
183.5000014305115
 31
0.0
  0
POLYLINE
  5
BA3F
  8
0
 66
     1
 10
0.0
 20
0.0
 30
0.0
 70
   128
  0
VERTEX
  5
14AFA
  8
0
 10
348.13050747156689
 20
185.00000167638069
 30
0.0
  0
VERTEX
  5
14AFB
  8
0
 10
343.55981469393328
 20
185.12249853461989
 30
0.0
  0
VERTEX
  5
14AFC
  8
0
 10
338.99806261301592
 20
185.4879467189314
 30
0.0
  0
VERTEX
  5
14AFD
  8
0
 10
334.4483208680208
 20
186.03851389139911
 30
0.0
  0
VERTEX
  5
14AFE
  8
0
 10
329.88658927620008
 20
186.4029748737814
 30
0.0
  0
VERTEX
  5
14AFF
  8
0
 10
325.31498939037868
 20
186.4997867867352
 30
0.0
  0
VERTEX
  5
14B00
  8
0
 10
319.32958409429148
 20
186.3707809150221
 30
0.0
  0
VERTEX
  5
14B01
  8
0
 10
313.3502659225519
 20
186.01373512297889
 30
0.0
  0
VERTEX
  5
14B02
  8
0
 10
307.38200813770851
 20
185.42852554470321
 30
0.0
  0
VERTEX
  5
14B03
  8
0
 10
306.02731004596308
 20
185.2695664763452
 30
0.0
  0
VERTEX
  5
14B04
  8
0
 10
304.67114046454981
 20
185.13312213122859
 30
0.0
  0
VERTEX
  5
14B05
  8
0
 10
303.31139832974031
 20
185.05114246159809
 30
0.0
  0
VERTEX
  5
14B06
  8
0
 10
301.95107504964432
 20
185.00438168644919
 30
0.0
  0
VERTEX
  5
14B07
  8
0
 10
300.5941678607519
 20
185.04618875682371
 30
0.0
  0
VERTEX
  5
14B08
  8
0
 10
299.47501987457832
 20
185.3218341618778
 30
0.0
  0
VERTEX
  5
14B09
  8
0
 10
298.42347845674112
 20
185.82524660974761
 30
0.0
  0
VERTEX
  5
14B0A
  8
0
 10
297.47899443150118
 20
186.56443547457471
 30
0.0
  0
VERTEX
  5
14B0B
  8
0
 10
296.83675810933659
 20
187.3204421624543
 30
0.0
  0
VERTEX
  5
14B0C
  8
0
 10
296.31280720472893
 20
188.23570594191571
 30
0.0
  0
VERTEX
  5
14B0D
  8
0
 10
295.95999241114208
 20
189.2979110032322
 30
0.0
  0
VERTEX
  5
14B0E
  8
0
 10
295.83028525353029
 20
190.50000071525591
 30
0.0
  0
SEQEND
  5
14B0F
  8
0
  0
POLYLINE
  5
BA40
  8
0
 66
     1
 10
0.0
 20
0.0
 30
0.0
 70
   128
  0
VERTEX
  5
14B10
  8
0
 10
295.83028525353029
 20
190.50000071525591
 30
0.0
  0
VERTEX
  5
14B11
  8
0
 10
295.95999241114208
 20
191.70209228992479
 30
0.0
  0
VERTEX
  5
14B12
  8
0
 10
296.31280720472893
 20
192.76429735124131
 30
0.0
  0
VERTEX
  5
14B13
  8
0
 10
296.83675810933659
 20
193.67956019938009
 30
0.0
  0
VERTEX
  5
14B14
  8
0
 10
297.47899443150118
 20
194.43556688725971
 30
0.0
  0
VERTEX
  5
14B15
  8
0
 10
298.42347845674112
 20
195.17475575208681
 30
0.0
  0
VERTEX
  5
14B16
  8
0
 10
299.47501987457832
 20
195.67816913127919
 30
0.0
  0
VERTEX
  5
14B17
  8
0
 10
300.5941678607519
 20
195.95381453633331
 30
0.0
  0
VERTEX
  5
14B18
  8
0
 10
301.95107504964432
 20
195.9956216067078
 30
0.0
  0
VERTEX
  5
14B19
  8
0
 10
303.31139832974031
 20
195.94886176288151
 30
0.0
  0
VERTEX
  5
14B1A
  8
0
 10
304.67114046454981
 20
195.8668811619284
 30
0.0
  0
VERTEX
  5
14B1B
  8
0
 10
306.02731004596308
 20
195.7304368168117
 30
0.0
  0
VERTEX
  5
14B1C
  8
0
 10
307.38200813770851
 20
195.57147681713121
 30
0.0
  0
VERTEX
  5
14B1D
  8
0
 10
311.93838089943478
 20
195.1040571928026
 30
0.0
  0
VERTEX
  5
14B1E
  8
0
 10
316.50197327375957
 20
194.76947210729139
 30
0.0
  0
VERTEX
  5
14B1F
  8
0
 10
321.07030049205378
 20
194.56842377781891
 30
0.0
  0
VERTEX
  5
14B20
  8
0
 10
325.64160794258669
 20
194.4998374581339
 30
0.0
  0
VERTEX
  5
14B21
  8
0
 10
330.21290235460361
 20
194.61369350552579
 30
0.0
  0
VERTEX
  5
14B22
  8
0
 10
333.79772499442652
 20
194.89163182675861
 30
0.0
  0
VERTEX
  5
14B23
  8
0
 10
337.37250611424997
 20
195.3234805166723
 30
0.0
  0
VERTEX
  5
14B24
  8
0
 10
340.95150053740099
 20
195.69822981953641
 30
0.0
  0
VERTEX
  5
14B25
  8
0
 10
344.53876417369202
 20
195.92431023716929
 30
0.0
  0
VERTEX
  5
14B26
  8
0
 10
348.13050747156689
 20
196.0000006854535
 30
0.0
  0
SEQEND
  5
14B27
  8
0
  0
ARC
  5
BA41
  8
0
 10
349.62765817764461
 20
192.25285102644241
 30
0.0
 40
1.4971534161157449
 50
90.109395711566606
 51
180.10901649864161
  0
LINE
  5
BA42
  8
0
 10
348.13050747156689
 20
188.7500008940697
 30
0.0
 11
348.13050747156689
 21
192.25000239908701
 31
0.0
  0
ARC
  5
BA43
  8
0
 10
349.627657647094
 20
188.7471517381824
 30
0.0
 40
1.497152886571772
 50
179.89096323594839
 51
269.89062455386312
  0
LINE
  5
BA45
  8
0
 10
349.62479964137628
 20
193.75000171363359
 30
0.0
 11
367.0929279947336
 21
193.75000171363359
 31
0.0
  0
LINE
  5
BA46
  8
0
 10
349.62479964137628
 20
187.2500015795232
 30
0.0
 11
367.09292799473371
 21
187.2500015795232
 31
0.0
  0
ARC
  5
BA47
  8
0
 10
351.02980475658779
 20
192.18259922189739
 30
0.0
 40
1.5633903624408669
 50
90.552367274481554
 51
177.52901445681761
  0
LINE
  5
BA48
  8
0
 10
349.46786806226328
 20
192.25000239908701
 30
0.0
 11
348.13050747156689
 21
192.25000239908701
 31
0.0
  0
LINE
  5
BA49
  8
0
 10
348.13050747156689
 20
188.7500008940697
 30
0.0
 11
349.46786806226328
 21
188.7500008940697
 31
0.0
  0
ARC
  5
BA4A
  8
0
 10
351.03430818782323
 20
188.82205991161399
 30
0.0
 40
1.568096670799966
 50
182.63385040260289
 51
269.28473221503242
  0
POLYLINE
  5
BA4B
  8
0
 66
     1
 10
0.0
 20
0.0
 30
0.0
 70
   128
  0
VERTEX
  5
14B28
  8
0
 10
348.26124094665602
 20
183.5000014305115
 30
0.0
  0
VERTEX
  5
14B29
  8
0
 10
345.28697103500917
 20
183.55370894074451
 30
0.0
  0
VERTEX
  5
14B2A
  8
0
 10
342.123862432843
 20
183.7187495455147
 30
0.0
  0
VERTEX
  5
14B2B
  8
0
 10
338.83132234454712
 20
184.0135382860901
 30
0.0
  0
VERTEX
  5
14B2C
  8
0
 10
335.49731977522919
 20
184.41724520176669
 30
0.0
  0
VERTEX
  5
14B2D
  8
0
 10
332.13689744711468
 20
184.76406134665029
 30
0.0
  0
VERTEX
  5
14B2E
  8
0
 10
328.75386260688862
 20
184.95280597358959
 30
0.0
  0
VERTEX
  5
14B2F
  8
0
 10
325.35466373205742
 20
185.00370927155041
 30
0.0
  0
VERTEX
  5
14B30
  8
0
 10
318.66944775224277
 20
184.83662720769661
 30
0.0
  0
VERTEX
  5
14B31
  8
0
 10
311.97305962682321
 20
184.3727540597321
 30
0.0
  0
VERTEX
  5
14B32
  8
0
 10
309.86919075489601
 20
184.1719972342255
 30
0.0
  0
VERTEX
  5
14B33
  8
0
 10
307.76652887702539
 20
183.9476611837747
 30
0.0
  0
VERTEX
  5
14B34
  8
0
 10
305.66429168224892
 20
183.71323797851821
 30
0.0
  0
VERTEX
  5
14B35
  8
0
 10
303.55453685165003
 20
183.5492926090958
 30
0.0
  0
VERTEX
  5
14B36
  8
0
 10
301.43974542856768
 20
183.48597571253791
 30
0.0
  0
SEQEND
  5
14B37
  8
0
  0
ARC
  5
BA4C
  8
0
 10
301.48291271459578
 20
190.50202750315361
 30
0.0
 40
7.0161845858831127
 50
180.01655121707981
 51
269.64748377464178
  0
LINE
  5
BA52
  8
0
 10
349.46786806226328
 20
192.25000239908701
 30
0.0
 11
349.46786806226328
 21
188.7500008940697
 31
0.0
  0
CIRCLE
  5
BA57
  8
0
 10
301.30596809120289
 20
190.49834866868119
 30
0.0
 40
4.7384562263814463
  0
POLYLINE
  5
BA64
  8
0
 66
     1
 10
0.0
 20
0.0
 30
0.0
 70
   128
  0
VERTEX
  5
14B38
  8
0
 10
357.88066134095737
 20
187.39530652761471
 30
0.0
  0
VERTEX
  5
14B39
  8
0
 10
357.23094766267201
 20
187.4566564708949
 30
0.0
  0
VERTEX
  5
14B3A
  8
0
 10
356.59854028612932
 20
187.64031793922189
 30
0.0
  0
VERTEX
  5
14B3B
  8
0
 10
356.03059242252812
 20
187.9262842610479
 30
0.0
  0
VERTEX
  5
14B3C
  8
0
 10
355.53869077243462
 20
188.3067155629397
 30
0.0
  0
VERTEX
  5
14B3D
  8
0
 10
355.13283529557839
 20
188.7715554237366
 30
0.0
  0
VERTEX
  5
14B3E
  8
0
 10
354.83332707785621
 20
189.29698899388319
 30
0.0
  0
VERTEX
  5
14B3F
  8
0
 10
354.63739310630223
 20
189.8902489244939
 30
0.0
  0
VERTEX
  5
14B40
  8
0
 10
354.57173090667078
 20
190.49334175884729
 30
0.0
  0
VERTEX
  5
14B41
  8
0
 10
354.63415187091192
 20
191.09729886055001
 30
0.0
  0
VERTEX
  5
14B42
  8
0
 10
354.82869956881359
 20
191.6942486912013
 30
0.0
  0
VERTEX
  5
14B43
  8
0
 10
355.12779684044972
 20
192.2228506207467
 30
0.0
  0
VERTEX
  5
14B44
  8
0
 10
355.53382018820002
 20
192.68870003521451
 30
0.0
  0
VERTEX
  5
14B45
  8
0
 10
356.02553534094801
 20
193.0698903650046
 30
0.0
  0
VERTEX
  5
14B46
  8
0
 10
356.58985302556857
 20
193.35646204650411
 30
0.0
  0
VERTEX
  5
14B47
  8
0
 10
357.22134275833702
 20
193.54186043143281
 30
0.0
  0
VERTEX
  5
14B48
  8
0
 10
357.8728756806845
 20
193.6046874523164
 30
0.0
  0
VERTEX
  5
14B49
  8
0
 10
358.52540932369038
 20
193.5445370525122
 30
0.0
  0
VERTEX
  5
14B4A
  8
0
 10
359.15995536611041
 20
193.3609994500876
 30
0.0
  0
VERTEX
  5
14B4B
  8
0
 10
359.72757086396768
 20
193.07541683316239
 30
0.0
  0
VERTEX
  5
14B4C
  8
0
 10
360.22154994547918
 20
192.69430473446849
 30
0.0
  0
VERTEX
  5
14B4D
  8
0
 10
360.62866014667412
 20
192.2294387966395
 30
0.0
  0
VERTEX
  5
14B4E
  8
0
 10
360.92875998706182
 20
191.70331977307799
 30
0.0
  0
VERTEX
  5
14B4F
  8
0
 10
361.12442713469818
 20
191.1096388846637
 30
0.0
  0
VERTEX
  5
14B50
  8
0
 10
361.18959433638111
 20
190.50539679825309
 30
0.0
  0
VERTEX
  5
14B51
  8
0
 10
361.12629373796841
 20
189.90062013268479
 30
0.0
  0
VERTEX
  5
14B52
  8
0
 10
360.9302906157132
 20
189.3023105710746
 30
0.0
  0
VERTEX
  5
14B53
  8
0
 10
360.62981498666659
 20
188.77291329205039
 30
0.0
  0
VERTEX
  5
14B54
  8
0
 10
360.22248802014252
 20
188.30657958984381
 30
0.0
  0
VERTEX
  5
14B55
  8
0
 10
359.7298953286986
 20
187.92639229446661
 30
0.0
  0
VERTEX
  5
14B56
  8
0
 10
359.16199216858098
 20
187.64038033783439
 30
0.0
  0
VERTEX
  5
14B57
  8
0
 10
358.52967932127967
 20
187.45647858828309
 30
0.0
  0
VERTEX
  5
14B58
  8
0
 10
357.88066134095737
 20
187.39530652761471
 30
0.0
  0
SEQEND
  5
14B59
  8
0
  0
CIRCLE
  5
BA67
  8
0
 10
357.88066134095737
 20
190.5000014901162
 30
0.0
 40
3.0
  0
ARC
  5
BA6D
  8
0
 10
357.88066134095737
 20
190.5000014901162
 30
0.0
 40
8.0000000000000178
 50
156.81402775510671
 51
180.0
  0
ARC
  5
BA6E
  8
0
 10
357.88066134095737
 20
190.5000014901162
 30
0.0
 40
8.0000000000000444
 50
61.353504955873802
 51
118.9550243718607
  0
ARC
  5
BA6F
  8
0
 10
357.88066134095737
 20
190.5000014901162
 30
0.0
 40
8.0000000000000107
 50
336.03051768224009
 51
23.969482317759979
  0
ARC
  5
BA70
  8
0
 10
357.88066134095737
 20
190.5000014901162
 30
0.0
 40
7.999999999999976
 50
241.457474782182
 51
298.9469571374371
  0
ARC
  5
BA71
  8
0
 10
357.88066134095737
 20
190.5000014901162
 30
0.0
 40
8.0
 50
180.0
 51
203.1112674291507
  0
POLYLINE
  5
BA74
  8
0
 10
378.38066134095737
 20
199.42265122092655
 30
0.0
 66
     1
 70
     8
  0
VERTEX
  8
0
  5
14EEE
 10
378.381
 20
199.423
 30
0.000000
  70
    32
  0
VERTEX
  8
0
  5
14EEF
 10
378.405
 20
199.423
 30
0.000000
  70
    32
  0
VERTEX
  8
0
  5
14EF0
 10
378.430
 20
199.423
 30
0.000000
  70
    32
  0
VERTEX
  8
0
  5
14EF1
 10
378.454
 20
199.423
 30
0.000000
  70
    32
  0
VERTEX
  8
0
  5
14EF2
 10
378.479
 20
199.423
 30
0.000000
  70
    32
  0
VERTEX
  8
0
  5
14EF3
 10
378.503
 20
199.424
 30
0.000000
  70
    32
  0
VERTEX
  8
0
  5
14EF4
 10
378.528
 20
199.424
 30
0.000000
  70
    32
  0
VERTEX
  8
0
  5
14EF5
 10
378.552
 20
199.425
 30
0.000000
  70
    32
  0
VERTEX
  8
0
  5
14EF6
 10
378.577
 20
199.425
 30
0.000000
  70
    32
  0
VERTEX
  8
0
  5
14EF7
 10
378.601
 20
199.426
 30
0.000000
  70
    32
  0
VERTEX
  8
0
  5
14EF8
 10
378.625
 20
199.427
 30
0.000000
  70
    32
  0
VERTEX
  8
0
  5
14EF9
 10
378.650
 20
199.428
 30
0.000000
  70
    32
  0
VERTEX
  8
0
  5
14EFA
 10
378.674
 20
199.429
 30
0.000000
  70
    32
  0
VERTEX
  8
0
  5
14EFB
 10
378.698
 20
199.430
 30
0.000000
  70
    32
  0
VERTEX
  8
0
  5
14EFC
 10
378.723
 20
199.431
 30
0.000000
  70
    32
  0
VERTEX
  8
0
  5
14EFD
 10
378.747
 20
199.432
 30
0.000000
  70
    32
  0
VERTEX
  8
0
  5
14EFE
 10
378.771
 20
199.434
 30
0.000000
  70
    32
  0
VERTEX
  8
0
  5
14EFF
 10
378.795
 20
199.435
 30
0.000000
  70
    32
  0
VERTEX
  8
0
  5
14F00
 10
378.819
 20
199.437
 30
0.000000
  70
    32
  0
VERTEX
  8
0
  5
14F01
 10
378.843
 20
199.438
 30
0.000000
  70
    32
  0
VERTEX
  8
0
  5
14F02
 10
378.867
 20
199.440
 30
0.000000
  70
    32
  0
VERTEX
  8
0
  5
14F03
 10
378.890
 20
199.442
 30
0.000000
  70
    32
  0
VERTEX
  8
0
  5
14F04
 10
378.914
 20
199.444
 30
0.000000
  70
    32
  0
VERTEX
  8
0
  5
14F05
 10
378.938
 20
199.445
 30
0.000000
  70
    32
  0
VERTEX
  8
0
  5
14F06
 10
378.961
 20
199.448
 30
0.000000
  70
    32
  0
VERTEX
  8
0
  5
14F07
 10
378.985
 20
199.450
 30
0.000000
  70
    32
  0
VERTEX
  8
0
  5
14F08
 10
379.008
 20
199.452
 30
0.000000
  70
    32
  0
VERTEX
  8
0
  5
14F09
 10
379.031
 20
199.454
 30
0.000000
  70
    32
  0
VERTEX
  8
0
  5
14F0A
 10
379.054
 20
199.456
 30
0.000000
  70
    32
  0
VERTEX
  8
0
  5
14F0B
 10
379.077
 20
199.459
 30
0.000000
  70
    32
  0
VERTEX
  8
0
  5
14F0C
 10
379.100
 20
199.461
 30
0.000000
  70
    32
  0
VERTEX
  8
0
  5
14F0D
 10
379.123
 20
199.464
 30
0.000000
  70
    32
  0
VERTEX
  8
0
  5
14F0E
 10
379.146
 20
199.467
 30
0.000000
  70
    32
  0
VERTEX
  8
0
  5
14F0F
 10
379.169
 20
199.469
 30
0.000000
  70
    32
  0
VERTEX
  8
0
  5
14F10
 10
379.191
 20
199.472
 30
0.000000
  70
    32
  0
VERTEX
  8
0
  5
14F11
 10
379.214
 20
199.475
 30
0.000000
  70
    32
  0
VERTEX
  8
0
  5
14F12
 10
379.236
 20
199.478
 30
0.000000
  70
    32
  0
VERTEX
  8
0
  5
14F13
 10
379.258
 20
199.481
 30
0.000000
  70
    32
  0
VERTEX
  8
0
  5
14F14
 10
379.280
 20
199.484
 30
0.000000
  70
    32
  0
VERTEX
  8
0
  5
14F15
 10
379.302
 20
199.488
 30
0.000000
  70
    32
  0
VERTEX
  8
0
  5
14F16
 10
379.323
 20
199.491
 30
0.000000
  70
    32
  0
VERTEX
  8
0
  5
14F17
 10
379.345
 20
199.494
 30
0.000000
  70
    32
  0
VERTEX
  8
0
  5
14F18
 10
379.366
 20
199.498
 30
0.000000
  70
    32
  0
VERTEX
  8
0
  5
14F19
 10
379.388
 20
199.501
 30
0.000000
  70
    32
  0
VERTEX
  8
0
  5
14F1A
 10
379.409
 20
199.505
 30
0.000000
  70
    32
  0
VERTEX
  8
0
  5
14F1B
 10
379.430
 20
199.508
 30
0.000000
  70
    32
  0
VERTEX
  8
0
  5
14F1C
 10
379.451
 20
199.512
 30
0.000000
  70
    32
  0
VERTEX
  8
0
  5
14F1D
 10
379.471
 20
199.516
 30
0.000000
  70
    32
  0
VERTEX
  8
0
  5
14F1E
 10
379.492
 20
199.520
 30
0.000000
  70
    32
  0
VERTEX
  8
0
  5
14F1F
 10
379.512
 20
199.524
 30
0.000000
  70
    32
  0
VERTEX
  8
0
  5
14F20
 10
379.532
 20
199.528
 30
0.000000
  70
    32
  0
VERTEX
  8
0
  5
14F21
 10
379.552
 20
199.532
 30
0.000000
  70
    32
  0
VERTEX
  8
0
  5
14F22
 10
379.572
 20
199.536
 30
0.000000
  70
    32
  0
VERTEX
  8
0
  5
14F23
 10
379.592
 20
199.541
 30
0.000000
  70
    32
  0
VERTEX
  8
0
  5
14F24
 10
379.611
 20
199.545
 30
0.000000
  70
    32
  0
VERTEX
  8
0
  5
14F25
 10
379.630
 20
199.549
 30
0.000000
  70
    32
  0
VERTEX
  8
0
  5
14F26
 10
379.649
 20
199.554
 30
0.000000
  70
    32
  0
VERTEX
  8
0
  5
14F27
 10
379.668
 20
199.558
 30
0.000000
  70
    32
  0
VERTEX
  8
0
  5
14F28
 10
379.687
 20
199.563
 30
0.000000
  70
    32
  0
VERTEX
  8
0
  5
14F29
 10
379.705
 20
199.567
 30
0.000000
  70
    32
  0
VERTEX
  8
0
  5
14F2A
 10
379.724
 20
199.572
 30
0.000000
  70
    32
  0
VERTEX
  8
0
  5
14F2B
 10
379.742
 20
199.577
 30
0.000000
  70
    32
  0
VERTEX
  8
0
  5
14F2C
 10
379.760
 20
199.582
 30
0.000000
  70
    32
  0
VERTEX
  8
0
  5
14F2D
 10
379.777
 20
199.587
 30
0.000000
  70
    32
  0
VERTEX
  8
0
  5
14F2E
 10
379.795
 20
199.592
 30
0.000000
  70
    32
  0
VERTEX
  8
0
  5
14F2F
 10
379.812
 20
199.597
 30
0.000000
  70
    32
  0
VERTEX
  8
0
  5
14F30
 10
379.829
 20
199.602
 30
0.000000
  70
    32
  0
VERTEX
  8
0
  5
14F31
 10
379.846
 20
199.607
 30
0.000000
  70
    32
  0
VERTEX
  8
0
  5
14F32
 10
379.863
 20
199.612
 30
0.000000
  70
    32
  0
VERTEX
  8
0
  5
14F33
 10
379.879
 20
199.618
 30
0.000000
  70
    32
  0
VERTEX
  8
0
  5
14F34
 10
379.895
 20
199.623
 30
0.000000
  70
    32
  0
VERTEX
  8
0
  5
14F35
 10
379.911
 20
199.628
 30
0.000000
  70
    32
  0
VERTEX
  8
0
  5
14F36
 10
379.927
 20
199.634
 30
0.000000
  70
    32
  0
VERTEX
  8
0
  5
14F37
 10
379.942
 20
199.639
 30
0.000000
  70
    32
  0
VERTEX
  8
0
  5
14F38
 10
379.957
 20
199.645
 30
0.000000
  70
    32
  0
VERTEX
  8
0
  5
14F39
 10
379.972
 20
199.650
 30
0.000000
  70
    32
  0
VERTEX
  8
0
  5
14F3A
 10
379.987
 20
199.656
 30
0.000000
  70
    32
  0
VERTEX
  8
0
  5
14F3B
 10
380.002
 20
199.662
 30
0.000000
  70
    32
  0
VERTEX
  8
0
  5
14F3C
 10
380.016
 20
199.668
 30
0.000000
  70
    32
  0
VERTEX
  8
0
  5
14F3D
 10
380.030
 20
199.673
 30
0.000000
  70
    32
  0
VERTEX
  8
0
  5
14F3E
 10
380.044
 20
199.679
 30
0.000000
  70
    32
  0
VERTEX
  8
0
  5
14F3F
 10
380.057
 20
199.685
 30
0.000000
  70
    32
  0
VERTEX
  8
0
  5
14F40
 10
380.070
 20
199.691
 30
0.000000
  70
    32
  0
VERTEX
  8
0
  5
14F41
 10
380.083
 20
199.697
 30
0.000000
  70
    32
  0
VERTEX
  8
0
  5
14F42
 10
380.096
 20
199.703
 30
0.000000
  70
    32
  0
VERTEX
  8
0
  5
14F43
 10
380.109
 20
199.709
 30
0.000000
  70
    32
  0
VERTEX
  8
0
  5
14F44
 10
380.121
 20
199.715
 30
0.000000
  70
    32
  0
VERTEX
  8
0
  5
14F45
 10
380.133
 20
199.722
 30
0.000000
  70
    32
  0
VERTEX
  8
0
  5
14F46
 10
380.145
 20
199.728
 30
0.000000
  70
    32
  0
VERTEX
  8
0
  5
14F47
 10
380.156
 20
199.734
 30
0.000000
  70
    32
  0
VERTEX
  8
0
  5
14F48
 10
380.167
 20
199.740
 30
0.000000
  70
    32
  0
VERTEX
  8
0
  5
14F49
 10
380.178
 20
199.747
 30
0.000000
  70
    32
  0
VERTEX
  8
0
  5
14F4A
 10
380.189
 20
199.753
 30
0.000000
  70
    32
  0
VERTEX
  8
0
  5
14F4B
 10
380.199
 20
199.760
 30
0.000000
  70
    32
  0
VERTEX
  8
0
  5
14F4C
 10
380.209
 20
199.766
 30
0.000000
  70
    32
  0
VERTEX
  8
0
  5
14F4D
 10
380.219
 20
199.773
 30
0.000000
  70
    32
  0
VERTEX
  8
0
  5
14F4E
 10
380.228
 20
199.779
 30
0.000000
  70
    32
  0
VERTEX
  8
0
  5
14F4F
 10
380.238
 20
199.786
 30
0.000000
  70
    32
  0
VERTEX
  8
0
  5
14F50
 10
380.247
 20
199.792
 30
0.000000
  70
    32
  0
VERTEX
  8
0
  5
14F51
 10
380.255
 20
199.799
 30
0.000000
  70
    32
  0
VERTEX
  8
0
  5
14F52
 10
380.264
 20
199.805
 30
0.000000
  70
    32
  0
VERTEX
  8
0
  5
14F53
 10
380.272
 20
199.812
 30
0.000000
  70
    32
  0
VERTEX
  8
0
  5
14F54
 10
380.280
 20
199.819
 30
0.000000
  70
    32
  0
VERTEX
  8
0
  5
14F55
 10
380.287
 20
199.826
 30
0.000000
  70
    32
  0
VERTEX
  8
0
  5
14F56
 10
380.295
 20
199.832
 30
0.000000
  70
    32
  0
VERTEX
  8
0
  5
14F57
 10
380.302
 20
199.839
 30
0.000000
  70
    32
  0
VERTEX
  8
0
  5
14F58
 10
380.308
 20
199.846
 30
0.000000
  70
    32
  0
VERTEX
  8
0
  5
14F59
 10
380.315
 20
199.853
 30
0.000000
  70
    32
  0
VERTEX
  8
0
  5
14F5A
 10
380.321
 20
199.860
 30
0.000000
  70
    32
  0
VERTEX
  8
0
  5
14F5B
 10
380.327
 20
199.867
 30
0.000000
  70
    32
  0
VERTEX
  8
0
  5
14F5C
 10
380.332
 20
199.874
 30
0.000000
  70
    32
  0
VERTEX
  8
0
  5
14F5D
 10
380.337
 20
199.880
 30
0.000000
  70
    32
  0
VERTEX
  8
0
  5
14F5E
 10
380.342
 20
199.887
 30
0.000000
  70
    32
  0
VERTEX
  8
0
  5
14F5F
 10
380.347
 20
199.894
 30
0.000000
  70
    32
  0
VERTEX
  8
0
  5
14F60
 10
380.351
 20
199.901
 30
0.000000
  70
    32
  0
VERTEX
  8
0
  5
14F61
 10
380.355
 20
199.908
 30
0.000000
  70
    32
  0
VERTEX
  8
0
  5
14F62
 10
380.359
 20
199.915
 30
0.000000
  70
    32
  0
VERTEX
  8
0
  5
14F63
 10
380.362
 20
199.922
 30
0.000000
  70
    32
  0
VERTEX
  8
0
  5
14F64
 10
380.366
 20
199.929
 30
0.000000
  70
    32
  0
VERTEX
  8
0
  5
14F65
 10
380.368
 20
199.936
 30
0.000000
  70
    32
  0
VERTEX
  8
0
  5
14F66
 10
380.371
 20
199.943
 30
0.000000
  70
    32
  0
VERTEX
  8
0
  5
14F67
 10
380.373
 20
199.950
 30
0.000000
  70
    32
  0
VERTEX
  8
0
  5
14F68
 10
380.375
 20
199.958
 30
0.000000
  70
    32
  0
VERTEX
  8
0
  5
14F69
 10
380.377
 20
199.965
 30
0.000000
  70
    32
  0
VERTEX
  8
0
  5
14F6A
 10
380.378
 20
199.972
 30
0.000000
  70
    32
  0
VERTEX
  8
0
  5
14F6B
 10
380.379
 20
199.979
 30
0.000000
  70
    32
  0
VERTEX
  8
0
  5
14F6C
 10
380.380
 20
199.986
 30
0.000000
  70
    32
  0
VERTEX
  8
0
  5
14F6D
 10
380.381
 20
199.993
 30
0.000000
  70
    32
  0
VERTEX
  8
0
  5
14F6E
 10
380.381
 20
200.000
 30
0.000000
  70
    32
  0
SEQEND
  8
0
  5
14F6F
  0
LINE
  5
BA79
  8
0
 10
335.38066044688782
 20
173.00000151386499
 30
0.0
 11
335.88066146016672
 21
172.50000149011629
 31
0.0
  0
LINE
  5
BA7A
  8
0
 10
380.3806622350271
 20
173.0000015138649
 30
0.0
 11
379.88066122174808
 21
172.5000014901162
 31
0.0
  0
LINE
  5
BA7F
  8
0
 10
378.38066190720161
 20
199.4226521253587
 30
0.0
 11
337.38066077471331
 21
199.42265212535881
 31
0.0
  0
LINE
  5
BA81
  8
0
 10
350.38066150859549
 20
173.0000015138649
 30
0.0
 11
365.38066117331942
 21
173.0000015138649
 31
0.0
  0
LINE
  5
BA82
  8
0
 10
394.88066181779482
 20
172.5000014901162
 30
0.0
 11
365.88066172093698
 21
172.5000014901162
 31
0.0
  0
LINE
  5
BA83
  8
0
 10
365.88066172093698
 20
172.5000014901162
 30
0.0
 11
365.38066117331942
 21
173.0000015138649
 31
0.0
  0
LINE
  5
BA84
  8
0
 10
335.38066044688782
 20
173.00000151386499
 30
0.0
 11
335.38066044688782
 21
184.42928534001129
 31
0.0
  0
LINE
  5
BA85
  8
0
 10
335.38066044688782
 20
196.57251261174699
 30
0.0
 11
335.38066134095737
 21
202.42265122092681
 31
0.0
  0
POLYLINE
  5
BA86
  8
0
 10
335.38066134095737
 20
200.00000149011629
 30
0.0
 66
     1
 70
     8
  0
VERTEX
  8
0
  5
14F70
 10
335.381
 20
200.000
 30
0.000000
  70
    32
  0
VERTEX
  8
0
  5
14F71
 10
335.381
 20
199.993
 30
0.000000
  70
    32
  0
VERTEX
  8
0
  5
14F72
 10
335.381
 20
199.986
 30
0.000000
  70
    32
  0
VERTEX
  8
0
  5
14F73
 10
335.382
 20
199.979
 30
0.000000
  70
    32
  0
VERTEX
  8
0
  5
14F74
 10
335.383
 20
199.972
 30
0.000000
  70
    32
  0
VERTEX
  8
0
  5
14F75
 10
335.384
 20
199.965
 30
0.000000
  70
    32
  0
VERTEX
  8
0
  5
14F76
 10
335.386
 20
199.958
 30
0.000000
  70
    32
  0
VERTEX
  8
0
  5
14F77
 10
335.388
 20
199.950
 30
0.000000
  70
    32
  0
VERTEX
  8
0
  5
14F78
 10
335.390
 20
199.943
 30
0.000000
  70
    32
  0
VERTEX
  8
0
  5
14F79
 10
335.393
 20
199.936
 30
0.000000
  70
    32
  0
VERTEX
  8
0
  5
14F7A
 10
335.396
 20
199.929
 30
0.000000
  70
    32
  0
VERTEX
  8
0
  5
14F7B
 10
335.399
 20
199.922
 30
0.000000
  70
    32
  0
VERTEX
  8
0
  5
14F7C
 10
335.402
 20
199.915
 30
0.000000
  70
    32
  0
VERTEX
  8
0
  5
14F7D
 10
335.406
 20
199.908
 30
0.000000
  70
    32
  0
VERTEX
  8
0
  5
14F7E
 10
335.410
 20
199.901
 30
0.000000
  70
    32
  0
VERTEX
  8
0
  5
14F7F
 10
335.414
 20
199.894
 30
0.000000
  70
    32
  0
VERTEX
  8
0
  5
14F80
 10
335.419
 20
199.887
 30
0.000000
  70
    32
  0
VERTEX
  8
0
  5
14F81
 10
335.424
 20
199.880
 30
0.000000
  70
    32
  0
VERTEX
  8
0
  5
14F82
 10
335.429
 20
199.874
 30
0.000000
  70
    32
  0
VERTEX
  8
0
  5
14F83
 10
335.435
 20
199.867
 30
0.000000
  70
    32
  0
VERTEX
  8
0
  5
14F84
 10
335.441
 20
199.860
 30
0.000000
  70
    32
  0
VERTEX
  8
0
  5
14F85
 10
335.447
 20
199.853
 30
0.000000
  70
    32
  0
VERTEX
  8
0
  5
14F86
 10
335.453
 20
199.846
 30
0.000000
  70
    32
  0
VERTEX
  8
0
  5
14F87
 10
335.460
 20
199.839
 30
0.000000
  70
    32
  0
VERTEX
  8
0
  5
14F88
 10
335.467
 20
199.832
 30
0.000000
  70
    32
  0
VERTEX
  8
0
  5
14F89
 10
335.474
 20
199.826
 30
0.000000
  70
    32
  0
VERTEX
  8
0
  5
14F8A
 10
335.482
 20
199.819
 30
0.000000
  70
    32
  0
VERTEX
  8
0
  5
14F8B
 10
335.489
 20
199.812
 30
0.000000
  70
    32
  0
VERTEX
  8
0
  5
14F8C
 10
335.498
 20
199.805
 30
0.000000
  70
    32
  0
VERTEX
  8
0
  5
14F8D
 10
335.506
 20
199.799
 30
0.000000
  70
    32
  0
VERTEX
  8
0
  5
14F8E
 10
335.515
 20
199.792
 30
0.000000
  70
    32
  0
VERTEX
  8
0
  5
14F8F
 10
335.524
 20
199.786
 30
0.000000
  70
    32
  0
VERTEX
  8
0
  5
14F90
 10
335.533
 20
199.779
 30
0.000000
  70
    32
  0
VERTEX
  8
0
  5
14F91
 10
335.542
 20
199.773
 30
0.000000
  70
    32
  0
VERTEX
  8
0
  5
14F92
 10
335.552
 20
199.766
 30
0.000000
  70
    32
  0
VERTEX
  8
0
  5
14F93
 10
335.562
 20
199.760
 30
0.000000
  70
    32
  0
VERTEX
  8
0
  5
14F94
 10
335.573
 20
199.753
 30
0.000000
  70
    32
  0
VERTEX
  8
0
  5
14F95
 10
335.583
 20
199.747
 30
0.000000
  70
    32
  0
VERTEX
  8
0
  5
14F96
 10
335.594
 20
199.740
 30
0.000000
  70
    32
  0
VERTEX
  8
0
  5
14F97
 10
335.605
 20
199.734
 30
0.000000
  70
    32
  0
VERTEX
  8
0
  5
14F98
 10
335.617
 20
199.728
 30
0.000000
  70
    32
  0
VERTEX
  8
0
  5
14F99
 10
335.629
 20
199.722
 30
0.000000
  70
    32
  0
VERTEX
  8
0
  5
14F9A
 10
335.640
 20
199.715
 30
0.000000
  70
    32
  0
VERTEX
  8
0
  5
14F9B
 10
335.653
 20
199.709
 30
0.000000
  70
    32
  0
VERTEX
  8
0
  5
14F9C
 10
335.665
 20
199.703
 30
0.000000
  70
    32
  0
VERTEX
  8
0
  5
14F9D
 10
335.678
 20
199.697
 30
0.000000
  70
    32
  0
VERTEX
  8
0
  5
14F9E
 10
335.691
 20
199.691
 30
0.000000
  70
    32
  0
VERTEX
  8
0
  5
14F9F
 10
335.704
 20
199.685
 30
0.000000
  70
    32
  0
VERTEX
  8
0
  5
14FA0
 10
335.718
 20
199.679
 30
0.000000
  70
    32
  0
VERTEX
  8
0
  5
14FA1
 10
335.731
 20
199.673
 30
0.000000
  70
    32
  0
VERTEX
  8
0
  5
14FA2
 10
335.745
 20
199.668
 30
0.000000
  70
    32
  0
VERTEX
  8
0
  5
14FA3
 10
335.760
 20
199.662
 30
0.000000
  70
    32
  0
VERTEX
  8
0
  5
14FA4
 10
335.774
 20
199.656
 30
0.000000
  70
    32
  0
VERTEX
  8
0
  5
14FA5
 10
335.789
 20
199.650
 30
0.000000
  70
    32
  0
VERTEX
  8
0
  5
14FA6
 10
335.804
 20
199.645
 30
0.000000
  70
    32
  0
VERTEX
  8
0
  5
14FA7
 10
335.819
 20
199.639
 30
0.000000
  70
    32
  0
VERTEX
  8
0
  5
14FA8
 10
335.835
 20
199.634
 30
0.000000
  70
    32
  0
VERTEX
  8
0
  5
14FA9
 10
335.850
 20
199.628
 30
0.000000
  70
    32
  0
VERTEX
  8
0
  5
14FAA
 10
335.866
 20
199.623
 30
0.000000
  70
    32
  0
VERTEX
  8
0
  5
14FAB
 10
335.882
 20
199.618
 30
0.000000
  70
    32
  0
VERTEX
  8
0
  5
14FAC
 10
335.899
 20
199.612
 30
0.000000
  70
    32
  0
VERTEX
  8
0
  5
14FAD
 10
335.915
 20
199.607
 30
0.000000
  70
    32
  0
VERTEX
  8
0
  5
14FAE
 10
335.932
 20
199.602
 30
0.000000
  70
    32
  0
VERTEX
  8
0
  5
14FAF
 10
335.949
 20
199.597
 30
0.000000
  70
    32
  0
VERTEX
  8
0
  5
14FB0
 10
335.966
 20
199.592
 30
0.000000
  70
    32
  0
VERTEX
  8
0
  5
14FB1
 10
335.984
 20
199.587
 30
0.000000
  70
    32
  0
VERTEX
  8
0
  5
14FB2
 10
336.002
 20
199.582
 30
0.000000
  70
    32
  0
VERTEX
  8
0
  5
14FB3
 10
336.019
 20
199.577
 30
0.000000
  70
    32
  0
VERTEX
  8
0
  5
14FB4
 10
336.038
 20
199.572
 30
0.000000
  70
    32
  0
VERTEX
  8
0
  5
14FB5
 10
336.056
 20
199.567
 30
0.000000
  70
    32
  0
VERTEX
  8
0
  5
14FB6
 10
336.074
 20
199.563
 30
0.000000
  70
    32
  0
VERTEX
  8
0
  5
14FB7
 10
336.093
 20
199.558
 30
0.000000
  70
    32
  0
VERTEX
  8
0
  5
14FB8
 10
336.112
 20
199.554
 30
0.000000
  70
    32
  0
VERTEX
  8
0
  5
14FB9
 10
336.131
 20
199.549
 30
0.000000
  70
    32
  0
VERTEX
  8
0
  5
14FBA
 10
336.150
 20
199.545
 30
0.000000
  70
    32
  0
VERTEX
  8
0
  5
14FBB
 10
336.170
 20
199.541
 30
0.000000
  70
    32
  0
VERTEX
  8
0
  5
14FBC
 10
336.189
 20
199.536
 30
0.000000
  70
    32
  0
VERTEX
  8
0
  5
14FBD
 10
336.209
 20
199.532
 30
0.000000
  70
    32
  0
VERTEX
  8
0
  5
14FBE
 10
336.229
 20
199.528
 30
0.000000
  70
    32
  0
VERTEX
  8
0
  5
14FBF
 10
336.249
 20
199.524
 30
0.000000
  70
    32
  0
VERTEX
  8
0
  5
14FC0
 10
336.270
 20
199.520
 30
0.000000
  70
    32
  0
VERTEX
  8
0
  5
14FC1
 10
336.290
 20
199.516
 30
0.000000
  70
    32
  0
VERTEX
  8
0
  5
14FC2
 10
336.311
 20
199.512
 30
0.000000
  70
    32
  0
VERTEX
  8
0
  5
14FC3
 10
336.331
 20
199.508
 30
0.000000
  70
    32
  0
VERTEX
  8
0
  5
14FC4
 10
336.352
 20
199.505
 30
0.000000
  70
    32
  0
VERTEX
  8
0
  5
14FC5
 10
336.374
 20
199.501
 30
0.000000
  70
    32
  0
VERTEX
  8
0
  5
14FC6
 10
336.395
 20
199.498
 30
0.000000
  70
    32
  0
VERTEX
  8
0
  5
14FC7
 10
336.416
 20
199.494
 30
0.000000
  70
    32
  0
VERTEX
  8
0
  5
14FC8
 10
336.438
 20
199.491
 30
0.000000
  70
    32
  0
VERTEX
  8
0
  5
14FC9
 10
336.460
 20
199.488
 30
0.000000
  70
    32
  0
VERTEX
  8
0
  5
14FCA
 10
336.481
 20
199.484
 30
0.000000
  70
    32
  0
VERTEX
  8
0
  5
14FCB
 10
336.503
 20
199.481
 30
0.000000
  70
    32
  0
VERTEX
  8
0
  5
14FCC
 10
336.526
 20
199.478
 30
0.000000
  70
    32
  0
VERTEX
  8
0
  5
14FCD
 10
336.548
 20
199.475
 30
0.000000
  70
    32
  0
VERTEX
  8
0
  5
14FCE
 10
336.570
 20
199.472
 30
0.000000
  70
    32
  0
VERTEX
  8
0
  5
14FCF
 10
336.593
 20
199.469
 30
0.000000
  70
    32
  0
VERTEX
  8
0
  5
14FD0
 10
336.615
 20
199.467
 30
0.000000
  70
    32
  0
VERTEX
  8
0
  5
14FD1
 10
336.638
 20
199.464
 30
0.000000
  70
    32
  0
VERTEX
  8
0
  5
14FD2
 10
336.661
 20
199.461
 30
0.000000
  70
    32
  0
VERTEX
  8
0
  5
14FD3
 10
336.684
 20
199.459
 30
0.000000
  70
    32
  0
VERTEX
  8
0
  5
14FD4
 10
336.707
 20
199.456
 30
0.000000
  70
    32
  0
VERTEX
  8
0
  5
14FD5
 10
336.730
 20
199.454
 30
0.000000
  70
    32
  0
VERTEX
  8
0
  5
14FD6
 10
336.753
 20
199.452
 30
0.000000
  70
    32
  0
VERTEX
  8
0
  5
14FD7
 10
336.777
 20
199.450
 30
0.000000
  70
    32
  0
VERTEX
  8
0
  5
14FD8
 10
336.800
 20
199.448
 30
0.000000
  70
    32
  0
VERTEX
  8
0
  5
14FD9
 10
336.824
 20
199.445
 30
0.000000
  70
    32
  0
VERTEX
  8
0
  5
14FDA
 10
336.847
 20
199.444
 30
0.000000
  70
    32
  0
VERTEX
  8
0
  5
14FDB
 10
336.871
 20
199.442
 30
0.000000
  70
    32
  0
VERTEX
  8
0
  5
14FDC
 10
336.895
 20
199.440
 30
0.000000
  70
    32
  0
VERTEX
  8
0
  5
14FDD
 10
336.919
 20
199.438
 30
0.000000
  70
    32
  0
VERTEX
  8
0
  5
14FDE
 10
336.942
 20
199.437
 30
0.000000
  70
    32
  0
VERTEX
  8
0
  5
14FDF
 10
336.966
 20
199.435
 30
0.000000
  70
    32
  0
VERTEX
  8
0
  5
14FE0
 10
336.990
 20
199.434
 30
0.000000
  70
    32
  0
VERTEX
  8
0
  5
14FE1
 10
337.015
 20
199.432
 30
0.000000
  70
    32
  0
VERTEX
  8
0
  5
14FE2
 10
337.039
 20
199.431
 30
0.000000
  70
    32
  0
VERTEX
  8
0
  5
14FE3
 10
337.063
 20
199.430
 30
0.000000
  70
    32
  0
VERTEX
  8
0
  5
14FE4
 10
337.087
 20
199.429
 30
0.000000
  70
    32
  0
VERTEX
  8
0
  5
14FE5
 10
337.111
 20
199.428
 30
0.000000
  70
    32
  0
VERTEX
  8
0
  5
14FE6
 10
337.136
 20
199.427
 30
0.000000
  70
    32
  0
VERTEX
  8
0
  5
14FE7
 10
337.160
 20
199.426
 30
0.000000
  70
    32
  0
VERTEX
  8
0
  5
14FE8
 10
337.185
 20
199.425
 30
0.000000
  70
    32
  0
VERTEX
  8
0
  5
14FE9
 10
337.209
 20
199.425
 30
0.000000
  70
    32
  0
VERTEX
  8
0
  5
14FEA
 10
337.234
 20
199.424
 30
0.000000
  70
    32
  0
VERTEX
  8
0
  5
14FEB
 10
337.258
 20
199.424
 30
0.000000
  70
    32
  0
VERTEX
  8
0
  5
14FEC
 10
337.283
 20
199.423
 30
0.000000
  70
    32
  0
VERTEX
  8
0
  5
14FED
 10
337.307
 20
199.423
 30
0.000000
  70
    32
  0
VERTEX
  8
0
  5
14FEE
 10
337.332
 20
199.423
 30
0.000000
  70
    32
  0
VERTEX
  8
0
  5
14FEF
 10
337.356
 20
199.423
 30
0.000000
  70
    32
  0
VERTEX
  8
0
  5
14FF0
 10
337.381
 20
199.423
 30
0.000000
  70
    32
  0
SEQEND
  8
0
  5
14FF1
  0
LINE
  5
BA88
  8
0
 10
350.38066150859549
 20
173.0000015138649
 30
0.0
 11
349.88066096097782
 21
172.5000014901162
 31
0.0
  0
CIRCLE
  5
BA89
  8
0
 10
372.88066134095737
 20
190.5000014901162
 30
0.0
 40
4.2500000000000284
  0
LINE
  5
BA98
  8
0
 10
380.3806622350271
 20
202.42265075445181
 30
0.0
 11
380.38066223502722
 21
173.00000151386499
 31
0.0
  0
LINE
  5
BA9A
  8
0
 10
378.942839878207
 20
203.83012875914579
 30
0.0
 11
379.88066122174808
 21
203.2886764407159
 31
0.0
  0
LINE
  5
BA9E
  8
0
 10
335.88066146016672
 20
203.28867644071599
 30
0.0
 11
336.81848280370792
 21
203.83012875914591
 31
0.0
  0
ARC
  5
BAA0
  8
0
 10
379.38066134095737
 20
202.4226512209267
 30
0.0
 40
1.0
 50
0.0
 51
60.000000000000682
  0
ARC
  5
BAA1
  8
0
 10
336.38066134095737
 20
202.42265122092681
 30
0.0
 40
1.0
 50
119.9999999999993
 51
180.0
  0
LINE
  5
BAA3
  8
0
 10
338.24668646097729
 20
204.5000030100347
 30
0.0
 11
377.51463622093752
 21
204.5000030100347
 31
0.0
  0
ARC
  5
BAA5
  8
0
 10
338.24668674474168
 20
203.50000149011629
 30
0.0
 40
1.0
 50
90.0
 51
119.9999999999993
  0
POLYLINE
  5
BAA6
  8
0
 66
     1
 10
0.0
 20
0.0
 30
0.0
 70
   128
  0
VERTEX
  5
14B5A
  8
0
 10
336.81848280370792
 20
203.83012875914591
 30
0.0
  0
VERTEX
  5
14B5B
  8
0
 10
337.21930913866117
 20
204.06154379248639
 30
0.0
  0
VERTEX
  5
14B5C
  8
0
 10
337.51061380148491
 20
204.22972947359099
 30
0.0
  0
VERTEX
  5
14B5D
  8
0
 10
337.6874142164047
 20
204.3318061530592
 30
0.0
  0
VERTEX
  5
14B5E
  8
0
 10
337.74668731034348
 20
204.3660266697409
 30
0.0
  0
SEQEND
  5
14B5F
  8
0
  0
ARC
  5
BAA7
  8
0
 10
377.5146359371729
 20
203.5000014901162
 30
0.0
 40
1.0
 50
60.000000000000682
 51
90.0
  0
POLYLINE
  5
BAA8
  8
0
 66
     1
 10
0.0
 20
0.0
 30
0.0
 70
   128
  0
VERTEX
  5
14B60
  8
0
 10
378.01463537157127
 20
204.36602666974079
 30
0.0
  0
VERTEX
  5
14B61
  8
0
 10
378.07390846551021
 20
204.33180615305909
 30
0.0
  0
VERTEX
  5
14B62
  8
0
 10
378.25070888043001
 20
204.22972947359091
 30
0.0
  0
VERTEX
  5
14B63
  8
0
 10
378.54201354325369
 20
204.0615437924863
 30
0.0
  0
VERTEX
  5
14B64
  8
0
 10
378.942839878207
 20
203.83012875914579
 30
0.0
  0
SEQEND
  5
14B65
  8
0
  0
LINE
  5
BAAE
  8
0
 10
380.3806622350271
 20
180.50000187009579
 30
0.0
 11
394.3806613680988
 21
180.50000149011601
 31
0.0
  0
LINE
  5
BAD5
  8
0
 10
320.38065985084131
 20
173.00000151386479
 30
0.0
 11
320.88066086412027
 21
172.50000149011609
 31
0.0
  0
LINE
  5
BAD6
  8
0
 10
349.88066096097782
 20
172.50000149011609
 30
0.0
 11
320.88066086412027
 21
172.50000149011609
 31
0.0
  0
LINE
  5
BADB
  8
0
 10
394.88066181779459
 20
172.50000149011589
 30
0.0
 11
395.38066283107361
 21
173.0000015138647
 31
0.0
  0
LINE
  5
BAE0
  8
0
 10
395.38066283107361
 20
179.50000170618279
 30
0.0
 11
395.38066283107361
 21
173.0000015138647
 31
0.0
  0
LINE
  5
BAE6
  8
0
 10
320.38065985084131
 20
173.00000151386479
 30
0.0
 11
320.38065985084131
 21
179.5000017061829
 31
0.0
  0
ARC
  5
BAE7
  8
0
 10
321.38066134095737
 20
179.50000149011609
 30
0.0
 40
1.0
 50
90.0
 51
180.0
  0
LINE
  5
BAE9
  8
0
 10
321.38066187739918
 20
180.5000018700957
 30
0.0
 11
335.38066044688782
 21
180.5000018700957
 31
0.0
  0
ARC
  5
BAED
  8
0
 10
394.38066134095749
 20
179.50000149011601
 30
0.0
 40
1.0
 50
0.0
 51
90.0
  0
LINE
  5
BAF8
  8
0
 10
225.301462116247
 20
184.0000015124678
 30
0.0
 11
225.50146177650049
 21
184.2000011727213
 31
0.0
  0
LINE
  5
BAF9
  8
0
 10
225.50146177650049
 20
196.80000118911261
 30
0.0
 11
225.301462116247
 21
197.0000008493661
 31
0.0
  0
LINE
  5
BAFA
  8
0
 10
224.1014306271131
 20
184.0000015124678
 30
0.0
 11
225.301462116247
 21
184.0000015124678
 31
0.0
  0
LINE
  5
BAFB
  8
0
 10
225.301462116247
 20
197.0000008493661
 30
0.0
 11
224.1014306271131
 21
197.0000008493661
 31
0.0
  0
ARC
  5
BAFC
  8
0
 10
236.87581211740229
 20
187.56283285180061
 30
0.0
 40
4.2250916003298
 50
290.52396662519112
 51
322.24926735436509
  0
ARC
  5
BAFD
  8
0
 10
236.44566061134199
 20
192.85344172289899
 30
0.0
 40
4.9265674682764464
 50
40.056332622756848
 51
67.170433397689592
  0
POLYLINE
  5
BAFE
  8
0
 66
     1
 10
0.0
 20
0.0
 30
0.0
 70
   128
  0
VERTEX
  5
14B66
  8
0
 10
238.10210719943601
 20
197.50019371509549
 30
0.0
  0
VERTEX
  5
14B67
  8
0
 10
237.75469407678199
 20
197.46181577444071
 30
0.0
  0
VERTEX
  5
14B68
  8
0
 10
237.31778457999781
 20
197.28620931506151
 30
0.0
  0
VERTEX
  5
14B69
  8
0
 10
236.95728078723511
 20
197.0793420821428
 30
0.0
  0
VERTEX
  5
14B6A
  8
0
 10
236.5473423922117
 20
196.84303946793071
 30
0.0
  0
VERTEX
  5
14B6B
  8
0
 10
236.21904745936951
 20
196.65344454348079
 30
0.0
  0
VERTEX
  5
14B6C
  8
0
 10
235.9638874256666
 20
196.50611862540239
 30
0.0
  0
VERTEX
  5
14B6D
  8
0
 10
235.72511121869641
 20
196.3682903349399
 30
0.0
  0
VERTEX
  5
14B6E
  8
0
 10
235.26257544994911
 20
196.09732016921041
 30
0.0
  0
VERTEX
  5
14B6F
  8
0
 10
234.8060746514852
 20
195.80736592411989
 30
0.0
  0
VERTEX
  5
14B70
  8
0
 10
234.39114064217171
 20
195.39885058999059
 30
0.0
  0
VERTEX
  5
14B71
  8
0
 10
234.09259587765291
 20
194.8663799464702
 30
0.0
  0
VERTEX
  5
14B72
  8
0
 10
233.95354941726279
 20
194.2597499489784
 30
0.0
  0
SEQEND
  5
14B73
  8
0
  0
POLYLINE
  5
BAFF
  8
0
 66
     1
 10
0.0
 20
0.0
 30
0.0
 70
   128
  0
VERTEX
  5
14B74
  8
0
 10
233.960865887409
 20
186.76573712378729
 30
0.0
  0
VERTEX
  5
14B75
  8
0
 10
234.0872202837522
 20
186.15321557968849
 30
0.0
  0
VERTEX
  5
14B76
  8
0
 10
234.37514052033981
 20
185.6149437278508
 30
0.0
  0
VERTEX
  5
14B77
  8
0
 10
234.78941887856081
 20
185.20172894001001
 30
0.0
  0
VERTEX
  5
14B78
  8
0
 10
235.25175348163199
 20
184.90794509649271
 30
0.0
  0
VERTEX
  5
14B79
  8
0
 10
235.72073027730539
 20
184.63363986462349
 30
0.0
  0
VERTEX
  5
14B7A
  8
0
 10
235.96185341716361
 20
184.4947107508778
 30
0.0
  0
VERTEX
  5
14B7B
  8
0
 10
236.21896177769261
 20
184.34663511812681
 30
0.0
  0
VERTEX
  5
14B7C
  8
0
 10
236.54951051116541
 20
184.1562942042946
 30
0.0
  0
VERTEX
  5
14B7D
  8
0
 10
236.96150526643351
 20
183.91964606940741
 30
0.0
  0
VERTEX
  5
14B7E
  8
0
 10
237.45629832387519
 20
183.6426390707492
 30
0.0
  0
VERTEX
  5
14B7F
  8
0
 10
237.76108667493421
 20
183.5376557335257
 30
0.0
  0
VERTEX
  5
14B80
  8
0
 10
238.11001971602991
 20
183.4993690624832
 30
0.0
  0
SEQEND
  5
14B81
  8
0
  0
POLYLINE
  5
BB00
  8
0
 66
     1
 10
0.0
 20
0.0
 30
0.0
 70
   128
  0
VERTEX
  5
14B82
  8
0
 10
233.9504611516054
 20
194.14785712957379
 30
0.0
  0
VERTEX
  5
14B83
  8
0
 10
233.95509913802701
 20
190.50000071525571
 30
0.0
  0
VERTEX
  5
14B84
  8
0
 10
233.95664885879111
 20
186.8377097323536
 30
0.0
  0
SEQEND
  5
14B85
  8
0
  0
POLYLINE
  5
BB01
  8
0
 66
     1
 10
0.0
 20
0.0
 30
0.0
 70
   128
  0
VERTEX
  5
14B86
  8
0
 10
239.39875409246039
 20
185.85272435098881
 30
0.0
  0
VERTEX
  5
14B87
  8
0
 10
239.39964071155151
 20
185.85012782365081
 30
0.0
  0
VERTEX
  5
14B88
  8
0
 10
239.39075961947989
 20
185.88534671813241
 30
0.0
  0
VERTEX
  5
14B89
  8
0
 10
239.37024072051599
 20
185.98544154316181
 30
0.0
  0
VERTEX
  5
14B8A
  8
0
 10
239.34118345618799
 20
186.1623229831456
 30
0.0
  0
VERTEX
  5
14B8B
  8
0
 10
239.30709704995709
 20
186.42184533178801
 30
0.0
  0
VERTEX
  5
14B8C
  8
0
 10
239.27138641715601
 20
186.76207702606911
 30
0.0
  0
VERTEX
  5
14B8D
  8
0
 10
239.2368306243475
 20
187.17556655406949
 30
0.0
  0
VERTEX
  5
14B8E
  8
0
 10
239.20542642713141
 20
187.65239533036939
 30
0.0
  0
VERTEX
  5
14B8F
  8
0
 10
239.17853728175709
 20
188.1819276511668
 30
0.0
  0
VERTEX
  5
14B90
  8
0
 10
239.1570945107992
 20
188.7534113973378
 30
0.0
  0
VERTEX
  5
14B91
  8
0
 10
239.14172396302769
 20
189.35606464743611
 30
0.0
  0
VERTEX
  5
14B92
  8
0
 10
239.13282796979499
 20
189.9790821969508
 30
0.0
  0
VERTEX
  5
14B93
  8
0
 10
239.13053319097119
 20
190.50000071525571
 30
0.0
  0
VERTEX
  5
14B94
  8
0
 10
239.13146451354581
 20
190.8325555175542
 30
0.0
  0
VERTEX
  5
14B95
  8
0
 10
239.13839355350089
 20
191.4605183899402
 30
0.0
  0
VERTEX
  5
14B96
  8
0
 10
239.15194615960669
 20
192.072814553976
 30
0.0
  0
VERTEX
  5
14B97
  8
0
 10
239.17182430863929
 20
192.65856802463529
 30
0.0
  0
VERTEX
  5
14B98
  8
0
 10
239.19757351518231
 20
193.20739828050131
 30
0.0
  0
VERTEX
  5
14B99
  8
0
 10
239.22850832582071
 20
193.70909243822089
 30
0.0
  0
VERTEX
  5
14B9A
  8
0
 10
239.263660165077
 20
194.15350653231141
 30
0.0
  0
VERTEX
  5
14B9B
  8
0
 10
239.30156126857361
 20
194.53030660748479
 30
0.0
  0
VERTEX
  5
14B9C
  8
0
 10
239.33983490110001
 20
194.82851423323149
 30
0.0
  0
VERTEX
  5
14B9D
  8
0
 10
239.3702332699354
 20
195.01454032957551
 30
0.0
  0
VERTEX
  5
14B9E
  8
0
 10
239.39181760192471
 20
195.1191818714141
 30
0.0
  0
VERTEX
  5
14B9F
  8
0
 10
239.39968541503501
 20
195.14997698366639
 30
0.0
  0
SEQEND
  5
14BA0
  8
0
  0
LINE
  5
BB05
  8
0
 10
222.00097784638959
 20
182.50000126659859
 30
0.0
 11
223.6014333391245
 21
182.50000126659859
 31
0.0
  0
LINE
  5
BB06
  8
0
 10
223.6014333391245
 20
198.50000202655789
 30
0.0
 11
222.00097784638959
 21
198.50000202655789
 31
0.0
  0
LINE
  5
BB07
  8
0
 10
223.6014333391245
 20
182.50000126659859
 30
0.0
 11
224.1014306271131
 21
183.000001348555
 31
0.0
  0
LINE
  5
BB08
  8
0
 10
224.1014306271131
 20
198.0000010132789
 30
0.0
 11
223.6014333391245
 21
198.50000202655789
 31
0.0
  0
LINE
  5
BB0A
  8
0
 10
225.301462116247
 20
184.00000151246789
 30
0.0
 11
225.301462116247
 21
197.0000008493661
 31
0.0
  0
POLYLINE
  5
BB0C
  8
0
 66
     1
 10
0.0
 20
0.0
 30
0.0
 70
   128
  0
VERTEX
  5
14BA1
  8
0
 10
242.18803540111139
 20
183.50000143051139
 30
0.0
  0
VERTEX
  5
14BA2
  8
0
 10
241.9278238737638
 20
183.55370894074429
 30
0.0
  0
VERTEX
  5
14BA3
  8
0
 10
241.65108695865229
 20
183.7187495455145
 30
0.0
  0
VERTEX
  5
14BA4
  8
0
 10
241.36302516103339
 20
184.01353828608981
 30
0.0
  0
VERTEX
  5
14BA5
  8
0
 10
241.07133493066391
 20
184.41724520176641
 30
0.0
  0
VERTEX
  5
14BA6
  8
0
 10
240.77733502030921
 20
184.7640613466501
 30
0.0
  0
VERTEX
  5
14BA7
  8
0
 10
240.48136070609641
 20
184.95280597358939
 30
0.0
  0
VERTEX
  5
14BA8
  8
0
 10
240.18997594953129
 20
185.00268202275029
 30
0.0
  0
SEQEND
  5
14BA9
  8
0
  0
POLYLINE
  5
BB0D
  8
0
 66
     1
 10
0.0
 20
0.0
 30
0.0
 70
   128
  0
VERTEX
  5
14BAA
  8
0
 10
238.35883185506421
 20
183.622234724462
 30
0.0
  0
VERTEX
  5
14BAB
  8
0
 10
238.27670410514429
 20
183.54929260909549
 30
0.0
  0
VERTEX
  5
14BAC
  8
0
 10
238.09168383718091
 20
183.48597571253771
 30
0.0
  0
SEQEND
  5
14BAD
  8
0
  0
POLYLINE
  5
BB10
  8
0
 66
     1
 10
0.0
 20
0.0
 30
0.0
 70
   128
  0
VERTEX
  5
14BAE
  8
0
 10
243.682331296211
 20
185.00000167638061
 30
0.0
  0
VERTEX
  5
14BAF
  8
0
 10
243.28244373441291
 20
185.12249853461969
 30
0.0
  0
VERTEX
  5
14BB0
  8
0
 10
242.88334593415809
 20
185.48794671893111
 30
0.0
  0
VERTEX
  5
14BB1
  8
0
 10
242.48529121518689
 20
186.03851389139879
 30
0.0
  0
VERTEX
  5
14BB2
  8
0
 10
242.08619341493201
 20
186.40297487378109
 30
0.0
  0
VERTEX
  5
14BB3
  8
0
 10
241.686231347328
 20
186.499786786735
 30
0.0
  0
VERTEX
  5
14BB4
  8
0
 10
241.16257474065381
 20
186.37078091502181
 30
0.0
  0
VERTEX
  5
14BB5
  8
0
 10
240.63945457578259
 20
186.0137351229786
 30
0.0
  0
VERTEX
  5
14BB6
  8
0
 10
240.11729553580841
 20
185.42852554470289
 30
0.0
  0
VERTEX
  5
14BB7
  8
0
 10
239.99877915025311
 20
185.26956647634501
 30
0.0
  0
VERTEX
  5
14BB8
  8
0
 10
239.8801286542471
 20
185.13312213122839
 30
0.0
  0
VERTEX
  5
14BB9
  8
0
 10
239.76116523385599
 20
185.05114246159789
 30
0.0
  0
VERTEX
  5
14BBA
  8
0
 10
239.6421496594007
 20
185.00438168644899
 30
0.0
  0
VERTEX
  5
14BBB
  8
0
 10
239.52343955874991
 20
185.04618875682351
 30
0.0
  0
VERTEX
  5
14BBC
  8
0
 10
239.4255240285452
 20
185.3218341618776
 30
0.0
  0
VERTEX
  5
14BBD
  8
0
 10
239.33352425933441
 20
185.8252466097473
 30
0.0
  0
VERTEX
  5
14BBE
  8
0
 10
239.2508973205145
 20
186.56443547457451
 30
0.0
  0
VERTEX
  5
14BBF
  8
0
 10
239.1947050416525
 20
187.3204421624541
 30
0.0
  0
VERTEX
  5
14BC0
  8
0
 10
239.14886906982019
 20
188.2357059419154
 30
0.0
  0
VERTEX
  5
14BC1
  8
0
 10
239.11800131440711
 20
189.29791100323189
 30
0.0
  0
VERTEX
  5
14BC2
  8
0
 10
239.10665408015799
 20
190.50000071525571
 30
0.0
  0
SEQEND
  5
14BC3
  8
0
  0
POLYLINE
  5
BB12
  8
0
 66
     1
 10
0.0
 20
0.0
 30
0.0
 70
   128
  0
VERTEX
  5
14BC4
  8
0
 10
239.10665408015799
 20
190.50000071525571
 30
0.0
  0
VERTEX
  5
14BC5
  8
0
 10
239.11800131440711
 20
191.70209228992459
 30
0.0
  0
VERTEX
  5
14BC6
  8
0
 10
239.14886906982019
 20
192.76429735124111
 30
0.0
  0
VERTEX
  5
14BC7
  8
0
 10
239.1947050416525
 20
193.67956019937989
 30
0.0
  0
VERTEX
  5
14BC8
  8
0
 10
239.2508973205145
 20
194.4355668872594
 30
0.0
  0
VERTEX
  5
14BC9
  8
0
 10
239.33352425933441
 20
195.17475575208661
 30
0.0
  0
VERTEX
  5
14BCA
  8
0
 10
239.4255240285452
 20
195.67816913127891
 30
0.0
  0
VERTEX
  5
14BCB
  8
0
 10
239.52343955874991
 20
195.953814536333
 30
0.0
  0
VERTEX
  5
14BCC
  8
0
 10
239.6421496594007
 20
195.99562160670749
 30
0.0
  0
VERTEX
  5
14BCD
  8
0
 10
239.76116523385599
 20
195.94886176288119
 30
0.0
  0
VERTEX
  5
14BCE
  8
0
 10
239.8801286542471
 20
195.86688116192809
 30
0.0
  0
VERTEX
  5
14BCF
  8
0
 10
239.99877915025311
 20
195.7304368168115
 30
0.0
  0
VERTEX
  5
14BD0
  8
0
 10
240.11729553580841
 20
195.57147681713101
 30
0.0
  0
VERTEX
  5
14BD1
  8
0
 10
240.5159239494856
 20
195.1040571928024
 30
0.0
  0
VERTEX
  5
14BD2
  8
0
 10
240.91519311309409
 20
194.76947210729119
 30
0.0
  0
VERTEX
  5
14BD3
  8
0
 10
241.3148646080549
 20
194.56842377781859
 30
0.0
  0
VERTEX
  5
14BD4
  8
0
 10
241.71480432391721
 20
194.49983745813361
 30
0.0
  0
VERTEX
  5
14BD5
  8
0
 10
242.11474403977951
 20
194.6136935055255
 30
0.0
  0
VERTEX
  5
14BD6
  8
0
 10
242.42836877942639
 20
194.8916318267583
 30
0.0
  0
VERTEX
  5
14BD7
  8
0
 10
242.74112180114341
 20
195.32348051667211
 30
0.0
  0
VERTEX
  5
14BD8
  8
0
 10
243.05424735189041
 20
195.69822981953621
 30
0.0
  0
VERTEX
  5
14BD9
  8
0
 10
243.3680881583746
 20
195.92431023716921
 30
0.0
  0
VERTEX
  5
14BDA
  8
0
 10
243.682331296211
 20
196.00000068545339
 30
0.0
  0
SEQEND
  5
14BDB
  8
0
  0
POLYLINE
  5
BB13
  8
0
 66
     1
 10
0.0
 20
0.0
 30
0.0
 70
   128
  0
VERTEX
  5
14BDC
  8
0
 10
238.09168383718091
 20
197.5140275806188
 30
0.0
  0
VERTEX
  5
14BDD
  8
0
 10
237.99273267627311
 20
197.40586563944811
 30
0.0
  0
VERTEX
  5
14BDE
  8
0
 10
237.88808182120869
 20
197.09407187998289
 30
0.0
  0
VERTEX
  5
14BDF
  8
0
 10
237.79041961074429
 20
196.58557720482341
 30
0.0
  0
VERTEX
  5
14BE0
  8
0
 10
237.70010367274841
 20
195.8695968985557
 30
0.0
  0
VERTEX
  5
14BE1
  8
0
 10
237.61697009444791
 20
194.899266809225
 30
0.0
  0
VERTEX
  5
14BE2
  8
0
 10
237.57965013623789
 20
194.3086741864681
 30
0.0
  0
VERTEX
  5
14BE3
  8
0
 10
237.54721030831891
 20
193.66314470767969
 30
0.0
  0
VERTEX
  5
14BE4
  8
0
 10
237.5200976455267
 20
192.95578844845289
 30
0.0
  0
VERTEX
  5
14BE5
  8
0
 10
237.49933287740311
 20
192.18909949064249
 30
0.0
  0
VERTEX
  5
14BE6
  8
0
 10
237.48634651542261
 20
191.36828765273091
 30
0.0
  0
VERTEX
  5
14BE7
  8
0
 10
237.48162284732419
 20
190.50000071525571
 30
0.0
  0
SEQEND
  5
14BE8
  8
0
  0
POLYLINE
  5
BB14
  8
0
 66
     1
 10
0.0
 20
0.0
 30
0.0
 70
   128
  0
VERTEX
  5
14BE9
  8
0
 10
242.18803540111139
 20
197.50000186264509
 30
0.0
  0
VERTEX
  5
14BEA
  8
0
 10
241.7707060301359
 20
197.36634217202661
 30
0.0
  0
VERTEX
  5
14BEB
  8
0
 10
241.35619297862601
 20
196.97898276150221
 30
0.0
  0
VERTEX
  5
14BEC
  8
0
 10
240.9466569149549
 20
196.41481176018709
 30
0.0
  0
VERTEX
  5
14BED
  8
0
 10
240.5410473072584
 20
196.06919422745699
 30
0.0
  0
VERTEX
  5
14BEE
  8
0
 10
240.27705833554819
 20
196.02362833917141
 30
0.0
  0
SEQEND
  5
14BEF
  8
0
  0
POLYLINE
  5
BB15
  8
0
 66
     1
 10
0.0
 20
0.0
 30
0.0
 70
   128
  0
VERTEX
  5
14BF0
  8
0
 10
238.3582954132612
 20
197.3842161148786
 30
0.0
  0
VERTEX
  5
14BF1
  8
0
 10
238.2526908838804
 20
197.46641278266901
 30
0.0
  0
VERTEX
  5
14BF2
  8
0
 10
238.09168383718091
 20
197.5140275806188
 30
0.0
  0
SEQEND
  5
14BF3
  8
0
  0
ARC
  5
BB17
  8
0
 10
231.73987310819939
 20
186.0161226766613
 30
0.0
 40
11.5410670977412
 50
67.168124586997308
 51
84.293809543847544
  0
ARC
  5
BB31
  8
0
 10
231.79897957683971
 20
194.6191468660198
 30
0.0
 40
11.18442159158039
 50
276.19326413423749
 51
293.28613166544221
  0
LINE
  5
BB35
  8
0
 10
228.39622840524279
 20
192.25000239908749
 30
0.0
 11
228.39622840524271
 21
188.7500008940691
 31
0.0
  0
LINE
  5
BB36
  8
0
 10
244.4667284214552
 20
187.250001579523
 30
0.0
 11
244.4667284214552
 21
184.0000015124678
 31
0.0
  0
ARC
  5
BB37
  8
0
 10
246.98214795842611
 20
186.78072849921239
 30
0.0
 40
3.7496370520070519
 50
208.35325920164439
 51
227.8678022401904
  0
ARC
  5
BB38
  8
0
 10
241.1668660570117
 20
198.78076352088871
 30
0.0
 40
3.7496942964138178
 50
312.13234817526438
 51
331.6465903829129
  0
LINE
  5
BB39
  8
0
 10
244.4667284214552
 20
197.0000008493661
 30
0.0
 11
244.4667284214552
 21
193.75000171363351
 31
0.0
  0
LINE
  5
BB3A
  8
0
 10
243.81305918336469
 20
193.75000171363351
 30
0.0
 11
244.4667284214552
 21
193.75000171363351
 31
0.0
  0
ARC
  5
BB3B
  8
0
 10
248.08287669867329
 20
192.62218247534321
 30
0.0
 40
4.4162560895281162
 50
165.20395382496679
 51
184.83433706828879
  0
LINE
  5
BB3C
  8
0
 10
243.682331296211
 20
188.75000089406959
 30
0.0
 11
243.682331296211
 21
192.2500023990869
 31
0.0
  0
ARC
  5
BB3D
  8
0
 10
248.0828727515034
 20
188.37782047380961
 30
0.0
 40
4.4162521853909489
 50
175.1656541688136
 51
194.79605493792789
  0
LINE
  5
BB3E
  8
0
 10
243.81305918336469
 20
187.250001579523
 30
0.0
 11
244.4667284214552
 21
187.250001579523
 31
0.0
  0
ARC
  5
BB44
  8
0
 10
243.96555389225799
 20
196.9988265508828
 30
0.0
 40
0.5011759049406346
 50
0.1342490887628321
 51
90.088152619705127
  0
ARC
  5
BB45
  8
0
 10
243.96553909266049
 20
184.00119160164539
 30
0.0
 40
0.5011907417439989
 50
269.91354187159641
 51
359.86394969914488
  0
ARC
  5
BB47
  8
0
 10
226.78706105397421
 20
192.13812444576939
 30
0.0
 40
1.6130518407129539
 50
3.9771102775014899
 51
94.628046645267204
  0
LINE
  5
BB48
  8
0
 10
226.5079607093389
 20
193.75000171363351
 30
0.0
 11
226.65690899134231
 21
193.74591693282119
 31
0.0
  0
LINE
  5
BB49
  8
0
 10
226.65690899134231
 20
187.25408542901269
 30
0.0
 11
226.5079607093389
 21
187.250001579523
 31
0.0
  0
ARC
  5
BB4A
  8
0
 10
226.78623028573361
 20
188.862843790921
 30
0.0
 40
1.613947788558485
 50
265.40411646027928
 51
355.99076188645279
  0
ARC
  5
BB53
  8
0
 10
226.00146503383399
 20
184.00000468784989
 30
0.0
 40
0.5000032573434728
 50
180.00036386961
 51
269.99974285197851
  0
LINE
  5
BB55
  8
0
 10
243.9647828066239
 20
183.50000143051139
 30
0.0
 11
226.00146278977951
 21
183.50000143051139
 31
0.0
  0
ARC
  5
BB57
  8
0
 10
226.0014660028184
 20
196.99999763632701
 30
0.0
 40
0.5000042263283639
 50
90.000368184035565
 51
179.99963181595459
  0
LINE
  5
BB58
  8
0
 10
226.00146278977951
 20
197.50000186264509
 30
0.0
 11
243.96478280666611
 21
197.50000186264509
 31
0.0
  0
LINE
  5
BB5A
  8
0
 10
225.50146177650049
 20
187.250001579523
 30
0.0
 11
226.5079607093389
 21
187.250001579523
 31
0.0
  0
LINE
  5
BB5B
  8
0
 10
225.50146177650049
 20
197.0000008493661
 30
0.0
 11
225.50146177650049
 21
184.0000015124678
 31
0.0
  0
LINE
  5
BB5C
  8
0
 10
225.50146177650049
 20
193.75000171363351
 30
0.0
 11
226.5079607093389
 21
193.75000171363351
 31
0.0
  0
LINE
  5
BB5D
  8
0
 10
196.91393792868209
 20
199.00000117719171
 30
0.0
 11
196.4139387780483
 21
199.50000219047061
 31
0.0
  0
LINE
  5
BB5E
  8
0
 10
196.91393792868209
 20
199.00000117719171
 30
0.0
 11
196.91393792868209
 21
182.0000011846422
 31
0.0
  0
LINE
  5
BB5F
  8
0
 10
196.4139387780483
 20
181.5000011026859
 30
0.0
 11
196.91393792868209
 21
182.0000011846422
 31
0.0
  0
LINE
  5
BB60
  8
0
 10
172.91393841855779
 20
199.50000219047061
 30
0.0
 11
172.91393841855779
 21
181.5000011026859
 31
0.0
  0
LINE
  5
BB61
  8
0
 10
171.9139384874756
 20
199.50000219047061
 30
0.0
 11
196.4139387780483
 21
199.50000219047061
 31
0.0
  0
LINE
  5
BB62
  8
0
 10
171.9139384874756
 20
181.5000011026859
 30
0.0
 11
196.4139387780483
 21
181.5000011026859
 31
0.0
  0
LINE
  5
BB63
  8
0
 10
171.9139384874756
 20
199.50000219047061
 30
0.0
 11
170.91393832356289
 21
198.50000202655789
 31
0.0
  0
LINE
  5
BB65
  8
0
 10
170.91393832356289
 20
182.50000126659859
 30
0.0
 11
171.9139384874756
 21
181.5000011026859
 31
0.0
  0
LINE
  5
BB66
  8
0
 10
170.91393832356289
 20
182.50000126659859
 30
0.0
 11
170.91393832356289
 21
198.50000202655789
 31
0.0
  0
LINE
  5
BB68
  8
0
 10
223.60143333912461
 20
182.50000126659859
 30
0.0
 11
223.6014333391245
 21
198.50000202655789
 31
0.0
  0
LINE
  5
BB6B
  8
0
 10
224.1014306271131
 20
198.0000010132789
 30
0.0
 11
224.1014306271131
 21
183.000001348555
 31
0.0
  0
LINE
  5
BB6D
  8
0
 10
194.00097698212221
 20
179.5000017061829
 30
0.0
 11
194.00097698212221
 21
173.00000151386479
 31
0.0
  0
LINE
  5
BB70
  8
0
 10
194.00097698212221
 20
173.00000151386479
 30
0.0
 11
193.5009778314884
 21
172.50000149011609
 31
0.0
  0
ARC
  5
BB74
  8
0
 10
175.00097742915699
 20
179.50000149011609
 30
0.0
 40
1.0
 50
90.0
 51
180.0
  0
LINE
  5
BB7A
  8
0
 10
221.5009768331106
 20
172.50000149011609
 30
0.0
 11
174.5009774529058
 21
172.50000149011609
 31
0.0
  0
LINE
  5
BB7B
  8
0
 10
174.5009774529058
 20
172.50000149011609
 30
0.0
 11
174.00097742915699
 21
173.00000151386479
 31
0.0
  0
ARC
  5
BB83
  8
0
 10
193.00097742915699
 20
179.50000149011609
 30
0.0
 40
1.0
 50
0.0
 51
90.0
  0
ARC
  5
BB93
  8
0
 10
196.4729338335658
 20
170.24647415439841
 30
0.0
 40
10.333421514837431
 50
63.572085076209781
 51
82.870611070285534
  0
LINE
  5
BB94
  8
0
 10
175.00097742915699
 20
180.50000149011609
 30
0.0
 11
197.75541953981471
 21
180.5000018700957
 31
0.0
  0
LINE
  5
BB95
  8
0
 10
201.07204549253541
 20
179.5000017061829
 30
0.0
 11
201.0720454925353
 21
172.50000149011609
 31
0.0
  0
LINE
  5
BB99
  8
0
 10
179.4597412297185
 20
203.2886764407157
 30
0.0
 11
215.80482542753771
 21
203.2886764407157
 31
0.0
  0
ARC
  5
BBA6
  8
0
 10
221.00097742915699
 20
199.42265122092641
 30
0.0
 40
1.0
 50
0.0
 51
60.000000000000277
  0
ARC
  5
BBA8
  8
0
 10
216.05482593417719
 20
202.79593225222749
 30
0.0
 40
0.5525369567811538
 50
63.098417545876622
 51
116.9015824541233
  0
LINE
  5
BBAB
  8
0
 10
192.5009776675756
 20
181.5000011026859
 30
0.0
 11
174.00097742915699
 21
181.5000011026859
 31
0.0
  0
LINE
  5
BBAC
  8
0
 10
192.5009776675756
 20
181.5000011026859
 30
0.0
 11
193.00097681820941
 21
181.000001952052
 31
0.0
  0
ARC
  5
BBAD
  8
0
 10
199.00097742915699
 20
181.50000149011609
 30
0.0
 40
0.5
 50
270.0
 51
0.0
  0
LINE
  5
BBAE
  8
0
 10
199.50097695231989
 20
181.5000011026859
 30
0.0
 11
199.50097695231989
 21
199.50000219047061
 31
0.0
  0
LINE
  5
BBAF
  8
0
 10
199.0009778016861
 20
200.00000134110451
 30
0.0
 11
193.00097681820941
 21
200.00000134110451
 31
0.0
  0
LINE
  5
BBB1
  8
0
 10
193.00097681820941
 20
181.000001952052
 30
0.0
 11
199.0009778016861
 21
181.000001952052
 31
0.0
  0
LINE
  5
BBB2
  8
0
 10
193.00097681820941
 20
200.00000134110451
 30
0.0
 11
192.5009776675756
 21
199.50000219047061
 31
0.0
  0
ARC
  5
BBB4
  8
0
 10
199.00097742915699
 20
199.50000149011609
 30
0.0
 40
0.5
 50
0.0
 51
90.0
  0
LINE
  5
BBB5
  8
0
 10
174.00097742915699
 20
181.5000011026859
 30
0.0
 11
174.00097742915699
 21
173.00000151386479
 31
0.0
  0
LINE
  5
BBB9
  8
0
 10
222.00097784638959
 20
173.00000151386479
 30
0.0
 11
221.5009768331106
 21
172.50000149011609
 31
0.0
  0
LINE
  5
BBBB
  8
0
 10
176.70808418892869
 20
199.50000219047061
 30
0.0
 11
176.70808418892869
 21
201.67849607765669
 31
0.0
  0
ARC
  5
BBBD
  8
0
 10
179.21742493770759
 20
202.9944536785992
 30
0.0
 40
0.3811616705826844
 50
50.525777129409512
 51
105.1637935420195
  0
LINE
  5
BBBE
  8
0
 10
222.00097784638959
 20
199.4226521253585
 30
0.0
 11
222.00097784638959
 21
173.00000151386479
 31
0.0
  0
ARC
  5
BBBF
  8
0
 10
177.4666160115305
 20
201.92456153291329
 30
0.0
 40
0.7974451292535524
 50
119.56312658498661
 51
197.9729078784797
  0
LINE
  5
BBC5
  8
0
 10
174.658957473919
 20
201.73948664115059
 30
0.0
 11
181.41494401038241
 21
204.1984631121158
 31
0.0
  0
LINE
  5
BBC7
  8
0
 10
215.3670032346304
 20
203.83012875914571
 30
0.0
 11
221.50097748019789
 21
200.28867659524249
 31
0.0
  0
ARC
  5
BBCD
  8
0
 10
212.86700283294161
 20
199.50000149011609
 30
0.0
 40
4.999999999999992
 50
59.999999999999858
 51
90.0
  0
ARC
  5
BBCF
  8
0
 10
183.12504459106341
 20
199.50000149011609
 30
0.0
 40
4.9999999999999849
 50
90.0
 51
109.9999999999964
  0
LINE
  5
BBD1
  8
0
 10
183.12504504114941
 20
204.5000030100345
 30
0.0
 11
212.8670018935259
 21
204.5000030100345
 31
0.0
  0
ARC
  5
BBD7
  8
0
 10
175.00097742915699
 20
200.79979395190639
 30
0.0
 40
1.0
 50
109.9999999999964
 51
180.0
  0
LINE
  5
BBD9
  8
0
 10
174.00097742915699
 20
199.50000219047061
 30
0.0
 11
174.00097742915699
 21
200.79979322850701
 31
0.0
  0
LINE
  5
BBDB
  8
0
 10
197.0009774738605
 20
198.50000202655789
 30
0.0
 11
196.91393792868209
 21
198.50000202655789
 31
0.0
  0
LINE
  5
BBE2
  8
0
 10
198.0009776377733
 20
183.50000143051139
 30
0.0
 11
198.0009776377733
 21
197.50000186264509
 31
0.0
  0
LINE
  5
BBE5
  8
0
 10
196.91393792868209
 20
182.50000126659859
 30
0.0
 11
197.0009774738605
 21
182.50000126659859
 31
0.0
  0
ARC
  5
BBE6
  8
0
 10
197.00097742915699
 20
197.50000149011609
 30
0.0
 40
1.000000000000014
 50
0.0
 51
90.0
  0
ARC
  5
BBE7
  8
0
 10
197.00097742915699
 20
183.50000149011609
 30
0.0
 40
1.0
 50
270.0
 51
0.0
  0
POLYLINE
  5
BBE8
  8
0
 66
     1
 10
0.0
 20
0.0
 30
0.0
 70
   128
  0
VERTEX
  5
14BF4
  8
0
 10
239.89643052459309
 20
190.50000071525571
 30
0.0
  0
VERTEX
  5
14BF5
  8
0
 10
239.8924072110708
 20
191.16025254130361
 30
0.0
  0
VERTEX
  5
14BF6
  8
0
 10
239.88041177630981
 20
191.8076539784669
 30
0.0
  0
VERTEX
  5
14BF7
  8
0
 10
239.8606826388891
 20
192.42960236966599
 30
0.0
  0
VERTEX
  5
14BF8
  8
0
 10
239.83359977841931
 20
193.01399424672121
 30
0.0
  0
VERTEX
  5
14BF9
  8
0
 10
239.79969218612271
 20
193.54945443570611
 30
0.0
  0
VERTEX
  5
14BFA
  8
0
 10
239.7596229636724
 20
194.02555957436559
 30
0.0
  0
VERTEX
  5
14BFB
  8
0
 10
239.7141669714506
 20
194.43304300308219
 30
0.0
  0
VERTEX
  5
14BFC
  8
0
 10
239.66421082854819
 20
194.76397544145581
 30
0.0
  0
VERTEX
  5
14BFD
  8
0
 10
239.6107231104429
 20
195.01191399991509
 30
0.0
  0
VERTEX
  5
14BFE
  8
0
 10
239.55475434899881
 20
195.17203442752361
 30
0.0
  0
VERTEX
  5
14BFF
  8
0
 10
239.4973848784025
 20
195.24121679365629
 30
0.0
  0
VERTEX
  5
14C00
  8
0
 10
239.4397322857435
 20
195.21811813116071
 30
0.0
  0
VERTEX
  5
14C01
  8
0
 10
239.3964444124754
 20
195.1391084492206
 30
0.0
  0
SEQEND
  5
14C02
  8
0
  0
POLYLINE
  5
BBE9
  8
0
 66
     1
 10
0.0
 20
0.0
 30
0.0
 70
   128
  0
VERTEX
  5
14C03
  8
0
 10
239.3963103020246
 20
185.86122360080469
 30
0.0
  0
VERTEX
  5
14C04
  8
0
 10
239.4397322857435
 20
185.7818842306732
 30
0.0
  0
VERTEX
  5
14C05
  8
0
 10
239.4973848784025
 20
185.75878556817759
 30
0.0
  0
VERTEX
  5
14C06
  8
0
 10
239.55475434899881
 20
185.8279688656329
 30
0.0
  0
VERTEX
  5
14C07
  8
0
 10
239.6107231104429
 20
185.9880883619189
 30
0.0
  0
VERTEX
  5
14C08
  8
0
 10
239.66421082854819
 20
186.2360278517007
 30
0.0
  0
VERTEX
  5
14C09
  8
0
 10
239.7141669714506
 20
186.56695935875169
 30
0.0
  0
VERTEX
  5
14C0A
  8
0
 10
239.7596229636724
 20
186.97444371879089
 30
0.0
  0
VERTEX
  5
14C0B
  8
0
 10
239.79969218612271
 20
187.4505488574504
 30
0.0
  0
VERTEX
  5
14C0C
  8
0
 10
239.83359977841931
 20
187.9860081151127
 30
0.0
  0
VERTEX
  5
14C0D
  8
0
 10
239.8606826388891
 20
188.57039906084529
 30
0.0
  0
VERTEX
  5
14C0E
  8
0
 10
239.88041177630981
 20
189.19234931468961
 30
0.0
  0
VERTEX
  5
14C0F
  8
0
 10
239.8924072110708
 20
189.83974888920781
 30
0.0
  0
VERTEX
  5
14C10
  8
0
 10
239.89643052459309
 20
190.50000071525571
 30
0.0
  0
SEQEND
  5
14C11
  8
0
  0
LINE
  5
BC47
  8
0
 10
224.1014306271131
 20
51.000001356005662
 30
0.0
 11
225.301462116247
 21
51.000001356005662
 31
0.0
  0
LINE
  5
BC48
  8
0
 10
225.301462116247
 20
64.00000162422657
 30
0.0
 11
224.1014306271131
 21
64.00000162422657
 31
0.0
  0
LINE
  5
BC49
  8
0
 10
225.301462116247
 20
51.000001356005662
 30
0.0
 11
225.50146177650049
 21
51.200001481920481
 31
0.0
  0
LINE
  5
BC4A
  8
0
 10
225.50146177650049
 20
63.800001498311751
 30
0.0
 11
225.301462116247
 21
64.00000162422657
 31
0.0
  0
POLYLINE
  5
BC4B
  8
0
 66
     1
 10
0.0
 20
0.0
 30
0.0
 70
   128
  0
VERTEX
  5
14C12
  8
0
 10
235.22744199325339
 20
100.646380014526
 30
0.0
  0
VERTEX
  5
14C13
  8
0
 10
235.04003033280921
 20
99.425640404224396
 30
0.0
  0
VERTEX
  5
14C14
  8
0
 10
234.434543999439
 20
96.877888292074203
 30
0.0
  0
VERTEX
  5
14C15
  8
0
 10
234.11409080267501
 20
95.812168419361115
 30
0.0
  0
VERTEX
  5
14C16
  8
0
 10
233.7599013769682
 20
94.761059135198593
 30
0.0
  0
VERTEX
  5
14C17
  8
0
 10
233.37800696731171
 20
93.733754456043243
 30
0.0
  0
VERTEX
  5
14C18
  8
0
 10
232.99121752620289
 20
92.725977748632431
 30
0.0
  0
VERTEX
  5
14C19
  8
0
 10
232.71894350886899
 20
91.719996631145463
 30
0.0
  0
VERTEX
  5
14C1A
  8
0
 10
232.6545965695436
 20
90.45462355017662
 30
0.0
  0
VERTEX
  5
14C1B
  8
0
 10
232.7401031577642
 20
89.227702915668473
 30
0.0
  0
VERTEX
  5
14C1C
  8
0
 10
232.85058781743601
 20
88.055359646677971
 30
0.0
  0
VERTEX
  5
14C1D
  8
0
 10
232.94968426466539
 20
86.919390112161636
 30
0.0
  0
VERTEX
  5
14C1E
  8
0
 10
233.07581514359069
 20
85.435443073511124
 30
0.0
  0
VERTEX
  5
14C1F
  8
0
 10
233.21689933777409
 20
83.901590183377266
 30
0.0
  0
VERTEX
  5
14C20
  8
0
 10
233.37121576309761
 20
82.299748882651315
 30
0.0
  0
VERTEX
  5
14C21
  8
0
 10
233.53139579535079
 20
80.619352385401726
 30
0.0
  0
VERTEX
  5
14C22
  8
0
 10
233.63361776114061
 20
78.85525606572628
 30
0.0
  0
VERTEX
  5
14C23
  8
0
 10
233.56986314297299
 20
77.012412697076783
 30
0.0
  0
VERTEX
  5
14C24
  8
0
 10
233.30113560200309
 20
75.110976099967957
 30
0.0
  0
VERTEX
  5
14C25
  8
0
 10
232.81286180258371
 20
73.204661235213266
 30
0.0
  0
VERTEX
  5
14C26
  8
0
 10
232.10310086846931
 20
71.341109909117222
 30
0.0
  0
VERTEX
  5
14C27
  8
0
 10
231.17885262013061
 20
69.546312540769577
 30
0.0
  0
VERTEX
  5
14C28
  8
0
 10
230.0532375299988
 20
67.84635454416275
 30
0.0
  0
VERTEX
  5
14C29
  8
0
 10
228.87729004264449
 20
66.435602940618992
 30
0.0
  0
SEQEND
  5
14C2A
  8
0
  0
LINE
  5
BC55
  8
0
 10
225.50146177650049
 20
54.50000146403908
 30
0.0
 11
226.04722798109611
 21
54.50000146403908
 31
0.0
  0
LINE
  5
BC56
  8
0
 10
222.00097784638959
 20
49.500001110136502
 30
0.0
 11
223.6014333391245
 21
49.500001110136502
 31
0.0
  0
LINE
  5
BC57
  8
0
 10
223.6014333391245
 20
65.500001870095716
 30
0.0
 11
222.00097784638959
 21
65.500001870095716
 31
0.0
  0
LINE
  5
BC58
  8
0
 10
223.6014333391245
 20
49.500001110136502
 30
0.0
 11
224.1014306271131
 21
50.000001657754183
 31
0.0
  0
LINE
  5
BC59
  8
0
 10
224.1014306271131
 20
65.000001322478056
 30
0.0
 11
223.6014333391245
 21
65.500001870095716
 31
0.0
  0
LINE
  5
BC5C
  8
0
 10
234.9236261868534
 20
56.500001442618661
 30
0.0
 11
236.0783283436356
 21
56.500001442618661
 31
0.0
  0
LINE
  5
BC5D
  8
0
 10
236.0783283436356
 20
56.500001442618661
 30
0.0
 11
236.6556812846718
 21
57.500001490116063
 31
0.0
  0
LINE
  5
BC5E
  8
0
 10
236.6556812846718
 20
57.500001490116063
 30
0.0
 11
236.0783283436356
 21
58.500001537613571
 31
0.0
  0
LINE
  5
BC5F
  8
0
 10
236.0783283436356
 20
58.500001537613571
 30
0.0
 11
234.9236261868534
 21
58.500001537613571
 31
0.0
  0
LINE
  5
BC60
  8
0
 10
234.9236261868534
 20
58.500001537613571
 30
0.0
 11
234.3462769711075
 21
57.500001490116063
 31
0.0
  0
LINE
  5
BC61
  8
0
 10
234.3462769711075
 20
57.500001490116063
 30
0.0
 11
234.9236261868534
 21
56.500001442618661
 31
0.0
  0
LINE
  5
BC62
  8
0
 10
225.301462116247
 20
51.000001356005662
 30
0.0
 11
225.301462116247
 21
64.00000162422657
 31
0.0
  0
LINE
  5
BC63
  8
0
 10
225.50146177650049
 20
63.800001498311751
 30
0.0
 11
225.50146177650049
 21
51.200001481920481
 31
0.0
  0
LINE
  5
BC64
  8
0
 10
238.0917136395035
 20
113.9405895769596
 30
0.0
 11
238.09789762139889
 21
113.85665506124489
 31
0.0
  0
POLYLINE
  5
BC65
  8
0
 66
     1
 10
0.0
 20
0.0
 30
0.0
 70
   128
  0
VERTEX
  5
14C2B
  8
0
 10
238.12322214484789
 20
113.5128033161163
 30
0.0
  0
VERTEX
  5
14C2C
  8
0
 10
238.34476515889739
 20
110.5052535235881
 30
0.0
  0
VERTEX
  5
14C2D
  8
0
 10
238.50288138032531
 20
107.0784558355808
 30
0.0
  0
VERTEX
  5
14C2E
  8
0
 10
238.56737360597231
 20
103.6448408663273
 30
0.0
  0
VERTEX
  5
14C2F
  8
0
 10
238.53751167893981
 20
100.19855245947829
 30
0.0
  0
VERTEX
  5
14C30
  8
0
 10
238.41252073884581
 20
96.744619756937027
 30
0.0
  0
VERTEX
  5
14C31
  8
0
 10
238.191260846859
 20
93.285527527332306
 30
0.0
  0
VERTEX
  5
14C32
  8
0
 10
237.8725697124062
 20
89.823592901229844
 30
0.0
  0
VERTEX
  5
14C33
  8
0
 10
237.3756755912361
 20
85.785657614469514
 30
0.0
  0
VERTEX
  5
14C34
  8
0
 10
236.74864962936019
 20
81.759704723954201
 30
0.0
  0
VERTEX
  5
14C35
  8
0
 10
235.993920716053
 20
77.755718007683754
 30
0.0
  0
VERTEX
  5
14C36
  8
0
 10
235.52302167058559
 20
75.758863687515245
 30
0.0
  0
VERTEX
  5
14C37
  8
0
 10
234.93885517359351
 20
73.76615934073925
 30
0.0
  0
VERTEX
  5
14C38
  8
0
 10
234.1847968125401
 20
71.78918968886137
 30
0.0
  0
VERTEX
  5
14C39
  8
0
 10
233.20487782598121
 20
69.846524372696877
 30
0.0
  0
VERTEX
  5
14C3A
  8
0
 10
232.00162768602939
 20
67.948885709047303
 30
0.0
  0
VERTEX
  5
14C3B
  8
0
 10
230.5923764431534
 20
66.104933135211454
 30
0.0
  0
SEQEND
  5
14C3C
  8
0
  0
POLYLINE
  5
BC66
  8
0
 66
     1
 10
0.0
 20
0.0
 30
0.0
 70
   128
  0
VERTEX
  5
14C3D
  8
0
 10
242.18803540111159
 20
67.119421884417534
 30
0.0
  0
VERTEX
  5
14C3E
  8
0
 10
241.92782387376411
 20
70.093691796064377
 30
0.0
  0
VERTEX
  5
14C3F
  8
0
 10
241.65108695865251
 20
73.256800398230553
 30
0.0
  0
VERTEX
  5
14C40
  8
0
 10
241.36302516103359
 20
76.549340486526475
 30
0.0
  0
VERTEX
  5
14C41
  8
0
 10
241.07133493066411
 20
79.883343055844307
 30
0.0
  0
VERTEX
  5
14C42
  8
0
 10
240.77733502030949
 20
83.243765383958817
 30
0.0
  0
VERTEX
  5
14C43
  8
0
 10
240.48136070609669
 20
86.626800224184976
 30
0.0
  0
VERTEX
  5
14C44
  8
0
 10
240.18397078157039
 20
90.025999099016175
 30
0.0
  0
VERTEX
  5
14C45
  8
0
 10
239.59909275413131
 20
96.711215078830705
 30
0.0
  0
VERTEX
  5
14C46
  8
0
 10
239.01323125005339
 20
103.40760320425029
 30
0.0
  0
VERTEX
  5
14C47
  8
0
 10
238.82916465640639
 20
105.5114720761776
 30
0.0
  0
VERTEX
  5
14C48
  8
0
 10
238.6452098214684
 20
107.6141339540481
 30
0.0
  0
VERTEX
  5
14C49
  8
0
 10
238.46128478885271
 20
109.71637114882471
 30
0.0
  0
VERTEX
  5
14C4A
  8
0
 10
238.27670410514449
 20
111.82612597942349
 30
0.0
  0
VERTEX
  5
14C4B
  8
0
 10
238.09168383718111
 20
113.9409174025058
 30
0.0
  0
SEQEND
  5
14C4C
  8
0
  0
POLYLINE
  5
BC68
  8
0
 66
     1
 10
0.0
 20
0.0
 30
0.0
 70
   128
  0
VERTEX
  5
14C4D
  8
0
 10
243.96478280664061
 20
58.284005131572478
 30
0.0
  0
VERTEX
  5
14C4E
  8
0
 10
243.7243749225197
 20
59.941266411915421
 30
0.0
  0
VERTEX
  5
14C4F
  8
0
 10
243.35632369161229
 20
61.587360203266137
 30
0.0
  0
VERTEX
  5
14C50
  8
0
 10
242.93725833535771
 20
63.228991329669952
 30
0.0
  0
VERTEX
  5
14C51
  8
0
 10
242.4821172678528
 20
65.167161151766777
 30
0.0
  0
VERTEX
  5
14C52
  8
0
 10
242.18803540111159
 20
67.119421884417534
 30
0.0
  0
SEQEND
  5
14C53
  8
0
  0
POLYLINE
  5
BC71
  8
0
 66
     1
 10
0.0
 20
0.0
 30
0.0
 70
   128
  0
VERTEX
  5
14C54
  8
0
 10
230.5923764431534
 20
66.104933135211454
 30
0.0
  0
VERTEX
  5
14C55
  8
0
 10
229.89929363370521
 20
65.314538292586803
 30
0.0
  0
VERTEX
  5
14C56
  8
0
 10
229.5370277786312
 20
64.933638069778681
 30
0.0
  0
VERTEX
  5
14C57
  8
0
 10
229.11308229208569
 20
64.615895953029394
 30
0.0
  0
VERTEX
  5
14C58
  8
0
 10
228.7748780870495
 20
64.489142950624213
 30
0.0
  0
VERTEX
  5
14C59
  8
0
 10
228.3832345926819
 20
64.395668897777796
 30
0.0
  0
VERTEX
  5
14C5A
  8
0
 10
227.98097029567339
 20
64.322064146399484
 30
0.0
  0
VERTEX
  5
14C5B
  8
0
 10
227.66124353051759
 20
64.258357491344213
 30
0.0
  0
VERTEX
  5
14C5C
  8
0
 10
227.42486641049959
 20
64.197049923241124
 30
0.0
  0
VERTEX
  5
14C5D
  8
0
 10
226.9643348479328
 20
63.971608392894261
 30
0.0
  0
SEQEND
  5
14C5E
  8
0
  0
POLYLINE
  5
BC73
  8
0
 66
     1
 10
0.0
 20
0.0
 30
0.0
 70
   128
  0
VERTEX
  5
14C5F
  8
0
 10
237.48162284732419
 20
120.91393440961831
 30
0.0
  0
VERTEX
  5
14C60
  8
0
 10
237.48634651542261
 20
120.8599698543548
 30
0.0
  0
VERTEX
  5
14C61
  8
0
 10
237.49933287740311
 20
120.7115095853805
 30
0.0
  0
VERTEX
  5
14C62
  8
0
 10
237.5200976455267
 20
120.4742383956909
 30
0.0
  0
VERTEX
  5
14C63
  8
0
 10
237.54721030831891
 20
120.16430914402
 30
0.0
  0
VERTEX
  5
14C64
  8
0
 10
237.57965013623789
 20
119.7934900224209
 30
0.0
  0
VERTEX
  5
14C65
  8
0
 10
237.61697009444791
 20
119.3669666349888
 30
0.0
  0
VERTEX
  5
14C66
  8
0
 10
237.70010367274861
 20
118.4167270362377
 30
0.0
  0
VERTEX
  5
14C67
  8
0
 10
237.79041961074449
 20
117.38444164395329
 30
0.0
  0
VERTEX
  5
14C68
  8
0
 10
237.888081821209
 20
116.26812860369679
 30
0.0
  0
VERTEX
  5
14C69
  8
0
 10
237.99273267627339
 20
115.0719714164734
 30
0.0
  0
VERTEX
  5
14C6A
  8
0
 10
238.09168383718111
 20
113.9409174025058
 30
0.0
  0
SEQEND
  5
14C6B
  8
0
  0
ARC
  5
BC74
  8
0
 10
237.61235948586679
 20
119.4196434933358
 30
0.0
 40
1.500000000000111
 50
5.0000000011506041
 51
95.000000001137494
  0
POLYLINE
  5
BC75
  8
0
 66
     1
 10
0.0
 20
0.0
 30
0.0
 70
   128
  0
VERTEX
  5
14C6C
  8
0
 10
243.68233129621129
 20
67.250155359506607
 30
0.0
  0
VERTEX
  5
14C6D
  8
0
 10
243.28244373441319
 20
71.820848137140274
 30
0.0
  0
VERTEX
  5
14C6E
  8
0
 10
242.88334593415809
 20
76.382600218057632
 30
0.0
  0
VERTEX
  5
14C6F
  8
0
 10
242.48529121518689
 20
80.932341963052735
 30
0.0
  0
VERTEX
  5
14C70
  8
0
 10
242.08619341493201
 20
85.494073554873466
 30
0.0
  0
VERTEX
  5
14C71
  8
0
 10
241.686231347328
 20
90.065673440694795
 30
0.0
  0
VERTEX
  5
14C72
  8
0
 10
241.16257474065381
 20
96.051078736782074
 30
0.0
  0
VERTEX
  5
14C73
  8
0
 10
240.63945457578259
 20
102.0303969085216
 30
0.0
  0
VERTEX
  5
14C74
  8
0
 10
240.11729553580841
 20
107.9986546933651
 30
0.0
  0
VERTEX
  5
14C75
  8
0
 10
239.99877915025331
 20
109.3533527851104
 30
0.0
  0
VERTEX
  5
14C76
  8
0
 10
239.8801286542473
 20
110.7095223665237
 30
0.0
  0
VERTEX
  5
14C77
  8
0
 10
239.76116523385619
 20
112.06926450133319
 30
0.0
  0
VERTEX
  5
14C78
  8
0
 10
239.64214965940101
 20
113.4295877814293
 30
0.0
  0
VERTEX
  5
14C79
  8
0
 10
239.5234395587502
 20
114.7864949703216
 30
0.0
  0
VERTEX
  5
14C7A
  8
0
 10
239.4255240285454
 20
115.9056429564953
 30
0.0
  0
VERTEX
  5
14C7B
  8
0
 10
239.33352425933441
 20
116.9571843743324
 30
0.0
  0
VERTEX
  5
14C7C
  8
0
 10
239.2508973205145
 20
117.9016683995723
 30
0.0
  0
VERTEX
  5
14C7D
  8
0
 10
239.1947050416525
 20
118.54390472173689
 30
0.0
  0
VERTEX
  5
14C7E
  8
0
 10
239.14886906982019
 20
119.0678556263446
 30
0.0
  0
VERTEX
  5
14C7F
  8
0
 10
239.11800131440711
 20
119.4206704199314
 30
0.0
  0
VERTEX
  5
14C80
  8
0
 10
239.10665408015799
 20
119.5503775775432
 30
0.0
  0
SEQEND
  5
14C81
  8
0
  0
POLYLINE
  5
BC77
  8
0
 66
     1
 10
0.0
 20
0.0
 30
0.0
 70
   128
  0
VERTEX
  5
14C82
  8
0
 10
244.4667284214554
 20
58.284403155557811
 30
0.0
  0
VERTEX
  5
14C83
  8
0
 10
244.31417778373341
 20
56.54069022741168
 30
0.0
  0
VERTEX
  5
14C84
  8
0
 10
244.1943128430901
 20
55.17063008621335
 30
0.0
  0
SEQEND
  5
14C85
  8
0
  0
ARC
  5
BC79
  8
0
 10
244.4205205118395
 20
-199.94355675447039
 30
0.0
 40
258.22796404430341
 50
89.989747360534778
 51
90.101119414875669
  0
POLYLINE
  5
BC86
  8
0
 66
     1
 10
0.0
 20
0.0
 30
0.0
 70
   128
  0
VERTEX
  5
14C86
  8
0
 10
235.22743851185399
 20
100.64634725451469
 30
0.0
  0
VERTEX
  5
14C87
  8
0
 10
235.4814139032419
 20
103.036258816719
 30
0.0
  0
VERTEX
  5
14C88
  8
0
 10
235.5411824607904
 20
105.4658968746662
 30
0.0
  0
VERTEX
  5
14C89
  8
0
 10
235.4026389145906
 20
107.90043741464611
 30
0.0
  0
VERTEX
  5
14C8A
  8
0
 10
235.16846716642931
 20
109.7213071584701
 30
0.0
  0
VERTEX
  5
14C8B
  8
0
 10
234.82641101122451
 20
111.5266349911689
 30
0.0
  0
VERTEX
  5
14C8C
  8
0
 10
234.5382747077997
 20
112.7152335643768
 30
0.0
  0
VERTEX
  5
14C8D
  8
0
 10
234.1996793472822
 20
113.8867516815662
 30
0.0
  0
VERTEX
  5
14C8E
  8
0
 10
233.977890464073
 20
115.0695872306823
 30
0.0
  0
VERTEX
  5
14C8F
  8
0
 10
233.9683760726507
 20
115.9561206400394
 30
0.0
  0
VERTEX
  5
14C90
  8
0
 10
234.08556252956939
 20
116.8163609504699
 30
0.0
  0
VERTEX
  5
14C91
  8
0
 10
234.31761458755091
 20
117.6299569010734
 30
0.0
  0
VERTEX
  5
14C92
  8
0
 10
234.65046927571851
 20
118.3846820890903
 30
0.0
  0
VERTEX
  5
14C93
  8
0
 10
235.07158354163721
 20
119.0717262029648
 30
0.0
  0
VERTEX
  5
14C94
  8
0
 10
235.57678878546309
 20
119.68786686658861
 30
0.0
  0
VERTEX
  5
14C95
  8
0
 10
236.16399511933881
 20
120.2312749624252
 30
0.0
  0
VERTEX
  5
14C96
  8
0
 10
236.83112010598731
 20
120.70013254880899
 30
0.0
  0
SEQEND
  5
14C97
  8
0
  0
POLYLINE
  5
BC87
  8
0
 66
     1
 10
0.0
 20
0.0
 30
0.0
 70
   128
  0
VERTEX
  5
14C98
  8
0
 10
236.83112010598731
 20
120.70013254880899
 30
0.0
  0
VERTEX
  5
14C99
  8
0
 10
237.1405725205
 20
120.84351897239679
 30
0.0
  0
VERTEX
  5
14C9A
  8
0
 10
237.48162284732419
 20
120.91393440961831
 30
0.0
  0
SEQEND
  5
14C9B
  8
0
  0
POLYLINE
  5
BC89
  8
0
 66
     1
 10
0.0
 20
0.0
 30
0.0
 70
   128
  0
VERTEX
  5
14C9C
  8
0
 10
226.9643348479328
 20
63.971608392894261
 30
0.0
  0
VERTEX
  5
14C9D
  8
0
 10
226.85117170453651
 20
64.116755947470665
 30
0.0
  0
VERTEX
  5
14C9E
  8
0
 10
226.79610818863489
 20
64.187385123223066
 30
0.0
  0
VERTEX
  5
14C9F
  8
0
 10
226.74695298314671
 20
64.250435661524534
 30
0.0
  0
VERTEX
  5
14CA0
  8
0
 10
226.7070215964375
 20
64.301653746515512
 30
0.0
  0
VERTEX
  5
14CA1
  8
0
 10
226.67849332333179
 20
64.338244013488293
 30
0.0
  0
VERTEX
  5
14CA2
  8
0
 10
226.65690899134259
 20
64.365929905325174
 30
0.0
  0
SEQEND
  5
14CA3
  8
0
  0
ARC
  5
BC8A
  8
0
 10
215.58943045861861
 20
78.561670113779201
 30
0.0
 40
18.000225585759299
 50
307.94118259530518
 51
315.35544856274652
  0
POLYLINE
  5
BC8C
  8
0
 66
     1
 10
0.0
 20
0.0
 30
0.0
 70
   128
  0
VERTEX
  5
14CA4
  8
0
 10
239.30454150081249
 20
49.343231581151478
 30
0.0
  0
VERTEX
  5
14CA5
  8
0
 10
237.61381104827501
 20
48.890201821923249
 30
0.0
  0
VERTEX
  5
14CA6
  8
0
 10
236.28537997842409
 20
48.534249402582638
 30
0.0
  0
SEQEND
  5
14CA7
  8
0
  0
POLYLINE
  5
BC91
  8
0
 66
     1
 10
0.0
 20
0.0
 30
0.0
 70
   128
  0
VERTEX
  5
14CA8
  8
0
 10
243.68233129621129
 20
67.250155359506607
 30
0.0
  0
VERTEX
  5
14CA9
  8
0
 10
243.82875010610201
 20
65.576548203825951
 30
0.0
  0
VERTEX
  5
14CAA
  8
0
 10
243.97516891599281
 20
63.902941048145287
 30
0.0
  0
VERTEX
  5
14CAB
  8
0
 10
244.1215951764641
 20
62.229334358125918
 30
0.0
  0
VERTEX
  5
14CAC
  8
0
 10
244.29415807366939
 20
60.256868582218878
 30
0.0
  0
VERTEX
  5
14CAD
  8
0
 10
244.4667284214554
 20
58.284403155557811
 30
0.0
  0
SEQEND
  5
14CAE
  8
0
  0
ARC
  5
BC93
  8
0
 10
235.32288369434559
 20
57.740669315191333
 30
0.0
 40
9.8463821652701746
 50
186.4855975961656
 51
246.5030966414011
  0
ARC
  5
BC95
  8
0
 10
234.16359167663899
 20
57.550483557616481
 30
0.0
 40
9.2625301044579835
 50
252.62215980900521
 51
283.2424554202953
  0
ARC
  5
BC96
  8
0
 10
235.50094795776769
 20
57.50003108979012
 30
0.0
 40
9.0000390035165463
 50
295.00008923508528
 51
344.99987146198907
  0
ARC
  5
BC97
  8
0
 10
228.50147580302041
 20
61.999993000705672
 30
0.0
 40
3.0000140265312281
 50
127.94122010648771
 51
179.99984156463191
  0
LINE
  5
BC98
  8
0
 10
225.53951561689951
 20
56.628486413974308
 30
0.0
 11
225.50146177650069
 21
57.500001490116112
 31
0.0
  0
CIRCLE
  5
BC99
  8
0
 10
235.5009774291573
 20
57.500001490116112
 30
0.0
 40
6.0000000000000568
  0
LINE
  5
BC9A
  8
0
 10
228.39622840524271
 20
65.912794768810272
 30
0.0
 11
228.87729004264449
 21
66.435602940618992
 31
0.0
  0
CIRCLE
  5
BCA2
  8
0
 10
235.5009774291573
 20
57.500001490116112
 30
0.0
 40
5.5
  0
CIRCLE
  5
BCA3
  8
0
 10
235.5009774291573
 20
57.500001490116112
 30
0.0
 40
6.0
  0
LINE
  5
BCA5
  8
0
 10
170.91393832356289
 20
37.000000923871987
 30
0.0
 11
170.91393832356289
 21
50.000001657754183
 31
0.0
  0
LINE
  5
BCA6
  8
0
 10
170.91393832356289
 20
50.000001657754183
 30
0.0
 11
171.91393848747589
 21
51.000001356005662
 31
0.0
  0
LINE
  5
BCA7
  8
0
 10
171.913938487476
 20
79.000002220272961
 30
0.0
 11
171.91393848747589
 21
36.000000759959221
 31
0.0
  0
LINE
  5
BCA9
  8
0
 10
170.91393832356289
 20
65.000001322478056
 30
0.0
 11
170.91393832356289
 21
78.000002056360245
 31
0.0
  0
LINE
  5
BCAC
  8
0
 10
171.91393848747589
 20
64.00000162422657
 30
0.0
 11
170.91393832356289
 21
65.000001322478056
 31
0.0
  0
LINE
  5
BCAD
  8
0
 10
172.91393841855799
 20
80.000002384185791
 30
0.0
 11
174.00097742915719
 21
80.000002384185791
 31
0.0
  0
LINE
  5
BCAE
  8
0
 10
174.00097742915719
 20
35.000000596046448
 30
0.0
 11
172.91393841855799
 21
35.000000596046448
 31
0.0
  0
LINE
  5
BCB0
  8
0
 10
172.91393841855799
 20
80.000002384185791
 30
0.0
 11
170.91393832356289
 21
78.000001823529374
 31
0.0
  0
LINE
  5
BCB1
  8
0
 10
170.91393832356289
 20
37.00000115670295
 30
0.0
 11
172.91393841855799
 21
35.000000596046448
 31
0.0
  0
LINE
  5
BCB2
  8
0
 10
223.6014333391245
 20
49.500001110136502
 30
0.0
 11
223.6014333391245
 21
65.500001870095716
 31
0.0
  0
LINE
  5
BCB3
  8
0
 10
224.1014306271131
 20
65.000001322478056
 30
0.0
 11
224.1014306271131
 21
50.000001657754183
 31
0.0
  0
LINE
  5
BCB4
  8
0
 10
222.00097784638979
 20
50.000001657754183
 30
0.0
 11
174.00097742915719
 21
50.000001657754183
 31
0.0
  0
LINE
  5
BCBB
  8
0
 10
174.00097742915719
 20
25.00000149011607
 30
0.0
 11
174.00097742915719
 21
90.000000298023224
 31
0.0
  0
LINE
  5
BCC1
  8
0
 10
222.00097784638979
 20
65.000001322478056
 30
0.0
 11
174.00097742915719
 21
65.000001322478056
 31
0.0
  0
ARC
  5
BCD5
  8
0
 10
179.0009774291573
 20
25.00000149011607
 30
0.0
 40
5.0
 50
180.0
 51
270.0
  0
ARC
  5
BCD7
  8
0
 10
179.0009774291573
 20
90.000001490116105
 30
0.0
 40
5.0
 50
90.0
 51
180.0
  0
ARC
  5
BCEB
  8
0
 10
182.0009774291573
 20
27.800001490116081
 30
0.0
 40
3.0
 50
90.0
 51
180.0
  0
ARC
  5
BCED
  8
0
 10
182.0009774291573
 20
87.200001490116094
 30
0.0
 40
3.0
 50
180.0
 51
270.0
  0
LINE
  5
BCF0
  8
0
 10
179.00097731739851
 20
27.80000165104866
 30
0.0
 11
179.00097731739851
 21
27.20000080764294
 31
0.0
  0
ARC
  5
BCF2
  8
0
 10
182.0009774291573
 20
27.200001490116168
 30
0.0
 40
3.000000000000028
 50
180.0
 51
270.0
  0
ARC
  5
BCF5
  8
0
 10
182.0009774291573
 20
87.800001490116074
 30
0.0
 40
3.0
 50
90.0
 51
180.0
  0
LINE
  5
BCF7
  8
0
 10
179.00097731739851
 20
87.800002172589302
 30
0.0
 11
179.00097731739851
 21
87.200001329183564
 31
0.0
  0
LINE
  5
BCF9
  8
0
 10
189.00097709388109
 20
20.0
 30
0.0
 11
179.00097731739851
 21
20.0
 31
0.0
  0
LINE
  5
BCFA
  8
0
 10
179.00097731739851
 20
95.000002980232225
 30
0.0
 11
189.00097709388109
 21
95.000002980232225
 31
0.0
  0
LINE
  5
BCFD
  8
0
 10
186.0009775334654
 20
30.80000214278698
 30
0.0
 11
182.00097780913691
 21
30.80000214278698
 31
0.0
  0
LINE
  5
BCFF
  8
0
 10
186.0009775334654
 20
90.800002664327621
 30
0.0
 11
182.00097780913691
 21
90.800002664327621
 31
0.0
  0
LINE
  5
BD00
  8
0
 10
182.00097780913691
 20
84.200000837445245
 30
0.0
 11
186.0009775334654
 21
84.200000837445245
 31
0.0
  0
LINE
  5
BD02
  8
0
 10
182.00097780913691
 20
24.200000315904621
 30
0.0
 11
186.0009775334654
 21
24.200000315904621
 31
0.0
  0
ARC
  5
BD05
  8
0
 10
186.0009774291573
 20
27.800001490116081
 30
0.0
 40
3.0
 50
0.0
 51
90.0
  0
ARC
  5
BD06
  8
0
 10
186.0009774291573
 20
87.200001490116094
 30
0.0
 40
3.0
 50
270.0
 51
0.0
  0
ARC
  5
BD08
  8
0
 10
186.0009774291573
 20
87.800001490116074
 30
0.0
 40
3.0
 50
0.0
 51
90.0
  0
ARC
  5
BD0A
  8
0
 10
186.0009774291573
 20
27.200001490116168
 30
0.0
 40
3.000000000000028
 50
270.0
 51
0.0
  0
LINE
  5
BD0C
  8
0
 10
189.00097709388109
 20
87.200001329183564
 30
0.0
 11
189.00097709388109
 21
87.800002172589302
 31
0.0
  0
LINE
  5
BD0D
  8
0
 10
189.00097709388109
 20
27.20000080764294
 30
0.0
 11
189.00097709388109
 21
27.80000165104866
 31
0.0
  0
ARC
  5
BD0E
  8
0
 10
189.00097742915719
 20
90.000001490116105
 30
0.0
 40
5.0
 50
0.0
 51
90.0
  0
ARC
  5
BD11
  8
0
 10
189.00097742915719
 20
25.00000149011607
 30
0.0
 40
5.0
 50
270.0
 51
0.0
  0
LINE
  5
BD13
  8
0
 10
194.00097698212241
 20
27.928933948278431
 30
0.0
 11
194.00097698212241
 21
25.000002682209011
 31
0.0
  0
LINE
  5
BD14
  8
0
 10
194.00097698212241
 20
90.000000298023224
 30
0.0
 11
194.00097698212241
 21
87.071069031953812
 31
0.0
  0
ARC
  5
BD16
  8
0
 10
199.00097742915719
 20
87.071069301981595
 30
0.0
 40
5.0
 50
180.0
 51
225.00000000000631
  0
ARC
  5
BD19
  8
0
 10
199.00097742915719
 20
27.92893367825064
 30
0.0
 40
5.00000000000004
 50
134.99999999999301
 51
180.0
  0
LINE
  5
BD1A
  8
0
 10
195.46544261515709
 20
83.535535708069801
 30
0.0
 11
197.5365121686516
 21
81.464468017220483
 31
0.0
  0
LINE
  5
BD1D
  8
0
 10
197.5365121686516
 20
33.535534963011742
 30
0.0
 11
195.46544261515709
 21
31.464467272162441
 31
0.0
  0
ARC
  5
BD1E
  8
0
 10
201.07204524102281
 20
85.000001490116105
 30
0.0
 40
5.0
 50
225.00000000000631
 51
270.0
  0
ARC
  5
BD21
  8
0
 10
201.07204524102281
 20
30.000001490116119
 30
0.0
 40
5.0000000000000284
 50
90.0
 51
134.99999999999301
  0
LINE
  5
BD22
  8
0
 10
201.07204549253561
 20
80.000002384185791
 30
0.0
 11
220.00097751856421
 21
80.000002384185791
 31
0.0
  0
LINE
  5
BD25
  8
0
 10
220.00097751856421
 20
35.000000596046448
 30
0.0
 11
201.07204549253561
 21
35.000000596046448
 31
0.0
  0
ARC
  5
BD26
  8
0
 10
220.0009774291573
 20
78.000001490116119
 30
0.0
 40
2.0
 50
0.0
 51
90.0
  0
ARC
  5
BD28
  8
0
 10
220.0009774291573
 20
37.000001490116119
 30
0.0
 40
2.0
 50
270.0
 51
0.0
  0
LINE
  5
BD2A
  8
0
 10
222.0009774291573
 20
78.000001490116119
 30
0.0
 11
222.00097784638979
 21
37.000000923871987
 31
0.0
  0
CIRCLE
  5
BD2E
  8
0
 10
204.0009774291573
 20
57.500001490116112
 30
0.0
 40
2.5
  0
CIRCLE
  5
BD2F
  8
0
 10
204.0009774291573
 20
57.500001490116112
 30
0.0
 40
2.0
  0
LINE
  5
11F24
  8
0
 10
77.292895391583443
 20
200.7997932285071
 30
0.0
 11
77.292895391583443
 21
199.50000219047081
 31
0.0
  0
LINE
  5
11F27
  8
0
 10
37.707107588648803
 20
199.50000219047081
 30
0.0
 11
37.707107588648803
 21
200.7997932285071
 31
0.0
  0
ARC
  5
11F2A
  8
0
 10
76.103634015912576
 20
200.64078073360599
 30
0.0
 40
1.1998448204655801
 50
7.6156743050971603
 51
66.306270843806431
  0
ARC
  5
11F2B
  8
0
 10
38.896368964320118
 20
200.64078073360599
 30
0.0
 40
1.1998448204655909
 50
113.6937291561936
 51
172.3843256949028
  0
LINE
  5
11F2D
  8
0
 10
38.414214253425598
 20
201.73948653042331
 30
0.0
 11
76.585788726806641
 21
201.73948653042331
 31
0.0
  0
LINE
  5
11F2E
  8
0
 10
76.585788726806641
 20
201.73948653042331
 30
0.0
 11
79.000002220273004
 21
202.61818937957301
 31
0.0
  0
LINE
  5
11F33
  8
0
 10
36.000000759959221
 20
202.61818937957301
 30
0.0
 11
38.414214253425598
 21
201.73948653042331
 31
0.0
  0
LINE
  5
11F36
  8
0
 10
79.000002220273004
 20
203.36234405636799
 30
0.0
 11
77.551797479391084
 21
204.198463112116
 31
0.0
  0
LINE
  5
11F37
  8
0
 10
79.000002220273004
 20
202.61818937957301
 30
0.0
 11
79.000002220273004
 21
203.36234405636799
 31
0.0
  0
LINE
  5
11F38
  8
0
 10
36.000000759959221
 20
203.36234405636799
 30
0.0
 11
36.000000759959221
 21
202.61818937957301
 31
0.0
  0
LINE
  5
11F39
  8
0
 10
37.448205500841141
 20
204.198463112116
 30
0.0
 11
36.000000759959221
 21
203.36234405636799
 31
0.0
  0
ARC
  5
11F3B
  8
0
 10
35.97075916256108
 20
201.6473722941538
 30
0.0
 40
0.9712573728733458
 50
88.274738112355948
 51
178.1636517519581
  0
ARC
  5
11F3D
  8
0
 10
79.029243817671158
 20
201.6473722941538
 30
0.0
 40
0.9712573728733351
 50
1.8363482480418869
 51
91.725261887644066
  0
ARC
  5
11F41
  8
0
 10
35.846694633565683
 20
202.66922944040519
 30
0.0
 40
0.7098666348344686
 50
77.527870419561111
 51
119.2349321720376
  0
ARC
  5
11F42
  8
0
 10
79.153308346666563
 20
202.66922944040519
 30
0.0
 40
0.7098666348344686
 50
60.765067827962319
 51
102.4721295804389
  0
POLYLINE
  5
11F45
  8
0
 66
     1
 10
0.0
 20
0.0
 30
0.0
 70
   128
  0
VERTEX
  5
14CAF
  8
0
 10
37.866026610136032
 20
204.5000030100347
 30
0.0
  0
VERTEX
  5
14CB0
  8
0
 10
37.819181084632874
 20
204.46619227528581
 30
0.0
  0
VERTEX
  5
14CB1
  8
0
 10
37.679275944828987
 20
204.36522573232659
 30
0.0
  0
VERTEX
  5
14CB2
  8
0
 10
37.448205500841141
 20
204.198463112116
 30
0.0
  0
SEQEND
  5
14CB3
  8
0
  0
POLYLINE
  5
11F46
  8
0
 66
     1
 10
0.0
 20
0.0
 30
0.0
 70
   128
  0
VERTEX
  5
14CB4
  8
0
 10
77.551797479391084
 20
204.198463112116
 30
0.0
  0
VERTEX
  5
14CB5
  8
0
 10
77.320727035403252
 20
204.36522573232659
 30
0.0
  0
VERTEX
  5
14CB6
  8
0
 10
77.180821895599365
 20
204.46619227528581
 30
0.0
  0
VERTEX
  5
14CB7
  8
0
 10
77.133976370096207
 20
204.5000030100347
 30
0.0
  0
SEQEND
  5
14CB8
  8
0
  0
ARC
  5
13463
  8
0
 10
301.48291271459578
 20
190.49797392735829
 30
0.0
 40
7.0161845858831127
 50
90.352516225358201
 51
179.98344878292011
  0
POLYLINE
  5
13464
  8
0
 66
     1
 10
0.0
 20
0.0
 30
0.0
 70
   128
  0
VERTEX
  5
14CB9
  8
0
 10
348.26124094665602
 20
197.50000000000031
 30
0.0
  0
VERTEX
  5
14CBA
  8
0
 10
345.28697103500917
 20
197.44629248976739
 30
0.0
  0
VERTEX
  5
14CBB
  8
0
 10
342.123862432843
 20
197.2812518849972
 30
0.0
  0
VERTEX
  5
14CBC
  8
0
 10
338.83132234454712
 20
196.9864631444218
 30
0.0
  0
VERTEX
  5
14CBD
  8
0
 10
335.49731977522919
 20
196.58275622874521
 30
0.0
  0
VERTEX
  5
14CBE
  8
0
 10
332.13689744711468
 20
196.23594008386149
 30
0.0
  0
VERTEX
  5
14CBF
  8
0
 10
328.75386260688862
 20
196.0471954569222
 30
0.0
  0
VERTEX
  5
14CC0
  8
0
 10
325.35466373205742
 20
195.9962921589615
 30
0.0
  0
VERTEX
  5
14CC1
  8
0
 10
318.66944775224277
 20
196.16337422281521
 30
0.0
  0
VERTEX
  5
14CC2
  8
0
 10
311.97305962682321
 20
196.62724737077971
 30
0.0
  0
VERTEX
  5
14CC3
  8
0
 10
309.86919075489601
 20
196.8280041962864
 30
0.0
  0
VERTEX
  5
14CC4
  8
0
 10
307.76652887702539
 20
197.0523402467372
 30
0.0
  0
VERTEX
  5
14CC5
  8
0
 10
305.66429168224892
 20
197.28676345199361
 30
0.0
  0
VERTEX
  5
14CC6
  8
0
 10
303.55453685165003
 20
197.4507088214161
 30
0.0
  0
VERTEX
  5
14CC7
  8
0
 10
301.43974542856768
 20
197.51402571797391
 30
0.0
  0
SEQEND
  5
14CC8
  8
0
  0
LINE
  5
13493
  8
0
 10
374.13066254693013
 20
191.22168691532269
 30
0.0
 11
372.88066134095737
 21
191.9433770018554
 31
0.0
  0
LINE
  5
13494
  8
0
 10
372.88066134095737
 20
191.9433770018554
 30
0.0
 11
371.63066400699307
 21
191.2216936218251
 31
0.0
  0
LINE
  5
13495
  8
0
 10
371.63065879302297
 20
191.2216936218251
 30
0.0
 11
371.6306561121151
 21
189.77832303279919
 31
0.0
  0
LINE
  5
13496
  8
0
 10
371.63065950917439
 20
189.77831714885079
 30
0.0
 11
372.88066134095737
 21
189.0566259783769
 31
0.0
  0
LINE
  5
13497
  8
0
 10
372.88066134095737
 20
189.0566259783769
 30
0.0
 11
374.13065867492128
 21
189.7783093584066
 31
0.0
  0
LINE
  5
13498
  8
0
 10
374.13066137527181
 20
189.7783140355329
 30
0.0
 11
374.13066254693013
 21
191.22168691532261
 31
0.0
  0
LINE
  5
13736
  8
0
 10
233.95354941726279
 20
194.2597499489784
 30
0.0
 11
233.9504611516054
 21
194.14785712957379
 31
0.0
  0
LINE
  5
13737
  8
0
 10
233.95664885879111
 20
186.8377097323536
 30
0.0
 11
233.960865887409
 21
186.76573712378729
 31
0.0
  0
POLYLINE
  5
1377F
  8
0
 66
     1
 10
0.0
 20
0.0
 30
0.0
 70
   128
  0
VERTEX
  5
14CC9
  8
0
 10
238.109506093454
 20
183.49651524800359
 30
0.0
  0
VERTEX
  5
14CCA
  8
0
 10
238.01028021268559
 20
183.60442522135429
 30
0.0
  0
VERTEX
  5
14CCB
  8
0
 10
237.9048368506748
 20
183.91595186117021
 30
0.0
  0
VERTEX
  5
14CCC
  8
0
 10
237.80588192941329
 20
184.4241965518228
 30
0.0
  0
VERTEX
  5
14CCD
  8
0
 10
237.71374565168159
 20
185.13994488325301
 30
0.0
  0
VERTEX
  5
14CCE
  8
0
 10
237.62814493664879
 20
186.11006043909529
 30
0.0
  0
VERTEX
  5
14CCF
  8
0
 10
237.58932330964731
 20
186.70055625331639
 30
0.0
  0
VERTEX
  5
14CD0
  8
0
 10
237.55524210088171
 20
187.3460011554028
 30
0.0
  0
VERTEX
  5
14CD1
  8
0
 10
237.526330823687
 20
188.05328618422919
 30
0.0
  0
VERTEX
  5
14CD2
  8
0
 10
237.50361654638479
 20
188.8199198615682
 30
0.0
  0
VERTEX
  5
14CD3
  8
0
 10
237.48854302362079
 20
189.64069602335951
 30
0.0
  0
VERTEX
  5
14CD4
  8
0
 10
237.48161144588761
 20
190.50896814202989
 30
0.0
  0
SEQEND
  5
14CD5
  8
0
  0
POLYLINE
  5
13798
  8
0
 66
     1
 10
0.0
 20
0.0
 30
0.0
 70
   128
  0
VERTEX
  5
14CD6
  8
0
 10
113.9409174025057
 20
197.51402571797351
 30
0.0
  0
VERTEX
  5
14CD7
  8
0
 10
110.5052535235881
 20
197.3653475195168
 30
0.0
  0
VERTEX
  5
14CD8
  8
0
 10
107.0784558355808
 20
196.99843622744069
 30
0.0
  0
VERTEX
  5
14CD9
  8
0
 10
103.6448408663273
 20
196.64322979748229
 30
0.0
  0
VERTEX
  5
14CDA
  8
0
 10
100.19855245947829
 20
196.3746736198662
 30
0.0
  0
VERTEX
  5
14CDB
  8
0
 10
96.744619756937027
 20
196.17567885667069
 30
0.0
  0
VERTEX
  5
14CDC
  8
0
 10
93.285527527332306
 20
196.0495256260036
 30
0.0
  0
VERTEX
  5
14CDD
  8
0
 10
89.823592901229844
 20
196.0007066279648
 30
0.0
  0
VERTEX
  5
14CDE
  8
0
 10
85.785657614469514
 20
196.06589082628469
 30
0.0
  0
VERTEX
  5
14CDF
  8
0
 10
81.759704723954201
 20
196.33098527789099
 30
0.0
  0
VERTEX
  5
14CE0
  8
0
 10
80.000002384185791
 20
196.53396144509301
 30
0.0
  0
SEQEND
  5
14CE1
  8
0
  0
LINE
  5
14336
  8
1
 10
357.88066134095737
 20
209.5000030100347
 30
0.0
 11
357.88066134095737
 21
168.0000015138649
 31
0.0
  0
LINE
  5
14337
  8
1
 10
327.88066108018711
 20
169.50000149011609
 30
0.0
 11
327.88066108018711
 21
183.5000018700957
 31
0.0
  0
LINE
  5
14338
  8
1
 10
387.88066160172781
 20
169.5000014901162
 30
0.0
 11
387.88066160172781
 21
183.50000166653521
 31
0.0
  0
LINE
  5
14339
  8
1
 10
248.5004930818136
 20
319.50000301003462
 30
0.0
 11
166.9139384874756
 21
319.50000301003462
 31
0.0
  0
LINE
  5
14340
  8
1
 10
368.88066134095737
 20
190.5000014901162
 30
0.0
 11
291.46672854662683
 21
190.5000014901162
 31
0.0
  0
LINE
  5
14347
  8
1
 10
246.682331296211
 20
190.5000014901162
 30
0.0
 11
166.9139384874756
 21
190.5000014901162
 31
0.0
  0
LINE
  5
1434B
  8
1
 10
123.91393440961831
 20
190.5000014901162
 30
0.0
 11
77.000002384185791
 21
190.5000014901162
 31
0.0
  0
LINE
  5
1434C
  8
1
 10
57.500001490116112
 20
209.50000301003459
 30
0.0
 11
57.500001490116112
 21
168.00000151386479
 31
0.0
  0
LINE
  5
1434D
  8
1
 10
27.500001229345798
 20
169.50000149011601
 30
0.0
 11
27.500001229345798
 21
183.50000187009559
 31
0.0
  0
LINE
  5
1434E
  8
1
 10
87.50000175088644
 20
169.50000149011609
 30
0.0
 11
87.50000175088644
 21
183.5000016665351
 31
0.0
  0
CIRCLE
  5
14355
  8
0
 10
42.500001490116112
 20
190.5000014901162
 30
0.0
 40
1.6209999999999991
  0
CIRCLE
  5
14356
  8
3
 10
42.500001490116112
 20
190.5000014901162
 30
0.0
 40
2.0
  0
LINE
  5
14369
  8
1
 10
42.500001490116112
 20
195.5000014901162
 30
0.0
 11
42.500001490116112
 21
185.5000014901162
 31
0.0
  0
LINE
  5
1436A
  8
1
 10
37.500001490116119
 20
190.5000014901162
 30
0.0
 11
47.500001490116112
 21
190.5000014901162
 31
0.0
  0
CIRCLE
  5
1437C
  8
0
 10
72.500001490116105
 20
190.5000014901162
 30
0.0
 40
1.6209999999999991
  0
CIRCLE
  5
1437D
  8
3
 10
72.500001490116105
 20
190.5000014901162
 30
0.0
 40
2.0
  0
LINE
  5
1437E
  8
1
 10
72.500001490116105
 20
195.5000014901162
 30
0.0
 11
72.500001490116105
 21
185.5000014901162
 31
0.0
  0
LINE
  5
1437F
  8
1
 10
67.500001490116105
 20
190.5000014901162
 30
0.0
 11
77.500001490116105
 21
190.5000014901162
 31
0.0
  0
LINE
  5
14388
  8
1
 10
182.50097767130089
 20
355.80000418424612
 30
0.0
 11
182.50097767130089
 21
343.2000023573637
 31
0.0
  0
LINE
  5
14389
  8
1
 10
185.50097756699279
 20
355.80000418424612
 30
0.0
 11
185.50097756699279
 21
343.2000023573637
 31
0.0
  0
LINE
  5
1438A
  8
1
 10
235.50097742915699
 20
332.49951866269112
 30
0.0
 11
235.50097742915699
 21
306.50048735737801
 31
0.0
  0
LINE
  5
14391
  8
1
 10
235.50097742915699
 20
200.50000186264509
 30
0.0
 11
235.50097742915699
 21
180.50000143051139
 31
0.0
  0
LINE
  5
14399
  8
1
 10
185.50097767130089
 20
183.50000167380659
 30
0.0
 11
185.50097767130089
 21
169.50000149011609
 31
0.0
  0
LINE
  5
1439A
  8
1
 10
182.50097767130089
 20
183.50000160701001
 30
0.0
 11
182.50097767130089
 21
169.50000149011609
 31
0.0
  0
LINE
  5
1439B
  8
1
 10
192.00097709388089
 20
349.50000327080488
 30
0.0
 11
176.00097731739831
 21
349.50000327080488
 31
0.0
  0
LINE
  5
1439C
  8
1
 10
182.50097767130089
 20
295.80000366270542
 30
0.0
 11
182.50097767130089
 21
283.20000183582312
 31
0.0
  0
LINE
  5
1439D
  8
1
 10
185.50097767130089
 20
295.80000366270542
 30
0.0
 11
185.50097767130089
 21
283.20000183582312
 31
0.0
  0
LINE
  5
1439E
  8
1
 10
192.00097709388089
 20
289.50000274926418
 30
0.0
 11
176.00097731739831
 21
289.50000274926418
 31
0.0
  0
LINE
  5
1439F
  8
1
 10
248.50049308181389
 20
57.500001490116091
 30
0.0
 11
166.91393848747589
 21
57.500001490116091
 31
0.0
  0
LINE
  5
143A0
  8
1
 10
182.50097767130089
 20
93.800002664327593
 30
0.0
 11
182.50097767130089
 21
81.200000837445231
 31
0.0
  0
LINE
  5
143A1
  8
1
 10
185.50097767130089
 20
93.800002664327621
 30
0.0
 11
185.50097767130089
 21
81.200000837445259
 31
0.0
  0
LINE
  5
143A2
  8
1
 10
235.5009774291573
 20
70.499517142772646
 30
0.0
 11
235.5009774291573
 21
44.500485837459529
 31
0.0
  0
LINE
  5
143A3
  8
1
 10
192.00097709388109
 20
87.500001750886426
 30
0.0
 11
176.00097731739851
 21
87.500001750886426
 31
0.0
  0
LINE
  5
143A4
  8
1
 10
182.50097767130089
 20
33.800002142786951
 30
0.0
 11
182.50097767130089
 21
21.200000315904589
 31
0.0
  0
LINE
  5
143A5
  8
1
 10
185.50097767130089
 20
33.80000214278698
 30
0.0
 11
185.50097767130089
 21
21.200000315904621
 31
0.0
  0
LINE
  5
143A6
  8
1
 10
192.00097709388109
 20
27.50000122934577
 30
0.0
 11
176.00097731739851
 21
27.50000122934577
 31
0.0
  0
CIRCLE
  5
143FD
  8
0
 10
235.50097742915699
 20
319.5000030100345
 30
0.0
 40
2.0000000000064229
  0
CIRCLE
  5
143FE
  8
3
 10
235.50097742915699
 20
319.50000301003462
 30
0.0
 40
1.621000000007597
  0
CIRCLE
  5
1441C
  8
0
 10
235.5009774291573
 20
57.500001490116027
 30
0.0
 40
2.0000000000064229
  0
CIRCLE
  5
1441D
  8
3
 10
235.5009774291573
 20
57.500001490116091
 30
0.0
 40
1.621000000007597
  0
TEXT
  5
1497E
  8
0
 62
     3
 10
0.0
 20
0.0
 30
0.0
 40
10.0
  1
QLSCH32L
  7
STANDARD1
  0
ENDSEC
  0
EOF
