  0
SECTION
  2
HEADER
  9
$ACADVER
  1
AC1009
  9
$INSBASE
 10
0.0
 20
0.0
 30
0.0
  9
$EXTMIN
 10
0.0
 20
-2.960436562073669
 30
0.0
  9
$EXTMAX
 10
527.14282566681504
 20
360.00000059604622
 30
0.0
  9
$LIMMIN
 10
0.0
 20
0.0
  9
$LIMMAX
 10
375.0
 20
270.0
  9
$ORTHOMODE
 70
     1
  9
$REGENMODE
 70
     1
  9
$FILLMODE
 70
     1
  9
$QTEXTMODE
 70
     0
  9
$MIRRTEXT
 70
     0
  9
$DRAGMODE
 70
     2
  9
$LTSCALE
 40
10.0
  9
$OSMODE
 70
  3071
  9
$ATTMODE
 70
     1
  9
$TEXTSIZE
 40
6.0
  9
$TRACEWID
 40
0.05
  9
$TEXTSTYLE
  7
STANDARD
  9
$CLAYER
  8
0
  9
$CELTYPE
  6
BYLAYER
  9
$CECOLOR
 62
   256
  9
$DIMSCALE
 40
1.0
  9
$DIMASZ
 40
3.0
  9
$DIMEXO
 40
2.0
  9
$DIMDLI
 40
0.3799999999999999
  9
$DIMRND
 40
0.0
  9
$DIMDLE
 40
0.0
  9
$DIMEXE
 40
2.0
  9
$DIMTP
 40
0.0
  9
$DIMTM
 40
0.0
  9
$DIMTXT
 40
3.2000000000000002
  9
$DIMCEN
 40
0.09
  9
$DIMTSZ
 40
0.0
  9
$DIMTOL
 70
     0
  9
$DIMLIM
 70
     0
  9
$DIMTIH
 70
     0
  9
$DIMTOH
 70
     0
  9
$DIMSE1
 70
     0
  9
$DIMSE2
 70
     0
  9
$DIMTAD
 70
     1
  9
$DIMZIN
 70
     9
  9
$DIMBLK
  1

  9
$DIMASO
 70
     0
  9
$DIMSHO
 70
     0
  9
$DIMPOST
  1

  9
$DIMAPOST
  1

  9
$DIMALT
 70
     0
  9
$DIMALTD
 70
     2
  9
$DIMALTF
 40
25.399999999999999
  9
$DIMLFAC
 40
1.0
  9
$DIMTOFL
 70
     0
  9
$DIMTVP
 40
0.0
  9
$DIMTIX
 70
     0
  9
$DIMSOXD
 70
     0
  9
$DIMSAH
 70
     0
  9
$DIMBLK1
  1

  9
$DIMBLK2
  1

  9
$DIMSTYLE
  2
STANDARD
  9
$DIMCLRD
 70
     0
  9
$DIMCLRE
 70
     0
  9
$DIMCLRT
 70
     0
  9
$DIMTFAC
 40
1.0
  9
$DIMGAP
 40
0.09
  9
$LUNITS
 70
     2
  9
$LUPREC
 70
     4
  9
$SKETCHINC
 40
0.1
  9
$FILLETRAD
 40
20.0
  9
$AUNITS
 70
     0
  9
$AUPREC
 70
     3
  9
$MENU
  1
E:\r13\win\SUPPORT\ACAD
  9
$ELEVATION
 40
0.0
  9
$PELEVATION
 40
0.0
  9
$THICKNESS
 40
0.0
  9
$LIMCHECK
 70
     0
  9
$BLIPMODE
 70
     0
  9
$CHAMFERA
 40
0.0
  9
$CHAMFERB
 40
0.0
  9
$SKPOLY
 70
     0
  9
$TDCREATE
 40
2449840.6320370371
  9
$TDUPDATE
 40
2456598.4297479629
  9
$TDINDWG
 40
0.8645491551
  9
$TDUSRTIMER
 40
0.8645491551
  9
$USRTIMER
 70
     1
  9
$ANGBASE
 50
0.0
  9
$ANGDIR
 70
     0
  9
$PDMODE
 70
     0
  9
$PDSIZE
 40
0.0
  9
$PLINEWID
 40
0.0
  9
$COORDS
 70
     1
  9
$SPLFRAME
 70
     0
  9
$SPLINETYPE
 70
     6
  9
$SPLINESEGS
 70
     8
  9
$ATTDIA
 70
     0
  9
$ATTREQ
 70
     1
  9
$HANDLING
 70
     1
  9
$HANDSEED
  5
14FD6
  9
$SURFTAB1
 70
     6
  9
$SURFTAB2
 70
     6
  9
$SURFTYPE
 70
     6
  9
$SURFU
 70
     6
  9
$SURFV
 70
     6
  9
$UCSNAME
  2

  9
$UCSORG
 10
0.0
 20
0.0
 30
0.0
  9
$UCSXDIR
 10
1.0
 20
0.0
 30
0.0
  9
$UCSYDIR
 10
0.0
 20
1.0
 30
0.0
  9
$PUCSNAME
  2

  9
$PUCSORG
 10
0.0
 20
0.0
 30
0.0
  9
$PUCSXDIR
 10
1.0
 20
0.0
 30
0.0
  9
$PUCSYDIR
 10
0.0
 20
1.0
 30
0.0
  9
$USERI1
 70
     0
  9
$USERI2
 70
     1
  9
$USERI3
 70
     0
  9
$USERI4
 70
     0
  9
$USERI5
 70
     0
  9
$USERR1
 40
0.0
  9
$USERR2
 40
0.0
  9
$USERR3
 40
0.0
  9
$USERR4
 40
0.0
  9
$USERR5
 40
0.0
  9
$WORLDVIEW
 70
     1
  9
$SHADEDGE
 70
     3
  9
$SHADEDIF
 70
    70
  9
$TILEMODE
 70
     1
  9
$MAXACTVP
 70
    16
  9
$PLIMCHECK
 70
     0
  9
$PEXTMIN
 10
1.0000000000000000E+020
 20
1.0000000000000000E+020
 30
1.0000000000000000E+020
  9
$PEXTMAX
 10
-1.0000000000000000E+020
 20
-1.0000000000000000E+020
 30
-1.0000000000000000E+020
  9
$PLIMMIN
 10
0.0
 20
0.0
  9
$PLIMMAX
 10
12.0
 20
9.0
  9
$UNITMODE
 70
     0
  9
$VISRETAIN
 70
     0
  9
$PLINEGEN
 70
     0
  9
$PSLTSCALE
 70
     0
  0
ENDSEC
  0
SECTION
  2
TABLES
  0
TABLE
  2
VPORT
 70
     1
  0
VPORT
  2
*ACTIVE
 70
     0
 10
0.0
 20
0.0
 11
1.0
 21
1.0
 12
263.57141406075749
 22
199.61007210899149
 13
0.0
 23
0.0
 14
10.0
 24
10.0
 15
10.0
 25
10.0
 16
0.0
 26
0.0
 36
1.0
 17
0.0
 27
0.0
 37
0.0
 40
410.2633531758043
 41
2.304913294797688
 42
50.0
 43
0.0
 44
0.0
 50
0.0
 51
0.0
 71
     0
 72
   500
 73
     1
 74
     0
 75
     0
 76
     0
 77
     0
 78
     0
  0
ENDTAB
  0
TABLE
  2
LTYPE
 70
     3
  0
LTYPE
  2
CONTINUOUS
 70
     0
  3
Solid Line
 72
    65
 73
     0
 40
0.0
  0
LTYPE
  2
CENTER
 70
     0
  3
____ _ ____ _ ____ _ ____ _ ____ _ ____ _ ____
 72
    65
 73
     4
 40
2.0
 49
1.25
 49
-0.25
 49
0.25
 49
-0.25
  0
LTYPE
  2
PHANTOM2
 70
     0
  3
___ _ _ ___ _ _ ___ _ _ ___ _ _
 72
    65
 73
     6
 40
1.25
 49
0.625
 49
-0.125
 49
0.125
 49
-0.125
 49
0.125
 49
-0.125
  0
ENDTAB
  0
TABLE
  2
LAYER
 70
     4
  0
LAYER
  2
0
 70
     0
 62
     7
  6
CONTINUOUS
  0
LAYER
  2
1
 70
     0
 62
     1
  6
CENTER
  0
LAYER
  2
DEFPOINTS
 70
     0
 62
     7
  6
CONTINUOUS
  0
LAYER
  2
3
 70
     0
 62
     3
  6
CONTINUOUS
  0
ENDTAB
  0
TABLE
  2
STYLE
 70
     2
  0
STYLE
  2
STANDARD
 70
     0
 40
0.0
 41
1.0
 50
0.0
 71
     0
 42
6.0
  3
TXT
  4
BIGFONT
  0
STYLE
  2
STANDARD1
 70
     0
 40
0.0
 41
1.0
 50
0.0
 71
     0
 42
3.0
  3
txt
  4

  0
ENDTAB
  0
TABLE
  2
VIEW
 70
     1
  0
VIEW
  2
ALL
 70
     0
 40
270.0
 10
213.25689075630251
 20
135.0
 41
0.0
 11
0.0
 21
0.0
 31
1.0
 12
0.0
 22
0.0
 32
0.0
 42
0.0
 43
0.0
 44
0.0
 50
0.0
 71
     0
  0
ENDTAB
  0
TABLE
  2
UCS
 70
     0
  0
ENDTAB
  0
TABLE
  2
APPID
 70
     6
  0
APPID
  2
ACAD
 70
     0
  0
APPID
  2
ACAD_EXEMPT_FROM_CAD_STANDARDS
 70
     0
  0
APPID
  2
ACAD_MLEADERVER
 70
     0
  0
APPID
  2
ACAD_DSTYLE_DIMJAG
 70
     0
  0
APPID
  2
ACAD_DSTYLE_DIMTALN
 70
     0
  0
APPID
  2
ACAD_NAV_VCDISPLAY
 70
     0
  0
ENDTAB
  0
TABLE
  2
DIMSTYLE
 70
     1
  0
DIMSTYLE
  2
STANDARD
 70
     0
  3

  4

  5

  6

  7

 40
1.0
 41
0.18
 42
0.0625
 43
0.38
 44
0.18
 45
0.0
 46
0.0
 47
0.0
 48
0.0
140
0.18
141
0.09
142
0.0
143
25.399999999999999
144
1.0
145
0.0
146
1.0
147
0.09
 71
     0
 72
     0
 73
     1
 74
     1
 75
     0
 76
     0
 77
     0
 78
     0
170
     0
171
     2
172
     0
173
     0
174
     0
175
     0
176
     0
177
     0
178
     0
  0
ENDTAB
  0
ENDSEC
  0
SECTION
  2
BLOCKS
  0
BLOCK
  8
0
  2
$MODEL_SPACE
 70
     0
 10
0.0
 20
0.0
 30
0.0
  3
$MODEL_SPACE
  1

  0
ENDBLK
  5
126
  8
0
  0
BLOCK
 67
     1
  8
0
  2
$PAPER_SPACE
 70
     0
 10
0.0
 20
0.0
 30
0.0
  3
$PAPER_SPACE
  1

  0
ENDBLK
  5
124
 67
     1
  8
0
  0
ENDSEC
  0
SECTION
  2
ENTITIES
  0
LINE
  5
D362
  8
0
 10
301.94340536370879
 20
301.99999947100861
 30
0.0
 11
302.14340874925261
 21
302.20000006258471
 31
0.0
  0
LINE
  5
D363
  8
0
 10
302.14340874925261
 20
317.79999963939167
 30
0.0
 11
301.94340536370879
 21
318.00000023096783
 31
0.0
  0
LINE
  5
D364
  8
0
 10
300.34337827935821
 20
301.99999947100861
 30
0.0
 11
301.94340536370879
 21
301.99999947100861
 31
0.0
  0
LINE
  5
D365
  8
0
 10
301.94340536370879
 20
318.00000023096783
 30
0.0
 11
300.34337827935821
 21
318.00000023096783
 31
0.0
  0
POLYLINE
  5
D366
  8
0
 66
     1
 10
0.0
 20
0.0
 30
0.0
 70
   128
  0
VERTEX
  5
149B8
  8
0
 10
316.02367718805181
 20
229.54519670756989
 30
0.0
  0
VERTEX
  5
149B9
  8
0
 10
316.05290511623031
 20
229.55941155552841
 30
0.0
  0
VERTEX
  5
149BA
  8
0
 10
316.14307204261422
 20
229.599510580301
 30
0.0
  0
SEQEND
  5
149BB
  8
0
  0
POLYLINE
  5
D368
  8
0
 66
     1
 10
0.0
 20
0.0
 30
0.0
 70
   128
  0
VERTEX
  5
149BC
  8
0
 10
310.80815099781199
 20
271.85696478972977
 30
0.0
  0
VERTEX
  5
149BD
  8
0
 10
310.63952932134271
 20
269.99001324176771
 30
0.0
  0
VERTEX
  5
149BE
  8
0
 10
310.42830536141992
 20
267.56347090005852
 30
0.0
  0
VERTEX
  5
149BF
  8
0
 10
310.25021096739653
 20
265.48853626193181
 30
0.0
  0
SEQEND
  5
149C0
  8
0
  0
ARC
  5
D36A
  8
0
 10
319.78343317676217
 20
236.47313043786411
 30
0.0
 40
8.0526160129296116
 50
208.9350172753297
 51
234.75158409219739
  0
LINE
  5
D378
  8
0
 10
302.9374990798533
 20
314.00000004097802
 30
0.0
 11
302.14340874925261
 21
314.00000004097802
 31
0.0
  0
LINE
  5
D379
  8
0
 10
299.84337726607919
 20
300.00000007450558
 30
0.0
 11
300.34337827935821
 21
300.50000015646202
 31
0.0
  0
LINE
  5
D37A
  8
0
 10
300.34337827935821
 20
319.49999954551441
 30
0.0
 11
299.84337726607919
 21
319.9999996274708
 31
0.0
  0
LINE
  5
D37B
  8
0
 10
297.14282492175698
 20
300.00000007450558
 30
0.0
 11
299.84337726607919
 21
300.00000007450558
 31
0.0
  0
LINE
  5
D37C
  8
0
 10
299.84337726607919
 20
319.9999996274708
 30
0.0
 11
297.14282492175698
 21
319.9999996274708
 31
0.0
  0
LINE
  5
D37D
  8
0
 10
313.4211365319789
 20
308.74999987892789
 30
0.0
 11
314.86451515927911
 21
308.74999987892789
 31
0.0
  0
LINE
  5
D37E
  8
0
 10
315.586200747639
 20
309.99999985098822
 30
0.0
 11
314.86451515927911
 21
311.24999982304848
 31
0.0
  0
LINE
  5
D37F
  8
0
 10
314.86451515927911
 20
311.24999982304848
 30
0.0
 11
313.4211365319789
 21
311.24999982304848
 31
0.0
  0
LINE
  5
D380
  8
0
 10
312.69945094361901
 20
309.99999985098822
 30
0.0
 11
313.4211365319789
 21
308.74999987892789
 31
0.0
  0
LINE
  5
D382
  8
0
 10
313.4211365319789
 20
311.24999982304848
 30
0.0
 11
312.69945094361901
 21
309.99999985098822
 31
0.0
  0
LINE
  5
D383
  8
0
 10
314.86451515927911
 20
308.74999987892789
 30
0.0
 11
315.586200747639
 21
309.99999985098822
 31
0.0
  0
LINE
  5
D384
  8
0
 10
302.14340874925261
 20
317.7999996393915
 30
0.0
 11
302.14340874925261
 21
302.20000006258471
 31
0.0
  0
LINE
  5
D387
  8
0
 10
301.94340536370879
 20
301.99999947100861
 30
0.0
 11
301.94340536370879
 21
318.00000023096788
 31
0.0
  0
ARC
  5
D388
  8
0
 10
274.06516674593468
 20
320.22090169657099
 30
0.0
 40
0.6450074399938451
 50
90.04347165964468
 51
270.04357888580819
  0
LINE
  5
D389
  8
0
 10
274.06565735116601
 20
319.57589488476492
 30
0.0
 11
275.02801904454827
 21
319.57662597298599
 31
0.0
  0
LINE
  5
D38A
  8
0
 10
274.06728902831679
 20
317.425870131701
 30
0.0
 11
278.63850707188249
 21
317.4293430335818
 31
0.0
  0
ARC
  5
D38B
  8
0
 10
274.06516674593468
 20
320.22090169657099
 30
0.0
 40
2.7950322399721128
 50
90.043512900469779
 51
270.04353764497
  0
LINE
  5
D38C
  8
0
 10
278.6342602409423
 20
323.01940608769632
 30
0.0
 11
274.06304592266679
 21
323.01593318581558
 31
0.0
  0
LINE
  5
D38D
  8
0
 10
276.95175895467401
 20
320.86810216307617
 30
0.0
 11
278.63589191809302
 21
320.8693818002937
 31
0.0
  0
LINE
  5
D38E
  8
0
 10
276.9527424313128
 20
319.57808721810562
 30
0.0
 11
276.95175895467401
 21
320.86810216307617
 31
0.0
  0
LINE
  5
D38F
  8
0
 10
278.63687166944152
 20
319.57936685532309
 30
0.0
 11
276.9527424313128
 21
319.57808721810562
 31
0.0
  0
LINE
  5
D390
  8
0
 10
275.02801904454827
 20
319.57662597298599
 30
0.0
 11
275.02703929319978
 21
320.86663998663403
 31
0.0
  0
LINE
  5
D391
  8
0
 10
278.63589191809302
 20
320.8693818002937
 30
0.0
 11
278.6342602409423
 21
323.01940608769632
 31
0.0
  0
LINE
  5
D392
  8
0
 10
278.63850707188249
 20
317.4293430335818
 30
0.0
 11
278.63687166944152
 21
319.57936685532309
 31
0.0
  0
LINE
  5
D393
  8
0
 10
275.02703929319978
 20
320.86663998663403
 30
0.0
 11
274.06467759981751
 21
320.86590889841301
 31
0.0
  0
CIRCLE
  5
D394
  8
0
 10
275.02703848592949
 20
327.49510613566213
 30
0.0
 40
1.290014879987097
  0
CIRCLE
  5
D395
  8
0
 10
275.02703848592949
 20
327.49510613566213
 30
0.0
 40
3.6692039999999788
  0
LINE
  5
D396
  8
0
 10
277.39042678847909
 20
299.23713233321882
 30
0.0
 11
278.81438175216317
 21
299.23821359872801
 31
0.0
  0
LINE
  5
D397
  8
0
 10
273.12831098213792
 20
299.23389412462689
 30
0.0
 11
274.30795023217797
 21
299.23479005694372
 31
0.0
  0
LINE
  5
D398
  8
0
 10
274.31344131007791
 20
292.01070897281153
 30
0.0
 11
274.31282291188842
 21
292.82157614827139
 31
0.0
  0
LINE
  5
D399
  8
0
 10
274.80836847797042
 20
292.01108522713162
 30
0.0
 11
274.31344131007791
 21
292.01070897281153
 31
0.0
  0
ARC
  5
D39A
  8
0
 10
274.92222044151367
 20
294.14623513131562
 30
0.0
 40
2.1381833060541018
 50
266.94772457243488
 51
344.10813616549592
  0
LINE
  5
D39B
  8
0
 10
277.9024195112288
 20
293.5614541918037
 30
0.0
 11
276.97868162766099
 21
293.5607519745825
 31
0.0
  0
ARC
  5
D39C
  8
0
 10
274.97130560910819
 20
294.19452384524863
 30
0.0
 40
2.9987014733234041
 50
266.89703507055629
 51
347.81231478317028
  0
LINE
  5
D39D
  8
0
 10
274.80960154905921
 20
290.3893527388571
 30
0.0
 11
274.3146706558764
 21
290.3889764845369
 31
0.0
  0
LINE
  5
D39E
  8
0
 10
279.7316711582244
 20
293.56284372508497
 30
0.0
 11
278.81869191303849
 21
293.56215082108952
 31
0.0
  0
ARC
  5
D39F
  8
0
 10
268.67422782840822
 20
298.97537074975781
 30
0.0
 40
4.4985312950308067
 50
320.07115526315408
 51
352.00021456259373
  0
ARC
  5
D3A0
  8
0
 10
280.93220539255123
 20
298.61038059755009
 30
0.0
 40
4.498531295030598
 50
140.07115526315249
 51
172.00021456259191
  0
LINE
  5
D3A1
  8
0
 10
275.29780829325318
 20
299.23554256558401
 30
0.0
 11
276.47745126858359
 21
299.23643849790079
 31
0.0
  0
ARC
  5
D3A2
  8
0
 10
275.20557752273498
 20
298.92160435684411
 30
0.0
 40
3.6538891997954441
 50
329.729058316541
 51
351.05750239331599
  0
ARC
  5
D3A3
  8
0
 10
275.19211113835809
 20
298.64270585735659
 30
0.0
 40
3.670894932004833
 50
9.3360185736938348
 51
37.583819085590662
  0
ARC
  5
D3A4
  8
0
 10
274.80300001493202
 20
299.07799757138162
 30
0.0
 40
4.9492871999505139
 50
327.2463569769028
 51
212.84069356854519
  0
ARC
  5
D3A5
  8
0
 10
281.01359838299732
 20
298.6471282052305
 30
0.0
 40
3.6708949320048569
 50
142.50323145985971
 51
170.7510319717544
  0
LINE
  5
D3A6
  8
0
 10
278.81505230441689
 20
298.35363224148728
 30
0.0
 11
277.39110106602311
 21
298.3525509759782
 31
0.0
  0
ARC
  5
D3A7
  8
0
 10
275.02036037485323
 20
293.76029827686699
 30
0.0
 40
3.8591989789486951
 50
10.245676801443951
 51
93.212215486057872
  0
ARC
  5
D3A8
  8
0
 10
275.14282390847802
 20
293.59999985098818
 30
0.0
 40
4.7399138344492968
 50
47.233819826918399
 51
59.346264167636647
  0
ARC
  5
D3A9
  8
0
 10
280.9844783603603
 20
298.89038175936878
 30
0.0
 40
3.6334050091968511
 50
188.5124314108217
 51
199.499130843823
  0
LINE
  5
D3AA
  8
0
 10
274.30795023217797
 20
299.23479005694372
 30
0.0
 11
274.30556604638701
 21
302.37735880538798
 31
0.0
  0
ARC
  5
D3AB
  8
0
 10
280.8799099769044
 20
298.86178638443693
 30
0.0
 40
4.43122503647841
 50
186.6080300229203
 51
189.1650058665879
  0
ARC
  5
D3AC
  8
0
 10
268.67451217033158
 20
298.6010689248991
 30
0.0
 40
4.4985312950306611
 50
8.086835982856396
 51
40.015895282291282
  0
ARC
  5
D3AD
  8
0
 10
274.97240814785209
 20
298.41885142143838
 30
0.0
 40
3.9724141444700569
 50
50.810202446700927
 51
85.335888723185377
  0
LINE
  5
D3AE
  8
0
 10
275.29542038217193
 20
302.37811084836699
 30
0.0
 11
275.29780829325318
 21
299.23554256558401
 31
0.0
  0
ARC
  5
D3AF
  8
0
 10
274.94557578092639
 20
293.49554896428401
 30
0.0
 40
4.9144986940676034
 50
71.496483276654146
 51
81.129597981822414
  0
LINE
  5
D3B0
  8
0
 10
276.47812182083732
 20
298.35185714066012
 30
0.0
 11
275.70339182391763
 21
298.3512685447929
 31
0.0
  0
LINE
  5
D3B1
  8
0
 10
270.79138049855828
 20
299.23211902379973
 30
0.0
 11
272.21533173695212
 21
299.2332002893088
 31
0.0
  0
ARC
  5
D3B2
  8
0
 10
274.41455068716141
 20
298.64211517620163
 30
0.0
 40
3.6708949320048418
 50
142.5032314598599
 51
170.7510319717548
  0
ARC
  5
D3B3
  8
0
 10
268.59306344252218
 20
298.63769282832772
 30
0.0
 40
3.670894932004765
 50
9.3360185736938348
 51
37.583819085589042
  0
ARC
  5
D3B4
  8
0
 10
274.4143220826013
 20
298.94304548995149
 30
0.0
 40
3.6708949320048432
 50
189.33601857369541
 51
217.5838190855911
  0
LINE
  5
D3B5
  8
0
 10
272.21600601449609
 20
298.34861893206812
 30
0.0
 11
270.79205105081201
 21
298.34753766655899
 31
0.0
  0
ARC
  5
D3B6
  8
0
 10
268.59283483796207
 20
298.9386231420774
 30
0.0
 40
3.6708949320047939
 50
322.50323145985988
 51
350.75103197175491
  0
ARC
  5
D3B7
  8
0
 10
274.80685577532631
 20
294.00139321568849
 30
0.0
 40
1.1794421759882301
 50
270.04356074218799
 51
90.043445193018783
  0
LINE
  5
D3B8
  8
0
 10
274.31282291188842
 20
292.82157614827139
 30
0.0
 11
274.80775380507112
 21
292.82195053994627
 31
0.0
  0
LINE
  5
D3B9
  8
0
 10
278.81802136078483
 20
294.44673124700762
 30
0.0
 11
279.73099688068032
 21
294.44742508232571
 31
0.0
  0
ARC
  5
D3BA
  8
0
 10
274.6603428376348
 20
299.16853736909371
 30
0.0
 40
3.9903602024185152
 50
230.53217560829779
 51
272.09133621754643
  0
ARC
  5
D3BB
  8
0
 10
274.6345935301793
 20
298.4185947973674
 30
0.0
 40
3.9724141444699992
 50
94.751161822269779
 51
129.27684809874501
  0
ARC
  5
D3BC
  8
0
 10
275.01999382854183
 20
294.24281225763792
 30
0.0
 40
3.859198978948692
 50
266.87483505939662
 51
349.84137374400882
  0
LINE
  5
D3BD
  8
0
 10
274.31405598297721
 20
291.19984365999682
 30
0.0
 11
274.80898315086961
 21
291.20021805167181
 31
0.0
  0
LINE
  5
D3BE
  8
0
 10
274.3146706558764
 20
290.3889764845369
 30
0.0
 11
274.31405598297721
 21
291.19984365999682
 31
0.0
  0
ARC
  5
D3BF
  8
0
 10
275.29009029015788
 20
293.83288031863299
 30
0.0
 40
4.4832268969305664
 50
7.8787040467274636
 51
34.93670186527676
  0
LINE
  5
D3C0
  8
0
 10
273.1289815343917
 20
298.34931276738621
 30
0.0
 11
274.30862450972199
 21
298.35020869970299
 31
0.0
  0
ARC
  5
D3C1
  8
0
 10
274.8475796971602
 20
293.88518208046139
 30
0.0
 40
4.8947152082258381
 50
149.16608930843901
 51
356.22408712698513
  0
LINE
  5
D3C2
  8
0
 10
274.30918330326682
 20
297.61305756866909
 30
0.0
 11
274.80411419644952
 21
297.61343382298929
 31
0.0
  0
LINE
  5
D3C3
  8
0
 10
274.30862450972199
 20
298.35020869970299
 30
0.0
 11
274.30918330326682
 21
297.61305756866909
 31
0.0
  0
LINE
  5
D3C4
  8
0
 10
274.80472886934882
 20
296.80256757885201
 30
0.0
 11
274.30980170145631
 21
296.8021913245318
 31
0.0
  0
LINE
  5
D3C5
  8
0
 10
276.97801107540732
 20
294.44533333182312
 30
0.0
 11
277.90174895897508
 21
294.44603554904438
 31
0.0
  0
ARC
  5
D3C6
  8
0
 10
274.9224403693006
 20
293.85672674285172
 30
0.0
 40
2.138183306054001
 50
15.978914379949559
 51
93.139325973021144
  0
LINE
  5
D3C7
  8
0
 10
274.31041637435561
 20
295.99132508039452
 30
0.0
 11
274.80534354224801
 21
295.99170133471472
 31
0.0
  0
LINE
  5
D3C8
  8
0
 10
274.30980170145631
 20
296.8021913245318
 30
0.0
 11
274.31041637435561
 21
295.99132508039452
 31
0.0
  0
ARC
  5
D3C9
  8
0
 10
274.97159884615758
 20
293.80851266063303
 30
0.0
 40
2.9987014733234418
 50
12.27473576227657
 51
93.190015474887517
  0
ARC
  5
D3CA
  8
0
 10
273.93901701906088
 20
313.70675991123221
 30
0.0
 40
2.8620060885596188
 50
87.418080654148184
 51
215.39795309899731
  0
LINE
  5
D3CB
  8
0
 10
278.64177415147429
 20
313.12929445877649
 30
0.0
 11
274.07055610790849
 21
313.12582178972639
 31
0.0
  0
ARC
  5
D3CC
  8
0
 10
274.07268046606708
 20
310.33079047083299
 30
0.0
 40
0.64500743999357
 50
90.043525272713381
 51
270.04352527272641
  0
LINE
  5
D3CD
  8
0
 10
278.64438557997352
 20
309.68925577937603
 30
0.0
 11
274.07317126169801
 21
309.68578322674131
 31
0.0
  0
LINE
  5
D3CE
  8
0
 10
278.64601725712419
 20
307.53923163749261
 30
0.0
 11
278.64438557997352
 21
309.68925577937603
 31
0.0
  0
LINE
  5
D3CF
  8
0
 10
274.06957635655999
 20
314.41583650186641
 30
0.0
 11
278.6407944001258
 21
314.41930893808581
 31
0.0
  0
LINE
  5
D3D0
  8
0
 10
278.64340582862502
 20
310.97927028778918
 30
0.0
 11
278.64177415147429
 21
313.12929445877649
 31
0.0
  0
LINE
  5
D3D1
  8
0
 10
274.07219151034951
 20
310.9757977351544
 30
0.0
 11
278.64340582862502
 21
310.97927028778918
 31
0.0
  0
LINE
  5
D3D2
  8
0
 10
274.07480293884879
 20
307.53575896844251
 30
0.0
 11
278.64601725712419
 21
307.53923163749261
 31
0.0
  0
ARC
  5
D3D3
  8
0
 10
273.9415330866932
 20
310.39466053694241
 30
0.0
 40
2.8620060885596228
 50
144.6890974464516
 51
272.66896989130709
  0
LINE
  5
D3D4
  8
0
 10
278.63915899768472
 20
316.56933322548849
 30
0.0
 11
274.06794467940932
 21
316.56586078926898
 31
0.0
  0
LINE
  5
D3D5
  8
0
 10
278.6407944001258
 20
314.41930893808581
 30
0.0
 11
278.63915899768472
 21
316.56933322548849
 31
0.0
  0
ARC
  5
D3D6
  8
0
 10
274.07006720812518
 20
313.77082915820557
 30
0.0
 40
0.6450074399935698
 50
90.043525272726427
 51
270.04352527272641
  0
LINE
  5
D3D7
  8
0
 10
278.64667290821671
 20
306.6792218293993
 30
0.0
 11
270.94778308644891
 21
306.6733733564613
 31
0.0
  0
LINE
  5
D3D8
  8
0
 10
270.94941848888999
 20
304.52334906905872
 30
0.0
 11
278.6483045853675
 21
304.52919777482731
 31
0.0
  0
LINE
  5
D3D9
  8
0
 10
270.94778308644891
 20
306.6733733564613
 30
0.0
 11
270.94941848888999
 21
304.52334906905872
 31
0.0
  0
LINE
  5
D3DA
  8
0
 10
278.6483045853675
 20
304.52919777482731
 30
0.0
 11
278.64667290821671
 21
306.6792218293993
 31
0.0
  0
POLYLINE
  5
D3DF
  8
0
 66
     1
 10
0.0
 20
0.0
 30
0.0
 70
   128
  0
VERTEX
  5
149C1
  8
0
 10
322.0627073384822
 20
297.26126164197899
 30
0.0
  0
VERTEX
  5
149C2
  8
0
 10
321.62269094958901
 20
292.23187573254091
 30
0.0
  0
VERTEX
  5
149C3
  8
0
 10
321.18591556325561
 20
287.23952665924998
 30
0.0
  0
VERTEX
  5
149C4
  8
0
 10
320.75513789430261
 20
282.3156372457741
 30
0.0
  0
VERTEX
  5
149C5
  8
0
 10
320.32955328002572
 20
277.4512034654615
 30
0.0
  0
VERTEX
  5
149C6
  8
0
 10
319.9078131653369
 20
272.63072624802572
 30
0.0
  0
VERTEX
  5
149C7
  8
0
 10
319.48918739333749
 20
267.84578830003721
 30
0.0
  0
VERTEX
  5
149C8
  8
0
 10
319.02255753055221
 20
262.51221939921362
 30
0.0
  0
VERTEX
  5
149C9
  8
0
 10
318.5553539730609
 20
257.1720492839811
 30
0.0
  0
VERTEX
  5
149CA
  8
0
 10
318.0833075381816
 20
251.77651390433289
 30
0.0
  0
VERTEX
  5
149CB
  8
0
 10
317.89558270946151
 20
249.63079139590241
 30
0.0
  0
VERTEX
  5
149CC
  8
0
 10
317.70614424720412
 20
247.46549621224381
 30
0.0
  0
VERTEX
  5
149CD
  8
0
 10
317.51469412818551
 20
245.27724578976611
 30
0.0
  0
VERTEX
  5
149CE
  8
0
 10
317.32147077098489
 20
243.06869998574231
 30
0.0
  0
VERTEX
  5
149CF
  8
0
 10
317.12682435289031
 20
240.84388211369489
 30
0.0
  0
VERTEX
  5
149D0
  8
0
 10
316.9204879738391
 20
238.48543062806101
 30
0.0
  0
SEQEND
  5
149D1
  8
0
  0
POLYLINE
  5
D3E0
  8
0
 66
     1
 10
0.0
 20
0.0
 30
0.0
 70
   128
  0
VERTEX
  5
149D2
  8
0
 10
316.92038366571069
 20
238.48574355244611
 30
0.0
  0
VERTEX
  5
149D3
  8
0
 10
317.14989135041839
 20
241.3700942695138
 30
0.0
  0
VERTEX
  5
149D4
  8
0
 10
317.3322443105281
 20
244.2391265928743
 30
0.0
  0
VERTEX
  5
149D5
  8
0
 10
317.46902951970702
 20
247.1004326641557
 30
0.0
  0
VERTEX
  5
149D6
  8
0
 10
317.560969684273
 20
249.96477857232071
 30
0.0
  0
VERTEX
  5
149D7
  8
0
 10
317.60788599029189
 20
252.83263742923711
 30
0.0
  0
VERTEX
  5
149D8
  8
0
 10
317.6095698215068
 20
255.70417687296839
 30
0.0
  0
VERTEX
  5
149D9
  8
0
 10
317.52034166827798
 20
260.22408649325348
 30
0.0
  0
VERTEX
  5
149DA
  8
0
 10
317.31812546029693
 20
264.7528921067713
 30
0.0
  0
VERTEX
  5
149DB
  8
0
 10
317.00193027034402
 20
269.29229989647843
 30
0.0
  0
VERTEX
  5
149DC
  8
0
 10
316.64335617795592
 20
273.1529709696768
 30
0.0
  0
VERTEX
  5
149DD
  8
0
 10
316.20456168428069
 20
276.99147656559921
 30
0.0
  0
VERTEX
  5
149DE
  8
0
 10
315.69123158231378
 20
280.80955266952492
 30
0.0
  0
VERTEX
  5
149DF
  8
0
 10
315.0166411139071
 20
284.58488292992092
 30
0.0
  0
VERTEX
  5
149E0
  8
0
 10
314.3767479993403
 20
287.06652231514431
 30
0.0
  0
VERTEX
  5
149E1
  8
0
 10
313.54551652446389
 20
289.497676566243
 30
0.0
  0
VERTEX
  5
149E2
  8
0
 10
312.51180807128549
 20
291.85051031410671
 30
0.0
  0
VERTEX
  5
149E3
  8
0
 10
311.2958062626422
 20
294.12086427211739
 30
0.0
  0
VERTEX
  5
149E4
  8
0
 10
309.93524828925729
 20
296.31782721728069
 30
0.0
  0
VERTEX
  5
149E5
  8
0
 10
308.46806505694991
 20
298.45063880085922
 30
0.0
  0
SEQEND
  5
149E6
  8
0
  0
POLYLINE
  5
D3E2
  8
0
 66
     1
 10
0.0
 20
0.0
 30
0.0
 70
   128
  0
VERTEX
  5
149E7
  8
0
 10
303.84312460198998
 20
302.06206560134871
 30
0.0
  0
VERTEX
  5
149E8
  8
0
 10
304.6062652207911
 20
301.5282445400951
 30
0.0
  0
VERTEX
  5
149E9
  8
0
 10
305.54515758529311
 20
301.0301676392553
 30
0.0
  0
VERTEX
  5
149EA
  8
0
 10
306.40771130099893
 20
300.5636206641791
 30
0.0
  0
VERTEX
  5
149EB
  8
0
 10
306.7422498203814
 20
300.35111520439369
 30
0.0
  0
VERTEX
  5
149EC
  8
0
 10
307.03440943732858
 20
300.1381319761274
 30
0.0
  0
VERTEX
  5
149ED
  8
0
 10
307.3246468044818
 20
299.88728955388052
 30
0.0
  0
VERTEX
  5
149EE
  8
0
 10
307.57165590301162
 20
299.62551433593012
 30
0.0
  0
VERTEX
  5
149EF
  8
0
 10
307.8445110656321
 20
299.28496878594137
 30
0.0
  0
VERTEX
  5
149F0
  8
0
 10
308.17701557651162
 20
298.84857431054093
 30
0.0
  0
VERTEX
  5
149F1
  8
0
 10
308.46806505694991
 20
298.45063880085922
 30
0.0
  0
SEQEND
  5
149F2
  8
0
  0
POLYLINE
  5
D3EB
  8
0
 66
     1
 10
0.0
 20
0.0
 30
0.0
 70
   128
  0
VERTEX
  5
149F3
  8
0
 10
322.0627073384822
 20
297.26126164197899
 30
0.0
  0
VERTEX
  5
149F4
  8
0
 10
322.3930735327304
 20
299.47278022766091
 30
0.0
  0
VERTEX
  5
149F5
  8
0
 10
322.91822770610452
 20
301.66725747287251
 30
0.0
  0
VERTEX
  5
149F6
  8
0
 10
323.52278271690011
 20
303.85478798300011
 30
0.0
  0
VERTEX
  5
149F7
  8
0
 10
324.18031880632037
 20
306.43775875680132
 30
0.0
  0
VERTEX
  5
149F8
  8
0
 10
324.59902653470641
 20
309.0416236943563
 30
0.0
  0
SEQEND
  5
149F9
  8
0
  0
POLYLINE
  5
D3ED
  8
0
 66
     1
 10
0.0
 20
0.0
 30
0.0
 70
   128
  0
VERTEX
  5
149FA
  8
0
 10
318.30281654372811
 20
231.3381035625932
 30
0.0
  0
VERTEX
  5
149FB
  8
0
 10
318.31760594621301
 20
231.50713488459559
 30
0.0
  0
VERTEX
  5
149FC
  8
0
 10
318.35669914260512
 20
231.95392385125129
 30
0.0
  0
VERTEX
  5
149FD
  8
0
 10
318.41283926740289
 20
232.5956423580644
 30
0.0
  0
VERTEX
  5
149FE
  8
0
 10
318.48150381818419
 20
233.38052377104731
 30
0.0
  0
VERTEX
  5
149FF
  8
0
 10
318.58666131272912
 20
234.58244398236249
 30
0.0
  0
VERTEX
  5
14A00
  8
0
 10
318.70270410552621
 20
235.90882614254929
 30
0.0
  0
VERTEX
  5
14A01
  8
0
 10
318.82513949647551
 20
237.3082388937471
 30
0.0
  0
VERTEX
  5
14A02
  8
0
 10
318.97494832053781
 20
239.02060583233811
 30
0.0
  0
VERTEX
  5
14A03
  8
0
 10
319.12474224343902
 20
240.7327418029306
 30
0.0
  0
VERTEX
  5
14A04
  8
0
 10
319.27391776815062
 20
242.43784442543961
 30
0.0
  0
VERTEX
  5
14A05
  8
0
 10
319.42283252254128
 20
244.13990721106501
 30
0.0
  0
VERTEX
  5
14A06
  8
0
 10
319.57166532054549
 20
245.84112808108301
 30
0.0
  0
VERTEX
  5
14A07
  8
0
 10
319.9889648891986
 20
250.61084449291201
 30
0.0
  0
VERTEX
  5
14A08
  8
0
 10
320.4072479344905
 20
255.39186343550659
 30
0.0
  0
VERTEX
  5
14A09
  8
0
 10
320.8262462355197
 20
260.18105193972571
 30
0.0
  0
VERTEX
  5
14A0A
  8
0
 10
321.24563196673989
 20
264.9745990335939
 30
0.0
  0
VERTEX
  5
14A0B
  8
0
 10
321.66533062234521
 20
269.77183416485769
 30
0.0
  0
VERTEX
  5
14A0C
  8
0
 10
322.08472380414611
 20
274.56548184156401
 30
0.0
  0
VERTEX
  5
14A0D
  8
0
 10
322.47933635488153
 20
279.07592549920059
 30
0.0
  0
VERTEX
  5
14A0E
  8
0
 10
322.8718925453723
 20
283.56282718479611
 30
0.0
  0
VERTEX
  5
14A0F
  8
0
 10
323.26479146257037
 20
288.05372983217222
 30
0.0
  0
VERTEX
  5
14A10
  8
0
 10
323.65945616737008
 20
292.56472110748268
 30
0.0
  0
VERTEX
  5
14A11
  8
0
 10
324.05509689822799
 20
297.08695065230108
 30
0.0
  0
SEQEND
  5
14A12
  8
0
  0
ARC
  5
D3EE
  8
0
 10
316.31042825698711
 20
231.51241171511191
 30
0.0
 40
1.999999999999966
 50
264.99999999975171
 51
354.99999999974852
  0
POLYLINE
  5
D3EF
  8
0
 66
     1
 10
0.0
 20
0.0
 30
0.0
 70
   128
  0
VERTEX
  5
14A13
  8
0
 10
316.9204879738391
 20
238.48543062806101
 30
0.0
  0
VERTEX
  5
14A14
  8
0
 10
316.7935822345317
 20
237.03487709164591
 30
0.0
  0
VERTEX
  5
14A15
  8
0
 10
316.65958354249602
 20
235.5032910406587
 30
0.0
  0
VERTEX
  5
14A16
  8
0
 10
316.5317539311946
 20
234.0421427786348
 30
0.0
  0
VERTEX
  5
14A17
  8
0
 10
316.41416886821389
 20
232.6981548964975
 30
0.0
  0
VERTEX
  5
14A18
  8
0
 10
316.3091678358615
 20
231.4980451762674
 30
0.0
  0
VERTEX
  5
14A19
  8
0
 10
316.22142979875213
 20
230.495167225599
 30
0.0
  0
VERTEX
  5
14A1A
  8
0
 10
316.18678459897637
 20
230.09916141629191
 30
0.0
  0
VERTEX
  5
14A1B
  8
0
 10
316.15978369489312
 20
229.79053601622559
 30
0.0
  0
VERTEX
  5
14A1C
  8
0
 10
316.14307204261422
 20
229.599510580301
 30
0.0
  0
SEQEND
  5
14A1D
  8
0
  0
POLYLINE
  5
D3F1
  8
0
 66
     1
 10
0.0
 20
0.0
 30
0.0
 70
   128
  0
VERTEX
  5
14A1E
  8
0
 10
324.76800570264459
 20
312.84700942225732
 30
0.0
  0
VERTEX
  5
14A1F
  8
0
 10
324.9544639326632
 20
310.7158046611583
 30
0.0
  0
VERTEX
  5
14A20
  8
0
 10
325.10096469894052
 20
309.04128667199961
 30
0.0
  0
SEQEND
  5
14A21
  8
0
  0
ARC
  5
D3F2
  8
0
 10
325.05476511497142
 20
614.01121149673463
 30
0.0
 40
304.96992832409887
 50
269.91437874851329
 51
270.00867967934772
  0
POLYLINE
  5
D3F4
  8
0
 66
     1
 10
0.0
 20
0.0
 30
0.0
 70
   128
  0
VERTEX
  5
14A22
  8
0
 10
315.16327599063521
 20
229.87410917878131
 30
0.0
  0
VERTEX
  5
14A23
  8
0
 10
315.61843940988189
 20
229.63593646883939
 30
0.0
  0
VERTEX
  5
14A24
  8
0
 10
316.13611320033669
 20
229.52002033591251
 30
0.0
  0
SEQEND
  5
14A25
  8
0
  0
POLYLINE
  5
D3F5
  8
0
 66
     1
 10
0.0
 20
0.0
 30
0.0
 70
   128
  0
VERTEX
  5
14A26
  8
0
 10
306.45165482535958
 20
298.62705178558809
 30
0.0
  0
VERTEX
  5
14A27
  8
0
 10
307.82154092565179
 20
296.73886511474831
 30
0.0
  0
VERTEX
  5
14A28
  8
0
 10
308.9997161366046
 20
294.730643071234
 30
0.0
  0
VERTEX
  5
14A29
  8
0
 10
309.9774930812419
 20
292.62385450303532
 30
0.0
  0
VERTEX
  5
14A2A
  8
0
 10
310.74618438258773
 20
290.4399719834326
 30
0.0
  0
VERTEX
  5
14A2B
  8
0
 10
311.29825005307799
 20
288.19979473948462
 30
0.0
  0
VERTEX
  5
14A2C
  8
0
 10
311.63067260757089
 20
285.92143140733219
 30
0.0
  0
VERTEX
  5
14A2D
  8
0
 10
311.74066552892327
 20
283.62235173583008
 30
0.0
  0
VERTEX
  5
14A2E
  8
0
 10
311.63626054301858
 20
281.31721660494782
 30
0.0
  0
VERTEX
  5
14A2F
  8
0
 10
311.32963934913278
 20
277.8495375812052
 30
0.0
  0
VERTEX
  5
14A30
  8
0
 10
311.02906057611108
 20
274.35812845826132
 30
0.0
  0
VERTEX
  5
14A31
  8
0
 10
310.80815086141229
 20
271.85696482658369
 30
0.0
  0
SEQEND
  5
14A32
  8
0
  0
POLYLINE
  5
D3F7
  8
0
 66
     1
 10
0.0
 20
0.0
 30
0.0
 70
   128
  0
VERTEX
  5
14A33
  8
0
 10
312.55948895802112
 20
256.38314830783338
 30
0.0
  0
VERTEX
  5
14A34
  8
0
 10
312.90979573503142
 20
254.89787876605959
 30
0.0
  0
VERTEX
  5
14A35
  8
0
 10
313.2864672876895
 20
252.94555470347379
 30
0.0
  0
VERTEX
  5
14A36
  8
0
 10
313.57056537643081
 20
250.48582002520541
 30
0.0
  0
VERTEX
  5
14A37
  8
0
 10
313.64886352792382
 20
248.0156694352624
 30
0.0
  0
VERTEX
  5
14A38
  8
0
 10
313.52319458499551
 20
245.5469568073747
 30
0.0
  0
VERTEX
  5
14A39
  8
0
 10
313.17888835445052
 20
243.03912863135309
 30
0.0
  0
VERTEX
  5
14A3A
  8
0
 10
312.83188501372939
 20
241.37715741991971
 30
0.0
  0
VERTEX
  5
14A3B
  8
0
 10
312.43269035592681
 20
239.8682658374307
 30
0.0
  0
VERTEX
  5
14A3C
  8
0
 10
312.03859189525252
 20
238.5449235141275
 30
0.0
  0
VERTEX
  5
14A3D
  8
0
 10
311.8318159319461
 20
237.59588345885251
 30
0.0
  0
VERTEX
  5
14A3E
  8
0
 10
311.74634287133819
 20
236.6579298675058
 30
0.0
  0
VERTEX
  5
14A3F
  8
0
 10
311.77497545257211
 20
235.74388518929459
 30
0.0
  0
VERTEX
  5
14A40
  8
0
 10
311.90176943317061
 20
234.86969366669629
 30
0.0
  0
VERTEX
  5
14A41
  8
0
 10
312.11167464032769
 20
234.04879614710779
 30
0.0
  0
VERTEX
  5
14A42
  8
0
 10
312.3931054212153
 20
233.2846944034097
 30
0.0
  0
VERTEX
  5
14A43
  8
0
 10
312.73603329434991
 20
232.57713511586161
 30
0.0
  0
SEQEND
  5
14A44
  8
0
  0
LINE
  5
D3F8
  8
0
 10
315.1360863930268
 20
229.89690108333309
 30
0.0
 11
315.16327599063521
 21
229.87410917878131
 31
0.0
  0
POLYLINE
  5
D3FA
  8
0
 66
     1
 10
0.0
 20
0.0
 30
0.0
 70
   128
  0
VERTEX
  5
14A45
  8
0
 10
325.10096469894052
 20
309.04128667199961
 30
0.0
  0
VERTEX
  5
14A46
  8
0
 10
324.90573713555932
 20
306.80981048382802
 30
0.0
  0
VERTEX
  5
14A47
  8
0
 10
324.71050957217813
 20
304.57833435386402
 30
0.0
  0
VERTEX
  5
14A48
  8
0
 10
324.51528200879699
 20
302.34685845673062
 30
0.0
  0
VERTEX
  5
14A49
  8
0
 10
324.28518572822219
 20
299.71690408885462
 30
0.0
  0
VERTEX
  5
14A4A
  8
0
 10
324.05509689822799
 20
297.08695065230108
 30
0.0
  0
SEQEND
  5
14A4B
  8
0
  0
ARC
  5
D3FB
  8
0
 10
287.74137643219962
 20
283.59673472818832
 30
0.0
 40
23.999686422857671
 50
38.775565309804378
 51
48.911616033269141
  0
POLYLINE
  5
D3FC
  8
0
 66
     1
 10
0.0
 20
0.0
 30
0.0
 70
   128
  0
VERTEX
  5
14A4C
  8
0
 10
303.51450929418212
 20
301.68521802872402
 30
0.0
  0
VERTEX
  5
14A4D
  8
0
 10
303.53758374229079
 20
301.71167690306879
 30
0.0
  0
VERTEX
  5
14A4E
  8
0
 10
303.568078968674
 20
301.74664527177788
 30
0.0
  0
VERTEX
  5
14A4F
  8
0
 10
303.61076334491372
 20
301.79559372365452
 30
0.0
  0
VERTEX
  5
14A50
  8
0
 10
303.66330483928323
 20
301.8558502942322
 30
0.0
  0
VERTEX
  5
14A51
  8
0
 10
303.72216442599893
 20
301.9233497604726
 30
0.0
  0
VERTEX
  5
14A52
  8
0
 10
303.84312460198998
 20
302.06206560134871
 30
0.0
  0
SEQEND
  5
14A53
  8
0
  0
POLYLINE
  5
D400
  8
0
 66
     1
 10
0.0
 20
0.0
 30
0.0
 70
   128
  0
VERTEX
  5
14A54
  8
0
 10
315.1015404798091
 20
320.95814149826742
 30
0.0
  0
VERTEX
  5
14A55
  8
0
 10
317.16798881068831
 20
320.40443856269098
 30
0.0
  0
VERTEX
  5
14A56
  8
0
 10
318.79162678495049
 20
319.96938519179798
 30
0.0
  0
SEQEND
  5
14A57
  8
0
  0
ARC
  5
D403
  8
0
 10
313.9043297670155
 20
309.67984998867121
 30
0.0
 40
11.794629106367189
 50
113.33694750657899
 51
173.349496906838
  0
ARC
  5
D406
  8
0
 10
312.9939247673787
 20
309.9107577655646
 30
0.0
 40
11.24663199935296
 50
79.198926301013714
 51
109.5415612902537
  0
ARC
  5
D407
  8
0
 10
314.14283966610901
 20
310.00001732739088
 30
0.0
 40
10.99997805871344
 50
14.999936787213411
 51
65.00002579058436
  0
LINE
  5
D408
  8
0
 10
302.14340874925261
 20
309.99999985098822
 30
0.0
 11
302.18906590715051
 21
311.04581794235833
 31
0.0
  0
ARC
  5
D409
  8
0
 10
306.14340928978118
 20
304.6999964844951
 30
0.0
 40
4.0000005405304577
 50
179.99994954806101
 51
228.91142949916761
  0
CIRCLE
  5
D40A
  8
0
 10
314.14282390847802
 20
309.99999985098822
 30
0.0
 40
7.5000000000000471
  0
CIRCLE
  5
D40F
  8
0
 10
314.14282390847802
 20
309.99999985098822
 30
0.0
 40
7.5
  0
CIRCLE
  5
D410
  8
0
 10
314.14282390847802
 20
309.99999985098822
 30
0.0
 40
7.0
  0
LINE
  5
D413
  8
0
 10
230.00000074505809
 20
282.00000108219672
 30
0.0
 11
232.00000084005299
 21
280.00000052154041
 31
0.0
  0
LINE
  5
D416
  8
0
 10
231.00000090897089
 20
338.99999901652319
 30
0.0
 11
231.00000090897089
 21
281.0000006854533
 31
0.0
  0
LINE
  5
D417
  8
0
 10
232.00000084005299
 20
339.99999918043591
 30
0.0
 11
230.00000074505809
 21
337.9999986197796
 31
0.0
  0
LINE
  5
D419
  8
0
 10
230.00000074505809
 20
319.9999996274708
 30
0.0
 11
230.00000074505809
 21
338.00000071525551
 31
0.0
  0
LINE
  5
D41B
  8
0
 10
231.00000090897089
 20
318.99999946355803
 30
0.0
 11
230.00000074505809
 21
319.9999996274708
 31
0.0
  0
LINE
  5
D41C
  8
0
 10
230.00000074505809
 20
281.99999898672081
 30
0.0
 11
230.00000074505809
 21
300.00000007450558
 31
0.0
  0
LINE
  5
D41D
  8
0
 10
230.00000074505809
 20
300.00000007450558
 30
0.0
 11
231.00000090897089
 21
301.00000023841841
 31
0.0
  0
LINE
  5
D41F
  8
0
 10
299.84337726607919
 20
300.00000007450558
 30
0.0
 11
299.84337726607919
 21
319.9999996274708
 31
0.0
  0
LINE
  5
D420
  8
0
 10
300.34337827935821
 20
319.49999954551441
 30
0.0
 11
300.34337827935821
 21
300.50000015646202
 31
0.0
  0
ARC
  5
D42B
  8
0
 10
275.14282390847802
 20
324.99999985098822
 30
0.0
 40
7.250000000000056
 50
0.0
 51
180.0
  0
LINE
  5
D42C
  8
0
 10
267.89282524958259
 20
324.99999951571209
 30
0.0
 11
267.89282524958259
 21
295.00000018626429
 31
0.0
  0
LINE
  5
D42D
  8
0
 10
282.39282483235002
 20
295.00000018626429
 30
0.0
 11
282.39282483235002
 21
324.99999951571209
 31
0.0
  0
ARC
  5
D42E
  8
0
 10
275.14282390847802
 20
294.9999998509881
 30
0.0
 40
7.250000000000056
 50
180.0
 51
0.0
  0
LINE
  5
D42F
  8
0
 10
246.36702222749591
 20
335.90192280709721
 30
0.0
 11
284.0088483132422
 21
335.90192280709721
 31
0.0
  0
POLYLINE
  5
D432
  8
0
 10
244.31490159130172
 20
336.5286563088556
 30
0.0
 66
     1
 70
     8
  0
VERTEX
  8
0
  5
14CCA
 10
244.315
 20
336.529
 30
0.000000
  70
    32
  0
VERTEX
  8
0
  5
14CCB
 10
244.330
 20
336.519
 30
0.000000
  70
    32
  0
VERTEX
  8
0
  5
14CCC
 10
244.346
 20
336.509
 30
0.000000
  70
    32
  0
VERTEX
  8
0
  5
14CCD
 10
244.361
 20
336.500
 30
0.000000
  70
    32
  0
VERTEX
  8
0
  5
14CCE
 10
244.377
 20
336.490
 30
0.000000
  70
    32
  0
VERTEX
  8
0
  5
14CCF
 10
244.392
 20
336.481
 30
0.000000
  70
    32
  0
VERTEX
  8
0
  5
14CD0
 10
244.407
 20
336.472
 30
0.000000
  70
    32
  0
VERTEX
  8
0
  5
14CD1
 10
244.423
 20
336.463
 30
0.000000
  70
    32
  0
VERTEX
  8
0
  5
14CD2
 10
244.438
 20
336.453
 30
0.000000
  70
    32
  0
VERTEX
  8
0
  5
14CD3
 10
244.454
 20
336.444
 30
0.000000
  70
    32
  0
VERTEX
  8
0
  5
14CD4
 10
244.469
 20
336.435
 30
0.000000
  70
    32
  0
VERTEX
  8
0
  5
14CD5
 10
244.485
 20
336.426
 30
0.000000
  70
    32
  0
VERTEX
  8
0
  5
14CD6
 10
244.500
 20
336.418
 30
0.000000
  70
    32
  0
VERTEX
  8
0
  5
14CD7
 10
244.516
 20
336.409
 30
0.000000
  70
    32
  0
VERTEX
  8
0
  5
14CD8
 10
244.532
 20
336.400
 30
0.000000
  70
    32
  0
VERTEX
  8
0
  5
14CD9
 10
244.547
 20
336.391
 30
0.000000
  70
    32
  0
VERTEX
  8
0
  5
14CDA
 10
244.563
 20
336.383
 30
0.000000
  70
    32
  0
VERTEX
  8
0
  5
14CDB
 10
244.578
 20
336.374
 30
0.000000
  70
    32
  0
VERTEX
  8
0
  5
14CDC
 10
244.594
 20
336.366
 30
0.000000
  70
    32
  0
VERTEX
  8
0
  5
14CDD
 10
244.610
 20
336.358
 30
0.000000
  70
    32
  0
VERTEX
  8
0
  5
14CDE
 10
244.625
 20
336.349
 30
0.000000
  70
    32
  0
VERTEX
  8
0
  5
14CDF
 10
244.641
 20
336.341
 30
0.000000
  70
    32
  0
VERTEX
  8
0
  5
14CE0
 10
244.657
 20
336.333
 30
0.000000
  70
    32
  0
VERTEX
  8
0
  5
14CE1
 10
244.672
 20
336.325
 30
0.000000
  70
    32
  0
VERTEX
  8
0
  5
14CE2
 10
244.688
 20
336.317
 30
0.000000
  70
    32
  0
VERTEX
  8
0
  5
14CE3
 10
244.704
 20
336.309
 30
0.000000
  70
    32
  0
VERTEX
  8
0
  5
14CE4
 10
244.719
 20
336.301
 30
0.000000
  70
    32
  0
VERTEX
  8
0
  5
14CE5
 10
244.735
 20
336.294
 30
0.000000
  70
    32
  0
VERTEX
  8
0
  5
14CE6
 10
244.751
 20
336.286
 30
0.000000
  70
    32
  0
VERTEX
  8
0
  5
14CE7
 10
244.767
 20
336.278
 30
0.000000
  70
    32
  0
VERTEX
  8
0
  5
14CE8
 10
244.783
 20
336.271
 30
0.000000
  70
    32
  0
VERTEX
  8
0
  5
14CE9
 10
244.798
 20
336.263
 30
0.000000
  70
    32
  0
VERTEX
  8
0
  5
14CEA
 10
244.814
 20
336.256
 30
0.000000
  70
    32
  0
VERTEX
  8
0
  5
14CEB
 10
244.830
 20
336.249
 30
0.000000
  70
    32
  0
VERTEX
  8
0
  5
14CEC
 10
244.846
 20
336.242
 30
0.000000
  70
    32
  0
VERTEX
  8
0
  5
14CED
 10
244.862
 20
336.234
 30
0.000000
  70
    32
  0
VERTEX
  8
0
  5
14CEE
 10
244.877
 20
336.227
 30
0.000000
  70
    32
  0
VERTEX
  8
0
  5
14CEF
 10
244.893
 20
336.220
 30
0.000000
  70
    32
  0
VERTEX
  8
0
  5
14CF0
 10
244.909
 20
336.213
 30
0.000000
  70
    32
  0
VERTEX
  8
0
  5
14CF1
 10
244.925
 20
336.207
 30
0.000000
  70
    32
  0
VERTEX
  8
0
  5
14CF2
 10
244.941
 20
336.200
 30
0.000000
  70
    32
  0
VERTEX
  8
0
  5
14CF3
 10
244.957
 20
336.193
 30
0.000000
  70
    32
  0
VERTEX
  8
0
  5
14CF4
 10
244.973
 20
336.186
 30
0.000000
  70
    32
  0
VERTEX
  8
0
  5
14CF5
 10
244.989
 20
336.180
 30
0.000000
  70
    32
  0
VERTEX
  8
0
  5
14CF6
 10
245.005
 20
336.173
 30
0.000000
  70
    32
  0
VERTEX
  8
0
  5
14CF7
 10
245.021
 20
336.167
 30
0.000000
  70
    32
  0
VERTEX
  8
0
  5
14CF8
 10
245.036
 20
336.161
 30
0.000000
  70
    32
  0
VERTEX
  8
0
  5
14CF9
 10
245.052
 20
336.154
 30
0.000000
  70
    32
  0
VERTEX
  8
0
  5
14CFA
 10
245.068
 20
336.148
 30
0.000000
  70
    32
  0
VERTEX
  8
0
  5
14CFB
 10
245.084
 20
336.142
 30
0.000000
  70
    32
  0
VERTEX
  8
0
  5
14CFC
 10
245.100
 20
336.136
 30
0.000000
  70
    32
  0
VERTEX
  8
0
  5
14CFD
 10
245.116
 20
336.130
 30
0.000000
  70
    32
  0
VERTEX
  8
0
  5
14CFE
 10
245.132
 20
336.124
 30
0.000000
  70
    32
  0
VERTEX
  8
0
  5
14CFF
 10
245.148
 20
336.119
 30
0.000000
  70
    32
  0
VERTEX
  8
0
  5
14D00
 10
245.164
 20
336.113
 30
0.000000
  70
    32
  0
VERTEX
  8
0
  5
14D01
 10
245.180
 20
336.107
 30
0.000000
  70
    32
  0
VERTEX
  8
0
  5
14D02
 10
245.196
 20
336.102
 30
0.000000
  70
    32
  0
VERTEX
  8
0
  5
14D03
 10
245.213
 20
336.096
 30
0.000000
  70
    32
  0
VERTEX
  8
0
  5
14D04
 10
245.229
 20
336.091
 30
0.000000
  70
    32
  0
VERTEX
  8
0
  5
14D05
 10
245.245
 20
336.085
 30
0.000000
  70
    32
  0
VERTEX
  8
0
  5
14D06
 10
245.261
 20
336.080
 30
0.000000
  70
    32
  0
VERTEX
  8
0
  5
14D07
 10
245.277
 20
336.075
 30
0.000000
  70
    32
  0
VERTEX
  8
0
  5
14D08
 10
245.293
 20
336.070
 30
0.000000
  70
    32
  0
VERTEX
  8
0
  5
14D09
 10
245.309
 20
336.065
 30
0.000000
  70
    32
  0
VERTEX
  8
0
  5
14D0A
 10
245.325
 20
336.060
 30
0.000000
  70
    32
  0
VERTEX
  8
0
  5
14D0B
 10
245.341
 20
336.055
 30
0.000000
  70
    32
  0
VERTEX
  8
0
  5
14D0C
 10
245.357
 20
336.050
 30
0.000000
  70
    32
  0
VERTEX
  8
0
  5
14D0D
 10
245.374
 20
336.045
 30
0.000000
  70
    32
  0
VERTEX
  8
0
  5
14D0E
 10
245.390
 20
336.041
 30
0.000000
  70
    32
  0
VERTEX
  8
0
  5
14D0F
 10
245.406
 20
336.036
 30
0.000000
  70
    32
  0
VERTEX
  8
0
  5
14D10
 10
245.422
 20
336.032
 30
0.000000
  70
    32
  0
VERTEX
  8
0
  5
14D11
 10
245.438
 20
336.027
 30
0.000000
  70
    32
  0
VERTEX
  8
0
  5
14D12
 10
245.454
 20
336.023
 30
0.000000
  70
    32
  0
VERTEX
  8
0
  5
14D13
 10
245.470
 20
336.019
 30
0.000000
  70
    32
  0
VERTEX
  8
0
  5
14D14
 10
245.487
 20
336.014
 30
0.000000
  70
    32
  0
VERTEX
  8
0
  5
14D15
 10
245.503
 20
336.010
 30
0.000000
  70
    32
  0
VERTEX
  8
0
  5
14D16
 10
245.519
 20
336.006
 30
0.000000
  70
    32
  0
VERTEX
  8
0
  5
14D17
 10
245.535
 20
336.002
 30
0.000000
  70
    32
  0
VERTEX
  8
0
  5
14D18
 10
245.551
 20
335.998
 30
0.000000
  70
    32
  0
VERTEX
  8
0
  5
14D19
 10
245.568
 20
335.995
 30
0.000000
  70
    32
  0
VERTEX
  8
0
  5
14D1A
 10
245.584
 20
335.991
 30
0.000000
  70
    32
  0
VERTEX
  8
0
  5
14D1B
 10
245.600
 20
335.987
 30
0.000000
  70
    32
  0
VERTEX
  8
0
  5
14D1C
 10
245.616
 20
335.984
 30
0.000000
  70
    32
  0
VERTEX
  8
0
  5
14D1D
 10
245.633
 20
335.980
 30
0.000000
  70
    32
  0
VERTEX
  8
0
  5
14D1E
 10
245.649
 20
335.977
 30
0.000000
  70
    32
  0
VERTEX
  8
0
  5
14D1F
 10
245.665
 20
335.973
 30
0.000000
  70
    32
  0
VERTEX
  8
0
  5
14D20
 10
245.681
 20
335.970
 30
0.000000
  70
    32
  0
VERTEX
  8
0
  5
14D21
 10
245.698
 20
335.967
 30
0.000000
  70
    32
  0
VERTEX
  8
0
  5
14D22
 10
245.714
 20
335.964
 30
0.000000
  70
    32
  0
VERTEX
  8
0
  5
14D23
 10
245.730
 20
335.961
 30
0.000000
  70
    32
  0
VERTEX
  8
0
  5
14D24
 10
245.746
 20
335.958
 30
0.000000
  70
    32
  0
VERTEX
  8
0
  5
14D25
 10
245.763
 20
335.955
 30
0.000000
  70
    32
  0
VERTEX
  8
0
  5
14D26
 10
245.779
 20
335.952
 30
0.000000
  70
    32
  0
VERTEX
  8
0
  5
14D27
 10
245.795
 20
335.949
 30
0.000000
  70
    32
  0
VERTEX
  8
0
  5
14D28
 10
245.811
 20
335.947
 30
0.000000
  70
    32
  0
VERTEX
  8
0
  5
14D29
 10
245.828
 20
335.944
 30
0.000000
  70
    32
  0
VERTEX
  8
0
  5
14D2A
 10
245.844
 20
335.941
 30
0.000000
  70
    32
  0
VERTEX
  8
0
  5
14D2B
 10
245.860
 20
335.939
 30
0.000000
  70
    32
  0
VERTEX
  8
0
  5
14D2C
 10
245.877
 20
335.937
 30
0.000000
  70
    32
  0
VERTEX
  8
0
  5
14D2D
 10
245.893
 20
335.934
 30
0.000000
  70
    32
  0
VERTEX
  8
0
  5
14D2E
 10
245.909
 20
335.932
 30
0.000000
  70
    32
  0
VERTEX
  8
0
  5
14D2F
 10
245.926
 20
335.930
 30
0.000000
  70
    32
  0
VERTEX
  8
0
  5
14D30
 10
245.942
 20
335.928
 30
0.000000
  70
    32
  0
VERTEX
  8
0
  5
14D31
 10
245.958
 20
335.926
 30
0.000000
  70
    32
  0
VERTEX
  8
0
  5
14D32
 10
245.975
 20
335.924
 30
0.000000
  70
    32
  0
VERTEX
  8
0
  5
14D33
 10
245.991
 20
335.922
 30
0.000000
  70
    32
  0
VERTEX
  8
0
  5
14D34
 10
246.007
 20
335.921
 30
0.000000
  70
    32
  0
VERTEX
  8
0
  5
14D35
 10
246.024
 20
335.919
 30
0.000000
  70
    32
  0
VERTEX
  8
0
  5
14D36
 10
246.040
 20
335.917
 30
0.000000
  70
    32
  0
VERTEX
  8
0
  5
14D37
 10
246.056
 20
335.916
 30
0.000000
  70
    32
  0
VERTEX
  8
0
  5
14D38
 10
246.073
 20
335.914
 30
0.000000
  70
    32
  0
VERTEX
  8
0
  5
14D39
 10
246.089
 20
335.913
 30
0.000000
  70
    32
  0
VERTEX
  8
0
  5
14D3A
 10
246.105
 20
335.912
 30
0.000000
  70
    32
  0
VERTEX
  8
0
  5
14D3B
 10
246.122
 20
335.911
 30
0.000000
  70
    32
  0
VERTEX
  8
0
  5
14D3C
 10
246.138
 20
335.909
 30
0.000000
  70
    32
  0
VERTEX
  8
0
  5
14D3D
 10
246.154
 20
335.908
 30
0.000000
  70
    32
  0
VERTEX
  8
0
  5
14D3E
 10
246.171
 20
335.907
 30
0.000000
  70
    32
  0
VERTEX
  8
0
  5
14D3F
 10
246.187
 20
335.907
 30
0.000000
  70
    32
  0
VERTEX
  8
0
  5
14D40
 10
246.203
 20
335.906
 30
0.000000
  70
    32
  0
VERTEX
  8
0
  5
14D41
 10
246.220
 20
335.905
 30
0.000000
  70
    32
  0
VERTEX
  8
0
  5
14D42
 10
246.236
 20
335.904
 30
0.000000
  70
    32
  0
VERTEX
  8
0
  5
14D43
 10
246.252
 20
335.904
 30
0.000000
  70
    32
  0
VERTEX
  8
0
  5
14D44
 10
246.269
 20
335.903
 30
0.000000
  70
    32
  0
VERTEX
  8
0
  5
14D45
 10
246.285
 20
335.903
 30
0.000000
  70
    32
  0
VERTEX
  8
0
  5
14D46
 10
246.302
 20
335.903
 30
0.000000
  70
    32
  0
VERTEX
  8
0
  5
14D47
 10
246.318
 20
335.902
 30
0.000000
  70
    32
  0
VERTEX
  8
0
  5
14D48
 10
246.334
 20
335.902
 30
0.000000
  70
    32
  0
VERTEX
  8
0
  5
14D49
 10
246.351
 20
335.902
 30
0.000000
  70
    32
  0
VERTEX
  8
0
  5
14D4A
 10
246.367
 20
335.902
 30
0.000000
  70
    32
  0
SEQEND
  8
0
  5
14D4B
  0
LINE
  5
D434
  8
0
 10
284.0088483132422
 20
335.90192280709721
 30
0.0
 11
284.0088483132422
 21
284.09807689487911
 31
0.0
  0
LINE
  5
D435
  8
0
 10
284.0088483132422
 20
284.09807689487911
 30
0.0
 11
246.36702222749591
 21
284.09807689487911
 31
0.0
  0
LINE
  5
D436
  8
0
 10
246.36702222749619
 20
335.90192280709721
 30
0.0
 11
246.36702222749591
 21
284.09807689487911
 31
0.0
  0
POLYLINE
  5
D437
  8
0
 10
246.36702245125571
 20
284.09807606234148
 30
0.0
 66
     1
 70
     8
  0
VERTEX
  8
0
  5
14D4C
 10
246.367
 20
284.098
 30
0.000000
  70
    32
  0
VERTEX
  8
0
  5
14D4D
 10
246.351
 20
284.098
 30
0.000000
  70
    32
  0
VERTEX
  8
0
  5
14D4E
 10
246.334
 20
284.098
 30
0.000000
  70
    32
  0
VERTEX
  8
0
  5
14D4F
 10
246.318
 20
284.098
 30
0.000000
  70
    32
  0
VERTEX
  8
0
  5
14D50
 10
246.302
 20
284.097
 30
0.000000
  70
    32
  0
VERTEX
  8
0
  5
14D51
 10
246.285
 20
284.097
 30
0.000000
  70
    32
  0
VERTEX
  8
0
  5
14D52
 10
246.269
 20
284.097
 30
0.000000
  70
    32
  0
VERTEX
  8
0
  5
14D53
 10
246.252
 20
284.096
 30
0.000000
  70
    32
  0
VERTEX
  8
0
  5
14D54
 10
246.236
 20
284.096
 30
0.000000
  70
    32
  0
VERTEX
  8
0
  5
14D55
 10
246.220
 20
284.095
 30
0.000000
  70
    32
  0
VERTEX
  8
0
  5
14D56
 10
246.203
 20
284.094
 30
0.000000
  70
    32
  0
VERTEX
  8
0
  5
14D57
 10
246.187
 20
284.093
 30
0.000000
  70
    32
  0
VERTEX
  8
0
  5
14D58
 10
246.171
 20
284.093
 30
0.000000
  70
    32
  0
VERTEX
  8
0
  5
14D59
 10
246.154
 20
284.092
 30
0.000000
  70
    32
  0
VERTEX
  8
0
  5
14D5A
 10
246.138
 20
284.091
 30
0.000000
  70
    32
  0
VERTEX
  8
0
  5
14D5B
 10
246.122
 20
284.089
 30
0.000000
  70
    32
  0
VERTEX
  8
0
  5
14D5C
 10
246.105
 20
284.088
 30
0.000000
  70
    32
  0
VERTEX
  8
0
  5
14D5D
 10
246.089
 20
284.087
 30
0.000000
  70
    32
  0
VERTEX
  8
0
  5
14D5E
 10
246.073
 20
284.086
 30
0.000000
  70
    32
  0
VERTEX
  8
0
  5
14D5F
 10
246.056
 20
284.084
 30
0.000000
  70
    32
  0
VERTEX
  8
0
  5
14D60
 10
246.040
 20
284.083
 30
0.000000
  70
    32
  0
VERTEX
  8
0
  5
14D61
 10
246.024
 20
284.081
 30
0.000000
  70
    32
  0
VERTEX
  8
0
  5
14D62
 10
246.007
 20
284.079
 30
0.000000
  70
    32
  0
VERTEX
  8
0
  5
14D63
 10
245.991
 20
284.078
 30
0.000000
  70
    32
  0
VERTEX
  8
0
  5
14D64
 10
245.975
 20
284.076
 30
0.000000
  70
    32
  0
VERTEX
  8
0
  5
14D65
 10
245.958
 20
284.074
 30
0.000000
  70
    32
  0
VERTEX
  8
0
  5
14D66
 10
245.942
 20
284.072
 30
0.000000
  70
    32
  0
VERTEX
  8
0
  5
14D67
 10
245.926
 20
284.070
 30
0.000000
  70
    32
  0
VERTEX
  8
0
  5
14D68
 10
245.909
 20
284.068
 30
0.000000
  70
    32
  0
VERTEX
  8
0
  5
14D69
 10
245.893
 20
284.066
 30
0.000000
  70
    32
  0
VERTEX
  8
0
  5
14D6A
 10
245.877
 20
284.063
 30
0.000000
  70
    32
  0
VERTEX
  8
0
  5
14D6B
 10
245.860
 20
284.061
 30
0.000000
  70
    32
  0
VERTEX
  8
0
  5
14D6C
 10
245.844
 20
284.059
 30
0.000000
  70
    32
  0
VERTEX
  8
0
  5
14D6D
 10
245.828
 20
284.056
 30
0.000000
  70
    32
  0
VERTEX
  8
0
  5
14D6E
 10
245.811
 20
284.053
 30
0.000000
  70
    32
  0
VERTEX
  8
0
  5
14D6F
 10
245.795
 20
284.051
 30
0.000000
  70
    32
  0
VERTEX
  8
0
  5
14D70
 10
245.779
 20
284.048
 30
0.000000
  70
    32
  0
VERTEX
  8
0
  5
14D71
 10
245.763
 20
284.045
 30
0.000000
  70
    32
  0
VERTEX
  8
0
  5
14D72
 10
245.746
 20
284.042
 30
0.000000
  70
    32
  0
VERTEX
  8
0
  5
14D73
 10
245.730
 20
284.039
 30
0.000000
  70
    32
  0
VERTEX
  8
0
  5
14D74
 10
245.714
 20
284.036
 30
0.000000
  70
    32
  0
VERTEX
  8
0
  5
14D75
 10
245.698
 20
284.033
 30
0.000000
  70
    32
  0
VERTEX
  8
0
  5
14D76
 10
245.681
 20
284.030
 30
0.000000
  70
    32
  0
VERTEX
  8
0
  5
14D77
 10
245.665
 20
284.027
 30
0.000000
  70
    32
  0
VERTEX
  8
0
  5
14D78
 10
245.649
 20
284.023
 30
0.000000
  70
    32
  0
VERTEX
  8
0
  5
14D79
 10
245.633
 20
284.020
 30
0.000000
  70
    32
  0
VERTEX
  8
0
  5
14D7A
 10
245.616
 20
284.016
 30
0.000000
  70
    32
  0
VERTEX
  8
0
  5
14D7B
 10
245.600
 20
284.013
 30
0.000000
  70
    32
  0
VERTEX
  8
0
  5
14D7C
 10
245.584
 20
284.009
 30
0.000000
  70
    32
  0
VERTEX
  8
0
  5
14D7D
 10
245.568
 20
284.005
 30
0.000000
  70
    32
  0
VERTEX
  8
0
  5
14D7E
 10
245.551
 20
284.002
 30
0.000000
  70
    32
  0
VERTEX
  8
0
  5
14D7F
 10
245.535
 20
283.998
 30
0.000000
  70
    32
  0
VERTEX
  8
0
  5
14D80
 10
245.519
 20
283.994
 30
0.000000
  70
    32
  0
VERTEX
  8
0
  5
14D81
 10
245.503
 20
283.990
 30
0.000000
  70
    32
  0
VERTEX
  8
0
  5
14D82
 10
245.487
 20
283.986
 30
0.000000
  70
    32
  0
VERTEX
  8
0
  5
14D83
 10
245.470
 20
283.981
 30
0.000000
  70
    32
  0
VERTEX
  8
0
  5
14D84
 10
245.454
 20
283.977
 30
0.000000
  70
    32
  0
VERTEX
  8
0
  5
14D85
 10
245.438
 20
283.973
 30
0.000000
  70
    32
  0
VERTEX
  8
0
  5
14D86
 10
245.422
 20
283.968
 30
0.000000
  70
    32
  0
VERTEX
  8
0
  5
14D87
 10
245.406
 20
283.964
 30
0.000000
  70
    32
  0
VERTEX
  8
0
  5
14D88
 10
245.390
 20
283.959
 30
0.000000
  70
    32
  0
VERTEX
  8
0
  5
14D89
 10
245.374
 20
283.955
 30
0.000000
  70
    32
  0
VERTEX
  8
0
  5
14D8A
 10
245.357
 20
283.950
 30
0.000000
  70
    32
  0
VERTEX
  8
0
  5
14D8B
 10
245.341
 20
283.945
 30
0.000000
  70
    32
  0
VERTEX
  8
0
  5
14D8C
 10
245.325
 20
283.940
 30
0.000000
  70
    32
  0
VERTEX
  8
0
  5
14D8D
 10
245.309
 20
283.935
 30
0.000000
  70
    32
  0
VERTEX
  8
0
  5
14D8E
 10
245.293
 20
283.930
 30
0.000000
  70
    32
  0
VERTEX
  8
0
  5
14D8F
 10
245.277
 20
283.925
 30
0.000000
  70
    32
  0
VERTEX
  8
0
  5
14D90
 10
245.261
 20
283.920
 30
0.000000
  70
    32
  0
VERTEX
  8
0
  5
14D91
 10
245.245
 20
283.915
 30
0.000000
  70
    32
  0
VERTEX
  8
0
  5
14D92
 10
245.229
 20
283.909
 30
0.000000
  70
    32
  0
VERTEX
  8
0
  5
14D93
 10
245.213
 20
283.904
 30
0.000000
  70
    32
  0
VERTEX
  8
0
  5
14D94
 10
245.196
 20
283.898
 30
0.000000
  70
    32
  0
VERTEX
  8
0
  5
14D95
 10
245.180
 20
283.893
 30
0.000000
  70
    32
  0
VERTEX
  8
0
  5
14D96
 10
245.164
 20
283.887
 30
0.000000
  70
    32
  0
VERTEX
  8
0
  5
14D97
 10
245.148
 20
283.881
 30
0.000000
  70
    32
  0
VERTEX
  8
0
  5
14D98
 10
245.132
 20
283.876
 30
0.000000
  70
    32
  0
VERTEX
  8
0
  5
14D99
 10
245.116
 20
283.870
 30
0.000000
  70
    32
  0
VERTEX
  8
0
  5
14D9A
 10
245.100
 20
283.864
 30
0.000000
  70
    32
  0
VERTEX
  8
0
  5
14D9B
 10
245.084
 20
283.858
 30
0.000000
  70
    32
  0
VERTEX
  8
0
  5
14D9C
 10
245.068
 20
283.852
 30
0.000000
  70
    32
  0
VERTEX
  8
0
  5
14D9D
 10
245.052
 20
283.846
 30
0.000000
  70
    32
  0
VERTEX
  8
0
  5
14D9E
 10
245.036
 20
283.839
 30
0.000000
  70
    32
  0
VERTEX
  8
0
  5
14D9F
 10
245.021
 20
283.833
 30
0.000000
  70
    32
  0
VERTEX
  8
0
  5
14DA0
 10
245.005
 20
283.827
 30
0.000000
  70
    32
  0
VERTEX
  8
0
  5
14DA1
 10
244.989
 20
283.820
 30
0.000000
  70
    32
  0
VERTEX
  8
0
  5
14DA2
 10
244.973
 20
283.814
 30
0.000000
  70
    32
  0
VERTEX
  8
0
  5
14DA3
 10
244.957
 20
283.807
 30
0.000000
  70
    32
  0
VERTEX
  8
0
  5
14DA4
 10
244.941
 20
283.800
 30
0.000000
  70
    32
  0
VERTEX
  8
0
  5
14DA5
 10
244.925
 20
283.793
 30
0.000000
  70
    32
  0
VERTEX
  8
0
  5
14DA6
 10
244.909
 20
283.787
 30
0.000000
  70
    32
  0
VERTEX
  8
0
  5
14DA7
 10
244.893
 20
283.780
 30
0.000000
  70
    32
  0
VERTEX
  8
0
  5
14DA8
 10
244.877
 20
283.773
 30
0.000000
  70
    32
  0
VERTEX
  8
0
  5
14DA9
 10
244.862
 20
283.766
 30
0.000000
  70
    32
  0
VERTEX
  8
0
  5
14DAA
 10
244.846
 20
283.758
 30
0.000000
  70
    32
  0
VERTEX
  8
0
  5
14DAB
 10
244.830
 20
283.751
 30
0.000000
  70
    32
  0
VERTEX
  8
0
  5
14DAC
 10
244.814
 20
283.744
 30
0.000000
  70
    32
  0
VERTEX
  8
0
  5
14DAD
 10
244.798
 20
283.737
 30
0.000000
  70
    32
  0
VERTEX
  8
0
  5
14DAE
 10
244.783
 20
283.729
 30
0.000000
  70
    32
  0
VERTEX
  8
0
  5
14DAF
 10
244.767
 20
283.722
 30
0.000000
  70
    32
  0
VERTEX
  8
0
  5
14DB0
 10
244.751
 20
283.714
 30
0.000000
  70
    32
  0
VERTEX
  8
0
  5
14DB1
 10
244.735
 20
283.706
 30
0.000000
  70
    32
  0
VERTEX
  8
0
  5
14DB2
 10
244.719
 20
283.699
 30
0.000000
  70
    32
  0
VERTEX
  8
0
  5
14DB3
 10
244.704
 20
283.691
 30
0.000000
  70
    32
  0
VERTEX
  8
0
  5
14DB4
 10
244.688
 20
283.683
 30
0.000000
  70
    32
  0
VERTEX
  8
0
  5
14DB5
 10
244.672
 20
283.675
 30
0.000000
  70
    32
  0
VERTEX
  8
0
  5
14DB6
 10
244.657
 20
283.667
 30
0.000000
  70
    32
  0
VERTEX
  8
0
  5
14DB7
 10
244.641
 20
283.659
 30
0.000000
  70
    32
  0
VERTEX
  8
0
  5
14DB8
 10
244.625
 20
283.651
 30
0.000000
  70
    32
  0
VERTEX
  8
0
  5
14DB9
 10
244.610
 20
283.642
 30
0.000000
  70
    32
  0
VERTEX
  8
0
  5
14DBA
 10
244.594
 20
283.634
 30
0.000000
  70
    32
  0
VERTEX
  8
0
  5
14DBB
 10
244.578
 20
283.626
 30
0.000000
  70
    32
  0
VERTEX
  8
0
  5
14DBC
 10
244.563
 20
283.617
 30
0.000000
  70
    32
  0
VERTEX
  8
0
  5
14DBD
 10
244.547
 20
283.609
 30
0.000000
  70
    32
  0
VERTEX
  8
0
  5
14DBE
 10
244.532
 20
283.600
 30
0.000000
  70
    32
  0
VERTEX
  8
0
  5
14DBF
 10
244.516
 20
283.591
 30
0.000000
  70
    32
  0
VERTEX
  8
0
  5
14DC0
 10
244.500
 20
283.582
 30
0.000000
  70
    32
  0
VERTEX
  8
0
  5
14DC1
 10
244.485
 20
283.574
 30
0.000000
  70
    32
  0
VERTEX
  8
0
  5
14DC2
 10
244.469
 20
283.565
 30
0.000000
  70
    32
  0
VERTEX
  8
0
  5
14DC3
 10
244.454
 20
283.556
 30
0.000000
  70
    32
  0
VERTEX
  8
0
  5
14DC4
 10
244.438
 20
283.547
 30
0.000000
  70
    32
  0
VERTEX
  8
0
  5
14DC5
 10
244.423
 20
283.537
 30
0.000000
  70
    32
  0
VERTEX
  8
0
  5
14DC6
 10
244.407
 20
283.528
 30
0.000000
  70
    32
  0
VERTEX
  8
0
  5
14DC7
 10
244.392
 20
283.519
 30
0.000000
  70
    32
  0
VERTEX
  8
0
  5
14DC8
 10
244.377
 20
283.510
 30
0.000000
  70
    32
  0
VERTEX
  8
0
  5
14DC9
 10
244.361
 20
283.500
 30
0.000000
  70
    32
  0
VERTEX
  8
0
  5
14DCA
 10
244.346
 20
283.491
 30
0.000000
  70
    32
  0
VERTEX
  8
0
  5
14DCB
 10
244.330
 20
283.481
 30
0.000000
  70
    32
  0
VERTEX
  8
0
  5
14DCC
 10
244.315
 20
283.471
 30
0.000000
  70
    32
  0
SEQEND
  8
0
  5
14DCD
  0
POLYLINE
  5
D439
  8
0
 10
284.00884931226261
 20
335.90192363963484
 30
0.0
 66
     1
 70
     8
  0
VERTEX
  8
0
  5
14DCE
 10
284.009
 20
335.902
 30
0.000000
  70
    32
  0
VERTEX
  8
0
  5
14DCF
 10
284.033
 20
335.902
 30
0.000000
  70
    32
  0
VERTEX
  8
0
  5
14DD0
 10
284.058
 20
335.902
 30
0.000000
  70
    32
  0
VERTEX
  8
0
  5
14DD1
 10
284.082
 20
335.903
 30
0.000000
  70
    32
  0
VERTEX
  8
0
  5
14DD2
 10
284.107
 20
335.903
 30
0.000000
  70
    32
  0
VERTEX
  8
0
  5
14DD3
 10
284.132
 20
335.904
 30
0.000000
  70
    32
  0
VERTEX
  8
0
  5
14DD4
 10
284.156
 20
335.905
 30
0.000000
  70
    32
  0
VERTEX
  8
0
  5
14DD5
 10
284.181
 20
335.906
 30
0.000000
  70
    32
  0
VERTEX
  8
0
  5
14DD6
 10
284.205
 20
335.907
 30
0.000000
  70
    32
  0
VERTEX
  8
0
  5
14DD7
 10
284.230
 20
335.909
 30
0.000000
  70
    32
  0
VERTEX
  8
0
  5
14DD8
 10
284.254
 20
335.911
 30
0.000000
  70
    32
  0
VERTEX
  8
0
  5
14DD9
 10
284.279
 20
335.912
 30
0.000000
  70
    32
  0
VERTEX
  8
0
  5
14DDA
 10
284.303
 20
335.914
 30
0.000000
  70
    32
  0
VERTEX
  8
0
  5
14DDB
 10
284.328
 20
335.917
 30
0.000000
  70
    32
  0
VERTEX
  8
0
  5
14DDC
 10
284.352
 20
335.919
 30
0.000000
  70
    32
  0
VERTEX
  8
0
  5
14DDD
 10
284.377
 20
335.921
 30
0.000000
  70
    32
  0
VERTEX
  8
0
  5
14DDE
 10
284.401
 20
335.924
 30
0.000000
  70
    32
  0
VERTEX
  8
0
  5
14DDF
 10
284.426
 20
335.927
 30
0.000000
  70
    32
  0
VERTEX
  8
0
  5
14DE0
 10
284.450
 20
335.930
 30
0.000000
  70
    32
  0
VERTEX
  8
0
  5
14DE1
 10
284.475
 20
335.933
 30
0.000000
  70
    32
  0
VERTEX
  8
0
  5
14DE2
 10
284.499
 20
335.937
 30
0.000000
  70
    32
  0
VERTEX
  8
0
  5
14DE3
 10
284.524
 20
335.940
 30
0.000000
  70
    32
  0
VERTEX
  8
0
  5
14DE4
 10
284.548
 20
335.944
 30
0.000000
  70
    32
  0
VERTEX
  8
0
  5
14DE5
 10
284.573
 20
335.948
 30
0.000000
  70
    32
  0
VERTEX
  8
0
  5
14DE6
 10
284.597
 20
335.952
 30
0.000000
  70
    32
  0
VERTEX
  8
0
  5
14DE7
 10
284.621
 20
335.956
 30
0.000000
  70
    32
  0
VERTEX
  8
0
  5
14DE8
 10
284.646
 20
335.961
 30
0.000000
  70
    32
  0
VERTEX
  8
0
  5
14DE9
 10
284.670
 20
335.965
 30
0.000000
  70
    32
  0
VERTEX
  8
0
  5
14DEA
 10
284.695
 20
335.970
 30
0.000000
  70
    32
  0
VERTEX
  8
0
  5
14DEB
 10
284.719
 20
335.975
 30
0.000000
  70
    32
  0
VERTEX
  8
0
  5
14DEC
 10
284.743
 20
335.980
 30
0.000000
  70
    32
  0
VERTEX
  8
0
  5
14DED
 10
284.768
 20
335.985
 30
0.000000
  70
    32
  0
VERTEX
  8
0
  5
14DEE
 10
284.792
 20
335.991
 30
0.000000
  70
    32
  0
VERTEX
  8
0
  5
14DEF
 10
284.816
 20
335.996
 30
0.000000
  70
    32
  0
VERTEX
  8
0
  5
14DF0
 10
284.841
 20
336.002
 30
0.000000
  70
    32
  0
VERTEX
  8
0
  5
14DF1
 10
284.865
 20
336.008
 30
0.000000
  70
    32
  0
VERTEX
  8
0
  5
14DF2
 10
284.889
 20
336.014
 30
0.000000
  70
    32
  0
VERTEX
  8
0
  5
14DF3
 10
284.914
 20
336.021
 30
0.000000
  70
    32
  0
VERTEX
  8
0
  5
14DF4
 10
284.938
 20
336.027
 30
0.000000
  70
    32
  0
VERTEX
  8
0
  5
14DF5
 10
284.962
 20
336.034
 30
0.000000
  70
    32
  0
VERTEX
  8
0
  5
14DF6
 10
284.986
 20
336.041
 30
0.000000
  70
    32
  0
VERTEX
  8
0
  5
14DF7
 10
285.010
 20
336.048
 30
0.000000
  70
    32
  0
VERTEX
  8
0
  5
14DF8
 10
285.035
 20
336.055
 30
0.000000
  70
    32
  0
VERTEX
  8
0
  5
14DF9
 10
285.059
 20
336.062
 30
0.000000
  70
    32
  0
VERTEX
  8
0
  5
14DFA
 10
285.083
 20
336.070
 30
0.000000
  70
    32
  0
VERTEX
  8
0
  5
14DFB
 10
285.107
 20
336.077
 30
0.000000
  70
    32
  0
VERTEX
  8
0
  5
14DFC
 10
285.131
 20
336.085
 30
0.000000
  70
    32
  0
VERTEX
  8
0
  5
14DFD
 10
285.155
 20
336.093
 30
0.000000
  70
    32
  0
VERTEX
  8
0
  5
14DFE
 10
285.179
 20
336.102
 30
0.000000
  70
    32
  0
VERTEX
  8
0
  5
14DFF
 10
285.203
 20
336.110
 30
0.000000
  70
    32
  0
VERTEX
  8
0
  5
14E00
 10
285.227
 20
336.119
 30
0.000000
  70
    32
  0
VERTEX
  8
0
  5
14E01
 10
285.252
 20
336.127
 30
0.000000
  70
    32
  0
VERTEX
  8
0
  5
14E02
 10
285.276
 20
336.136
 30
0.000000
  70
    32
  0
VERTEX
  8
0
  5
14E03
 10
285.299
 20
336.145
 30
0.000000
  70
    32
  0
VERTEX
  8
0
  5
14E04
 10
285.323
 20
336.154
 30
0.000000
  70
    32
  0
VERTEX
  8
0
  5
14E05
 10
285.347
 20
336.164
 30
0.000000
  70
    32
  0
VERTEX
  8
0
  5
14E06
 10
285.371
 20
336.173
 30
0.000000
  70
    32
  0
VERTEX
  8
0
  5
14E07
 10
285.395
 20
336.183
 30
0.000000
  70
    32
  0
VERTEX
  8
0
  5
14E08
 10
285.419
 20
336.193
 30
0.000000
  70
    32
  0
VERTEX
  8
0
  5
14E09
 10
285.443
 20
336.203
 30
0.000000
  70
    32
  0
VERTEX
  8
0
  5
14E0A
 10
285.467
 20
336.213
 30
0.000000
  70
    32
  0
VERTEX
  8
0
  5
14E0B
 10
285.491
 20
336.224
 30
0.000000
  70
    32
  0
VERTEX
  8
0
  5
14E0C
 10
285.514
 20
336.234
 30
0.000000
  70
    32
  0
VERTEX
  8
0
  5
14E0D
 10
285.538
 20
336.245
 30
0.000000
  70
    32
  0
VERTEX
  8
0
  5
14E0E
 10
285.562
 20
336.256
 30
0.000000
  70
    32
  0
VERTEX
  8
0
  5
14E0F
 10
285.585
 20
336.267
 30
0.000000
  70
    32
  0
VERTEX
  8
0
  5
14E10
 10
285.609
 20
336.278
 30
0.000000
  70
    32
  0
VERTEX
  8
0
  5
14E11
 10
285.633
 20
336.290
 30
0.000000
  70
    32
  0
VERTEX
  8
0
  5
14E12
 10
285.656
 20
336.301
 30
0.000000
  70
    32
  0
VERTEX
  8
0
  5
14E13
 10
285.680
 20
336.313
 30
0.000000
  70
    32
  0
VERTEX
  8
0
  5
14E14
 10
285.704
 20
336.325
 30
0.000000
  70
    32
  0
VERTEX
  8
0
  5
14E15
 10
285.727
 20
336.337
 30
0.000000
  70
    32
  0
VERTEX
  8
0
  5
14E16
 10
285.751
 20
336.349
 30
0.000000
  70
    32
  0
VERTEX
  8
0
  5
14E17
 10
285.774
 20
336.362
 30
0.000000
  70
    32
  0
VERTEX
  8
0
  5
14E18
 10
285.797
 20
336.374
 30
0.000000
  70
    32
  0
VERTEX
  8
0
  5
14E19
 10
285.821
 20
336.387
 30
0.000000
  70
    32
  0
VERTEX
  8
0
  5
14E1A
 10
285.844
 20
336.400
 30
0.000000
  70
    32
  0
VERTEX
  8
0
  5
14E1B
 10
285.868
 20
336.413
 30
0.000000
  70
    32
  0
VERTEX
  8
0
  5
14E1C
 10
285.891
 20
336.426
 30
0.000000
  70
    32
  0
VERTEX
  8
0
  5
14E1D
 10
285.914
 20
336.440
 30
0.000000
  70
    32
  0
VERTEX
  8
0
  5
14E1E
 10
285.937
 20
336.453
 30
0.000000
  70
    32
  0
VERTEX
  8
0
  5
14E1F
 10
285.961
 20
336.467
 30
0.000000
  70
    32
  0
VERTEX
  8
0
  5
14E20
 10
285.984
 20
336.481
 30
0.000000
  70
    32
  0
VERTEX
  8
0
  5
14E21
 10
286.007
 20
336.495
 30
0.000000
  70
    32
  0
VERTEX
  8
0
  5
14E22
 10
286.030
 20
336.509
 30
0.000000
  70
    32
  0
VERTEX
  8
0
  5
14E23
 10
286.053
 20
336.524
 30
0.000000
  70
    32
  0
VERTEX
  8
0
  5
14E24
 10
286.076
 20
336.538
 30
0.000000
  70
    32
  0
VERTEX
  8
0
  5
14E25
 10
286.099
 20
336.553
 30
0.000000
  70
    32
  0
VERTEX
  8
0
  5
14E26
 10
286.122
 20
336.568
 30
0.000000
  70
    32
  0
VERTEX
  8
0
  5
14E27
 10
286.145
 20
336.583
 30
0.000000
  70
    32
  0
VERTEX
  8
0
  5
14E28
 10
286.168
 20
336.598
 30
0.000000
  70
    32
  0
VERTEX
  8
0
  5
14E29
 10
286.191
 20
336.614
 30
0.000000
  70
    32
  0
VERTEX
  8
0
  5
14E2A
 10
286.214
 20
336.629
 30
0.000000
  70
    32
  0
VERTEX
  8
0
  5
14E2B
 10
286.237
 20
336.645
 30
0.000000
  70
    32
  0
VERTEX
  8
0
  5
14E2C
 10
286.260
 20
336.661
 30
0.000000
  70
    32
  0
VERTEX
  8
0
  5
14E2D
 10
286.282
 20
336.677
 30
0.000000
  70
    32
  0
VERTEX
  8
0
  5
14E2E
 10
286.305
 20
336.693
 30
0.000000
  70
    32
  0
VERTEX
  8
0
  5
14E2F
 10
286.328
 20
336.709
 30
0.000000
  70
    32
  0
VERTEX
  8
0
  5
14E30
 10
286.350
 20
336.726
 30
0.000000
  70
    32
  0
VERTEX
  8
0
  5
14E31
 10
286.373
 20
336.743
 30
0.000000
  70
    32
  0
VERTEX
  8
0
  5
14E32
 10
286.395
 20
336.759
 30
0.000000
  70
    32
  0
VERTEX
  8
0
  5
14E33
 10
286.418
 20
336.776
 30
0.000000
  70
    32
  0
VERTEX
  8
0
  5
14E34
 10
286.440
 20
336.793
 30
0.000000
  70
    32
  0
VERTEX
  8
0
  5
14E35
 10
286.463
 20
336.811
 30
0.000000
  70
    32
  0
VERTEX
  8
0
  5
14E36
 10
286.485
 20
336.828
 30
0.000000
  70
    32
  0
VERTEX
  8
0
  5
14E37
 10
286.507
 20
336.846
 30
0.000000
  70
    32
  0
VERTEX
  8
0
  5
14E38
 10
286.530
 20
336.864
 30
0.000000
  70
    32
  0
VERTEX
  8
0
  5
14E39
 10
286.552
 20
336.882
 30
0.000000
  70
    32
  0
VERTEX
  8
0
  5
14E3A
 10
286.574
 20
336.900
 30
0.000000
  70
    32
  0
VERTEX
  8
0
  5
14E3B
 10
286.596
 20
336.918
 30
0.000000
  70
    32
  0
VERTEX
  8
0
  5
14E3C
 10
286.618
 20
336.936
 30
0.000000
  70
    32
  0
VERTEX
  8
0
  5
14E3D
 10
286.641
 20
336.955
 30
0.000000
  70
    32
  0
VERTEX
  8
0
  5
14E3E
 10
286.663
 20
336.974
 30
0.000000
  70
    32
  0
VERTEX
  8
0
  5
14E3F
 10
286.685
 20
336.993
 30
0.000000
  70
    32
  0
VERTEX
  8
0
  5
14E40
 10
286.707
 20
337.012
 30
0.000000
  70
    32
  0
VERTEX
  8
0
  5
14E41
 10
286.728
 20
337.031
 30
0.000000
  70
    32
  0
VERTEX
  8
0
  5
14E42
 10
286.750
 20
337.050
 30
0.000000
  70
    32
  0
VERTEX
  8
0
  5
14E43
 10
286.772
 20
337.070
 30
0.000000
  70
    32
  0
VERTEX
  8
0
  5
14E44
 10
286.794
 20
337.089
 30
0.000000
  70
    32
  0
VERTEX
  8
0
  5
14E45
 10
286.816
 20
337.109
 30
0.000000
  70
    32
  0
VERTEX
  8
0
  5
14E46
 10
286.837
 20
337.129
 30
0.000000
  70
    32
  0
VERTEX
  8
0
  5
14E47
 10
286.859
 20
337.149
 30
0.000000
  70
    32
  0
VERTEX
  8
0
  5
14E48
 10
286.880
 20
337.169
 30
0.000000
  70
    32
  0
VERTEX
  8
0
  5
14E49
 10
286.902
 20
337.190
 30
0.000000
  70
    32
  0
VERTEX
  8
0
  5
14E4A
 10
286.923
 20
337.210
 30
0.000000
  70
    32
  0
VERTEX
  8
0
  5
14E4B
 10
286.945
 20
337.231
 30
0.000000
  70
    32
  0
VERTEX
  8
0
  5
14E4C
 10
286.966
 20
337.252
 30
0.000000
  70
    32
  0
VERTEX
  8
0
  5
14E4D
 10
286.988
 20
337.273
 30
0.000000
  70
    32
  0
VERTEX
  8
0
  5
14E4E
 10
287.009
 20
337.294
 30
0.000000
  70
    32
  0
SEQEND
  8
0
  5
14E4F
  0
POLYLINE
  5
D43C
  8
0
 10
287.00884931226256
 20
282.70577121692827
 30
0.0
 66
     1
 70
     8
  0
VERTEX
  8
0
  5
14E50
 10
287.009
 20
282.706
 30
0.000000
  70
    32
  0
VERTEX
  8
0
  5
14E51
 10
286.988
 20
282.727
 30
0.000000
  70
    32
  0
VERTEX
  8
0
  5
14E52
 10
286.966
 20
282.748
 30
0.000000
  70
    32
  0
VERTEX
  8
0
  5
14E53
 10
286.945
 20
282.769
 30
0.000000
  70
    32
  0
VERTEX
  8
0
  5
14E54
 10
286.923
 20
282.790
 30
0.000000
  70
    32
  0
VERTEX
  8
0
  5
14E55
 10
286.902
 20
282.810
 30
0.000000
  70
    32
  0
VERTEX
  8
0
  5
14E56
 10
286.880
 20
282.831
 30
0.000000
  70
    32
  0
VERTEX
  8
0
  5
14E57
 10
286.859
 20
282.851
 30
0.000000
  70
    32
  0
VERTEX
  8
0
  5
14E58
 10
286.837
 20
282.871
 30
0.000000
  70
    32
  0
VERTEX
  8
0
  5
14E59
 10
286.816
 20
282.891
 30
0.000000
  70
    32
  0
VERTEX
  8
0
  5
14E5A
 10
286.794
 20
282.911
 30
0.000000
  70
    32
  0
VERTEX
  8
0
  5
14E5B
 10
286.772
 20
282.930
 30
0.000000
  70
    32
  0
VERTEX
  8
0
  5
14E5C
 10
286.750
 20
282.950
 30
0.000000
  70
    32
  0
VERTEX
  8
0
  5
14E5D
 10
286.728
 20
282.969
 30
0.000000
  70
    32
  0
VERTEX
  8
0
  5
14E5E
 10
286.707
 20
282.988
 30
0.000000
  70
    32
  0
VERTEX
  8
0
  5
14E5F
 10
286.685
 20
283.007
 30
0.000000
  70
    32
  0
VERTEX
  8
0
  5
14E60
 10
286.663
 20
283.026
 30
0.000000
  70
    32
  0
VERTEX
  8
0
  5
14E61
 10
286.641
 20
283.045
 30
0.000000
  70
    32
  0
VERTEX
  8
0
  5
14E62
 10
286.618
 20
283.064
 30
0.000000
  70
    32
  0
VERTEX
  8
0
  5
14E63
 10
286.596
 20
283.082
 30
0.000000
  70
    32
  0
VERTEX
  8
0
  5
14E64
 10
286.574
 20
283.100
 30
0.000000
  70
    32
  0
VERTEX
  8
0
  5
14E65
 10
286.552
 20
283.118
 30
0.000000
  70
    32
  0
VERTEX
  8
0
  5
14E66
 10
286.530
 20
283.136
 30
0.000000
  70
    32
  0
VERTEX
  8
0
  5
14E67
 10
286.507
 20
283.154
 30
0.000000
  70
    32
  0
VERTEX
  8
0
  5
14E68
 10
286.485
 20
283.172
 30
0.000000
  70
    32
  0
VERTEX
  8
0
  5
14E69
 10
286.463
 20
283.189
 30
0.000000
  70
    32
  0
VERTEX
  8
0
  5
14E6A
 10
286.440
 20
283.207
 30
0.000000
  70
    32
  0
VERTEX
  8
0
  5
14E6B
 10
286.418
 20
283.224
 30
0.000000
  70
    32
  0
VERTEX
  8
0
  5
14E6C
 10
286.395
 20
283.241
 30
0.000000
  70
    32
  0
VERTEX
  8
0
  5
14E6D
 10
286.373
 20
283.257
 30
0.000000
  70
    32
  0
VERTEX
  8
0
  5
14E6E
 10
286.350
 20
283.274
 30
0.000000
  70
    32
  0
VERTEX
  8
0
  5
14E6F
 10
286.328
 20
283.291
 30
0.000000
  70
    32
  0
VERTEX
  8
0
  5
14E70
 10
286.305
 20
283.307
 30
0.000000
  70
    32
  0
VERTEX
  8
0
  5
14E71
 10
286.282
 20
283.323
 30
0.000000
  70
    32
  0
VERTEX
  8
0
  5
14E72
 10
286.260
 20
283.339
 30
0.000000
  70
    32
  0
VERTEX
  8
0
  5
14E73
 10
286.237
 20
283.355
 30
0.000000
  70
    32
  0
VERTEX
  8
0
  5
14E74
 10
286.214
 20
283.371
 30
0.000000
  70
    32
  0
VERTEX
  8
0
  5
14E75
 10
286.191
 20
283.386
 30
0.000000
  70
    32
  0
VERTEX
  8
0
  5
14E76
 10
286.168
 20
283.402
 30
0.000000
  70
    32
  0
VERTEX
  8
0
  5
14E77
 10
286.145
 20
283.417
 30
0.000000
  70
    32
  0
VERTEX
  8
0
  5
14E78
 10
286.122
 20
283.432
 30
0.000000
  70
    32
  0
VERTEX
  8
0
  5
14E79
 10
286.099
 20
283.447
 30
0.000000
  70
    32
  0
VERTEX
  8
0
  5
14E7A
 10
286.076
 20
283.462
 30
0.000000
  70
    32
  0
VERTEX
  8
0
  5
14E7B
 10
286.053
 20
283.476
 30
0.000000
  70
    32
  0
VERTEX
  8
0
  5
14E7C
 10
286.030
 20
283.491
 30
0.000000
  70
    32
  0
VERTEX
  8
0
  5
14E7D
 10
286.007
 20
283.505
 30
0.000000
  70
    32
  0
VERTEX
  8
0
  5
14E7E
 10
285.984
 20
283.519
 30
0.000000
  70
    32
  0
VERTEX
  8
0
  5
14E7F
 10
285.961
 20
283.533
 30
0.000000
  70
    32
  0
VERTEX
  8
0
  5
14E80
 10
285.937
 20
283.547
 30
0.000000
  70
    32
  0
VERTEX
  8
0
  5
14E81
 10
285.914
 20
283.560
 30
0.000000
  70
    32
  0
VERTEX
  8
0
  5
14E82
 10
285.891
 20
283.574
 30
0.000000
  70
    32
  0
VERTEX
  8
0
  5
14E83
 10
285.868
 20
283.587
 30
0.000000
  70
    32
  0
VERTEX
  8
0
  5
14E84
 10
285.844
 20
283.600
 30
0.000000
  70
    32
  0
VERTEX
  8
0
  5
14E85
 10
285.821
 20
283.613
 30
0.000000
  70
    32
  0
VERTEX
  8
0
  5
14E86
 10
285.797
 20
283.626
 30
0.000000
  70
    32
  0
VERTEX
  8
0
  5
14E87
 10
285.774
 20
283.638
 30
0.000000
  70
    32
  0
VERTEX
  8
0
  5
14E88
 10
285.751
 20
283.651
 30
0.000000
  70
    32
  0
VERTEX
  8
0
  5
14E89
 10
285.727
 20
283.663
 30
0.000000
  70
    32
  0
VERTEX
  8
0
  5
14E8A
 10
285.704
 20
283.675
 30
0.000000
  70
    32
  0
VERTEX
  8
0
  5
14E8B
 10
285.680
 20
283.687
 30
0.000000
  70
    32
  0
VERTEX
  8
0
  5
14E8C
 10
285.656
 20
283.699
 30
0.000000
  70
    32
  0
VERTEX
  8
0
  5
14E8D
 10
285.633
 20
283.710
 30
0.000000
  70
    32
  0
VERTEX
  8
0
  5
14E8E
 10
285.609
 20
283.722
 30
0.000000
  70
    32
  0
VERTEX
  8
0
  5
14E8F
 10
285.585
 20
283.733
 30
0.000000
  70
    32
  0
VERTEX
  8
0
  5
14E90
 10
285.562
 20
283.744
 30
0.000000
  70
    32
  0
VERTEX
  8
0
  5
14E91
 10
285.538
 20
283.755
 30
0.000000
  70
    32
  0
VERTEX
  8
0
  5
14E92
 10
285.514
 20
283.766
 30
0.000000
  70
    32
  0
VERTEX
  8
0
  5
14E93
 10
285.491
 20
283.776
 30
0.000000
  70
    32
  0
VERTEX
  8
0
  5
14E94
 10
285.467
 20
283.787
 30
0.000000
  70
    32
  0
VERTEX
  8
0
  5
14E95
 10
285.443
 20
283.797
 30
0.000000
  70
    32
  0
VERTEX
  8
0
  5
14E96
 10
285.419
 20
283.807
 30
0.000000
  70
    32
  0
VERTEX
  8
0
  5
14E97
 10
285.395
 20
283.817
 30
0.000000
  70
    32
  0
VERTEX
  8
0
  5
14E98
 10
285.371
 20
283.827
 30
0.000000
  70
    32
  0
VERTEX
  8
0
  5
14E99
 10
285.347
 20
283.836
 30
0.000000
  70
    32
  0
VERTEX
  8
0
  5
14E9A
 10
285.323
 20
283.846
 30
0.000000
  70
    32
  0
VERTEX
  8
0
  5
14E9B
 10
285.299
 20
283.855
 30
0.000000
  70
    32
  0
VERTEX
  8
0
  5
14E9C
 10
285.276
 20
283.864
 30
0.000000
  70
    32
  0
VERTEX
  8
0
  5
14E9D
 10
285.252
 20
283.873
 30
0.000000
  70
    32
  0
VERTEX
  8
0
  5
14E9E
 10
285.227
 20
283.881
 30
0.000000
  70
    32
  0
VERTEX
  8
0
  5
14E9F
 10
285.203
 20
283.890
 30
0.000000
  70
    32
  0
VERTEX
  8
0
  5
14EA0
 10
285.179
 20
283.898
 30
0.000000
  70
    32
  0
VERTEX
  8
0
  5
14EA1
 10
285.155
 20
283.907
 30
0.000000
  70
    32
  0
VERTEX
  8
0
  5
14EA2
 10
285.131
 20
283.915
 30
0.000000
  70
    32
  0
VERTEX
  8
0
  5
14EA3
 10
285.107
 20
283.923
 30
0.000000
  70
    32
  0
VERTEX
  8
0
  5
14EA4
 10
285.083
 20
283.930
 30
0.000000
  70
    32
  0
VERTEX
  8
0
  5
14EA5
 10
285.059
 20
283.938
 30
0.000000
  70
    32
  0
VERTEX
  8
0
  5
14EA6
 10
285.035
 20
283.945
 30
0.000000
  70
    32
  0
VERTEX
  8
0
  5
14EA7
 10
285.010
 20
283.952
 30
0.000000
  70
    32
  0
VERTEX
  8
0
  5
14EA8
 10
284.986
 20
283.959
 30
0.000000
  70
    32
  0
VERTEX
  8
0
  5
14EA9
 10
284.962
 20
283.966
 30
0.000000
  70
    32
  0
VERTEX
  8
0
  5
14EAA
 10
284.938
 20
283.973
 30
0.000000
  70
    32
  0
VERTEX
  8
0
  5
14EAB
 10
284.914
 20
283.979
 30
0.000000
  70
    32
  0
VERTEX
  8
0
  5
14EAC
 10
284.889
 20
283.986
 30
0.000000
  70
    32
  0
VERTEX
  8
0
  5
14EAD
 10
284.865
 20
283.992
 30
0.000000
  70
    32
  0
VERTEX
  8
0
  5
14EAE
 10
284.841
 20
283.998
 30
0.000000
  70
    32
  0
VERTEX
  8
0
  5
14EAF
 10
284.816
 20
284.004
 30
0.000000
  70
    32
  0
VERTEX
  8
0
  5
14EB0
 10
284.792
 20
284.009
 30
0.000000
  70
    32
  0
VERTEX
  8
0
  5
14EB1
 10
284.768
 20
284.015
 30
0.000000
  70
    32
  0
VERTEX
  8
0
  5
14EB2
 10
284.743
 20
284.020
 30
0.000000
  70
    32
  0
VERTEX
  8
0
  5
14EB3
 10
284.719
 20
284.025
 30
0.000000
  70
    32
  0
VERTEX
  8
0
  5
14EB4
 10
284.695
 20
284.030
 30
0.000000
  70
    32
  0
VERTEX
  8
0
  5
14EB5
 10
284.670
 20
284.035
 30
0.000000
  70
    32
  0
VERTEX
  8
0
  5
14EB6
 10
284.646
 20
284.039
 30
0.000000
  70
    32
  0
VERTEX
  8
0
  5
14EB7
 10
284.621
 20
284.044
 30
0.000000
  70
    32
  0
VERTEX
  8
0
  5
14EB8
 10
284.597
 20
284.048
 30
0.000000
  70
    32
  0
VERTEX
  8
0
  5
14EB9
 10
284.573
 20
284.052
 30
0.000000
  70
    32
  0
VERTEX
  8
0
  5
14EBA
 10
284.548
 20
284.056
 30
0.000000
  70
    32
  0
VERTEX
  8
0
  5
14EBB
 10
284.524
 20
284.060
 30
0.000000
  70
    32
  0
VERTEX
  8
0
  5
14EBC
 10
284.499
 20
284.063
 30
0.000000
  70
    32
  0
VERTEX
  8
0
  5
14EBD
 10
284.475
 20
284.067
 30
0.000000
  70
    32
  0
VERTEX
  8
0
  5
14EBE
 10
284.450
 20
284.070
 30
0.000000
  70
    32
  0
VERTEX
  8
0
  5
14EBF
 10
284.426
 20
284.073
 30
0.000000
  70
    32
  0
VERTEX
  8
0
  5
14EC0
 10
284.401
 20
284.076
 30
0.000000
  70
    32
  0
VERTEX
  8
0
  5
14EC1
 10
284.377
 20
284.079
 30
0.000000
  70
    32
  0
VERTEX
  8
0
  5
14EC2
 10
284.352
 20
284.081
 30
0.000000
  70
    32
  0
VERTEX
  8
0
  5
14EC3
 10
284.328
 20
284.083
 30
0.000000
  70
    32
  0
VERTEX
  8
0
  5
14EC4
 10
284.303
 20
284.086
 30
0.000000
  70
    32
  0
VERTEX
  8
0
  5
14EC5
 10
284.279
 20
284.088
 30
0.000000
  70
    32
  0
VERTEX
  8
0
  5
14EC6
 10
284.254
 20
284.089
 30
0.000000
  70
    32
  0
VERTEX
  8
0
  5
14EC7
 10
284.230
 20
284.091
 30
0.000000
  70
    32
  0
VERTEX
  8
0
  5
14EC8
 10
284.205
 20
284.093
 30
0.000000
  70
    32
  0
VERTEX
  8
0
  5
14EC9
 10
284.181
 20
284.094
 30
0.000000
  70
    32
  0
VERTEX
  8
0
  5
14ECA
 10
284.156
 20
284.095
 30
0.000000
  70
    32
  0
VERTEX
  8
0
  5
14ECB
 10
284.132
 20
284.096
 30
0.000000
  70
    32
  0
VERTEX
  8
0
  5
14ECC
 10
284.107
 20
284.097
 30
0.000000
  70
    32
  0
VERTEX
  8
0
  5
14ECD
 10
284.082
 20
284.097
 30
0.000000
  70
    32
  0
VERTEX
  8
0
  5
14ECE
 10
284.058
 20
284.098
 30
0.000000
  70
    32
  0
VERTEX
  8
0
  5
14ECF
 10
284.033
 20
284.098
 30
0.000000
  70
    32
  0
VERTEX
  8
0
  5
14ED0
 10
284.009
 20
284.098
 30
0.000000
  70
    32
  0
SEQEND
  8
0
  5
14ED1
  0
LINE
  5
D43D
  8
0
 10
239.60158770903951
 20
339.5000000298021
 30
0.0
 11
244.31490136310461
 21
336.52865633368469
 31
0.0
  0
LINE
  5
D43F
  8
0
 10
287.00885066762572
 20
337.29422770440561
 30
0.0
 11
289.21462113037711
 21
339.5000000298021
 31
0.0
  0
LINE
  5
D440
  8
0
 10
244.31490136310461
 20
283.47134336829163
 30
0.0
 11
239.60158770903951
 21
280.49999967217423
 31
0.0
  0
LINE
  5
D441
  8
0
 10
289.21462113037711
 20
280.49999967217423
 30
0.0
 11
287.00885066762572
 21
282.70577199757082
 31
0.0
  0
LINE
  5
D455
  8
0
 10
239.60158770903951
 20
339.99999918043591
 30
0.0
 11
239.60158770903951
 21
339.5000000298021
 31
0.0
  0
LINE
  5
D457
  8
0
 10
239.60158770903951
 20
280.49999967217423
 30
0.0
 11
239.60158770903951
 21
280.00000052154041
 31
0.0
  0
LINE
  5
D45E
  8
0
 10
289.21462113037711
 20
339.99999918043591
 30
0.0
 11
289.21462113037711
 21
339.5000000298021
 31
0.0
  0
LINE
  5
D460
  8
0
 10
289.21462113037711
 20
280.49999967217423
 30
0.0
 11
289.21462113037711
 21
280.00000052154041
 31
0.0
  0
LINE
  5
D462
  8
0
 10
293.14282426610589
 20
280.00000052154041
 30
0.0
 11
232.00000084005319
 21
280.00000052154041
 31
0.0
  0
LINE
  5
D465
  8
0
 10
232.00000084005299
 20
339.99999918043591
 30
0.0
 11
293.14282426610589
 21
339.99999918043591
 31
0.0
  0
LINE
  5
D467
  8
0
 10
234.43571711657569
 20
337.29289218783362
 30
0.0
 11
236.8499306682497
 21
339.70710754394509
 31
0.0
  0
ARC
  5
D46A
  8
0
 10
237.5570374708509
 20
280.99999985098822
 30
0.0
 40
1.0
 50
225.00000000000659
 51
270.0
  0
ARC
  5
D46C
  8
0
 10
237.5570374708509
 20
338.99999985098822
 30
0.0
 40
1.0
 50
90.0
 51
135.00000000000739
  0
LINE
  5
D46D
  8
0
 10
236.8499306682497
 20
280.29289215803129
 30
0.0
 11
234.43571711657569
 21
282.70710751414282
 31
0.0
  0
ARC
  5
D470
  8
0
 10
235.14282390847799
 20
283.41421341336121
 30
0.0
 40
1.0000000000000071
 50
180.0
 51
225.00000000000659
  0
LINE
  5
D471
  8
0
 10
234.14282390847799
 20
283.41421417891962
 30
0.0
 11
234.14282390847799
 21
336.58578552305681
 31
0.0
  0
ARC
  5
D473
  8
0
 10
235.14282390847799
 20
336.58578628861511
 30
0.0
 40
1.0
 50
135.00000000000739
 51
179.9999999999992
  0
ARC
  5
D475
  8
0
 10
293.14282390847802
 20
283.9999998509881
 30
0.0
 40
4.0
 50
270.0
 51
0.0
  0
ARC
  5
D476
  8
0
 10
293.14282390847802
 20
335.99999985098822
 30
0.0
 40
4.0
 50
0.0
 51
90.0
  0
LINE
  5
D478
  8
0
 10
297.14282492175698
 20
336.00000038743002
 30
0.0
 11
297.14282492175698
 21
283.99999931454641
 31
0.0
  0
ARC
  5
D47B
  8
0
 10
270.0423188450896
 20
346.9999998509881
 30
0.0
 40
7.000000000000056
 50
225.00000000000659
 51
270.0
  0
ARC
  5
D47C
  8
0
 10
270.0423188450896
 20
272.99999985098822
 30
0.0
 40
7.0000000000000364
 50
90.0
 51
135.00000000000739
  0
LINE
  5
D47F
  8
0
 10
241.14282412454489
 20
360.00000059604622
 30
0.0
 11
253.14282329753041
 21
360.00000059604622
 31
0.0
  0
ARC
  5
D483
  8
0
 10
253.14282390847799
 20
352.9999998509881
 30
0.0
 40
7.0
 50
0.0
 51
90.0
  0
LINE
  5
D488
  8
0
 10
234.14282390847799
 20
339.99999918043591
 30
0.0
 11
234.14282390847799
 21
353.00000131130201
 31
0.0
  0
ARC
  5
D489
  8
0
 10
267.14282390847802
 20
349.89949478759991
 30
0.0
 40
7.0000000000000959
 50
180.0
 51
225.00000000000659
  0
LINE
  5
D48D
  8
0
 10
265.0925710983575
 20
277.94974789023382
 30
0.0
 11
262.19307707622647
 21
275.0502538681028
 31
0.0
  0
LINE
  5
D490
  8
0
 10
260.14282444491982
 20
270.10050535202009
 30
0.0
 11
260.14282444491982
 21
266.99999839067442
 31
0.0
  0
ARC
  5
D494
  8
0
 10
267.14282390847802
 20
270.10050491437642
 30
0.0
 40
7.0000000000000151
 50
134.99999999999361
 51
180.0
  0
LINE
  5
D496
  8
0
 10
260.14282444491982
 20
353.00000131130201
 30
0.0
 11
260.14282444491982
 21
349.89949434995629
 31
0.0
  0
LINE
  5
D498
  8
0
 10
253.14282329753041
 20
259.9999991059301
 30
0.0
 11
241.14282412454489
 21
259.9999991059301
 31
0.0
  0
ARC
  5
D49C
  8
0
 10
241.14282390847799
 20
352.9999998509881
 30
0.0
 40
7.0
 50
90.0
 51
180.0
  0
ARC
  5
D49E
  8
0
 10
241.14282390847799
 20
266.99999985098822
 30
0.0
 40
7.0
 50
180.0
 51
270.0
  0
LINE
  5
D4A1
  8
0
 10
262.19307707622647
 20
344.94974583387352
 30
0.0
 11
265.0925710983575
 21
342.05025181174261
 31
0.0
  0
ARC
  5
D4A3
  8
0
 10
253.14282390847799
 20
266.99999985098822
 30
0.0
 40
7.0
 50
270.0
 51
0.0
  0
LINE
  5
D4A6
  8
0
 10
234.14282390847799
 20
266.99999839067442
 30
0.0
 11
234.14282390847799
 21
280.00000052154041
 31
0.0
  0
ARC
  5
D4A7
  8
0
 10
244.64282390847799
 20
270.29999985098812
 30
0.0
 40
4.0000000000000284
 50
90.0
 51
180.0
  0
ARC
  5
D4AB
  8
0
 10
244.64282390847799
 20
349.69999985098821
 30
0.0
 40
4.0
 50
180.0
 51
270.0
  0
LINE
  5
D4AF
  8
0
 10
244.64282376691699
 20
265.6999987363813
 30
0.0
 11
249.64282365515831
 21
265.6999987363813
 31
0.0
  0
ARC
  5
D4B5
  8
0
 10
249.64282390847799
 20
350.29999985098812
 30
0.0
 40
4.0
 50
0.0
 51
90.0
  0
ARC
  5
D4BE
  8
0
 10
249.64282390847799
 20
270.29999985098812
 30
0.0
 40
4.0000000000000284
 50
0.0
 51
90.0
  0
ARC
  5
D4C2
  8
0
 10
244.64282390847799
 20
350.29999985098812
 30
0.0
 40
4.0
 50
90.0
 51
180.0
  0
LINE
  5
D4C5
  8
0
 10
253.6428243108094
 20
269.6999993920324
 30
0.0
 11
253.6428243108094
 21
270.29999837279303
 31
0.0
  0
ARC
  5
D4C6
  8
0
 10
249.64282390847799
 20
269.69999985098809
 30
0.0
 40
4.0
 50
270.0
 51
0.0
  0
ARC
  5
D4CD
  8
0
 10
249.64282390847799
 20
349.69999985098821
 30
0.0
 40
4.0
 50
270.0
 51
0.0
  0
LINE
  5
D4CF
  8
0
 10
240.6428240425885
 20
270.29999837279303
 30
0.0
 11
240.6428240425885
 21
269.6999993920324
 31
0.0
  0
LINE
  5
D4D1
  8
0
 10
249.64282365515831
 20
354.30000096559502
 30
0.0
 11
244.64282376691699
 21
354.30000096559502
 31
0.0
  0
LINE
  5
D4D2
  8
0
 10
240.6428240425885
 20
350.30000030994393
 30
0.0
 11
240.6428240425885
 21
349.70000132918341
 31
0.0
  0
ARC
  5
D4D3
  8
0
 10
244.64282390847799
 20
269.69999985098809
 30
0.0
 40
4.0
 50
180.0
 51
270.0
  0
LINE
  5
D4D4
  8
0
 10
244.64282376691699
 20
345.70000067353232
 30
0.0
 11
249.64282365515831
 21
345.70000067353232
 31
0.0
  0
LINE
  5
D4D5
  8
0
 10
253.6428243108094
 20
349.70000132918341
 30
0.0
 11
253.6428243108094
 21
350.30000030994393
 31
0.0
  0
LINE
  5
D4D6
  8
0
 10
249.64282365515831
 20
274.29999902844412
 30
0.0
 11
244.64282376691699
 21
274.29999902844412
 31
0.0
  0
POLYLINE
  5
D5C0
  8
0
 66
     1
 10
0.0
 20
0.0
 30
0.0
 70
   128
  0
VERTEX
  5
14A58
  8
0
 10
141.51456996798561
 20
201.0136273503299
 30
0.0
  0
VERTEX
  5
14A59
  8
0
 10
140.5610819160938
 20
200.94050176441641
 30
0.0
  0
VERTEX
  5
14A5A
  8
0
 10
139.22348663210869
 20
200.7971581816671
 30
0.0
  0
VERTEX
  5
14A5B
  8
0
 10
137.78746917843819
 20
200.67766577005361
 30
0.0
  0
VERTEX
  5
14A5C
  8
0
 10
136.43177643418309
 20
200.5246122181413
 30
0.0
  0
VERTEX
  5
14A5D
  8
0
 10
135.1976622641086
 20
200.34395426511739
 30
0.0
  0
VERTEX
  5
14A5E
  8
0
 10
134.08265307545659
 20
200.16954176127891
 30
0.0
  0
VERTEX
  5
14A5F
  8
0
 10
132.96924576163289
 20
200.00196516513799
 30
0.0
  0
VERTEX
  5
14A60
  8
0
 10
130.98796501755709
 20
199.72167432308169
 30
0.0
  0
VERTEX
  5
14A61
  8
0
 10
128.72399061918259
 20
199.4310588389632
 30
0.0
  0
VERTEX
  5
14A62
  8
0
 10
126.178231537342
 20
199.14443314075439
 30
0.0
  0
VERTEX
  5
14A63
  8
0
 10
122.717500180006
 20
198.8269490003583
 30
0.0
  0
VERTEX
  5
14A64
  8
0
 10
118.9733785390854
 20
198.59071157872651
 30
0.0
  0
VERTEX
  5
14A65
  8
0
 10
115.0655415654182
 20
198.46743799746011
 30
0.0
  0
VERTEX
  5
14A66
  8
0
 10
111.0213999450206
 20
198.43745872378321
 30
0.0
  0
VERTEX
  5
14A67
  8
0
 10
106.8520811200142
 20
198.55547964572881
 30
0.0
  0
VERTEX
  5
14A68
  8
0
 10
102.7144633845046
 20
198.8689680569419
 30
0.0
  0
SEQEND
  5
14A69
  8
0
  0
POLYLINE
  5
D5C1
  8
0
 66
     1
 10
0.0
 20
0.0
 30
0.0
 70
   128
  0
VERTEX
  5
14A6A
  8
0
 10
102.7144633845046
 20
185.1310331947551
 30
0.0
  0
VERTEX
  5
14A6B
  8
0
 10
104.16227251291269
 20
185.28105866163941
 30
0.0
  0
VERTEX
  5
14A6C
  8
0
 10
105.95187962055201
 20
185.44367969036071
 30
0.0
  0
VERTEX
  5
14A6D
  8
0
 10
108.0381725728511
 20
185.57296775281401
 30
0.0
  0
VERTEX
  5
14A6E
  8
0
 10
110.42000770568841
 20
185.6476505100724
 30
0.0
  0
VERTEX
  5
14A6F
  8
0
 10
113.0965058505535
 20
185.6420197337863
 30
0.0
  0
VERTEX
  5
14A70
  8
0
 10
116.7110358178615
 20
185.5331350862977
 30
0.0
  0
VERTEX
  5
14A71
  8
0
 10
120.1076847314834
 20
185.35670161247231
 30
0.0
  0
VERTEX
  5
14A72
  8
0
 10
123.2829061150551
 20
185.1262979954478
 30
0.0
  0
VERTEX
  5
14A73
  8
0
 10
127.0433408021927
 20
184.76308405399291
 30
0.0
  0
VERTEX
  5
14A74
  8
0
 10
130.47890782356259
 20
184.3465770408508
 30
0.0
  0
VERTEX
  5
14A75
  8
0
 10
133.6036105453968
 20
183.90343327075209
 30
0.0
  0
VERTEX
  5
14A76
  8
0
 10
134.74763229489321
 20
183.7269895523784
 30
0.0
  0
VERTEX
  5
14A77
  8
0
 10
135.8457063138485
 20
183.5570194572208
 30
0.0
  0
VERTEX
  5
14A78
  8
0
 10
136.91345646977419
 20
183.41413874179099
 30
0.0
  0
VERTEX
  5
14A79
  8
0
 10
138.16480383276939
 20
183.25349677354069
 30
0.0
  0
VERTEX
  5
14A7A
  8
0
 10
139.67493966221809
 20
183.08714114129521
 30
0.0
  0
VERTEX
  5
14A7B
  8
0
 10
141.5145699679847
 20
182.9863739013667
 30
0.0
  0
SEQEND
  5
14A7C
  8
0
  0
ARC
  5
D5CD
  8
0
 10
141.47291258019641
 20
192.00665354586241
 30
0.0
 40
9.0070701369712634
 50
359.95767943770051
 51
89.735008057150623
  0
POLYLINE
  5
D5CF
  8
0
 66
     1
 10
0.0
 20
0.0
 30
0.0
 70
   128
  0
VERTEX
  5
14A7D
  8
0
 10
100.00000007450581
 20
196.1738494038579
 30
0.0
  0
VERTEX
  5
14A7E
  8
0
 10
102.15046301484099
 20
195.69630816578839
 30
0.0
  0
VERTEX
  5
14A7F
  8
0
 10
105.6418721377849
 20
195.05098171532131
 30
0.0
  0
VERTEX
  5
14A80
  8
0
 10
109.1614221036434
 20
194.59354214370219
 30
0.0
  0
VERTEX
  5
14A81
  8
0
 10
112.7101299166679
 20
194.39489662647219
 30
0.0
  0
VERTEX
  5
14A82
  8
0
 10
114.29999068379399
 20
194.40956123173211
 30
0.0
  0
VERTEX
  5
14A83
  8
0
 10
115.9148369729519
 20
194.49632324278329
 30
0.0
  0
VERTEX
  5
14A84
  8
0
 10
117.55699709057799
 20
194.652515351772
 30
0.0
  0
VERTEX
  5
14A85
  8
0
 10
119.43895414471621
 20
194.89402964711161
 30
0.0
  0
VERTEX
  5
14A86
  8
0
 10
121.27616301178929
 20
195.18271356821029
 30
0.0
  0
VERTEX
  5
14A87
  8
0
 10
123.1710393726825
 20
195.52386261522739
 30
0.0
  0
VERTEX
  5
14A88
  8
0
 10
125.1021218299865
 20
195.9015493094918
 30
0.0
  0
VERTEX
  5
14A89
  8
0
 10
127.0544458925724
 20
196.29879936575861
 30
0.0
  0
VERTEX
  5
14A8A
  8
0
 10
129.51418057084081
 20
196.79409347474549
 30
0.0
  0
VERTEX
  5
14A8B
  8
0
 10
131.98433116078371
 20
197.25317962467639
 30
0.0
  0
VERTEX
  5
14A8C
  8
0
 10
134.45304378867149
 20
197.6387676596639
 30
0.0
  0
VERTEX
  5
14A8D
  8
0
 10
136.96087196469301
 20
197.90883816778631
 30
0.0
  0
VERTEX
  5
14A8E
  8
0
 10
138.62284317612639
 20
197.9857765883205
 30
0.0
  0
VERTEX
  5
14A8F
  8
0
 10
140.13173475861549
 20
197.9482927173373
 30
0.0
  0
VERTEX
  5
14A90
  8
0
 10
141.45507708191869
 20
197.80417054891561
 30
0.0
  0
VERTEX
  5
14A91
  8
0
 10
142.40411713719359
 20
197.62220501899691
 30
0.0
  0
VERTEX
  5
14A92
  8
0
 10
143.34207072854039
 20
197.37188786268209
 30
0.0
  0
VERTEX
  5
14A93
  8
0
 10
144.2561154067516
 20
197.0537704229352
 30
0.0
  0
VERTEX
  5
14A94
  8
0
 10
145.1303069293499
 20
196.66924223303769
 30
0.0
  0
VERTEX
  5
14A95
  8
0
 10
145.95120444893831
 20
196.22081786394091
 30
0.0
  0
VERTEX
  5
14A96
  8
0
 10
146.71530619263649
 20
195.71551948785751
 30
0.0
  0
VERTEX
  5
14A97
  8
0
 10
148.0696876347065
 20
194.56733100116219
 30
0.0
  0
VERTEX
  5
14A98
  8
0
 10
149.19982150197029
 20
193.3002945780751
 30
0.0
  0
VERTEX
  5
14A99
  8
0
 10
150.12589141726491
 20
192.00000062584849
 30
0.0
  0
SEQEND
  5
14A9A
  8
0
  0
POLYLINE
  5
D5D0
  8
0
 66
     1
 10
0.0
 20
0.0
 30
0.0
 70
   128
  0
VERTEX
  5
14A9B
  8
0
 10
100.00000007450581
 20
187.8275879472491
 30
0.0
  0
VERTEX
  5
14A9C
  8
0
 10
101.72467723488801
 20
188.216513842344
 30
0.0
  0
VERTEX
  5
14A9D
  8
0
 10
105.1042419672012
 20
188.86249408125849
 30
0.0
  0
VERTEX
  5
14A9E
  8
0
 10
108.50518241524691
 20
189.33793239295451
 30
0.0
  0
VERTEX
  5
14A9F
  8
0
 10
110.1130139827728
 20
189.4863833487031
 30
0.0
  0
VERTEX
  5
14AA0
  8
0
 10
111.7210951447487
 20
189.5781819522378
 30
0.0
  0
VERTEX
  5
14AA1
  8
0
 10
113.3292657136917
 20
189.6069933474061
 30
0.0
  0
VERTEX
  5
14AA2
  8
0
 10
114.9516333639621
 20
189.5640016347167
 30
0.0
  0
VERTEX
  5
14AA3
  8
0
 10
116.5684205293655
 20
189.44930180907221
 30
0.0
  0
VERTEX
  5
14AA4
  8
0
 10
117.9951247572899
 20
189.29698400199391
 30
0.0
  0
VERTEX
  5
14AA5
  8
0
 10
119.3605181574821
 20
189.11716982722251
 30
0.0
  0
VERTEX
  5
14AA6
  8
0
 10
120.69695487618441
 20
188.9134616404769
 30
0.0
  0
VERTEX
  5
14AA7
  8
0
 10
122.0666882395744
 20
188.68000328540771
 30
0.0
  0
VERTEX
  5
14AA8
  8
0
 10
123.46176847815509
 20
188.421237170696
 30
0.0
  0
VERTEX
  5
14AA9
  8
0
 10
124.8727706074714
 20
188.14358755946131
 30
0.0
  0
VERTEX
  5
14AAA
  8
0
 10
126.296706944704
 20
187.8544156253335
 30
0.0
  0
VERTEX
  5
14AAB
  8
0
 10
128.936607837677
 20
187.31826439499829
 30
0.0
  0
VERTEX
  5
14AAC
  8
0
 10
131.5989536046981
 20
186.8136812746522
 30
0.0
  0
VERTEX
  5
14AAD
  8
0
 10
134.26423862576479
 20
186.38724729418729
 30
0.0
  0
VERTEX
  5
14AAE
  8
0
 10
136.5276058018207
 20
186.12457521259759
 30
0.0
  0
VERTEX
  5
14AAF
  8
0
 10
138.78225579857821
 20
186.01226329803441
 30
0.0
  0
VERTEX
  5
14AB0
  8
0
 10
140.26229873299599
 20
186.06092117726769
 30
0.0
  0
VERTEX
  5
14AB1
  8
0
 10
141.723722666502
 20
186.24003313481779
 30
0.0
  0
VERTEX
  5
14AB2
  8
0
 10
143.20567294955251
 20
186.5873810648915
 30
0.0
  0
VERTEX
  5
14AB3
  8
0
 10
144.31282922625539
 20
186.96937978267641
 30
0.0
  0
VERTEX
  5
14AB4
  8
0
 10
145.3806017339229
 20
187.45801679789989
 30
0.0
  0
VERTEX
  5
14AB5
  8
0
 10
146.37967243790621
 20
188.05162131786321
 30
0.0
  0
VERTEX
  5
14AB6
  8
0
 10
147.30023637413981
 20
188.73814947903131
 30
0.0
  0
VERTEX
  5
14AB7
  8
0
 10
148.39351966977119
 20
189.76712867617579
 30
0.0
  0
VERTEX
  5
14AB8
  8
0
 10
149.33289632201189
 20
190.87283954024289
 30
0.0
  0
VERTEX
  5
14AB9
  8
0
 10
150.12589141726491
 20
192.00000062584849
 30
0.0
  0
SEQEND
  5
14ABA
  8
0
  0
ARC
  5
D5D1
  8
0
 10
141.47291151069291
 20
191.9933487696164
 30
0.0
 40
9.0070712056886535
 50
270.26499871479962
 51
0.0423137903546381
  0
ARC
  5
D5D2
  8
0
 10
110.4596800797712
 20
104.2299650894271
 30
0.0
 40
81.270973922056257
 50
95.468652667841283
 51
97.394551867343765
  0
LINE
  5
D5D9
  8
0
 10
80.000000521540642
 20
202.00000226497619
 30
0.0
 11
79.000000357627854
 21
203.0000005662439
 31
0.0
  0
LINE
  5
D5DA
  8
0
 10
80.000000521540642
 20
182.0000008493659
 30
0.0
 11
80.000000521540642
 21
202.00000226497619
 31
0.0
  0
LINE
  5
D5DB
  8
0
 10
79.000000357627854
 20
181.0000006854531
 30
0.0
 11
80.000000521540642
 21
182.0000008493659
 31
0.0
  0
LINE
  5
D5DC
  8
0
 10
79.000000357627854
 20
181.0000006854531
 30
0.0
 11
79.000000357627854
 21
203.0000005662439
 31
0.0
  0
LINE
  5
D5DD
  8
0
 10
80.000000521540642
 20
182.0000008493659
 30
0.0
 11
98.000001609325395
 21
182.0000008493659
 31
0.0
  0
LINE
  5
D5DE
  8
0
 10
98.000001609325395
 20
182.0000008493659
 30
0.0
 11
98.999999910593033
 21
181.0000006854531
 31
0.0
  0
LINE
  5
D5E0
  8
0
 10
61.000001132488251
 20
203.0000005662439
 30
0.0
 11
60.00000096857547
 21
202.00000226497619
 31
0.0
  0
LINE
  5
D5E1
  8
0
 10
61.000001132488251
 20
181.0000006854531
 30
0.0
 11
61.000001132488251
 21
203.0000005662439
 31
0.0
  0
LINE
  5
D5E2
  8
0
 10
60.00000096857547
 20
182.0000008493659
 30
0.0
 11
61.000001132488251
 21
181.0000006854531
 31
0.0
  0
LINE
  5
D5E3
  8
0
 10
60.00000096857547
 20
182.0000008493659
 30
0.0
 11
60.00000096857547
 21
202.00000226497619
 31
0.0
  0
LINE
  5
D5E5
  8
0
 10
40.000001415610313
 20
203.0000005662439
 30
0.0
 11
100.00000007450581
 21
203.0000005662439
 31
0.0
  0
LINE
  5
D5E6
  8
0
 10
41.99999988079071
 20
202.00000226497619
 30
0.0
 11
41.000001579523079
 21
203.0000005662439
 31
0.0
  0
LINE
  5
D5E7
  8
0
 10
41.99999988079071
 20
202.00000226497619
 30
0.0
 11
41.99999988079071
 21
182.0000008493659
 31
0.0
  0
LINE
  5
D5E8
  8
0
 10
41.000001579523079
 20
181.0000006854531
 30
0.0
 11
41.99999988079071
 21
182.0000008493659
 31
0.0
  0
LINE
  5
D5E9
  8
0
 10
100.000000074506
 20
181.00000068545319
 30
0.0
 11
40.000001415610313
 21
181.0000006854531
 31
0.0
  0
LINE
  5
D5EA
  8
0
 10
41.99999988079071
 20
182.0000008493659
 30
0.0
 11
60.00000096857547
 21
182.0000008493659
 31
0.0
  0
LINE
  5
D5EC
  8
0
 10
98.999999910593033
 20
203.0000005662439
 30
0.0
 11
98.000001609325395
 21
202.00000226497619
 31
0.0
  0
LINE
  5
D5F0
  8
0
 10
98.000001609325395
 20
182.0000008493659
 30
0.0
 11
98.000001609325395
 21
202.00000226497619
 31
0.0
  0
LINE
  5
D5F1
  8
0
 10
98.000001609325395
 20
202.00000226497619
 30
0.0
 11
80.000000521540642
 21
202.00000226497619
 31
0.0
  0
LINE
  5
D5F3
  8
0
 10
60.00000096857547
 20
202.00000226497619
 30
0.0
 11
41.99999988079071
 21
202.00000226497619
 31
0.0
  0
LINE
  5
D5FE
  8
0
 10
119.5000004768371
 20
170.0000007450578
 30
0.0
 11
120.00000149011611
 21
170.5000007688065
 31
0.0
  0
LINE
  5
D602
  8
0
 10
60.00000096857547
 20
170.5000007688065
 30
0.0
 11
59.500000886619091
 21
170.0000007450578
 31
0.0
  0
LINE
  5
D604
  8
0
 10
119.5000004768369
 20
170.0000007450578
 30
0.0
 11
80.500000603497014
 21
170.0000007450578
 31
0.0
  0
LINE
  5
D605
  8
0
 10
80.500000603497014
 20
170.0000007450578
 30
0.0
 11
80.000000521540642
 21
170.5000007688065
 31
0.0
  0
LINE
  5
D606
  8
0
 10
59.500000886618857
 20
170.0000007450578
 30
0.0
 11
20.500001013278961
 21
170.0000007450578
 31
0.0
  0
LINE
  5
D607
  8
0
 10
20.500001013278961
 20
170.0000007450578
 30
0.0
 11
20.0
 21
170.5000007688065
 31
0.0
  0
LINE
  5
D60F
  8
0
 10
80.000000521540642
 20
170.5000007688065
 30
0.0
 11
60.00000096857547
 21
170.5000007688065
 31
0.0
  0
LINE
  5
D611
  8
0
 10
120.00000149011611
 20
179.00000035762761
 30
0.0
 11
120.00000149011611
 21
170.5000007688065
 31
0.0
  0
LINE
  5
D613
  8
0
 10
20.0
 20
170.5000007688065
 30
0.0
 11
20.0
 21
179.00000035762761
 31
0.0
  0
LINE
  5
D618
  8
0
 10
100.00000007450581
 20
180.0000005215403
 30
0.0
 11
118.9999994635582
 21
180.00000052154039
 31
0.0
  0
ARC
  5
D619
  8
0
 10
119.000000745058
 20
179.0000007450578
 30
0.0
 40
1.0
 50
0.0
 51
90.0
  0
ARC
  5
D61A
  8
0
 10
21.00000074505806
 20
179.0000007450578
 30
0.0
 40
1.0
 50
90.0
 51
180.0
  0
LINE
  5
D61B
  8
0
 10
21.000002026557919
 20
180.00000052154039
 30
0.0
 11
40.000001415610093
 21
180.0000005215403
 31
0.0
  0
LINE
  5
D63C
  8
0
 10
100.00000007450581
 20
206.9226492941377
 30
0.0
 11
100.00000007450581
 21
180.0000005215403
 31
0.0
  0
LINE
  5
D63E
  8
0
 10
40.000001415610313
 20
180.0000005215403
 30
0.0
 11
40.000001415610313
 21
206.9226492941377
 31
0.0
  0
ARC
  5
D63F
  8
0
 10
41.00000074505806
 20
206.92265047586829
 30
0.0
 40
1.000000000000008
 50
119.9999999999993
 51
180.0
  0
ARC
  5
D641
  8
0
 10
99.00000074505806
 20
206.92265047586829
 30
0.0
 40
1.000000000000022
 50
0.0
 51
60.000000000000682
  0
LINE
  5
D643
  8
0
 10
40.500000566244118
 20
207.78867498040171
 30
0.0
 11
44.098076812716499
 21
209.86602606587991
 31
0.0
  0
LINE
  5
D645
  8
0
 10
95.901924533704914
 20
209.86602614884231
 30
0.0
 11
99.500000923871994
 21
207.78867498040171
 31
0.0
  0
ARC
  5
D647
  8
0
 10
44.598076956411433
 20
209.0000007450578
 30
0.0
 40
1.000000000000008
 50
90.0
 51
119.9999999999993
  0
LINE
  5
D64B
  8
0
 10
44.598076939582818
 20
209.9999998509881
 30
0.0
 11
95.401924550533295
 21
209.9999998509881
 31
0.0
  0
ARC
  5
D64C
  8
0
 10
95.401924533704914
 20
209.0000007450578
 30
0.0
 40
1.000000000000022
 50
60.000000000000682
 51
90.0
  0
ARC
  5
D651
  8
0
 10
405.67227258592442
 20
192.0050252956095
 30
0.0
 40
8.9994373533787098
 50
91.167919230960138
 51
180.03199004273969
  0
LINE
  5
D654
  8
0
 10
405.23691395297641
 20
183.0234656855466
 30
0.0
 11
405.9326417185365
 21
182.98854574561139
 31
0.0
  0
ARC
  5
D655
  8
0
 10
405.62036227761701
 20
191.9628483707763
 30
0.0
 40
8.9476027745235971
 50
179.76209566010209
 51
267.5438448076319
  0
POLYLINE
  5
D659
  8
0
 66
     1
 10
0.0
 20
0.0
 30
0.0
 70
   128
  0
VERTEX
  5
14ABB
  8
0
 10
487.6033534668386
 20
183.0000010132791
 30
0.0
  0
VERTEX
  5
14ABC
  8
0
 10
487.96965567395091
 20
183.03493212908521
 30
0.0
  0
VERTEX
  5
14ABD
  8
0
 10
488.1495145522058
 20
183.14597930759211
 30
0.0
  0
VERTEX
  5
14ABE
  8
0
 10
488.18175973370671
 20
183.18436004221459
 30
0.0
  0
VERTEX
  5
14ABF
  8
0
 10
488.19676240906119
 20
183.20478301495331
 30
0.0
  0
VERTEX
  5
14AC0
  8
0
 10
488.21100885048509
 20
183.22591006755849
 30
0.0
  0
VERTEX
  5
14AC1
  8
0
 10
488.22445621714002
 20
183.24764993041771
 30
0.0
  0
VERTEX
  5
14AC2
  8
0
 10
488.23704304173589
 20
183.26990481466069
 30
0.0
  0
VERTEX
  5
14AC3
  8
0
 10
488.25933331623668
 20
183.31556662917151
 30
0.0
  0
VERTEX
  5
14AC4
  8
0
 10
488.290303517133
 20
183.4088134393098
 30
0.0
  0
VERTEX
  5
14AC5
  8
0
 10
488.30069148913032
 20
183.50000109523549
 30
0.0
  0
SEQEND
  5
14AC6
  8
0
  0
POLYLINE
  5
D65A
  8
0
 66
     1
 10
0.0
 20
0.0
 30
0.0
 70
   128
  0
VERTEX
  5
14AC7
  8
0
 10
488.30069148913032
 20
200.50000108778499
 30
0.0
  0
VERTEX
  5
14AC8
  8
0
 10
488.29212518408889
 20
200.59106953442119
 30
0.0
  0
VERTEX
  5
14AC9
  8
0
 10
488.281035926193
 20
200.63770644366761
 30
0.0
  0
VERTEX
  5
14ACA
  8
0
 10
488.27372597530479
 20
200.66101931035541
 30
0.0
  0
VERTEX
  5
14ACB
  8
0
 10
488.2652267254889
 20
200.68420737981819
 30
0.0
  0
VERTEX
  5
14ACC
  8
0
 10
488.255529794842
 20
200.7071756571533
 30
0.0
  0
VERTEX
  5
14ACD
  8
0
 10
488.24462028220302
 20
200.7298291474583
 30
0.0
  0
VERTEX
  5
14ACE
  8
0
 10
488.21905827149749
 20
200.7737968862059
 30
0.0
  0
VERTEX
  5
14ACF
  8
0
 10
488.15132876858121
 20
200.8537229895594
 30
0.0
  0
VERTEX
  5
14AD0
  8
0
 10
488.01986513659358
 20
200.93622513115429
 30
0.0
  0
VERTEX
  5
14AD1
  8
0
 10
487.83581437543029
 20
200.98490722477459
 30
0.0
  0
VERTEX
  5
14AD2
  8
0
 10
487.6033534668386
 20
201.00000023841881
 30
0.0
  0
SEQEND
  5
14AD3
  8
0
  0
LINE
  5
D65B
  8
0
 10
488.30069148913032
 20
183.50000109523549
 30
0.0
 11
488.30069148913032
 21
187.50000081956401
 31
0.0
  0
LINE
  5
D65C
  8
0
 10
488.30069148913032
 20
196.50000043213379
 30
0.0
 11
488.30069148913032
 21
200.50000108778499
 31
0.0
  0
LINE
  5
D65D
  8
0
 10
484.64282475411892
 20
187.50000081956401
 30
0.0
 11
484.64282475411892
 21
196.50000043213379
 31
0.0
  0
LINE
  5
D65E
  8
0
 10
469.64282508939499
 20
196.50000043213379
 30
0.0
 11
469.64282508939499
 21
187.50000081956401
 31
0.0
  0
ARC
  5
D661
  8
0
 10
477.14282492175698
 20
192.0000007450578
 30
0.0
 40
8.0000000000000089
 50
339.63586519368351
 51
20.364134806316461
  0
ARC
  5
D662
  8
0
 10
477.14282492175698
 20
192.0000007450578
 30
0.0
 40
8.0000000000000089
 50
159.63586519368349
 51
200.3641348063164
  0
CIRCLE
  5
D663
  8
0
 10
497.14282492175693
 20
192.0000007450578
 30
0.0
 40
4.5000000000000098
  0
LINE
  5
D665
  8
0
 10
498.64282555282938
 20
192.86602499802919
 30
0.0
 11
497.14282768873488
 21
193.73205103317611
 31
0.0
  0
LINE
  5
D666
  8
0
 10
497.14282768873488
 20
193.73205103317611
 30
0.0
 11
495.64282665838618
 21
192.86602853519381
 31
0.0
  0
LINE
  5
D667
  8
0
 10
495.64282665838618
 20
192.86602853519381
 30
0.0
 11
495.642823441286
 21
191.13397814011361
 31
0.0
  0
LINE
  5
D668
  8
0
 10
495.642823441286
 20
191.13397814011361
 30
0.0
 11
497.14282311648537
 21
190.26795019216991
 31
0.0
  0
LINE
  5
D669
  8
0
 10
497.14282311648537
 20
190.26795019216991
 30
0.0
 11
498.64282414683521
 21
191.13397269015209
 31
0.0
  0
LINE
  5
D66A
  8
0
 10
498.64282414683521
 20
191.13397269015209
 30
0.0
 11
498.64282555282938
 21
192.86602499802919
 31
0.0
  0
LINE
  5
D66C
  8
0
 10
476.18411174276838
 20
183.50000109523549
 30
0.0
 11
488.30069148913032
 21
183.50000109523549
 31
0.0
  0
LINE
  5
D66F
  8
0
 10
488.30069148913032
 20
200.50000108778499
 30
0.0
 11
476.18411174276838
 21
200.50000108778499
 31
0.0
  0
POLYLINE
  5
D683
  8
0
 66
     1
 10
0.0
 20
0.0
 30
0.0
 70
   128
  0
VERTEX
  5
14AD4
  8
0
 10
476.18411174276838
 20
200.50000108778499
 30
0.0
  0
VERTEX
  5
14AD5
  8
0
 10
473.95263555459678
 20
200.36271296441569
 30
0.0
  0
VERTEX
  5
14AD6
  8
0
 10
471.72115942463279
 20
200.0289046019318
 30
0.0
  0
VERTEX
  5
14AD7
  8
0
 10
469.48968352749938
 20
199.61564883589759
 30
0.0
  0
VERTEX
  5
14AD8
  8
0
 10
466.85972915962338
 20
199.18585650622859
 30
0.0
  0
VERTEX
  5
14AD9
  8
0
 10
464.22977572306991
 20
198.9999999105932
 30
0.0
  0
SEQEND
  5
14ADA
  8
0
  0
LINE
  5
D685
  8
0
 10
464.40408671274781
 20
201.00000023841881
 30
0.0
 11
487.6033534668386
 21
201.00000023841881
 31
0.0
  0
POLYLINE
  5
D686
  8
0
 66
     1
 10
0.0
 20
0.0
 30
0.0
 70
   128
  0
VERTEX
  5
14ADB
  8
0
 10
464.22977572306991
 20
185.0000004097821
 30
0.0
  0
VERTEX
  5
14ADC
  8
0
 10
466.46125162020331
 20
184.86271321773549
 30
0.0
  0
VERTEX
  5
14ADD
  8
0
 10
468.69272751733661
 20
184.52890392392891
 30
0.0
  0
VERTEX
  5
14ADE
  8
0
 10
470.92420388013119
 20
184.1156490892173
 30
0.0
  0
VERTEX
  5
14ADF
  8
0
 10
473.55415778234601
 20
183.68585675954839
 30
0.0
  0
VERTEX
  5
14AE0
  8
0
 10
476.18411174276838
 20
183.50000109523549
 30
0.0
  0
SEQEND
  5
14AE1
  8
0
  0
LINE
  5
D688
  8
0
 10
487.6033534668386
 20
183.0000010132791
 30
0.0
 11
464.40408671274781
 21
183.0000010132791
 31
0.0
  0
POLYLINE
  5
D689
  8
0
 66
     1
 10
0.0
 20
0.0
 30
0.0
 70
   128
  0
VERTEX
  5
14AE2
  8
0
 10
464.22977572306991
 20
185.0000004097821
 30
0.0
  0
VERTEX
  5
14AE3
  8
0
 10
459.43370940163732
 20
185.14343805611151
 30
0.0
  0
VERTEX
  5
14AE4
  8
0
 10
454.65109603479499
 20
185.5949907377364
 30
0.0
  0
VERTEX
  5
14AE5
  8
0
 10
449.89091264083982
 20
186.326677799225
 30
0.0
  0
VERTEX
  5
14AE6
  8
0
 10
445.12685680761928
 20
187.01568141579639
 30
0.0
  0
VERTEX
  5
14AE7
  8
0
 10
440.33965760841971
 20
187.3983581364156
 30
0.0
  0
VERTEX
  5
14AE8
  8
0
 10
435.54371515288949
 20
187.4987584352495
 30
0.0
  0
VERTEX
  5
14AE9
  8
0
 10
428.00848478451371
 20
187.27734953165071
 30
0.0
  0
VERTEX
  5
14AEA
  8
0
 10
420.484452638775
 20
186.6879750788213
 30
0.0
  0
VERTEX
  5
14AEB
  8
0
 10
412.98395315185178
 20
185.73063693940659
 30
0.0
  0
VERTEX
  5
14AEC
  8
0
 10
411.28273228183377
 20
185.46707637608071
 30
0.0
  0
VERTEX
  5
14AED
  8
0
 10
409.58066949620832
 20
185.23365247994681
 30
0.0
  0
VERTEX
  5
14AEE
  8
0
 10
407.87556687369931
 20
185.07972162216919
 30
0.0
  0
VERTEX
  5
14AEF
  8
0
 10
406.16343090310681
 20
185.0040525943042
 30
0.0
  0
VERTEX
  5
14AF0
  8
0
 10
404.45106396451581
 20
185.07348362356441
 30
0.0
  0
VERTEX
  5
14AF1
  8
0
 10
403.051651213318
 20
185.42429514229309
 30
0.0
  0
VERTEX
  5
14AF2
  8
0
 10
401.72526905313129
 20
186.0834312438966
 30
0.0
  0
VERTEX
  5
14AF3
  8
0
 10
400.52334884181607
 20
187.05226749181759
 30
0.0
  0
VERTEX
  5
14AF4
  8
0
 10
399.73846742883319
 20
187.9869651794435
 30
0.0
  0
VERTEX
  5
14AF5
  8
0
 10
399.0967489220202
 20
189.12214681506171
 30
0.0
  0
VERTEX
  5
14AF6
  8
0
 10
398.64995995536452
 20
190.4715549945833
 30
0.0
  0
VERTEX
  5
14AF7
  8
0
 10
398.48092863336211
 20
192.00000062584891
 30
0.0
  0
SEQEND
  5
14AF8
  8
0
  0
POLYLINE
  5
D68A
  8
0
 66
     1
 10
0.0
 20
0.0
 30
0.0
 70
   128
  0
VERTEX
  5
14AF9
  8
0
 10
398.48092863336211
 20
192.00000062584891
 30
0.0
  0
VERTEX
  5
14AFA
  8
0
 10
398.64995995536452
 20
193.5284481197597
 30
0.0
  0
VERTEX
  5
14AFB
  8
0
 10
399.0967489220202
 20
194.87785629928129
 30
0.0
  0
VERTEX
  5
14AFC
  8
0
 10
399.73846742883319
 20
196.01303607225429
 30
0.0
  0
VERTEX
  5
14AFD
  8
0
 10
400.52334884181607
 20
196.94773375988021
 30
0.0
  0
VERTEX
  5
14AFE
  8
0
 10
401.72526905313129
 20
197.9165700078012
 30
0.0
  0
VERTEX
  5
14AFF
  8
0
 10
403.051651213318
 20
198.57570610940471
 30
0.0
  0
VERTEX
  5
14B00
  8
0
 10
404.45106396451581
 20
198.92651669681089
 30
0.0
  0
VERTEX
  5
14B01
  8
0
 10
406.16343090310681
 20
198.9959486573936
 30
0.0
  0
VERTEX
  5
14B02
  8
0
 10
407.87556687369931
 20
198.92027869820609
 30
0.0
  0
VERTEX
  5
14B03
  8
0
 10
409.58066949620832
 20
198.76634784042849
 30
0.0
  0
VERTEX
  5
14B04
  8
0
 10
411.28273228183377
 20
198.5329248756172
 30
0.0
  0
VERTEX
  5
14B05
  8
0
 10
412.98395315185178
 20
198.26936617493649
 30
0.0
  0
VERTEX
  5
14B06
  8
0
 10
417.75366956368077
 20
197.6173118501903
 30
0.0
  0
VERTEX
  5
14B07
  8
0
 10
422.5346885062753
 20
197.11467891931551
 30
0.0
  0
VERTEX
  5
14B08
  8
0
 10
427.32387701049453
 20
196.76088437438031
 30
0.0
  0
VERTEX
  5
14B09
  8
0
 10
432.11742410436273
 20
196.5582285821439
 30
0.0
  0
VERTEX
  5
14B0A
  8
0
 10
436.91465923562652
 20
196.50183886289611
 30
0.0
  0
VERTEX
  5
14B0B
  8
0
 10
441.70830691233277
 20
196.68451964855211
 30
0.0
  0
VERTEX
  5
14B0C
  8
0
 10
446.21875056996942
 20
197.11211033165469
 30
0.0
  0
VERTEX
  5
14B0D
  8
0
 10
450.70565225556493
 20
197.8108537197115
 30
0.0
  0
VERTEX
  5
14B0E
  8
0
 10
455.19655490294099
 20
198.47300544381159
 30
0.0
  0
VERTEX
  5
14B0F
  8
0
 10
459.7075461782515
 20
198.87276075780409
 30
0.0
  0
VERTEX
  5
14B10
  8
0
 10
464.22977572306991
 20
198.9999999105932
 30
0.0
  0
SEQEND
  5
14B11
  8
0
  0
ARC
  5
D68B
  8
0
 10
466.22597744121191
 20
194.5037987415464
 30
0.0
 40
1.9962053324136459
 50
90.109444693427477
 51
180.10902987255531
  0
LINE
  5
D68C
  8
0
 10
464.22977572306991
 20
189.50000114738961
 30
0.0
 11
464.22977572306991
 21
194.5000001043083
 31
0.0
  0
ARC
  5
D68D
  8
0
 10
466.22597821744739
 20
189.49620328343249
 30
0.0
 40
1.9962061071766259
 50
179.89099236476051
 51
269.89053306923017
  0
LINE
  5
D68F
  8
0
 10
466.22216435149312
 20
196.50000043213379
 30
0.0
 11
488.30069148913032
 21
196.50000043213379
 31
0.0
  0
LINE
  5
D690
  8
0
 10
466.22216435149312
 20
187.50000081956401
 30
0.0
 11
488.30069148913032
 21
187.50000081956401
 31
0.0
  0
LINE
  5
D691
  8
0
 10
465.76987685635692
 20
194.50000010430779
 30
0.0
 11
464.22977572306991
 21
194.5000001043083
 31
0.0
  0
ARC
  5
D692
  8
0
 10
467.85632128857418
 20
194.41393609865801
 30
0.0
 40
2.088218710240382
 50
87.397157963773594
 51
177.63793833883321
  0
LINE
  5
D693
  8
0
 10
464.22977572306991
 20
189.50000114738961
 30
0.0
 11
465.76987685635692
 21
189.5000011473891
 31
0.0
  0
ARC
  5
D694
  8
0
 10
467.85644380675279
 20
189.5861987759838
 30
0.0
 40
2.0883466354175741
 50
182.36558608188591
 51
272.59931761549052
  0
POLYLINE
  5
D698
  8
0
 66
     1
 10
0.0
 20
0.0
 30
0.0
 70
   128
  0
VERTEX
  5
14B12
  8
0
 10
464.40408671274781
 20
201.00000023841881
 30
0.0
  0
VERTEX
  5
14B13
  8
0
 10
459.37470080330968
 20
200.84052428603189
 30
0.0
  0
VERTEX
  5
14B14
  8
0
 10
454.38235173001891
 20
200.35982400178929
 30
0.0
  0
VERTEX
  5
14B15
  8
0
 10
449.45846231654292
 20
199.5975718647243
 30
0.0
  0
VERTEX
  5
14B16
  8
0
 10
444.59402853623033
 20
198.9194591343404
 30
0.0
  0
VERTEX
  5
14B17
  8
0
 10
439.77355131879449
 20
198.56306061148661
 30
0.0
  0
VERTEX
  5
14B18
  8
0
 10
434.98861337080598
 20
198.50194536149519
 30
0.0
  0
VERTEX
  5
14B19
  8
0
 10
429.65504446998239
 20
198.6537230014803
 30
0.0
  0
VERTEX
  5
14B1A
  8
0
 10
424.3148743547498
 20
198.9929851889612
 30
0.0
  0
VERTEX
  5
14B1B
  8
0
 10
418.9193389751016
 20
199.52457666397109
 30
0.0
  0
VERTEX
  5
14B1C
  8
0
 10
416.77361646667111
 20
199.78623546659961
 30
0.0
  0
VERTEX
  5
14B1D
  8
0
 10
414.60832128301251
 20
200.0789631903173
 30
0.0
  0
VERTEX
  5
14B1E
  8
0
 10
412.42007086053479
 20
200.40364645421519
 30
0.0
  0
VERTEX
  5
14B1F
  8
0
 10
410.21152505651111
 20
200.7186886668207
 30
0.0
  0
VERTEX
  5
14B20
  8
0
 10
407.98670718446368
 20
200.93908242881321
 30
0.0
  0
VERTEX
  5
14B21
  8
0
 10
405.48884043469968
 20
201.00259304046619
 30
0.0
  0
SEQEND
  5
14B22
  8
0
  0
LINE
  5
D69C
  8
0
 10
465.76987685635692
 20
194.50000010430779
 30
0.0
 11
465.76987685635692
 21
189.5000011473891
 31
0.0
  0
CIRCLE
  5
D69F
  8
0
 10
405.46776419419803
 20
191.98825553860721
 30
0.0
 40
4.655397689094495
  0
POLYLINE
  5
D6AC
  8
0
 66
     1
 10
0.0
 20
0.0
 30
0.0
 70
   128
  0
VERTEX
  5
14B23
  8
0
 10
477.14282492175698
 20
187.90984608232989
 30
0.0
  0
VERTEX
  5
14B24
  8
0
 10
476.29747075494379
 20
187.99112446606179
 30
0.0
  0
VERTEX
  5
14B25
  8
0
 10
475.47407961916178
 20
188.2340245693924
 30
0.0
  0
VERTEX
  5
14B26
  8
0
 10
474.73649204708641
 20
188.61090287566199
 30
0.0
  0
VERTEX
  5
14B27
  8
0
 10
474.09788089804351
 20
189.111753255129
 30
0.0
  0
VERTEX
  5
14B28
  8
0
 10
473.57058328576392
 20
189.72377933561819
 30
0.0
  0
VERTEX
  5
14B29
  8
0
 10
473.18251118063932
 20
190.41334547102471
 30
0.0
  0
VERTEX
  5
14B2A
  8
0
 10
472.92765382677322
 20
191.19552977383151
 30
0.0
  0
VERTEX
  5
14B2B
  8
0
 10
472.84246854484081
 20
191.98996469378491
 30
0.0
  0
VERTEX
  5
14B2C
  8
0
 10
472.92366916313767
 20
192.78610020875951
 30
0.0
  0
VERTEX
  5
14B2D
  8
0
 10
473.17703453823918
 20
193.57413321733489
 30
0.0
  0
VERTEX
  5
14B2E
  8
0
 10
473.56501025147742
 20
194.26926121115699
 30
0.0
  0
VERTEX
  5
14B2F
  8
0
 10
474.09242730587721
 20
194.88303817808639
 30
0.0
  0
VERTEX
  5
14B30
  8
0
 10
474.73067314364022
 20
195.38502104580419
 30
0.0
  0
VERTEX
  5
14B31
  8
0
 10
475.46305229421711
 20
195.76242461800589
 30
0.0
  0
VERTEX
  5
14B32
  8
0
 10
476.28484906395897
 20
196.00722461938869
 30
0.0
  0
VERTEX
  5
14B33
  8
0
 10
477.13256748862477
 20
196.09014399349709
 30
0.0
  0
VERTEX
  5
14B34
  8
0
 10
477.98173486022279
 20
196.01064816117301
 30
0.0
  0
VERTEX
  5
14B35
  8
0
 10
478.80758416373283
 20
195.76819881796851
 30
0.0
  0
VERTEX
  5
14B36
  8
0
 10
479.54447440803051
 20
195.39199851453321
 30
0.0
  0
VERTEX
  5
14B37
  8
0
 10
480.18562876619399
 20
194.89028945565241
 30
0.0
  0
VERTEX
  5
14B38
  8
0
 10
480.71456317789853
 20
194.27806779742261
 30
0.0
  0
VERTEX
  5
14B39
  8
0
 10
481.10360665246839
 20
193.58721271157279
 30
0.0
  0
VERTEX
  5
14B3A
  8
0
 10
481.35841744020581
 20
192.804030030966
 30
0.0
  0
VERTEX
  5
14B3B
  8
0
 10
481.44318595528603
 20
192.00797274708759
 30
0.0
  0
VERTEX
  5
14B3C
  8
0
 10
481.36097345501179
 20
191.2107997387649
 30
0.0
  0
VERTEX
  5
14B3D
  8
0
 10
481.25561013817787
 20
190.8150118589403
 30
0.0
  0
VERTEX
  5
14B3E
  8
0
 10
481.10571702942252
 20
190.42108848691001
 30
0.0
  0
VERTEX
  5
14B3F
  8
0
 10
480.71589357219642
 20
189.72510181367409
 30
0.0
  0
VERTEX
  5
14B40
  8
0
 10
480.18655380234122
 20
189.11059468984621
 30
0.0
  0
VERTEX
  5
14B41
  8
0
 10
479.54702599905431
 20
188.60984675586241
 30
0.0
  0
VERTEX
  5
14B42
  8
0
 10
478.80996613763273
 20
188.233171477914
 30
0.0
  0
VERTEX
  5
14B43
  8
0
 10
477.98722110688692
 20
187.99044460058229
 30
0.0
  0
VERTEX
  5
14B44
  8
0
 10
477.14282492175698
 20
187.90984608232989
 30
0.0
  0
SEQEND
  5
14B45
  8
0
  0
CIRCLE
  5
D6AF
  8
0
 10
477.14282492175698
 20
192.0000007450582
 30
0.0
 40
4.0
  0
ARC
  5
D6B5
  8
0
 10
477.14282492175698
 20
192.0000007450578
 30
0.0
 40
10.00000000000003
 50
153.2563160496079
 51
180.0
  0
ARC
  5
D6B6
  8
0
 10
477.14282492175698
 20
192.0000007450578
 30
0.0
 40
10.00000000000005
 50
64.158067236838917
 51
115.2734936050441
  0
ARC
  5
D6B7
  8
0
 10
477.14282492175698
 20
192.0000007450578
 30
0.0
 40
10.00000000000003
 50
333.2563160496079
 51
26.743683950392111
  0
ARC
  5
D6B8
  8
0
 10
477.14282492175698
 20
192.0000007450578
 30
0.0
 40
9.9999999999999893
 50
244.15806723683889
 51
295.72647556111008
  0
ARC
  5
D6B9
  8
0
 10
477.14282492175698
 20
192.0000007450578
 30
0.0
 40
10.0
 50
180.0
 51
206.7436839503921
  0
POLYLINE
  5
D6BC
  8
0
 10
503.14282492175698
 20
202.92265047586847
 30
0.0
 66
     1
 70
     8
  0
VERTEX
  8
0
  5
14ED2
 10
503.143
 20
202.923
 30
0.000000
  70
    32
  0
VERTEX
  8
0
  5
14ED3
 10
503.192
 20
202.923
 30
0.000000
  70
    32
  0
VERTEX
  8
0
  5
14ED4
 10
503.241
 20
202.923
 30
0.000000
  70
    32
  0
VERTEX
  8
0
  5
14ED5
 10
503.290
 20
202.924
 30
0.000000
  70
    32
  0
VERTEX
  8
0
  5
14ED6
 10
503.339
 20
202.925
 30
0.000000
  70
    32
  0
VERTEX
  8
0
  5
14ED7
 10
503.388
 20
202.926
 30
0.000000
  70
    32
  0
VERTEX
  8
0
  5
14ED8
 10
503.437
 20
202.927
 30
0.000000
  70
    32
  0
VERTEX
  8
0
  5
14ED9
 10
503.486
 20
202.929
 30
0.000000
  70
    32
  0
VERTEX
  8
0
  5
14EDA
 10
503.535
 20
202.931
 30
0.000000
  70
    32
  0
VERTEX
  8
0
  5
14EDB
 10
503.584
 20
202.933
 30
0.000000
  70
    32
  0
VERTEX
  8
0
  5
14EDC
 10
503.632
 20
202.936
 30
0.000000
  70
    32
  0
VERTEX
  8
0
  5
14EDD
 10
503.681
 20
202.938
 30
0.000000
  70
    32
  0
VERTEX
  8
0
  5
14EDE
 10
503.730
 20
202.941
 30
0.000000
  70
    32
  0
VERTEX
  8
0
  5
14EDF
 10
503.778
 20
202.945
 30
0.000000
  70
    32
  0
VERTEX
  8
0
  5
14EE0
 10
503.827
 20
202.948
 30
0.000000
  70
    32
  0
VERTEX
  8
0
  5
14EE1
 10
503.875
 20
202.952
 30
0.000000
  70
    32
  0
VERTEX
  8
0
  5
14EE2
 10
503.923
 20
202.956
 30
0.000000
  70
    32
  0
VERTEX
  8
0
  5
14EE3
 10
503.971
 20
202.960
 30
0.000000
  70
    32
  0
VERTEX
  8
0
  5
14EE4
 10
504.019
 20
202.965
 30
0.000000
  70
    32
  0
VERTEX
  8
0
  5
14EE5
 10
504.067
 20
202.970
 30
0.000000
  70
    32
  0
VERTEX
  8
0
  5
14EE6
 10
504.115
 20
202.975
 30
0.000000
  70
    32
  0
VERTEX
  8
0
  5
14EE7
 10
504.162
 20
202.980
 30
0.000000
  70
    32
  0
VERTEX
  8
0
  5
14EE8
 10
504.210
 20
202.985
 30
0.000000
  70
    32
  0
VERTEX
  8
0
  5
14EE9
 10
504.257
 20
202.991
 30
0.000000
  70
    32
  0
VERTEX
  8
0
  5
14EEA
 10
504.304
 20
202.997
 30
0.000000
  70
    32
  0
VERTEX
  8
0
  5
14EEB
 10
504.351
 20
203.004
 30
0.000000
  70
    32
  0
VERTEX
  8
0
  5
14EEC
 10
504.398
 20
203.010
 30
0.000000
  70
    32
  0
VERTEX
  8
0
  5
14EED
 10
504.444
 20
203.017
 30
0.000000
  70
    32
  0
VERTEX
  8
0
  5
14EEE
 10
504.490
 20
203.024
 30
0.000000
  70
    32
  0
VERTEX
  8
0
  5
14EEF
 10
504.536
 20
203.031
 30
0.000000
  70
    32
  0
VERTEX
  8
0
  5
14EF0
 10
504.582
 20
203.039
 30
0.000000
  70
    32
  0
VERTEX
  8
0
  5
14EF1
 10
504.628
 20
203.046
 30
0.000000
  70
    32
  0
VERTEX
  8
0
  5
14EF2
 10
504.674
 20
203.054
 30
0.000000
  70
    32
  0
VERTEX
  8
0
  5
14EF3
 10
504.719
 20
203.063
 30
0.000000
  70
    32
  0
VERTEX
  8
0
  5
14EF4
 10
504.764
 20
203.071
 30
0.000000
  70
    32
  0
VERTEX
  8
0
  5
14EF5
 10
504.809
 20
203.080
 30
0.000000
  70
    32
  0
VERTEX
  8
0
  5
14EF6
 10
504.853
 20
203.089
 30
0.000000
  70
    32
  0
VERTEX
  8
0
  5
14EF7
 10
504.897
 20
203.098
 30
0.000000
  70
    32
  0
VERTEX
  8
0
  5
14EF8
 10
504.941
 20
203.108
 30
0.000000
  70
    32
  0
VERTEX
  8
0
  5
14EF9
 10
504.985
 20
203.117
 30
0.000000
  70
    32
  0
VERTEX
  8
0
  5
14EFA
 10
505.028
 20
203.127
 30
0.000000
  70
    32
  0
VERTEX
  8
0
  5
14EFB
 10
505.072
 20
203.137
 30
0.000000
  70
    32
  0
VERTEX
  8
0
  5
14EFC
 10
505.114
 20
203.148
 30
0.000000
  70
    32
  0
VERTEX
  8
0
  5
14EFD
 10
505.157
 20
203.158
 30
0.000000
  70
    32
  0
VERTEX
  8
0
  5
14EFE
 10
505.199
 20
203.169
 30
0.000000
  70
    32
  0
VERTEX
  8
0
  5
14EFF
 10
505.241
 20
203.180
 30
0.000000
  70
    32
  0
VERTEX
  8
0
  5
14F00
 10
505.283
 20
203.191
 30
0.000000
  70
    32
  0
VERTEX
  8
0
  5
14F01
 10
505.324
 20
203.203
 30
0.000000
  70
    32
  0
VERTEX
  8
0
  5
14F02
 10
505.365
 20
203.215
 30
0.000000
  70
    32
  0
VERTEX
  8
0
  5
14F03
 10
505.406
 20
203.226
 30
0.000000
  70
    32
  0
VERTEX
  8
0
  5
14F04
 10
505.446
 20
203.239
 30
0.000000
  70
    32
  0
VERTEX
  8
0
  5
14F05
 10
505.486
 20
203.251
 30
0.000000
  70
    32
  0
VERTEX
  8
0
  5
14F06
 10
505.526
 20
203.264
 30
0.000000
  70
    32
  0
VERTEX
  8
0
  5
14F07
 10
505.565
 20
203.276
 30
0.000000
  70
    32
  0
VERTEX
  8
0
  5
14F08
 10
505.604
 20
203.289
 30
0.000000
  70
    32
  0
VERTEX
  8
0
  5
14F09
 10
505.642
 20
203.302
 30
0.000000
  70
    32
  0
VERTEX
  8
0
  5
14F0A
 10
505.680
 20
203.316
 30
0.000000
  70
    32
  0
VERTEX
  8
0
  5
14F0B
 10
505.718
 20
203.329
 30
0.000000
  70
    32
  0
VERTEX
  8
0
  5
14F0C
 10
505.756
 20
203.343
 30
0.000000
  70
    32
  0
VERTEX
  8
0
  5
14F0D
 10
505.792
 20
203.357
 30
0.000000
  70
    32
  0
VERTEX
  8
0
  5
14F0E
 10
505.829
 20
203.371
 30
0.000000
  70
    32
  0
VERTEX
  8
0
  5
14F0F
 10
505.865
 20
203.386
 30
0.000000
  70
    32
  0
VERTEX
  8
0
  5
14F10
 10
505.901
 20
203.400
 30
0.000000
  70
    32
  0
VERTEX
  8
0
  5
14F11
 10
505.936
 20
203.415
 30
0.000000
  70
    32
  0
VERTEX
  8
0
  5
14F12
 10
505.971
 20
203.430
 30
0.000000
  70
    32
  0
VERTEX
  8
0
  5
14F13
 10
506.006
 20
203.445
 30
0.000000
  70
    32
  0
VERTEX
  8
0
  5
14F14
 10
506.040
 20
203.460
 30
0.000000
  70
    32
  0
VERTEX
  8
0
  5
14F15
 10
506.073
 20
203.476
 30
0.000000
  70
    32
  0
VERTEX
  8
0
  5
14F16
 10
506.107
 20
203.492
 30
0.000000
  70
    32
  0
VERTEX
  8
0
  5
14F17
 10
506.139
 20
203.507
 30
0.000000
  70
    32
  0
VERTEX
  8
0
  5
14F18
 10
506.172
 20
203.523
 30
0.000000
  70
    32
  0
VERTEX
  8
0
  5
14F19
 10
506.203
 20
203.540
 30
0.000000
  70
    32
  0
VERTEX
  8
0
  5
14F1A
 10
506.235
 20
203.556
 30
0.000000
  70
    32
  0
VERTEX
  8
0
  5
14F1B
 10
506.266
 20
203.572
 30
0.000000
  70
    32
  0
VERTEX
  8
0
  5
14F1C
 10
506.296
 20
203.589
 30
0.000000
  70
    32
  0
VERTEX
  8
0
  5
14F1D
 10
506.326
 20
203.606
 30
0.000000
  70
    32
  0
VERTEX
  8
0
  5
14F1E
 10
506.356
 20
203.623
 30
0.000000
  70
    32
  0
VERTEX
  8
0
  5
14F1F
 10
506.385
 20
203.640
 30
0.000000
  70
    32
  0
VERTEX
  8
0
  5
14F20
 10
506.413
 20
203.657
 30
0.000000
  70
    32
  0
VERTEX
  8
0
  5
14F21
 10
506.441
 20
203.675
 30
0.000000
  70
    32
  0
VERTEX
  8
0
  5
14F22
 10
506.469
 20
203.692
 30
0.000000
  70
    32
  0
VERTEX
  8
0
  5
14F23
 10
506.496
 20
203.710
 30
0.000000
  70
    32
  0
VERTEX
  8
0
  5
14F24
 10
506.522
 20
203.728
 30
0.000000
  70
    32
  0
VERTEX
  8
0
  5
14F25
 10
506.548
 20
203.746
 30
0.000000
  70
    32
  0
VERTEX
  8
0
  5
14F26
 10
506.574
 20
203.764
 30
0.000000
  70
    32
  0
VERTEX
  8
0
  5
14F27
 10
506.599
 20
203.783
 30
0.000000
  70
    32
  0
VERTEX
  8
0
  5
14F28
 10
506.623
 20
203.801
 30
0.000000
  70
    32
  0
VERTEX
  8
0
  5
14F29
 10
506.647
 20
203.820
 30
0.000000
  70
    32
  0
VERTEX
  8
0
  5
14F2A
 10
506.671
 20
203.838
 30
0.000000
  70
    32
  0
VERTEX
  8
0
  5
14F2B
 10
506.693
 20
203.857
 30
0.000000
  70
    32
  0
VERTEX
  8
0
  5
14F2C
 10
506.716
 20
203.876
 30
0.000000
  70
    32
  0
VERTEX
  8
0
  5
14F2D
 10
506.738
 20
203.895
 30
0.000000
  70
    32
  0
VERTEX
  8
0
  5
14F2E
 10
506.759
 20
203.914
 30
0.000000
  70
    32
  0
VERTEX
  8
0
  5
14F2F
 10
506.779
 20
203.933
 30
0.000000
  70
    32
  0
VERTEX
  8
0
  5
14F30
 10
506.800
 20
203.953
 30
0.000000
  70
    32
  0
VERTEX
  8
0
  5
14F31
 10
506.819
 20
203.972
 30
0.000000
  70
    32
  0
VERTEX
  8
0
  5
14F32
 10
506.838
 20
203.992
 30
0.000000
  70
    32
  0
VERTEX
  8
0
  5
14F33
 10
506.857
 20
204.012
 30
0.000000
  70
    32
  0
VERTEX
  8
0
  5
14F34
 10
506.875
 20
204.031
 30
0.000000
  70
    32
  0
VERTEX
  8
0
  5
14F35
 10
506.892
 20
204.051
 30
0.000000
  70
    32
  0
VERTEX
  8
0
  5
14F36
 10
506.909
 20
204.071
 30
0.000000
  70
    32
  0
VERTEX
  8
0
  5
14F37
 10
506.925
 20
204.091
 30
0.000000
  70
    32
  0
VERTEX
  8
0
  5
14F38
 10
506.941
 20
204.111
 30
0.000000
  70
    32
  0
VERTEX
  8
0
  5
14F39
 10
506.956
 20
204.132
 30
0.000000
  70
    32
  0
VERTEX
  8
0
  5
14F3A
 10
506.971
 20
204.152
 30
0.000000
  70
    32
  0
VERTEX
  8
0
  5
14F3B
 10
506.985
 20
204.172
 30
0.000000
  70
    32
  0
VERTEX
  8
0
  5
14F3C
 10
506.998
 20
204.193
 30
0.000000
  70
    32
  0
VERTEX
  8
0
  5
14F3D
 10
507.011
 20
204.213
 30
0.000000
  70
    32
  0
VERTEX
  8
0
  5
14F3E
 10
507.023
 20
204.234
 30
0.000000
  70
    32
  0
VERTEX
  8
0
  5
14F3F
 10
507.035
 20
204.254
 30
0.000000
  70
    32
  0
VERTEX
  8
0
  5
14F40
 10
507.046
 20
204.275
 30
0.000000
  70
    32
  0
VERTEX
  8
0
  5
14F41
 10
507.056
 20
204.296
 30
0.000000
  70
    32
  0
VERTEX
  8
0
  5
14F42
 10
507.066
 20
204.317
 30
0.000000
  70
    32
  0
VERTEX
  8
0
  5
14F43
 10
507.075
 20
204.338
 30
0.000000
  70
    32
  0
VERTEX
  8
0
  5
14F44
 10
507.084
 20
204.359
 30
0.000000
  70
    32
  0
VERTEX
  8
0
  5
14F45
 10
507.092
 20
204.380
 30
0.000000
  70
    32
  0
VERTEX
  8
0
  5
14F46
 10
507.100
 20
204.401
 30
0.000000
  70
    32
  0
VERTEX
  8
0
  5
14F47
 10
507.106
 20
204.422
 30
0.000000
  70
    32
  0
VERTEX
  8
0
  5
14F48
 10
507.113
 20
204.443
 30
0.000000
  70
    32
  0
VERTEX
  8
0
  5
14F49
 10
507.118
 20
204.464
 30
0.000000
  70
    32
  0
VERTEX
  8
0
  5
14F4A
 10
507.124
 20
204.485
 30
0.000000
  70
    32
  0
VERTEX
  8
0
  5
14F4B
 10
507.128
 20
204.506
 30
0.000000
  70
    32
  0
VERTEX
  8
0
  5
14F4C
 10
507.132
 20
204.527
 30
0.000000
  70
    32
  0
VERTEX
  8
0
  5
14F4D
 10
507.135
 20
204.548
 30
0.000000
  70
    32
  0
VERTEX
  8
0
  5
14F4E
 10
507.138
 20
204.570
 30
0.000000
  70
    32
  0
VERTEX
  8
0
  5
14F4F
 10
507.140
 20
204.591
 30
0.000000
  70
    32
  0
VERTEX
  8
0
  5
14F50
 10
507.142
 20
204.612
 30
0.000000
  70
    32
  0
VERTEX
  8
0
  5
14F51
 10
507.143
 20
204.633
 30
0.000000
  70
    32
  0
VERTEX
  8
0
  5
14F52
 10
507.143
 20
204.655
 30
0.000000
  70
    32
  0
SEQEND
  8
0
  5
14F53
  0
LINE
  5
D6BD
  8
0
 10
507.14282425120518
 20
206.92380853614159
 30
0.0
 11
507.14282425120467
 21
170.5000007688065
 31
0.0
  0
LINE
  5
D6C1
  8
0
 10
467.1428251452744
 20
170.5000007688065
 30
0.0
 11
466.64282506331801
 21
170.0000007450578
 31
0.0
  0
LINE
  5
D6C4
  8
0
 10
526.64282465353608
 20
170.0000007450578
 30
0.0
 11
487.64282478019601
 21
170.0000007450578
 31
0.0
  0
LINE
  5
D6C5
  8
0
 10
487.64282478019601
 20
170.0000007450578
 30
0.0
 11
487.14282469823962
 21
170.5000007688065
 31
0.0
  0
LINE
  5
D6C8
  8
0
 10
447.14282559230918
 20
170.5000007688065
 30
0.0
 11
447.64282474294311
 21
170.0000007450578
 31
0.0
  0
LINE
  5
D6C9
  8
0
 10
507.14282425120467
 20
170.5000007688065
 30
0.0
 11
506.64282510057092
 21
170.0000007450578
 31
0.0
  0
LINE
  5
D6CB
  8
0
 10
447.14282559230918
 20
170.5000007688065
 30
0.0
 11
447.14282559230918
 21
184.7358819842336
 31
0.0
  0
LINE
  5
D6CC
  8
0
 10
447.14282559230918
 20
199.2747661471364
 30
0.0
 11
447.14282559230918
 21
206.92380853639341
 31
0.0
  0
POLYLINE
  5
D6CD
  8
0
 10
447.14282492175693
 20
204.6547012834373
 30
0.0
 66
     1
 70
     8
  0
VERTEX
  8
0
  5
14F54
 10
447.143
 20
204.655
 30
0.000000
  70
    32
  0
VERTEX
  8
0
  5
14F55
 10
447.143
 20
204.633
 30
0.000000
  70
    32
  0
VERTEX
  8
0
  5
14F56
 10
447.144
 20
204.612
 30
0.000000
  70
    32
  0
VERTEX
  8
0
  5
14F57
 10
447.146
 20
204.591
 30
0.000000
  70
    32
  0
VERTEX
  8
0
  5
14F58
 10
447.148
 20
204.570
 30
0.000000
  70
    32
  0
VERTEX
  8
0
  5
14F59
 10
447.150
 20
204.548
 30
0.000000
  70
    32
  0
VERTEX
  8
0
  5
14F5A
 10
447.154
 20
204.527
 30
0.000000
  70
    32
  0
VERTEX
  8
0
  5
14F5B
 10
447.158
 20
204.506
 30
0.000000
  70
    32
  0
VERTEX
  8
0
  5
14F5C
 10
447.162
 20
204.485
 30
0.000000
  70
    32
  0
VERTEX
  8
0
  5
14F5D
 10
447.167
 20
204.464
 30
0.000000
  70
    32
  0
VERTEX
  8
0
  5
14F5E
 10
447.173
 20
204.443
 30
0.000000
  70
    32
  0
VERTEX
  8
0
  5
14F5F
 10
447.179
 20
204.422
 30
0.000000
  70
    32
  0
VERTEX
  8
0
  5
14F60
 10
447.186
 20
204.401
 30
0.000000
  70
    32
  0
VERTEX
  8
0
  5
14F61
 10
447.194
 20
204.380
 30
0.000000
  70
    32
  0
VERTEX
  8
0
  5
14F62
 10
447.202
 20
204.359
 30
0.000000
  70
    32
  0
VERTEX
  8
0
  5
14F63
 10
447.210
 20
204.338
 30
0.000000
  70
    32
  0
VERTEX
  8
0
  5
14F64
 10
447.220
 20
204.317
 30
0.000000
  70
    32
  0
VERTEX
  8
0
  5
14F65
 10
447.230
 20
204.296
 30
0.000000
  70
    32
  0
VERTEX
  8
0
  5
14F66
 10
447.240
 20
204.275
 30
0.000000
  70
    32
  0
VERTEX
  8
0
  5
14F67
 10
447.251
 20
204.254
 30
0.000000
  70
    32
  0
VERTEX
  8
0
  5
14F68
 10
447.263
 20
204.234
 30
0.000000
  70
    32
  0
VERTEX
  8
0
  5
14F69
 10
447.275
 20
204.213
 30
0.000000
  70
    32
  0
VERTEX
  8
0
  5
14F6A
 10
447.288
 20
204.193
 30
0.000000
  70
    32
  0
VERTEX
  8
0
  5
14F6B
 10
447.301
 20
204.172
 30
0.000000
  70
    32
  0
VERTEX
  8
0
  5
14F6C
 10
447.315
 20
204.152
 30
0.000000
  70
    32
  0
VERTEX
  8
0
  5
14F6D
 10
447.330
 20
204.132
 30
0.000000
  70
    32
  0
VERTEX
  8
0
  5
14F6E
 10
447.345
 20
204.111
 30
0.000000
  70
    32
  0
VERTEX
  8
0
  5
14F6F
 10
447.360
 20
204.091
 30
0.000000
  70
    32
  0
VERTEX
  8
0
  5
14F70
 10
447.377
 20
204.071
 30
0.000000
  70
    32
  0
VERTEX
  8
0
  5
14F71
 10
447.393
 20
204.051
 30
0.000000
  70
    32
  0
VERTEX
  8
0
  5
14F72
 10
447.411
 20
204.031
 30
0.000000
  70
    32
  0
VERTEX
  8
0
  5
14F73
 10
447.429
 20
204.012
 30
0.000000
  70
    32
  0
VERTEX
  8
0
  5
14F74
 10
447.447
 20
203.992
 30
0.000000
  70
    32
  0
VERTEX
  8
0
  5
14F75
 10
447.466
 20
203.972
 30
0.000000
  70
    32
  0
VERTEX
  8
0
  5
14F76
 10
447.486
 20
203.953
 30
0.000000
  70
    32
  0
VERTEX
  8
0
  5
14F77
 10
447.506
 20
203.933
 30
0.000000
  70
    32
  0
VERTEX
  8
0
  5
14F78
 10
447.527
 20
203.914
 30
0.000000
  70
    32
  0
VERTEX
  8
0
  5
14F79
 10
447.548
 20
203.895
 30
0.000000
  70
    32
  0
VERTEX
  8
0
  5
14F7A
 10
447.570
 20
203.876
 30
0.000000
  70
    32
  0
VERTEX
  8
0
  5
14F7B
 10
447.592
 20
203.857
 30
0.000000
  70
    32
  0
VERTEX
  8
0
  5
14F7C
 10
447.615
 20
203.838
 30
0.000000
  70
    32
  0
VERTEX
  8
0
  5
14F7D
 10
447.639
 20
203.820
 30
0.000000
  70
    32
  0
VERTEX
  8
0
  5
14F7E
 10
447.662
 20
203.801
 30
0.000000
  70
    32
  0
VERTEX
  8
0
  5
14F7F
 10
447.687
 20
203.783
 30
0.000000
  70
    32
  0
VERTEX
  8
0
  5
14F80
 10
447.712
 20
203.764
 30
0.000000
  70
    32
  0
VERTEX
  8
0
  5
14F81
 10
447.737
 20
203.746
 30
0.000000
  70
    32
  0
VERTEX
  8
0
  5
14F82
 10
447.763
 20
203.728
 30
0.000000
  70
    32
  0
VERTEX
  8
0
  5
14F83
 10
447.790
 20
203.710
 30
0.000000
  70
    32
  0
VERTEX
  8
0
  5
14F84
 10
447.817
 20
203.692
 30
0.000000
  70
    32
  0
VERTEX
  8
0
  5
14F85
 10
447.844
 20
203.675
 30
0.000000
  70
    32
  0
VERTEX
  8
0
  5
14F86
 10
447.872
 20
203.657
 30
0.000000
  70
    32
  0
VERTEX
  8
0
  5
14F87
 10
447.901
 20
203.640
 30
0.000000
  70
    32
  0
VERTEX
  8
0
  5
14F88
 10
447.930
 20
203.623
 30
0.000000
  70
    32
  0
VERTEX
  8
0
  5
14F89
 10
447.959
 20
203.606
 30
0.000000
  70
    32
  0
VERTEX
  8
0
  5
14F8A
 10
447.989
 20
203.589
 30
0.000000
  70
    32
  0
VERTEX
  8
0
  5
14F8B
 10
448.020
 20
203.572
 30
0.000000
  70
    32
  0
VERTEX
  8
0
  5
14F8C
 10
448.051
 20
203.556
 30
0.000000
  70
    32
  0
VERTEX
  8
0
  5
14F8D
 10
448.082
 20
203.540
 30
0.000000
  70
    32
  0
VERTEX
  8
0
  5
14F8E
 10
448.114
 20
203.523
 30
0.000000
  70
    32
  0
VERTEX
  8
0
  5
14F8F
 10
448.146
 20
203.507
 30
0.000000
  70
    32
  0
VERTEX
  8
0
  5
14F90
 10
448.179
 20
203.492
 30
0.000000
  70
    32
  0
VERTEX
  8
0
  5
14F91
 10
448.212
 20
203.476
 30
0.000000
  70
    32
  0
VERTEX
  8
0
  5
14F92
 10
448.246
 20
203.460
 30
0.000000
  70
    32
  0
VERTEX
  8
0
  5
14F93
 10
448.280
 20
203.445
 30
0.000000
  70
    32
  0
VERTEX
  8
0
  5
14F94
 10
448.314
 20
203.430
 30
0.000000
  70
    32
  0
VERTEX
  8
0
  5
14F95
 10
448.349
 20
203.415
 30
0.000000
  70
    32
  0
VERTEX
  8
0
  5
14F96
 10
448.385
 20
203.400
 30
0.000000
  70
    32
  0
VERTEX
  8
0
  5
14F97
 10
448.420
 20
203.386
 30
0.000000
  70
    32
  0
VERTEX
  8
0
  5
14F98
 10
448.457
 20
203.371
 30
0.000000
  70
    32
  0
VERTEX
  8
0
  5
14F99
 10
448.493
 20
203.357
 30
0.000000
  70
    32
  0
VERTEX
  8
0
  5
14F9A
 10
448.530
 20
203.343
 30
0.000000
  70
    32
  0
VERTEX
  8
0
  5
14F9B
 10
448.567
 20
203.329
 30
0.000000
  70
    32
  0
VERTEX
  8
0
  5
14F9C
 10
448.605
 20
203.316
 30
0.000000
  70
    32
  0
VERTEX
  8
0
  5
14F9D
 10
448.643
 20
203.302
 30
0.000000
  70
    32
  0
VERTEX
  8
0
  5
14F9E
 10
448.682
 20
203.289
 30
0.000000
  70
    32
  0
VERTEX
  8
0
  5
14F9F
 10
448.721
 20
203.276
 30
0.000000
  70
    32
  0
VERTEX
  8
0
  5
14FA0
 10
448.760
 20
203.264
 30
0.000000
  70
    32
  0
VERTEX
  8
0
  5
14FA1
 10
448.800
 20
203.251
 30
0.000000
  70
    32
  0
VERTEX
  8
0
  5
14FA2
 10
448.840
 20
203.239
 30
0.000000
  70
    32
  0
VERTEX
  8
0
  5
14FA3
 10
448.880
 20
203.226
 30
0.000000
  70
    32
  0
VERTEX
  8
0
  5
14FA4
 10
448.921
 20
203.215
 30
0.000000
  70
    32
  0
VERTEX
  8
0
  5
14FA5
 10
448.962
 20
203.203
 30
0.000000
  70
    32
  0
VERTEX
  8
0
  5
14FA6
 10
449.003
 20
203.191
 30
0.000000
  70
    32
  0
VERTEX
  8
0
  5
14FA7
 10
449.044
 20
203.180
 30
0.000000
  70
    32
  0
VERTEX
  8
0
  5
14FA8
 10
449.086
 20
203.169
 30
0.000000
  70
    32
  0
VERTEX
  8
0
  5
14FA9
 10
449.129
 20
203.158
 30
0.000000
  70
    32
  0
VERTEX
  8
0
  5
14FAA
 10
449.171
 20
203.148
 30
0.000000
  70
    32
  0
VERTEX
  8
0
  5
14FAB
 10
449.214
 20
203.137
 30
0.000000
  70
    32
  0
VERTEX
  8
0
  5
14FAC
 10
449.257
 20
203.127
 30
0.000000
  70
    32
  0
VERTEX
  8
0
  5
14FAD
 10
449.301
 20
203.117
 30
0.000000
  70
    32
  0
VERTEX
  8
0
  5
14FAE
 10
449.344
 20
203.108
 30
0.000000
  70
    32
  0
VERTEX
  8
0
  5
14FAF
 10
449.388
 20
203.098
 30
0.000000
  70
    32
  0
VERTEX
  8
0
  5
14FB0
 10
449.433
 20
203.089
 30
0.000000
  70
    32
  0
VERTEX
  8
0
  5
14FB1
 10
449.477
 20
203.080
 30
0.000000
  70
    32
  0
VERTEX
  8
0
  5
14FB2
 10
449.522
 20
203.071
 30
0.000000
  70
    32
  0
VERTEX
  8
0
  5
14FB3
 10
449.567
 20
203.063
 30
0.000000
  70
    32
  0
VERTEX
  8
0
  5
14FB4
 10
449.612
 20
203.054
 30
0.000000
  70
    32
  0
VERTEX
  8
0
  5
14FB5
 10
449.658
 20
203.046
 30
0.000000
  70
    32
  0
VERTEX
  8
0
  5
14FB6
 10
449.703
 20
203.039
 30
0.000000
  70
    32
  0
VERTEX
  8
0
  5
14FB7
 10
449.749
 20
203.031
 30
0.000000
  70
    32
  0
VERTEX
  8
0
  5
14FB8
 10
449.795
 20
203.024
 30
0.000000
  70
    32
  0
VERTEX
  8
0
  5
14FB9
 10
449.842
 20
203.017
 30
0.000000
  70
    32
  0
VERTEX
  8
0
  5
14FBA
 10
449.888
 20
203.010
 30
0.000000
  70
    32
  0
VERTEX
  8
0
  5
14FBB
 10
449.935
 20
203.004
 30
0.000000
  70
    32
  0
VERTEX
  8
0
  5
14FBC
 10
449.982
 20
202.997
 30
0.000000
  70
    32
  0
VERTEX
  8
0
  5
14FBD
 10
450.029
 20
202.991
 30
0.000000
  70
    32
  0
VERTEX
  8
0
  5
14FBE
 10
450.076
 20
202.985
 30
0.000000
  70
    32
  0
VERTEX
  8
0
  5
14FBF
 10
450.123
 20
202.980
 30
0.000000
  70
    32
  0
VERTEX
  8
0
  5
14FC0
 10
450.171
 20
202.975
 30
0.000000
  70
    32
  0
VERTEX
  8
0
  5
14FC1
 10
450.219
 20
202.970
 30
0.000000
  70
    32
  0
VERTEX
  8
0
  5
14FC2
 10
450.266
 20
202.965
 30
0.000000
  70
    32
  0
VERTEX
  8
0
  5
14FC3
 10
450.314
 20
202.960
 30
0.000000
  70
    32
  0
VERTEX
  8
0
  5
14FC4
 10
450.362
 20
202.956
 30
0.000000
  70
    32
  0
VERTEX
  8
0
  5
14FC5
 10
450.411
 20
202.952
 30
0.000000
  70
    32
  0
VERTEX
  8
0
  5
14FC6
 10
450.459
 20
202.948
 30
0.000000
  70
    32
  0
VERTEX
  8
0
  5
14FC7
 10
450.507
 20
202.945
 30
0.000000
  70
    32
  0
VERTEX
  8
0
  5
14FC8
 10
450.556
 20
202.941
 30
0.000000
  70
    32
  0
VERTEX
  8
0
  5
14FC9
 10
450.605
 20
202.938
 30
0.000000
  70
    32
  0
VERTEX
  8
0
  5
14FCA
 10
450.653
 20
202.936
 30
0.000000
  70
    32
  0
VERTEX
  8
0
  5
14FCB
 10
450.702
 20
202.933
 30
0.000000
  70
    32
  0
VERTEX
  8
0
  5
14FCC
 10
450.751
 20
202.931
 30
0.000000
  70
    32
  0
VERTEX
  8
0
  5
14FCD
 10
450.800
 20
202.929
 30
0.000000
  70
    32
  0
VERTEX
  8
0
  5
14FCE
 10
450.849
 20
202.927
 30
0.000000
  70
    32
  0
VERTEX
  8
0
  5
14FCF
 10
450.898
 20
202.926
 30
0.000000
  70
    32
  0
VERTEX
  8
0
  5
14FD0
 10
450.947
 20
202.925
 30
0.000000
  70
    32
  0
VERTEX
  8
0
  5
14FD1
 10
450.996
 20
202.924
 30
0.000000
  70
    32
  0
VERTEX
  8
0
  5
14FD2
 10
451.045
 20
202.923
 30
0.000000
  70
    32
  0
VERTEX
  8
0
  5
14FD3
 10
451.094
 20
202.923
 30
0.000000
  70
    32
  0
VERTEX
  8
0
  5
14FD4
 10
451.143
 20
202.923
 30
0.000000
  70
    32
  0
SEQEND
  8
0
  5
14FD5
  0
LINE
  5
D6CE
  8
0
 10
503.14282545819879
 20
202.92264863848661
 30
0.0
 11
451.14282438531518
 21
202.92264863848661
 31
0.0
  0
LINE
  5
D6D0
  8
0
 10
467.1428251452744
 20
170.5000007688065
 30
0.0
 11
487.14282469823962
 21
170.5000007688065
 31
0.0
  0
CIRCLE
  5
D6D1
  8
0
 10
497.14282492175693
 20
192.0000007450578
 30
0.0
 40
4.7499999999999432
  0
ARC
  5
D6E2
  8
0
 10
448.14282492175698
 20
206.92265047586829
 30
0.0
 40
1.0
 50
119.9999999999992
 51
180.0
  0
LINE
  5
D6E4
  8
0
 10
447.64282474294311
 20
207.78867498040171
 30
0.0
 11
449.84859706833959
 21
209.06218037009211
 31
0.0
  0
ARC
  5
D6E7
  8
0
 10
506.14282492175693
 20
206.92265047586829
 30
0.0
 40
1.0
 50
0.0
 51
60.000000000000782
  0
LINE
  5
D6E8
  8
0
 10
504.43705277517438
 20
209.06218037009211
 30
0.0
 11
506.64282510057092
 21
207.78867498040171
 31
0.0
  0
ARC
  5
D6EB
  8
0
 10
502.54474871040378
 20
209.0000007450578
 30
0.0
 40
1.0
 50
60.000000000000782
 51
90.0
  0
POLYLINE
  5
D6EC
  8
0
 66
     1
 10
0.0
 20
0.0
 30
0.0
 70
   128
  0
VERTEX
  5
14B46
  8
0
 10
503.04474787786597
 20
209.86602723598449
 30
0.0
  0
VERTEX
  5
14B47
  8
0
 10
503.10167962685227
 20
209.83315899968119
 30
0.0
  0
VERTEX
  5
14B48
  8
0
 10
503.27184529975062
 20
209.73491191863991
 30
0.0
  0
VERTEX
  5
14B49
  8
0
 10
503.55338411405683
 20
209.57236632704709
 30
0.0
  0
VERTEX
  5
14B4A
  8
0
 10
503.94321152940392
 20
209.34729918837519
 30
0.0
  0
VERTEX
  5
14B4B
  8
0
 10
504.43705277517438
 20
209.06218037009211
 30
0.0
  0
SEQEND
  5
14B4C
  8
0
  0
ARC
  5
D6EE
  8
0
 10
451.74090113311053
 20
209.0000007450578
 30
0.0
 40
1.0
 50
90.0
 51
119.9999999999992
  0
POLYLINE
  5
D6EF
  8
0
 66
     1
 10
0.0
 20
0.0
 30
0.0
 70
   128
  0
VERTEX
  5
14B4D
  8
0
 10
449.84859706833959
 20
209.06218037009211
 30
0.0
  0
VERTEX
  5
14B4E
  8
0
 10
450.34243831410998
 20
209.34729918837519
 30
0.0
  0
VERTEX
  5
14B4F
  8
0
 10
450.73226572945708
 20
209.57236632704709
 30
0.0
  0
VERTEX
  5
14B50
  8
0
 10
451.0138045437634
 20
209.73491191863991
 30
0.0
  0
VERTEX
  5
14B51
  8
0
 10
451.18397021666169
 20
209.83315899968119
 30
0.0
  0
VERTEX
  5
14B52
  8
0
 10
451.24090196564788
 20
209.86602723598449
 30
0.0
  0
SEQEND
  5
14B53
  8
0
  0
LINE
  5
D6F0
  8
0
 10
451.7409011162818
 20
209.9999998509881
 30
0.0
 11
502.54474872723222
 21
209.9999998509881
 31
0.0
  0
LINE
  5
D71F
  8
0
 10
526.64282465353608
 20
170.0000007450578
 30
0.0
 11
527.14282566681504
 21
170.5000007688065
 31
0.0
  0
LINE
  5
D725
  8
0
 10
427.14282417669892
 20
170.5000007688065
 30
0.0
 11
427.64282518997788
 21
170.0000007450578
 31
0.0
  0
LINE
  5
D726
  8
0
 10
466.64282506331801
 20
170.0000007450578
 30
0.0
 11
427.64282518997788
 21
170.0000007450578
 31
0.0
  0
LINE
  5
D728
  8
0
 10
527.14282566681504
 20
179.00000035762761
 30
0.0
 11
527.14282566681504
 21
170.5000007688065
 31
0.0
  0
LINE
  5
D72C
  8
0
 10
427.14282417669892
 20
170.5000007688065
 30
0.0
 11
427.14282417669892
 21
179.00000035762761
 31
0.0
  0
ARC
  5
D733
  8
0
 10
428.14282492175698
 20
179.0000007450578
 30
0.0
 40
1.0
 50
90.0
 51
180.0
  0
LINE
  5
D734
  8
0
 10
428.14282620325679
 20
180.00000052154039
 30
0.0
 11
447.14282559230918
 21
180.0000005215403
 31
0.0
  0
ARC
  5
D735
  8
0
 10
526.14282492175687
 20
179.0000007450578
 30
0.0
 40
1.0
 50
0.0
 51
90.0
  0
LINE
  5
D736
  8
0
 10
507.14282425120518
 20
180.0000005215403
 30
0.0
 11
526.14282364025712
 21
180.00000052154039
 31
0.0
  0
LINE
  5
D73B
  8
0
 10
300.34337827935821
 20
184.00000117719151
 30
0.0
 11
301.94340536370879
 21
184.00000117719151
 31
0.0
  0
LINE
  5
D73C
  8
0
 10
301.94340536370879
 20
200.00000007450561
 30
0.0
 11
300.34337827935821
 21
200.00000007450561
 31
0.0
  0
LINE
  5
D73D
  8
0
 10
301.94340536370879
 20
184.00000117719151
 30
0.0
 11
302.14340874925261
 21
184.200000837445
 31
0.0
  0
LINE
  5
D73E
  8
0
 10
302.14340874925261
 20
199.800000414252
 30
0.0
 11
301.94340536370879
 21
200.00000007450561
 31
0.0
  0
POLYLINE
  5
D73F
  8
0
 66
     1
 10
0.0
 20
0.0
 30
0.0
 70
   128
  0
VERTEX
  5
14B54
  8
0
 10
319.860934112221
 20
198.48722673952551
 30
0.0
  0
VERTEX
  5
14B55
  8
0
 10
319.86565032973891
 20
198.48844677209831
 30
0.0
  0
VERTEX
  5
14B56
  8
0
 10
319.83845571056008
 20
198.52184213697879
 30
0.0
  0
VERTEX
  5
14B57
  8
0
 10
319.76085046306252
 20
198.60652916133381
 30
0.0
  0
VERTEX
  5
14B58
  8
0
 10
319.5600200630725
 20
198.83878797292681
 30
0.0
  0
VERTEX
  5
14B59
  8
0
 10
319.23153886571532
 20
199.23228293657269
 30
0.0
  0
VERTEX
  5
14B5A
  8
0
 10
318.75705609098083
 20
199.7794125974176
 30
0.0
  0
VERTEX
  5
14B5B
  8
0
 10
318.4757817722857
 20
200.08344098925571
 30
0.0
  0
VERTEX
  5
14B5C
  8
0
 10
318.15553346648812
 20
200.40100894868351
 30
0.0
  0
VERTEX
  5
14B5D
  8
0
 10
317.79742876067758
 20
200.6924626231191
 30
0.0
  0
VERTEX
  5
14B5E
  8
0
 10
317.40523019805551
 20
200.90815506875489
 30
0.0
  0
VERTEX
  5
14B5F
  8
0
 10
316.98012242093682
 20
201.01505413651441
 30
0.0
  0
SEQEND
  5
14B60
  8
0
  0
POLYLINE
  5
D740
  8
0
 66
     1
 10
0.0
 20
0.0
 30
0.0
 70
   128
  0
VERTEX
  5
14B61
  8
0
 10
316.98012242093682
 20
182.9849480465052
 30
0.0
  0
VERTEX
  5
14B62
  8
0
 10
317.5707970000804
 20
183.1239451467988
 30
0.0
  0
VERTEX
  5
14B63
  8
0
 10
318.09532532468438
 20
183.45713231712551
 30
0.0
  0
VERTEX
  5
14B64
  8
0
 10
318.54419300332671
 20
183.93599044531561
 30
0.0
  0
VERTEX
  5
14B65
  8
0
 10
318.92041007056832
 20
184.4238581880924
 30
0.0
  0
VERTEX
  5
14B66
  8
0
 10
319.23106947913772
 20
184.84103947877861
 30
0.0
  0
VERTEX
  5
14B67
  8
0
 10
319.57723835483199
 20
185.2901530265805
 30
0.0
  0
VERTEX
  5
14B68
  8
0
 10
319.67629382386809
 20
185.45687559992049
 30
0.0
  0
SEQEND
  5
14B69
  8
0
  0
POLYLINE
  5
D741
  8
0
 66
     1
 10
0.0
 20
0.0
 30
0.0
 70
   128
  0
VERTEX
  5
14B6A
  8
0
 10
316.9590074755252
 20
200.9991545975206
 30
0.0
  0
VERTEX
  5
14B6B
  8
0
 10
316.19670877233148
 20
200.8543767780063
 30
0.0
  0
VERTEX
  5
14B6C
  8
0
 10
315.31946251168853
 20
200.4983396083114
 30
0.0
  0
VERTEX
  5
14B6D
  8
0
 10
314.56673035398131
 20
200.19191771745659
 30
0.0
  0
VERTEX
  5
14B6E
  8
0
 10
313.72257212176919
 20
199.84267733991121
 30
0.0
  0
VERTEX
  5
14B6F
  8
0
 10
313.07403633371001
 20
199.54808324575399
 30
0.0
  0
VERTEX
  5
14B70
  8
0
 10
312.63318547978997
 20
199.22985777258839
 30
0.0
  0
VERTEX
  5
14B71
  8
0
 10
312.22082564607263
 20
198.7630472332236
 30
0.0
  0
VERTEX
  5
14B72
  8
0
 10
311.89606228843331
 20
198.1243778765199
 30
0.0
  0
VERTEX
  5
14B73
  8
0
 10
311.74427160993218
 20
197.34171673655479
 30
0.0
  0
SEQEND
  5
14B74
  8
0
  0
POLYLINE
  5
D742
  8
0
 66
     1
 10
0.0
 20
0.0
 30
0.0
 70
   128
  0
VERTEX
  5
14B75
  8
0
 10
311.74451747909188
 20
186.6584968566892
 30
0.0
  0
VERTEX
  5
14B76
  8
0
 10
311.896345410496
 20
185.8755768090484
 30
0.0
  0
VERTEX
  5
14B77
  8
0
 10
312.22121307626372
 20
185.236737951636
 30
0.0
  0
VERTEX
  5
14B78
  8
0
 10
312.63369956985122
 20
184.76986780762641
 30
0.0
  0
VERTEX
  5
14B79
  8
0
 10
313.07460257783532
 20
184.4516935572025
 30
0.0
  0
VERTEX
  5
14B7A
  8
0
 10
313.72310111299163
 20
184.15715627372239
 30
0.0
  0
VERTEX
  5
14B7B
  8
0
 10
314.56719228997832
 20
183.8079317286608
 30
0.0
  0
VERTEX
  5
14B7C
  8
0
 10
315.59639314189559
 20
183.38929012417771
 30
0.0
  0
VERTEX
  5
14B7D
  8
0
 10
316.1970365978778
 20
183.14550060778831
 30
0.0
  0
VERTEX
  5
14B7E
  8
0
 10
316.9590074755252
 20
183.0008466541764
 30
0.0
  0
SEQEND
  5
14B7F
  8
0
  0
POLYLINE
  5
D743
  8
0
 66
     1
 10
0.0
 20
0.0
 30
0.0
 70
   128
  0
VERTEX
  5
14B80
  8
0
 10
311.74404064193368
 20
197.28435285389401
 30
0.0
  0
VERTEX
  5
14B81
  8
0
 10
311.74141058698302
 20
192.00000062584849
 30
0.0
  0
VERTEX
  5
14B82
  8
0
 10
311.74427160993218
 20
186.71581231057621
 30
0.0
  0
SEQEND
  5
14B83
  8
0
  0
POLYLINE
  5
D744
  8
0
 66
     1
 10
0.0
 20
0.0
 30
0.0
 70
   128
  0
VERTEX
  5
14B84
  8
0
 10
318.70716700330382
 20
187.39665381610371
 30
0.0
  0
VERTEX
  5
14B85
  8
0
 10
318.70719680562621
 20
187.39654950797529
 30
0.0
  0
VERTEX
  5
14B86
  8
0
 10
318.69910547509789
 20
187.43160821497409
 30
0.0
  0
VERTEX
  5
14B87
  8
0
 10
318.67734232917428
 20
187.54758581519101
 30
0.0
  0
VERTEX
  5
14B88
  8
0
 10
318.6457146145404
 20
187.76019744575001
 30
0.0
  0
VERTEX
  5
14B89
  8
0
 10
318.60854366794229
 20
188.07734444737409
 30
0.0
  0
VERTEX
  5
14B8A
  8
0
 10
318.57015827670699
 20
188.49581003189061
 30
0.0
  0
VERTEX
  5
14B8B
  8
0
 10
318.53411236777902
 20
189.00418177247019
 30
0.0
  0
VERTEX
  5
14B8C
  8
0
 10
318.5029093362391
 20
189.5873368531463
 30
0.0
  0
VERTEX
  5
14B8D
  8
0
 10
318.47823301330209
 20
190.22909447550751
 30
0.0
  0
VERTEX
  5
14B8E
  8
0
 10
318.46116373315459
 20
190.91311179101439
 30
0.0
  0
VERTEX
  5
14B8F
  8
0
 10
318.45235714688903
 20
191.62307016551469
 30
0.0
  0
VERTEX
  5
14B90
  8
0
 10
318.45215598121291
 20
192.34270125627489
 30
0.0
  0
VERTEX
  5
14B91
  8
0
 10
318.46059748902923
 20
193.05582985281919
 30
0.0
  0
VERTEX
  5
14B92
  8
0
 10
318.47745070233941
 20
193.74603487551181
 30
0.0
  0
VERTEX
  5
14B93
  8
0
 10
318.50221643224359
 20
194.39753226935841
 30
0.0
  0
VERTEX
  5
14B94
  8
0
 10
318.5340453125537
 20
194.99477081000779
 30
0.0
  0
VERTEX
  5
14B95
  8
0
 10
318.57163349166512
 20
195.5222830921409
 30
0.0
  0
VERTEX
  5
14B96
  8
0
 10
318.61293951049453
 20
195.96429809927909
 30
0.0
  0
VERTEX
  5
14B97
  8
0
 10
318.65034887567163
 20
196.2741304934022
 30
0.0
  0
VERTEX
  5
14B98
  8
0
 10
318.68228951469069
 20
196.4810759574172
 30
0.0
  0
VERTEX
  5
14B99
  8
0
 10
318.70276371017098
 20
196.5850432217118
 30
0.0
  0
VERTEX
  5
14B9A
  8
0
 10
318.70506593957549
 20
196.5951015055177
 30
0.0
  0
SEQEND
  5
14B9B
  8
0
  0
LINE
  5
D748
  8
0
 10
297.14282492175698
 20
182.0000008493659
 30
0.0
 11
299.84337726607919
 21
182.0000008493659
 31
0.0
  0
LINE
  5
D749
  8
0
 10
299.84337726607919
 20
202.00000226497619
 30
0.0
 11
297.14282492175698
 21
202.00000226497619
 31
0.0
  0
LINE
  5
D74A
  8
0
 10
299.84337726607919
 20
182.0000008493659
 30
0.0
 11
300.34337827935821
 21
182.50000093132229
 31
0.0
  0
LINE
  5
D74B
  8
0
 10
300.34337827935821
 20
201.50000125169731
 30
0.0
 11
299.84337726607919
 21
202.00000226497619
 31
0.0
  0
LINE
  5
D74C
  8
0
 10
301.94340536370879
 20
184.00000117719151
 30
0.0
 11
301.94340536370879
 21
200.00000007450561
 31
0.0
  0
POLYLINE
  5
D74F
  8
0
 66
     1
 10
0.0
 20
0.0
 30
0.0
 70
   128
  0
VERTEX
  5
14B9C
  8
0
 10
318.30281654372811
 20
192.00000062584849
 30
0.0
  0
VERTEX
  5
14B9D
  8
0
 10
318.31760594621301
 20
193.5284481197593
 30
0.0
  0
VERTEX
  5
14B9E
  8
0
 10
318.35669914260512
 20
194.87785629928081
 30
0.0
  0
VERTEX
  5
14B9F
  8
0
 10
318.41283926740289
 20
196.0130360722539
 30
0.0
  0
VERTEX
  5
14BA0
  8
0
 10
318.48150381818419
 20
196.94773375987981
 30
0.0
  0
VERTEX
  5
14BA1
  8
0
 10
318.58666131272912
 20
197.9165700078008
 30
0.0
  0
VERTEX
  5
14BA2
  8
0
 10
318.70270410552621
 20
198.57570610940431
 30
0.0
  0
VERTEX
  5
14BA3
  8
0
 10
318.82513949647551
 20
198.92651669681041
 30
0.0
  0
VERTEX
  5
14BA4
  8
0
 10
318.97494832053781
 20
198.9959486573932
 30
0.0
  0
VERTEX
  5
14BA5
  8
0
 10
319.12474224343902
 20
198.92027869820569
 30
0.0
  0
VERTEX
  5
14BA6
  8
0
 10
319.27391776815062
 20
198.7663478404281
 30
0.0
  0
VERTEX
  5
14BA7
  8
0
 10
319.42283252254128
 20
198.53292487561669
 30
0.0
  0
VERTEX
  5
14BA8
  8
0
 10
319.57166532054549
 20
198.26936617493601
 30
0.0
  0
VERTEX
  5
14BA9
  8
0
 10
319.9889648891986
 20
197.61731185018991
 30
0.0
  0
VERTEX
  5
14BAA
  8
0
 10
320.4072479344905
 20
197.11467891931511
 30
0.0
  0
VERTEX
  5
14BAB
  8
0
 10
320.8262462355197
 20
196.7608843743798
 30
0.0
  0
VERTEX
  5
14BAC
  8
0
 10
321.24563196673989
 20
196.5582285821435
 30
0.0
  0
VERTEX
  5
14BAD
  8
0
 10
321.66533062234521
 20
196.50183886289571
 30
0.0
  0
VERTEX
  5
14BAE
  8
0
 10
322.08472380414611
 20
196.68451964855171
 30
0.0
  0
VERTEX
  5
14BAF
  8
0
 10
322.47933635488153
 20
197.11211033165429
 30
0.0
  0
VERTEX
  5
14BB0
  8
0
 10
322.8718925453723
 20
197.81085371971099
 30
0.0
  0
VERTEX
  5
14BB1
  8
0
 10
323.26479146257037
 20
198.4730054438111
 30
0.0
  0
VERTEX
  5
14BB2
  8
0
 10
323.65945616737008
 20
198.8727607578036
 30
0.0
  0
VERTEX
  5
14BB3
  8
0
 10
324.05509689822799
 20
198.99999991059281
 30
0.0
  0
SEQEND
  5
14BB4
  8
0
  0
POLYLINE
  5
D751
  8
0
 66
     1
 10
0.0
 20
0.0
 30
0.0
 70
   128
  0
VERTEX
  5
14BB5
  8
0
 10
316.9204879738391
 20
201.0136273503301
 30
0.0
  0
VERTEX
  5
14BB6
  8
0
 10
316.7935822345317
 20
200.8802284300325
 30
0.0
  0
VERTEX
  5
14BB7
  8
0
 10
316.65958354249602
 20
200.49123734235741
 30
0.0
  0
VERTEX
  5
14BB8
  8
0
 10
316.5317539311946
 20
199.8201058059928
 30
0.0
  0
VERTEX
  5
14BB9
  8
0
 10
316.41416886821389
 20
198.87166179716559
 30
0.0
  0
VERTEX
  5
14BBA
  8
0
 10
316.3091678358615
 20
197.64015160500981
 30
0.0
  0
VERTEX
  5
14BBB
  8
0
 10
316.22142979875213
 20
196.0849639773366
 30
0.0
  0
VERTEX
  5
14BBC
  8
0
 10
316.18678459897637
 20
195.18137060105769
 30
0.0
  0
VERTEX
  5
14BBD
  8
0
 10
316.15978369489312
 20
194.1948168724773
 30
0.0
  0
VERTEX
  5
14BBE
  8
0
 10
316.1425430513919
 20
193.1300245970485
 30
0.0
  0
VERTEX
  5
14BBF
  8
0
 10
316.13611320033669
 20
192.00000062584849
 30
0.0
  0
SEQEND
  5
14BC0
  8
0
  0
POLYLINE
  5
D752
  8
0
 66
     1
 10
0.0
 20
0.0
 30
0.0
 70
   128
  0
VERTEX
  5
14BC1
  8
0
 10
322.0627073384822
 20
201.00000023841829
 30
0.0
  0
VERTEX
  5
14BC2
  8
0
 10
321.62269094958901
 20
200.8405242860315
 30
0.0
  0
VERTEX
  5
14BC3
  8
0
 10
321.18591556325561
 20
200.35982400178881
 30
0.0
  0
VERTEX
  5
14BC4
  8
0
 10
320.75513789430261
 20
199.5975718647239
 30
0.0
  0
VERTEX
  5
14BC5
  8
0
 10
320.32955328002572
 20
198.91945913434
 30
0.0
  0
VERTEX
  5
14BC6
  8
0
 10
319.9078131653369
 20
198.56306061148621
 30
0.0
  0
VERTEX
  5
14BC7
  8
0
 10
319.84982529655099
 20
198.5545948892829
 30
0.0
  0
SEQEND
  5
14BC8
  8
0
  0
LINE
  5
D753
  8
0
 10
316.98258111253381
 20
200.99119551479791
 30
0.0
 11
316.9204879738391
 21
201.0136273503301
 31
0.0
  0
POLYLINE
  5
D755
  8
0
 66
     1
 10
0.0
 20
0.0
 30
0.0
 70
   128
  0
VERTEX
  5
14BC9
  8
0
 10
322.0627073384822
 20
183.00000101327871
 30
0.0
  0
VERTEX
  5
14BCA
  8
0
 10
321.6732431389392
 20
183.1246194243428
 30
0.0
  0
VERTEX
  5
14BCB
  8
0
 10
321.26563677564269
 20
183.52653820067621
 30
0.0
  0
VERTEX
  5
14BCC
  8
0
 10
320.84374764934182
 20
184.23217151313989
 30
0.0
  0
VERTEX
  5
14BCD
  8
0
 10
320.41478047147399
 20
184.97417110949729
 30
0.0
  0
VERTEX
  5
14BCE
  8
0
 10
319.98079160228372
 20
185.39711263030739
 30
0.0
  0
VERTEX
  5
14BCF
  8
0
 10
319.70620790496469
 20
185.4638083651659
 30
0.0
  0
SEQEND
  5
14BD0
  8
0
  0
LINE
  5
D756
  8
0
 10
319.59541032090789
 20
185.49072172492711
 30
0.0
 11
319.54424718394881
 21
185.50314836204021
 31
0.0
  0
LINE
  5
D757
  8
0
 10
316.98167214170098
 20
183.00795637071101
 30
0.0
 11
316.9204879738391
 21
182.9863739013669
 31
0.0
  0
POLYLINE
  5
D758
  8
0
 66
     1
 10
0.0
 20
0.0
 30
0.0
 70
   128
  0
VERTEX
  5
14BD1
  8
0
 10
316.13611320033669
 20
192.00000062584849
 30
0.0
  0
VERTEX
  5
14BD2
  8
0
 10
316.1425430513919
 20
190.8699766546485
 30
0.0
  0
VERTEX
  5
14BD3
  8
0
 10
316.15978369489312
 20
189.8051843792197
 30
0.0
  0
VERTEX
  5
14BD4
  8
0
 10
316.18678459897637
 20
188.81863065063931
 30
0.0
  0
VERTEX
  5
14BD5
  8
0
 10
316.22142979875213
 20
187.9150372743604
 30
0.0
  0
VERTEX
  5
14BD6
  8
0
 10
316.3091678358615
 20
186.35984964668719
 30
0.0
  0
VERTEX
  5
14BD7
  8
0
 10
316.41416886821389
 20
185.12834038585399
 30
0.0
  0
VERTEX
  5
14BD8
  8
0
 10
316.5317539311946
 20
184.17989637702681
 30
0.0
  0
VERTEX
  5
14BD9
  8
0
 10
316.65958354249602
 20
183.5087648406622
 30
0.0
  0
VERTEX
  5
14BDA
  8
0
 10
316.7935822345317
 20
183.1197728216645
 30
0.0
  0
VERTEX
  5
14BDB
  8
0
 10
316.9204879738391
 20
182.9863739013669
 30
0.0
  0
SEQEND
  5
14BDC
  8
0
  0
POLYLINE
  5
D759
  8
0
 66
     1
 10
0.0
 20
0.0
 30
0.0
 70
   128
  0
VERTEX
  5
14BDD
  8
0
 10
324.05509689822799
 20
185.00000040978171
 30
0.0
  0
VERTEX
  5
14BDE
  8
0
 10
323.63549510017037
 20
185.14343805611111
 30
0.0
  0
VERTEX
  5
14BDF
  8
0
 10
323.21707049384719
 20
185.59499073773591
 30
0.0
  0
VERTEX
  5
14BE0
  8
0
 10
322.80060539022088
 20
186.3266777992246
 30
0.0
  0
VERTEX
  5
14BE1
  8
0
 10
322.38380501046782
 20
187.015681415796
 30
0.0
  0
VERTEX
  5
14BE2
  8
0
 10
321.96498552337289
 20
187.3983581364152
 30
0.0
  0
VERTEX
  5
14BE3
  8
0
 10
321.54539117589599
 20
187.49875843524899
 30
0.0
  0
VERTEX
  5
14BE4
  8
0
 10
320.88614145293832
 20
187.27734953165029
 30
0.0
  0
VERTEX
  5
14BE5
  8
0
 10
320.2278752066195
 20
186.6879750788209
 30
0.0
  0
VERTEX
  5
14BE6
  8
0
 10
319.57166532054549
 20
185.73063693940611
 30
0.0
  0
VERTEX
  5
14BE7
  8
0
 10
319.42283252254128
 20
185.4670763760802
 30
0.0
  0
VERTEX
  5
14BE8
  8
0
 10
319.27391776815062
 20
185.2336524799463
 30
0.0
  0
VERTEX
  5
14BE9
  8
0
 10
319.12474224343902
 20
185.07972162216871
 30
0.0
  0
VERTEX
  5
14BEA
  8
0
 10
318.97494832053781
 20
185.0040525943038
 30
0.0
  0
VERTEX
  5
14BEB
  8
0
 10
318.82513949647551
 20
185.07348362356399
 30
0.0
  0
VERTEX
  5
14BEC
  8
0
 10
318.70270410552621
 20
185.42429514229269
 30
0.0
  0
VERTEX
  5
14BED
  8
0
 10
318.58666131272912
 20
186.0834312438962
 30
0.0
  0
VERTEX
  5
14BEE
  8
0
 10
318.48150381818419
 20
187.05226749181719
 30
0.0
  0
VERTEX
  5
14BEF
  8
0
 10
318.41283926740289
 20
187.9869651794431
 30
0.0
  0
VERTEX
  5
14BF0
  8
0
 10
318.35669914260512
 20
189.12214681506131
 30
0.0
  0
VERTEX
  5
14BF1
  8
0
 10
318.31760594621301
 20
190.47155499458279
 30
0.0
  0
VERTEX
  5
14BF2
  8
0
 10
318.30281654372811
 20
192.00000062584849
 30
0.0
  0
SEQEND
  5
14BF3
  8
0
  0
ARC
  5
D75B
  8
0
 10
309.69070214623071
 20
187.24518876527111
 30
0.0
 40
13.80904341777185
 50
69.475456156146606
 51
84.920455536053012
  0
ARC
  5
D766
  8
0
 10
309.48686632759518
 20
198.1111356179639
 30
0.0
 40
15.14543974501848
 50
273.857076880725
 51
289.4148564372482
  0
LINE
  5
D769
  8
0
 10
306.45165482535958
 20
194.50000010430779
 30
0.0
 11
306.45165482535958
 21
189.5000011473891
 31
0.0
  0
LINE
  5
D76B
  8
0
 10
325.10096469894052
 20
187.50000081956361
 30
0.0
 11
325.10096469894052
 21
183.50000109523509
 31
0.0
  0
POLYLINE
  5
D76C
  8
0
 66
     1
 10
0.0
 20
0.0
 30
0.0
 70
   128
  0
VERTEX
  5
14BF4
  8
0
 10
324.05509689822799
 20
185.00000040978171
 30
0.0
  0
VERTEX
  5
14BF5
  8
0
 10
324.25032446160913
 20
184.86271321773501
 30
0.0
  0
VERTEX
  5
14BF6
  8
0
 10
324.44555202499032
 20
184.52890392392851
 30
0.0
  0
VERTEX
  5
14BF7
  8
0
 10
324.64077958837152
 20
184.1156490892169
 30
0.0
  0
VERTEX
  5
14BF8
  8
0
 10
324.87087586894631
 20
183.6858567595479
 30
0.0
  0
VERTEX
  5
14BF9
  8
0
 10
325.10096469894052
 20
183.50000109523509
 30
0.0
  0
SEQEND
  5
14BFA
  8
0
  0
POLYLINE
  5
D76D
  8
0
 66
     1
 10
0.0
 20
0.0
 30
0.0
 70
   128
  0
VERTEX
  5
14BFB
  8
0
 10
325.10096469894052
 20
200.50000108778451
 30
0.0
  0
VERTEX
  5
14BFC
  8
0
 10
324.90573713555932
 20
200.36271296441529
 30
0.0
  0
VERTEX
  5
14BFD
  8
0
 10
324.71050957217813
 20
200.02890460193129
 30
0.0
  0
VERTEX
  5
14BFE
  8
0
 10
324.51528200879699
 20
199.61564883589719
 30
0.0
  0
VERTEX
  5
14BFF
  8
0
 10
324.28518572822219
 20
199.18585650622819
 30
0.0
  0
VERTEX
  5
14C00
  8
0
 10
324.05509689822799
 20
198.99999991059281
 30
0.0
  0
SEQEND
  5
14C01
  8
0
  0
LINE
  5
D76E
  8
0
 10
325.10096469894052
 20
200.50000108778451
 30
0.0
 11
325.10096469894052
 21
196.50000043213339
 31
0.0
  0
LINE
  5
D76F
  8
0
 10
324.22941068187362
 20
196.50000043213339
 30
0.0
 11
325.10096469894052
 21
196.50000043213339
 31
0.0
  0
ARC
  5
D770
  8
0
 10
329.92257788478258
 20
194.99620526897371
 30
0.0
 40
5.8884253152284076
 50
165.20380526049081
 51
184.83392689520991
  0
LINE
  5
D771
  8
0
 10
324.05509689822799
 20
189.5000011473891
 30
0.0
 11
324.05509689822799
 21
194.50000010430779
 31
0.0
  0
ARC
  5
D772
  8
0
 10
329.92258413242371
 20
189.00379652724811
 30
0.0
 40
5.8884314947615444
 50
175.16608350702441
 51
194.79618433727589
  0
LINE
  5
D773
  8
0
 10
324.22941068187362
 20
187.50000081956361
 30
0.0
 11
325.10096469894052
 21
187.50000081956361
 31
0.0
  0
ARC
  5
D779
  8
0
 10
324.59979559034269
 20
200.49883035246441
 30
0.0
 40
0.5011704760194906
 50
0.1338431870662267
 51
90.087921498961506
  0
ARC
  5
D77B
  8
0
 10
324.59978049516258
 20
183.50118605074451
 30
0.0
 40
0.5011856045777812
 50
269.91380684526939
 51
359.86453518968909
  0
ARC
  5
D77D
  8
0
 10
304.52504285352228
 20
189.42711654834679
 30
0.0
 40
1.927990107548089
 50
268.27435504833699
 51
2.1664920311155651
  0
ARC
  5
D77E
  8
0
 10
304.51414637677448
 20
194.5620717457376
 30
0.0
 40
1.9385024831060831
 50
358.16505207824741
 51
91.394100842300588
  0
LINE
  5
D785
  8
0
 10
303.51450929418212
 20
196.50000043213339
 30
0.0
 11
304.46698406711221
 21
196.50000043213339
 31
0.0
  0
LINE
  5
D788
  8
0
 10
303.51450929418212
 20
187.50000081956361
 30
0.0
 11
304.46698406711221
 21
187.50000081956361
 31
0.0
  0
ARC
  5
D78A
  8
0
 10
302.64340950321048
 20
200.49999948445779
 30
0.0
 40
0.5000007539605168
 50
89.999970284036692
 51
179.99981627257779
  0
LINE
  5
D78B
  8
0
 10
302.64340976253152
 20
201.00000023841829
 30
0.0
 11
324.59979559034269
 21
201.00000082848391
 31
0.0
  0
ARC
  5
D78C
  8
0
 10
302.64340911958021
 20
183.50000138360591
 30
0.0
 40
0.5000003703277379
 50
180.00003304485051
 51
270.00007367673402
  0
LINE
  5
D78E
  8
0
 10
324.59902653470641
 20
183.00000101327871
 30
0.0
 11
302.64340976253152
 21
183.00000101327871
 31
0.0
  0
LINE
  5
D78F
  8
0
 10
302.14340874925261
 20
200.50000108778451
 30
0.0
 11
302.14340874925261
 21
183.50000109523509
 31
0.0
  0
LINE
  5
D790
  8
0
 10
302.14340874925261
 20
187.50000081956361
 30
0.0
 11
303.51450929418212
 21
187.50000081956361
 31
0.0
  0
LINE
  5
D792
  8
0
 10
302.14340874925261
 20
196.50000043213339
 30
0.0
 11
303.51450929418212
 21
196.50000043213339
 31
0.0
  0
LINE
  5
D793
  8
0
 10
263.00000103190541
 20
202.49999955296491
 30
0.0
 11
262.50000001862651
 21
203.0000005662439
 31
0.0
  0
LINE
  5
D794
  8
0
 10
262.50000001862651
 20
181.0000006854531
 30
0.0
 11
263.00000103190541
 21
181.50000076740949
 31
0.0
  0
LINE
  5
D796
  8
0
 10
232.00000084005299
 20
203.0000005662439
 30
0.0
 11
232.00000084005299
 21
181.0000006854531
 31
0.0
  0
LINE
  5
D797
  8
0
 10
231.00000090897089
 20
203.0000005662439
 30
0.0
 11
262.50000001862651
 21
203.0000005662439
 31
0.0
  0
LINE
  5
D798
  8
0
 10
263.00000103190541
 20
202.49999955296491
 30
0.0
 11
263.00000103190541
 21
181.50000076740949
 31
0.0
  0
LINE
  5
D799
  8
0
 10
231.00000090897089
 20
203.0000005662439
 30
0.0
 11
230.00000074505809
 21
202.00000226497619
 31
0.0
  0
LINE
  5
D79B
  8
0
 10
230.00000074505809
 20
182.0000008493659
 30
0.0
 11
231.00000090897089
 21
181.0000006854531
 31
0.0
  0
LINE
  5
D79C
  8
0
 10
230.00000074505809
 20
182.0000008493659
 30
0.0
 11
230.00000074505809
 21
202.00000226497619
 31
0.0
  0
LINE
  5
D79D
  8
0
 10
262.50000001862668
 20
181.00000068545319
 30
0.0
 11
231.00000090897089
 21
181.0000006854531
 31
0.0
  0
LINE
  5
D79F
  8
0
 10
299.84337726607919
 20
182.0000008493659
 30
0.0
 11
299.84337726607919
 21
202.00000226497619
 31
0.0
  0
LINE
  5
D7A0
  8
0
 10
300.34337827935769
 20
201.5000012516974
 30
0.0
 11
300.34337827935821
 21
182.50000093132229
 31
0.0
  0
LINE
  5
D7A7
  8
0
 10
260.14282444491982
 20
170.5000007688065
 30
0.0
 11
259.64282343164092
 21
170.0000007450578
 31
0.0
  0
ARC
  5
D7B0
  8
0
 10
235.14282390847799
 20
179.0000007450578
 30
0.0
 40
1.0
 50
90.0
 51
180.0
  0
LINE
  5
D7B1
  8
0
 10
235.1428239559755
 20
180.00000052154039
 30
0.0
 11
266.16933459415958
 21
180.00000052154039
 31
0.0
  0
ARC
  5
D7B4
  8
0
 10
259.14282390847802
 20
179.0000007450578
 30
0.0
 40
1.0
 50
0.0
 51
90.0
  0
LINE
  5
D7B7
  8
0
 10
296.64282390847802
 20
170.0000007450578
 30
0.0
 11
234.6428239322268
 21
170.0000007450578
 31
0.0
  0
LINE
  5
D7B8
  8
0
 10
234.6428239322268
 20
170.0000007450578
 30
0.0
 11
234.14282390847799
 21
170.5000007688065
 31
0.0
  0
LINE
  5
D7B9
  8
0
 10
260.14282444491982
 20
179.00000035762761
 30
0.0
 11
260.14282444491982
 21
170.5000007688065
 31
0.0
  0
ARC
  5
D7C9
  8
0
 10
264.84687970978581
 20
166.8781577448901
 30
0.0
 40
13.18831470569053
 50
66.799961418381045
 51
84.245008312566057
  0
LINE
  5
D7CE
  8
0
 10
270.04231775179511
 20
179.00000035762761
 30
0.0
 11
270.04231775179511
 21
170.0000007450578
 31
0.0
  0
LINE
  5
D7D3
  8
0
 10
257.64282310381532
 20
181.0000006854531
 30
0.0
 11
258.14282411709428
 21
180.50000060349669
 31
0.0
  0
LINE
  5
D7D4
  8
0
 10
258.14282411709428
 20
180.50000060349669
 30
0.0
 11
265.1428234018386
 21
180.50000060349669
 31
0.0
  0
ARC
  5
D7D5
  8
0
 10
265.14282390847802
 20
181.0000007450578
 30
0.0
 40
0.5
 50
270.0
 51
0.0
  0
LINE
  5
D7D6
  8
0
 10
265.6428244151175
 20
181.0000006854531
 30
0.0
 11
265.6428244151175
 21
203.0000005662439
 31
0.0
  0
ARC
  5
D7D7
  8
0
 10
265.14282390847802
 20
203.0000007450578
 30
0.0
 40
0.5
 50
0.0
 51
90.0
  0
LINE
  5
D7D8
  8
0
 10
265.1428234018386
 20
203.5000015795228
 30
0.0
 11
258.14282411709428
 21
203.5000015795228
 31
0.0
  0
LINE
  5
D7D9
  8
0
 10
258.14282411709428
 20
203.5000015795228
 30
0.0
 11
257.64282310381532
 21
203.0000005662439
 31
0.0
  0
LINE
  5
D7DA
  8
0
 10
257.64282310381532
 20
203.0000005662439
 30
0.0
 11
237.5570375658572
 21
203.0000005662439
 31
0.0
  0
LINE
  5
D7DE
  8
0
 10
234.14282390847799
 20
181.0000006854531
 30
0.0
 11
234.14282390847799
 21
170.5000007688063
 31
0.0
  0
LINE
  5
D7DF
  8
0
 10
236.8499306682497
 20
203.0000005662439
 30
0.0
 11
236.8499306682497
 21
206.17849647998781
 31
0.0
  0
LINE
  5
D7E3
  8
0
 10
297.14282492175698
 20
202.92264863848661
 30
0.0
 11
297.14282492175698
 21
170.5000007688065
 31
0.0
  0
ARC
  5
D7E7
  8
0
 10
237.6084580148154
 20
206.42456092446659
 30
0.0
 40
0.797440559743999
 50
119.56294307965879
 51
197.97293803401999
  0
LINE
  5
D7E8
  8
0
 10
239.60158770903951
 20
207.78867498040171
 30
0.0
 11
289.21462113037711
 21
207.78867498040171
 31
0.0
  0
LINE
  5
D7EB
  8
0
 10
297.14282492175698
 20
170.5000007688065
 30
0.0
 11
296.64282390847802
 21
170.0000007450578
 31
0.0
  0
ARC
  5
D7F0
  8
0
 10
296.14282390847802
 20
202.9226504758681
 30
0.0
 40
1.000000000000008
 50
0.0
 51
59.999999999999972
  0
ARC
  5
D7F2
  8
0
 10
239.359272999458
 20
207.49445956511011
 30
0.0
 40
0.381154993506132
 50
50.525258654128351
 51
105.1643120173173
  0
ARC
  5
D7F4
  8
0
 10
289.46462163701659
 20
207.295945748967
 30
0.0
 40
0.5525236183460971
 50
63.097715771686921
 51
116.90228422831299
  0
LINE
  5
D7FB
  8
0
 10
234.8008037651523
 20
206.23948582763401
 30
0.0
 11
243.97288152948019
 21
209.5778499543664
 31
0.0
  0
LINE
  5
D7FD
  8
0
 10
287.50884795561433
 20
209.06218037009211
 30
0.0
 11
296.64282390847802
 21
203.7886758796526
 31
0.0
  0
ARC
  5
D803
  8
0
 10
284.00884931226261
 20
203.0000007450578
 30
0.0
 40
7.0000000000000284
 50
59.999999999999972
 51
90.0
  0
LINE
  5
D805
  8
0
 10
234.14282390847799
 20
203.0000005662439
 30
0.0
 11
234.14282390847799
 21
205.29979363083811
 31
0.0
  0
ARC
  5
D807
  8
0
 10
235.14282390847799
 20
205.29979320684811
 30
0.0
 40
1.0
 50
110.0000000000035
 51
180.0
  0
ARC
  5
D808
  8
0
 10
246.36702245125571
 20
203.0000007450578
 30
0.0
 40
7.0000000000000284
 50
90.0
 51
110.0000000000035
  0
ARC
  5
D811
  8
0
 10
263.14282390847802
 20
183.0000007450578
 30
0.0
 40
1.0
 50
270.0
 51
0.0000000000016284
  0
ARC
  5
D818
  8
0
 10
263.14282390847802
 20
201.0000007450578
 30
0.0
 40
1.0
 50
0.0
 51
90.0
  0
LINE
  5
D81A
  8
0
 10
264.14282323792582
 20
183.00000101327871
 30
0.0
 11
264.14282323792582
 21
201.00000023841829
 31
0.0
  0
LINE
  5
D81B
  8
0
 10
263.00000103190541
 20
182.0000008493659
 30
0.0
 11
263.14282307401299
 21
182.0000008493659
 31
0.0
  0
LINE
  5
D81C
  8
0
 10
263.14282307401299
 20
202.00000226497619
 30
0.0
 11
263.00000103190541
 21
202.00000226497619
 31
0.0
  0
LINE
  5
D81D
  8
0
 10
246.36702222749591
 20
209.9999998509881
 30
0.0
 11
284.0088483132422
 21
209.9999998509881
 31
0.0
  0
POLYLINE
  5
D81E
  8
0
 66
     1
 10
0.0
 20
0.0
 30
0.0
 70
   128
  0
VERTEX
  5
14C02
  8
0
 10
318.78007838502532
 20
187.33285821974249
 30
0.0
  0
VERTEX
  5
14C03
  8
0
 10
318.84371379390359
 20
187.39031895995109
 30
0.0
  0
VERTEX
  5
14C04
  8
0
 10
318.90577713027602
 20
187.5612837076184
 30
0.0
  0
VERTEX
  5
14C05
  8
0
 10
318.96474847570062
 20
187.84154660999749
 30
0.0
  0
VERTEX
  5
14C06
  8
0
 10
319.0191749669612
 20
188.22420284152
 30
0.0
  0
VERTEX
  5
14C07
  8
0
 10
319.06770804896951
 20
188.69983300566651
 30
0.0
  0
VERTEX
  5
14C08
  8
0
 10
319.10916307941079
 20
189.25672292709319
 30
0.0
  0
VERTEX
  5
14C09
  8
0
 10
319.14251187816262
 20
189.88116167485691
 30
0.0
  0
VERTEX
  5
14C0A
  8
0
 10
319.16694233193999
 20
190.5577749758956
 30
0.0
  0
VERTEX
  5
14C0B
  8
0
 10
319.18184349313378
 20
191.2698996067044
 30
0.0
  0
VERTEX
  5
14C0C
  8
0
 10
319.18685028329492
 20
192.00000062584849
 30
0.0
  0
VERTEX
  5
14C0D
  8
0
 10
319.18184349313378
 20
192.73010350763769
 30
0.0
  0
VERTEX
  5
14C0E
  8
0
 10
319.16694233193999
 20
193.4422262758014
 30
0.0
  0
VERTEX
  5
14C0F
  8
0
 10
319.14251187816262
 20
194.11883957684009
 30
0.0
  0
VERTEX
  5
14C10
  8
0
 10
319.10916307941079
 20
194.74327832460381
 30
0.0
  0
VERTEX
  5
14C11
  8
0
 10
319.06770804896951
 20
195.30016824603049
 30
0.0
  0
VERTEX
  5
14C12
  8
0
 10
319.0191749669612
 20
195.77579841017689
 30
0.0
  0
VERTEX
  5
14C13
  8
0
 10
318.96474847570062
 20
196.15845464169951
 30
0.0
  0
VERTEX
  5
14C14
  8
0
 10
318.90577713027602
 20
196.43871754407849
 30
0.0
  0
VERTEX
  5
14C15
  8
0
 10
318.84371379390359
 20
196.609684154391
 30
0.0
  0
VERTEX
  5
14C16
  8
0
 10
318.78007838502532
 20
196.66714303195451
 30
0.0
  0
VERTEX
  5
14C17
  8
0
 10
318.71645042672759
 20
196.609684154391
 30
0.0
  0
VERTEX
  5
14C18
  8
0
 10
318.69201252236962
 20
196.55644975602601
 30
0.0
  0
SEQEND
  5
14C19
  8
0
  0
POLYLINE
  5
D81F
  8
0
 66
     1
 10
0.0
 20
0.0
 30
0.0
 70
   128
  0
VERTEX
  5
14C1A
  8
0
 10
318.6929438449443
 20
187.44120642542811
 30
0.0
  0
VERTEX
  5
14C1B
  8
0
 10
318.71645042672759
 20
187.39031895995109
 30
0.0
  0
VERTEX
  5
14C1C
  8
0
 10
318.78007838502532
 20
187.33285821974249
 30
0.0
  0
SEQEND
  5
14C1D
  8
0
  0
LINE
  5
D822
  8
0
 10
301.94340452675311
 20
62.000000365078357
 30
0.0
 11
302.14340791229688
 21
62.200000956654463
 31
0.0
  0
LINE
  5
D823
  8
0
 10
302.14340791229688
 20
77.800000533461485
 30
0.0
 11
301.94340452675311
 21
78.000001125037585
 31
0.0
  0
LINE
  5
D824
  8
0
 10
300.34337744240253
 20
62.000000365078357
 30
0.0
 11
301.94340452675311
 21
62.000000365078357
 31
0.0
  0
LINE
  5
D825
  8
0
 10
301.94340452675311
 20
78.000001125037585
 30
0.0
 11
300.34337744240253
 21
78.000001125037585
 31
0.0
  0
ARC
  5
D827
  8
0
 10
1228.1570198942929
 20
187.46037200725371
 30
0.0
 40
920.8051032384119
 50
184.5142766114536
 51
185.51002011505241
  0
ARC
  5
D828
  8
0
 10
284.2547647458855
 20
131.67978187194959
 30
0.0
 40
29.431899779038179
 50
335.15217409538138
 51
17.728857161794739
  0
ARC
  5
D829
  8
0
 10
319.5437689614655
 20
143.7437221796736
 30
0.0
 40
7.7383157317543807
 50
127.1406494970978
 51
151.60615571294409
  0
LINE
  5
D83A
  8
0
 10
302.14340791229688
 20
66.000000555068169
 30
0.0
 11
302.93749824289762
 21
66.000000555068169
 31
0.0
  0
LINE
  5
D83B
  8
0
 10
297.1428240848013
 20
60.000000968575392
 30
0.0
 11
299.84337642912351
 21
60.000000968575392
 31
0.0
  0
LINE
  5
D83C
  8
0
 10
299.84337642912351
 20
80.000000521540557
 30
0.0
 11
297.1428240848013
 21
80.000000521540557
 31
0.0
  0
LINE
  5
D83D
  8
0
 10
299.84337642912351
 20
60.000000968575392
 30
0.0
 11
300.34337744240253
 21
60.500001050531779
 31
0.0
  0
LINE
  5
D83E
  8
0
 10
300.34337744240253
 20
79.50000043958417
 30
0.0
 11
299.84337642912351
 21
80.000000521540557
 31
0.0
  0
LINE
  5
D840
  8
0
 10
313.42113569502322
 20
68.75000077299768
 30
0.0
 11
314.86451432232337
 21
68.75000077299768
 31
0.0
  0
LINE
  5
D841
  8
0
 10
314.86451432232337
 20
68.75000077299768
 30
0.0
 11
315.58619991068332
 21
70.000000745057946
 31
0.0
  0
LINE
  5
D842
  8
0
 10
315.58619991068332
 20
70.000000745057946
 30
0.0
 11
314.86451432232337
 21
71.250000717118326
 31
0.0
  0
LINE
  5
D843
  8
0
 10
314.86451432232337
 20
71.250000717118326
 30
0.0
 11
313.42113569502322
 21
71.250000717118326
 31
0.0
  0
LINE
  5
D844
  8
0
 10
313.42113569502322
 20
71.250000717118326
 30
0.0
 11
312.69945010666328
 21
70.000000745057946
 31
0.0
  0
LINE
  5
D845
  8
0
 10
312.69945010666328
 20
70.000000745057946
 30
0.0
 11
313.42113569502322
 21
68.75000077299768
 31
0.0
  0
LINE
  5
D847
  8
0
 10
302.14340791229688
 20
77.800000533461485
 30
0.0
 11
302.14340791229688
 21
62.200000956654463
 31
0.0
  0
LINE
  5
D848
  8
0
 10
301.94340452675311
 20
62.000000365078357
 30
0.0
 11
301.94340452675311
 21
78.000001125037585
 31
0.0
  0
POLYLINE
  5
D849
  8
0
 66
     1
 10
0.0
 20
0.0
 30
0.0
 70
   128
  0
VERTEX
  5
14C1E
  8
0
 10
316.9205169392057
 20
141.5142495930194
 30
0.0
  0
VERTEX
  5
14C1F
  8
0
 10
317.18454316381889
 20
138.13441291451451
 30
0.0
  0
VERTEX
  5
14C20
  8
0
 10
317.38451674704038
 20
134.77377638220781
 30
0.0
  0
VERTEX
  5
14C21
  8
0
 10
317.52223327879392
 20
131.41725257039059
 30
0.0
  0
VERTEX
  5
14C22
  8
0
 10
317.59828880552732
 20
128.0472208559512
 30
0.0
  0
VERTEX
  5
14C23
  8
0
 10
317.61180415873008
 20
124.6640165150165
 30
0.0
  0
VERTEX
  5
14C24
  8
0
 10
317.45403811459028
 20
117.9953631758689
 30
0.0
  0
VERTEX
  5
14C25
  8
0
 10
317.05014959101158
 20
111.306660324335
 30
0.0
  0
VERTEX
  5
14C26
  8
0
 10
316.80276051287137
 20
108.4539857506751
 30
0.0
  0
VERTEX
  5
14C27
  8
0
 10
316.5103550267645
 20
105.60483157634729
 30
0.0
  0
VERTEX
  5
14C28
  8
0
 10
316.17331311230151
 20
102.761388272047
 30
0.0
  0
VERTEX
  5
14C29
  8
0
 10
315.79286411528068
 20
99.928165301680508
 30
0.0
  0
VERTEX
  5
14C2A
  8
0
 10
315.35184934858762
 20
97.111970633268299
 30
0.0
  0
VERTEX
  5
14C2B
  8
0
 10
314.75766554598289
 20
94.304854497313443
 30
0.0
  0
VERTEX
  5
14C2C
  8
0
 10
313.92180726055579
 20
91.506757289171162
 30
0.0
  0
VERTEX
  5
14C2D
  8
0
 10
312.79240355019061
 20
88.731429055333109
 30
0.0
  0
VERTEX
  5
14C2E
  8
0
 10
311.536719949288
 20
86.299783065915079
 30
0.0
  0
VERTEX
  5
14C2F
  8
0
 10
310.08017614607297
 20
83.905475661158533
 30
0.0
  0
VERTEX
  5
14C30
  8
0
 10
308.46806421999418
 20
81.549361795186968
 30
0.0
  0
SEQEND
  5
14C31
  8
0
  0
POLYLINE
  5
D84A
  8
0
 66
     1
 10
0.0
 20
0.0
 30
0.0
 70
   128
  0
VERTEX
  5
14C32
  8
0
 10
322.06270650152652
 20
82.738738954067216
 30
0.0
  0
VERTEX
  5
14C33
  8
0
 10
321.67324230198352
 20
87.190328612923594
 30
0.0
  0
VERTEX
  5
14C34
  8
0
 10
321.2656359386869
 20
91.849301457405033
 30
0.0
  0
VERTEX
  5
14C35
  8
0
 10
320.84374681238609
 20
96.671544462442341
 30
0.0
  0
VERTEX
  5
14C36
  8
0
 10
320.4147796345182
 20
101.5745927393436
 30
0.0
  0
VERTEX
  5
14C37
  8
0
 10
319.98079076532798
 20
106.5351818501949
 30
0.0
  0
VERTEX
  5
14C38
  8
0
 10
319.54424634699308
 20
111.52483567595471
 30
0.0
  0
VERTEX
  5
14C39
  8
0
 10
319.05410990242439
 20
117.1271768212318
 30
0.0
  0
VERTEX
  5
14C3A
  8
0
 10
318.5637648415991
 20
122.7318239212035
 30
0.0
  0
VERTEX
  5
14C3B
  8
0
 10
318.0740232778021
 20
128.32955315709111
 30
0.0
  0
VERTEX
  5
14C3C
  8
0
 10
317.84358427051978
 20
130.9635308384895
 30
0.0
  0
VERTEX
  5
14C3D
  8
0
 10
317.61352524284803
 20
133.5931424796581
 30
0.0
  0
VERTEX
  5
14C3E
  8
0
 10
317.38376423840009
 20
136.2192709743976
 30
0.0
  0
VERTEX
  5
14C3F
  8
0
 10
317.15325817589252
 20
138.8540197908878
 30
0.0
  0
VERTEX
  5
14C40
  8
0
 10
316.92048713688342
 20
141.5145699679851
 30
0.0
  0
SEQEND
  5
14C41
  8
0
  0
POLYLINE
  5
D853
  8
0
 66
     1
 10
0.0
 20
0.0
 30
0.0
 70
   128
  0
VERTEX
  5
14C42
  8
0
 10
308.46806421999418
 20
81.549361795186968
 30
0.0
  0
VERTEX
  5
14C43
  8
0
 10
308.17714885000669
 20
81.151615343987913
 30
0.0
  0
VERTEX
  5
14C44
  8
0
 10
307.84495726351219
 20
80.715608298778506
 30
0.0
  0
VERTEX
  5
14C45
  8
0
 10
307.57165506605588
 20
80.374486260116086
 30
0.0
  0
VERTEX
  5
14C46
  8
0
 10
307.23298147444211
 20
80.028157196938963
 30
0.0
  0
VERTEX
  5
14C47
  8
0
 10
306.84473171953641
 20
79.720087796449633
 30
0.0
  0
VERTEX
  5
14C48
  8
0
 10
306.40771046404319
 20
79.436379931867094
 30
0.0
  0
VERTEX
  5
14C49
  8
0
 10
305.54531321052991
 20
78.969911187887163
 30
0.0
  0
VERTEX
  5
14C4A
  8
0
 10
304.60664436344592
 20
78.471963740885229
 30
0.0
  0
VERTEX
  5
14C4B
  8
0
 10
303.84312376503431
 20
77.937934994697542
 30
0.0
  0
SEQEND
  5
14C4C
  8
0
  0
POLYLINE
  5
D854
  8
0
 66
     1
 10
0.0
 20
0.0
 30
0.0
 70
   128
  0
VERTEX
  5
14C4D
  8
0
 10
324.59902569775068
 20
70.958376901689888
 30
0.0
  0
VERTEX
  5
14C4E
  8
0
 10
324.2637644720503
 20
73.169467719271751
 30
0.0
  0
VERTEX
  5
14C4F
  8
0
 10
323.73597279314481
 20
75.363713763654204
 30
0.0
  0
VERTEX
  5
14C50
  8
0
 10
323.13101545099698
 20
77.551208883523913
 30
0.0
  0
VERTEX
  5
14C51
  8
0
 10
322.47589334969012
 20
80.134390369057627
 30
0.0
  0
VERTEX
  5
14C52
  8
0
 10
322.06270650152652
 20
82.738738954067216
 30
0.0
  0
SEQEND
  5
14C53
  8
0
  0
POLYLINE
  5
D857
  8
0
 66
     1
 10
0.0
 20
0.0
 30
0.0
 70
   128
  0
VERTEX
  5
14C54
  8
0
 10
316.13611236338102
 20
150.4799802601336
 30
0.0
  0
VERTEX
  5
14C55
  8
0
 10
316.14254221443622
 20
150.40653988718981
 30
0.0
  0
VERTEX
  5
14C56
  8
0
 10
316.15978285793739
 20
150.20946457982049
 30
0.0
  0
VERTEX
  5
14C57
  8
0
 10
316.1867837620207
 20
149.9008391797542
 30
0.0
  0
VERTEX
  5
14C58
  8
0
 10
316.22142896179639
 20
149.5048333704471
 30
0.0
  0
VERTEX
  5
14C59
  8
0
 10
316.30916699890582
 20
148.5019554197788
 30
0.0
  0
VERTEX
  5
14C5A
  8
0
 10
316.41416803125821
 20
147.30184569954869
 30
0.0
  0
VERTEX
  5
14C5B
  8
0
 10
316.53175309423892
 20
145.95785781741139
 30
0.0
  0
VERTEX
  5
14C5C
  8
0
 10
316.65958270554029
 20
144.49670955538741
 30
0.0
  0
VERTEX
  5
14C5D
  8
0
 10
316.79358139757602
 20
142.9651235044002
 30
0.0
  0
VERTEX
  5
14C5E
  8
0
 10
316.92048713688342
 20
141.5145699679851
 30
0.0
  0
SEQEND
  5
14C5F
  8
0
  0
ARC
  5
D858
  8
0
 10
316.31042742003137
 20
148.48758888093431
 30
0.0
 40
2.0000000000000089
 50
5.000000000252367
 51
95.000000000248264
  0
POLYLINE
  5
D859
  8
0
 66
     1
 10
0.0
 20
0.0
 30
0.0
 70
   128
  0
VERTEX
  5
14C60
  8
0
 10
324.0550960612722
 20
82.913049943745079
 30
0.0
  0
VERTEX
  5
14C61
  8
0
 10
323.6354942632147
 20
87.70911626517767
 30
0.0
  0
VERTEX
  5
14C62
  8
0
 10
323.2170696568914
 20
92.49172963201994
 30
0.0
  0
VERTEX
  5
14C63
  8
0
 10
322.8006045532652
 20
97.251913025975171
 30
0.0
  0
VERTEX
  5
14C64
  8
0
 10
322.38380417351209
 20
102.0159688591956
 30
0.0
  0
VERTEX
  5
14C65
  8
0
 10
321.96498468641721
 20
106.8031680583953
 30
0.0
  0
VERTEX
  5
14C66
  8
0
 10
321.54539033894019
 20
111.5991105139255
 30
0.0
  0
VERTEX
  5
14C67
  8
0
 10
320.88614061598258
 20
119.1343408823013
 30
0.0
  0
VERTEX
  5
14C68
  8
0
 10
320.22787436966382
 20
126.6583730280399
 30
0.0
  0
VERTEX
  5
14C69
  8
0
 10
319.57166448358981
 20
134.15887251496309
 30
0.0
  0
VERTEX
  5
14C6A
  8
0
 10
319.42283168558561
 20
135.8600933849811
 30
0.0
  0
VERTEX
  5
14C6B
  8
0
 10
319.27391693119489
 20
137.56215617060661
 30
0.0
  0
VERTEX
  5
14C6C
  8
0
 10
319.12474140648328
 20
139.26725879311559
 30
0.0
  0
VERTEX
  5
14C6D
  8
0
 10
318.97494748358213
 20
140.97939476370809
 30
0.0
  0
VERTEX
  5
14C6E
  8
0
 10
318.82513865951978
 20
142.69176170229909
 30
0.0
  0
VERTEX
  5
14C6F
  8
0
 10
318.70270326857047
 20
144.0911744534969
 30
0.0
  0
VERTEX
  5
14C70
  8
0
 10
318.58666047577339
 20
145.4175566136837
 30
0.0
  0
VERTEX
  5
14C71
  8
0
 10
318.48150298122852
 20
146.6194768249988
 30
0.0
  0
VERTEX
  5
14C72
  8
0
 10
318.41283843044721
 20
147.40435823798171
 30
0.0
  0
VERTEX
  5
14C73
  8
0
 10
318.35669830564939
 20
148.0460767447947
 30
0.0
  0
VERTEX
  5
14C74
  8
0
 10
318.31760510925727
 20
148.49286571145049
 30
0.0
  0
VERTEX
  5
14C75
  8
0
 10
318.30281570677238
 20
148.6618970334529
 30
0.0
  0
SEQEND
  5
14C76
  8
0
  0
ARC
  5
D85B
  8
0
 10
325.05476427801568
 20
-234.01121090068841
 30
0.0
 40
304.96992832409887
 50
89.991320320652292
 51
90.085621251486685
  0
POLYLINE
  5
D85C
  8
0
 66
     1
 10
0.0
 20
0.0
 30
0.0
 70
   128
  0
VERTEX
  5
14C77
  8
0
 10
325.10096386198478
 20
70.958713924046549
 30
0.0
  0
VERTEX
  5
14C78
  8
0
 10
324.91450563196622
 20
68.8275092793628
 30
0.0
  0
VERTEX
  5
14C79
  8
0
 10
324.76800486568891
 20
67.152991173788848
 30
0.0
  0
SEQEND
  5
14C7A
  8
0
  0
POLYLINE
  5
D85E
  8
0
 66
     1
 10
0.0
 20
0.0
 30
0.0
 70
   128
  0
VERTEX
  5
14C7B
  8
0
 10
306.4516539884039
 20
81.372948810458126
 30
0.0
  0
VERTEX
  5
14C7C
  8
0
 10
307.8024368000456
 20
83.232347369193974
 30
0.0
  0
VERTEX
  5
14C7D
  8
0
 10
308.96649316076719
 20
85.207973122596684
 30
0.0
  0
VERTEX
  5
14C7E
  8
0
 10
309.93533685926877
 20
87.27857701480383
 30
0.0
  0
VERTEX
  5
14C7F
  8
0
 10
310.70048168425052
 20
89.422904402017537
 30
0.0
  0
VERTEX
  5
14C80
  8
0
 10
311.25565424684959
 20
91.620449423789921
 30
0.0
  0
VERTEX
  5
14C81
  8
0
 10
311.60345479969459
 20
93.853658512234631
 30
0.0
  0
VERTEX
  5
14C82
  8
0
 10
311.73962906126462
 20
96.104911044239941
 30
0.0
  0
VERTEX
  5
14C83
  8
0
 10
311.6556386661955
 20
98.357590362429562
 30
0.0
  0
VERTEX
  5
14C84
  8
0
 10
311.60656914238513
 20
99.044822603452175
 30
0.0
  0
SEQEND
  5
14C85
  8
0
  0
POLYLINE
  5
D861
  8
0
 66
     1
 10
0.0
 20
0.0
 30
0.0
 70
   128
  0
VERTEX
  5
14C86
  8
0
 10
312.2888916107367
 20
140.64217304444259
 30
0.0
  0
VERTEX
  5
14C87
  8
0
 10
311.9669835281797
 20
141.72372266650191
 30
0.0
  0
VERTEX
  5
14C88
  8
0
 10
311.75127431873761
 20
143.20567294955251
 30
0.0
  0
VERTEX
  5
14C89
  8
0
 10
311.78126290564018
 20
144.31282922625539
 30
0.0
  0
VERTEX
  5
14C8A
  8
0
 10
311.95687309030973
 20
145.3806017339229
 30
0.0
  0
VERTEX
  5
14C8B
  8
0
 10
312.25982114796119
 20
146.37967243790609
 30
0.0
  0
VERTEX
  5
14C8C
  8
0
 10
312.67121240620099
 20
147.3002363741397
 30
0.0
  0
VERTEX
  5
14C8D
  8
0
 10
312.73637518410118
 20
147.4235211312768
 30
0.0
  0
SEQEND
  5
14C8E
  8
0
  0
LINE
  5
D862
  8
0
 10
314.87157747272892
 20
149.91236522793741
 30
0.0
 11
315.16327515367948
 21
150.1258914172648
 31
0.0
  0
POLYLINE
  5
D863
  8
0
 66
     1
 10
0.0
 20
0.0
 30
0.0
 70
   128
  0
VERTEX
  5
14C8F
  8
0
 10
315.16327515367948
 20
150.1258914172648
 30
0.0
  0
VERTEX
  5
14C90
  8
0
 10
315.6184385729261
 20
150.36406412720669
 30
0.0
  0
VERTEX
  5
14C91
  8
0
 10
316.13611236338102
 20
150.4799802601336
 30
0.0
  0
SEQEND
  5
14C92
  8
0
  0
POLYLINE
  5
D866
  8
0
 66
     1
 10
0.0
 20
0.0
 30
0.0
 70
   128
  0
VERTEX
  5
14C93
  8
0
 10
318.79162594799482
 20
60.030615404248181
 30
0.0
  0
VERTEX
  5
14C94
  8
0
 10
316.72517761711561
 20
59.476911537349167
 30
0.0
  0
VERTEX
  5
14C95
  8
0
 10
315.10153964285342
 20
59.04185909777874
 30
0.0
  0
SEQEND
  5
14C96
  8
0
  0
POLYLINE
  5
D868
  8
0
 66
     1
 10
0.0
 20
0.0
 30
0.0
 70
   128
  0
VERTEX
  5
14C97
  8
0
 10
303.84312376503431
 20
77.937934994697542
 30
0.0
  0
VERTEX
  5
14C98
  8
0
 10
303.72216358904319
 20
78.076650835573645
 30
0.0
  0
VERTEX
  5
14C99
  8
0
 10
303.66330400232749
 20
78.144150301814051
 30
0.0
  0
VERTEX
  5
14C9A
  8
0
 10
303.61076250795799
 20
78.204406872391672
 30
0.0
  0
VERTEX
  5
14C9B
  8
0
 10
303.56807813171832
 20
78.253355324268284
 30
0.0
  0
VERTEX
  5
14C9C
  8
0
 10
303.53758290533511
 20
78.288323692977372
 30
0.0
  0
VERTEX
  5
14C9D
  8
0
 10
303.51450845722638
 20
78.314782567322197
 30
0.0
  0
SEQEND
  5
14C9E
  8
0
  0
ARC
  5
D869
  8
0
 10
287.74137559524388
 20
96.403265867857868
 30
0.0
 40
23.999686422857689
 50
311.08838396672979
 51
321.22443469019561
  0
ARC
  5
D86E
  8
0
 10
313.90432893005982
 20
70.320150607374956
 30
0.0
 40
11.7946291063672
 50
186.6505030931628
 51
246.66305249342091
  0
ARC
  5
D870
  8
0
 10
312.99392393042308
 20
70.089242830481709
 30
0.0
 40
11.24663199935304
 50
250.45843870974619
 51
280.80107369898627
  0
POLYLINE
  5
D871
  8
0
 66
     1
 10
0.0
 20
0.0
 30
0.0
 70
   128
  0
VERTEX
  5
14C9F
  8
0
 10
324.0550960612722
 20
82.913049943745079
 30
0.0
  0
VERTEX
  5
14CA0
  8
0
 10
324.25032362465339
 20
80.681574046611729
 30
0.0
  0
VERTEX
  5
14CA1
  8
0
 10
324.44555118803459
 20
78.450098149478379
 30
0.0
  0
VERTEX
  5
14CA2
  8
0
 10
324.64077875141578
 20
76.218621786683741
 30
0.0
  0
VERTEX
  5
14CA3
  8
0
 10
324.87087503199058
 20
73.588667884468975
 30
0.0
  0
VERTEX
  5
14CA4
  8
0
 10
325.10096386198478
 20
70.958713924046549
 30
0.0
  0
SEQEND
  5
14CA5
  8
0
  0
ARC
  5
D872
  8
0
 10
314.14283882915328
 20
69.999983268655257
 30
0.0
 40
10.999978058713451
 50
294.9999742094156
 51
345.00006321278738
  0
LINE
  5
D873
  8
0
 10
302.18906507019477
 20
68.954182653687838
 30
0.0
 11
302.14340791229688
 21
70.000000745058003
 31
0.0
  0
ARC
  5
D874
  8
0
 10
306.1434084528255
 20
75.300004111551146
 30
0.0
 40
4.0000005405304533
 50
131.08857050083219
 51
180.0000504519397
  0
CIRCLE
  5
D875
  8
0
 10
314.1428230715224
 20
70.000000745058003
 30
0.0
 40
7.5000000000000471
  0
CIRCLE
  5
D87A
  8
0
 10
314.1428230715224
 20
70.000000745058031
 30
0.0
 40
6.9999999999999956
  0
CIRCLE
  5
D87B
  8
0
 10
314.1428230715224
 20
70.000000745058003
 30
0.0
 40
7.4999999999999956
  0
LINE
  5
D87D
  8
0
 10
232.00000000309731
 20
100.00000007450581
 30
0.0
 11
234.14282307152229
 21
100.00000007450581
 31
0.0
  0
LINE
  5
D87E
  8
0
 10
234.14282307152229
 20
40.000001415610278
 30
0.0
 11
232.00000000309731
 21
40.000001415610278
 31
0.0
  0
LINE
  5
D880
  8
0
 10
231.0000000720151
 20
98.999999910592635
 30
0.0
 11
231.0000000720151
 21
41.000001579523051
 31
0.0
  0
LINE
  5
D884
  8
0
 10
229.99999990810241
 20
41.999999880790682
 30
0.0
 11
229.99999990810241
 21
60.000000968575449
 31
0.0
  0
LINE
  5
D885
  8
0
 10
229.99999990810241
 20
60.000000968575449
 30
0.0
 11
231.0000000720151
 21
61.000001132488222
 31
0.0
  0
LINE
  5
D886
  8
0
 10
232.00000209857669
 20
40.000001415610278
 30
0.0
 11
229.99999990810241
 21
41.999999880790682
 31
0.0
  0
LINE
  5
D887
  8
0
 10
229.99999990810241
 20
80.000000521540613
 30
0.0
 11
229.99999990810241
 21
98.000001609325395
 31
0.0
  0
LINE
  5
D888
  8
0
 10
229.99999990810241
 20
98.000001609325395
 30
0.0
 11
232.00000209857629
 21
100.00000007450581
 31
0.0
  0
LINE
  5
D889
  8
0
 10
231.0000000720151
 20
79.00000035762784
 30
0.0
 11
229.99999990810241
 21
80.000000521540613
 31
0.0
  0
LINE
  5
D88A
  8
0
 10
299.84337642912351
 20
60.000000968575392
 30
0.0
 11
299.84337642912351
 21
80.000000521540557
 31
0.0
  0
LINE
  5
D88B
  8
0
 10
300.34337744240253
 20
79.50000043958417
 30
0.0
 11
300.34337744240253
 21
60.500001050531779
 31
0.0
  0
LINE
  5
D8A1
  8
0
 10
253.14282246057471
 20
20.0
 30
0.0
 11
241.14282328758921
 21
20.0
 31
0.0
  0
ARC
  5
D8A3
  8
0
 10
241.14282307152229
 20
27.00000074505806
 30
0.0
 40
6.999999999999992
 50
180.0
 51
270.0
  0
ARC
  5
D8A6
  8
0
 10
253.14282307152229
 20
27.00000074505806
 30
0.0
 40
7.0
 50
270.0
 51
0.0
  0
ARC
  5
D8A9
  8
0
 10
244.64282307152229
 20
29.70000074505808
 30
0.0
 40
4.0000000000000027
 50
180.0
 51
270.0
  0
ARC
  5
D8AC
  8
0
 10
249.6428230715224
 20
29.70000074505808
 30
0.0
 40
4.0000000000000027
 50
270.0
 51
0.0
  0
LINE
  5
D8AF
  8
0
 10
244.64282292996131
 20
25.699999630451199
 30
0.0
 11
249.6428228182026
 21
25.699999630451199
 31
0.0
  0
LINE
  5
D8B1
  8
0
 10
260.14282360796409
 20
30.100506246089932
 30
0.0
 11
260.14282360796409
 21
26.999999284744259
 31
0.0
  0
LINE
  5
D8B2
  8
0
 10
253.6428234738537
 20
29.700000286102291
 30
0.0
 11
253.6428234738537
 21
30.299999266862869
 31
0.0
  0
LINE
  5
D8B5
  8
0
 10
240.64282320563279
 20
30.299999266862869
 30
0.0
 11
240.64282320563279
 21
29.700000286102291
 31
0.0
  0
ARC
  5
D8B7
  8
0
 10
267.14282307152229
 20
30.1005058084464
 30
0.0
 40
7.0000000000000453
 50
134.99999999999361
 51
180.0
  0
ARC
  5
D8B8
  8
0
 10
249.6428230715224
 20
30.300000745058071
 30
0.0
 40
4.0000000000000027
 50
0.0
 51
90.0
  0
ARC
  5
D8BB
  8
0
 10
244.64282307152229
 20
30.300000745058071
 30
0.0
 40
4.0000000000000027
 50
90.0
 51
180.0
  0
LINE
  5
D8BC
  8
0
 10
249.6428228182026
 20
34.299999922513962
 30
0.0
 11
244.64282292996131
 21
34.299999922513962
 31
0.0
  0
LINE
  5
D8BE
  8
0
 10
265.09257026140182
 20
37.949748784303658
 30
0.0
 11
262.19307623927079
 21
35.050254762172699
 31
0.0
  0
ARC
  5
D8C0
  8
0
 10
270.0423180081338
 20
33.00000074505806
 30
0.0
 40
7.0000000000000053
 50
90.0
 51
134.99999999999349
  0
LINE
  5
D8C2
  8
0
 10
293.14282342915021
 20
40.000001415610313
 30
0.0
 11
270.04231691483938
 21
40.000001415610313
 31
0.0
  0
ARC
  5
D8C3
  8
0
 10
293.14282307152229
 20
44.00000074505806
 30
0.0
 40
4.0000000000000027
 50
270.0
 51
0.0
  0
LINE
  5
D8C5
  8
0
 10
297.14282307152229
 20
96.00000082300258
 30
0.0
 11
297.1428240848013
 21
44.00000020861625
 31
0.0
  0
LINE
  5
D8C7
  8
0
 10
297.1428240848013
 20
60.00000096857547
 30
0.0
 11
234.14282307152229
 21
60.00000096857547
 31
0.0
  0
LINE
  5
D8CA
  8
0
 10
297.1428240848013
 20
80.000000521540642
 30
0.0
 11
234.14282307152229
 21
80.000000521540642
 31
0.0
  0
LINE
  5
D8CC
  8
0
 10
234.14282307152229
 20
27.00000074505806
 30
0.0
 11
234.14282307152229
 21
113.0000022053718
 31
0.0
  0
ARC
  5
D8E3
  8
0
 10
293.14282307152229
 20
96.000000745058074
 30
0.0
 40
4.0
 50
0.0
 51
90.0
  0
LINE
  5
D8E5
  8
0
 10
270.04231691483938
 20
100.00000007450581
 30
0.0
 11
293.14282342915021
 21
100.00000007450581
 31
0.0
  0
ARC
  5
D8E7
  8
0
 10
270.0423180081338
 20
107.0000007450581
 30
0.0
 40
7.000000000000056
 50
225.00000000000659
 51
270.0
  0
LINE
  5
D8E9
  8
0
 10
262.19307623927079
 20
104.94974672794341
 30
0.0
 11
265.09257026140182
 21
102.0502527058124
 31
0.0
  0
ARC
  5
D8EB
  8
0
 10
267.14282307152229
 20
109.89949568166971
 30
0.0
 40
7.0000000000000062
 50
180.0
 51
225.00000000000659
  0
LINE
  5
D8ED
  8
0
 10
244.64282292996131
 20
105.7000015676021
 30
0.0
 11
249.6428228182026
 21
105.7000015676021
 31
0.0
  0
ARC
  5
D8F0
  8
0
 10
249.6428230715224
 20
109.70000074505811
 30
0.0
 40
4.0
 50
270.0
 51
0.0
  0
ARC
  5
D8F3
  8
0
 10
244.64282307152229
 20
109.70000074505811
 30
0.0
 40
4.0
 50
180.0
 51
270.0
  0
LINE
  5
D8F5
  8
0
 10
240.64282320563279
 20
110.3000012040138
 30
0.0
 11
240.64282320563279
 21
109.70000222325319
 31
0.0
  0
LINE
  5
D8F6
  8
0
 10
253.6428234738537
 20
109.70000222325319
 30
0.0
 11
253.6428234738537
 21
110.3000012040138
 31
0.0
  0
LINE
  5
D8F8
  8
0
 10
260.14282360796409
 20
113.0000022053718
 30
0.0
 11
260.14282360796409
 21
109.8994952440262
 31
0.0
  0
ARC
  5
D8FA
  8
0
 10
249.6428230715224
 20
110.3000007450581
 30
0.0
 40
4.0
 50
0.0
 51
90.0
  0
ARC
  5
D8FD
  8
0
 10
244.64282307152229
 20
110.3000007450581
 30
0.0
 40
4.0
 50
90.0
 51
180.0
  0
ARC
  5
D8FE
  8
0
 10
253.14282307152229
 20
113.0000007450581
 30
0.0
 40
7.0
 50
0.0
 51
90.0
  0
ARC
  5
D900
  8
0
 10
241.14282307152229
 20
113.0000007450581
 30
0.0
 40
6.9999999999999849
 50
90.0
 51
180.0
  0
LINE
  5
D902
  8
0
 10
249.6428228182026
 20
114.3000018596649
 30
0.0
 11
244.64282292996131
 21
114.3000018596649
 31
0.0
  0
LINE
  5
D903
  8
0
 10
241.14282328758921
 20
120.00000149011611
 30
0.0
 11
253.14282246057471
 21
120.00000149011611
 31
0.0
  0
CIRCLE
  5
D904
  8
0
 10
275.1428230715224
 20
70.000000745058045
 30
0.0
 40
2.5000000000000209
  0
CIRCLE
  5
D907
  8
0
 10
275.1428230715224
 20
70.000000745058045
 30
0.0
 40
1.999999999999992
  0
LINE
  5
11F6E
  8
0
 10
97.292893081903443
 20
205.29979363083811
 30
0.0
 11
97.292893081903443
 21
203.0000005662439
 31
0.0
  0
LINE
  5
11F6F
  8
0
 10
42.707108408212662
 20
203.0000005662439
 30
0.0
 11
42.707108408212662
 21
205.29979363083811
 31
0.0
  0
LINE
  5
11F74
  8
0
 10
43.414215072989457
 20
206.23948693275429
 30
0.0
 11
96.585786417126656
 21
206.23948693275429
 31
0.0
  0
ARC
  5
11F76
  8
0
 10
96.103635619395845
 20
205.14078408054019
 30
0.0
 40
1.199840551580315
 50
7.6155596969731079
 51
66.306385451928705
  0
ARC
  5
11F77
  8
0
 10
43.896365870720267
 20
205.14078408054019
 30
0.0
 40
1.199840551580303
 50
113.6936145480712
 51
172.38444030302691
  0
LINE
  5
11F78
  8
0
 10
96.585786417126656
 20
206.23948693275429
 30
0.0
 11
98.999999910593033
 21
207.11818605661369
 31
0.0
  0
LINE
  5
11F7D
  8
0
 10
41.000001579523079
 20
207.11818605661369
 30
0.0
 11
43.414215072989457
 21
206.23948693275429
 31
0.0
  0
LINE
  5
11F80
  8
0
 10
98.999999910593033
 20
207.86234259605379
 30
0.0
 11
96.028658077120781
 21
209.5778499543664
 31
0.0
  0
LINE
  5
11F81
  8
0
 10
98.999999910593033
 20
207.11818605661369
 30
0.0
 11
98.999999910593033
 21
207.86234259605379
 31
0.0
  0
LINE
  5
11F82
  8
0
 10
41.000001579523079
 20
207.86234259605379
 30
0.0
 11
41.000001579523079
 21
207.11818605661369
 31
0.0
  0
LINE
  5
11F83
  8
0
 10
44.70252748035
 20
209.9999998509881
 30
0.0
 11
41.000001579523079
 21
207.86234259605379
 31
0.0
  0
ARC
  5
11F85
  8
0
 10
99.029246849419906
 20
206.1473745320493
 30
0.0
 40
0.9712519753689383
 50
1.8362501179382931
 51
91.725586721019027
  0
ARC
  5
11F87
  8
0
 10
40.970754640696207
 20
206.1473745320493
 30
0.0
 40
0.9712519753689383
 50
88.274413278980987
 51
178.16374988206169
  0
ARC
  5
11F8B
  8
0
 10
40.846693577009312
 20
207.16923194783499
 30
0.0
 40
0.709863165905413
 50
77.527653401155959
 51
119.2350876312932
  0
ARC
  5
11F8C
  8
0
 10
99.153307913106346
 20
207.16923194783499
 30
0.0
 40
0.7098631659054157
 50
60.764912368705318
 51
102.472346598844
  0
POLYLINE
  5
11F90
  8
0
 66
     1
 10
0.0
 20
0.0
 30
0.0
 70
   128
  0
VERTEX
  5
14CA6
  8
0
 10
96.028658077120781
 20
209.5778499543664
 30
0.0
  0
VERTEX
  5
14CA7
  8
0
 10
95.682049617171273
 20
209.81131389737101
 30
0.0
  0
VERTEX
  5
14CA8
  8
0
 10
95.472192838788033
 20
209.9526700377462
 30
0.0
  0
VERTEX
  5
14CA9
  8
0
 10
95.401924550533295
 20
209.9999998509881
 30
0.0
  0
SEQEND
  5
14CAA
  8
0
  0
ARC
  5
13424
  8
0
 10
284.23116195713959
 20
248.31917934765099
 30
0.0
 40
29.453721429721831
 50
15.889584449032521
 51
24.66072009619646
  0
POLYLINE
  5
13425
  8
0
 66
     1
 10
0.0
 20
0.0
 30
0.0
 70
   128
  0
VERTEX
  5
14CAB
  8
0
 10
310.25021096739601
 20
265.48853626192431
 30
0.0
  0
VERTEX
  5
14CAC
  8
0
 10
310.16930082812911
 20
264.08516362309427
 30
0.0
  0
VERTEX
  5
14CAD
  8
0
 10
310.35596767440438
 20
262.4430035054682
 30
0.0
  0
VERTEX
  5
14CAE
  8
0
 10
310.99854018509399
 20
260.60857188191773
 30
0.0
  0
SEQEND
  5
14CAF
  8
0
  0
POLYLINE
  5
1343D
  8
0
 66
     1
 10
0.0
 20
0.0
 30
0.0
 70
   128
  0
VERTEX
  5
14CB0
  8
0
 10
310.20848168314927
 20
114.9861052229293
 30
0.0
  0
VERTEX
  5
14CB1
  8
0
 10
310.19544407848798
 20
116.5684205293654
 30
0.0
  0
VERTEX
  5
14CB2
  8
0
 10
310.4627932620474
 20
117.9951247572898
 30
0.0
  0
VERTEX
  5
14CB3
  8
0
 10
310.96206637006981
 20
119.312212807732
 30
0.0
  0
SEQEND
  5
14CB4
  8
0
  0
POLYLINE
  5
134A0
  8
0
 66
     1
 10
0.0
 20
0.0
 30
0.0
 70
   128
  0
VERTEX
  5
14CB5
  8
0
 10
464.40408671274781
 20
182.97651083879569
 30
0.0
  0
VERTEX
  5
14CB6
  8
0
 10
459.37470080330968
 20
183.1359867911826
 30
0.0
  0
VERTEX
  5
14CB7
  8
0
 10
454.38235173001891
 20
183.6166870754252
 30
0.0
  0
VERTEX
  5
14CB8
  8
0
 10
449.45846231654292
 20
184.3789392124902
 30
0.0
  0
VERTEX
  5
14CB9
  8
0
 10
444.59402853623033
 20
185.05705194287401
 30
0.0
  0
VERTEX
  5
14CBA
  8
0
 10
439.77355131879449
 20
185.41345046572789
 30
0.0
  0
VERTEX
  5
14CBB
  8
0
 10
434.98861337080598
 20
185.47456571571931
 30
0.0
  0
VERTEX
  5
14CBC
  8
0
 10
429.65504446998239
 20
185.32278807573419
 30
0.0
  0
VERTEX
  5
14CBD
  8
0
 10
424.3148743547498
 20
184.9835258882533
 30
0.0
  0
VERTEX
  5
14CBE
  8
0
 10
418.9193389751016
 20
184.45193441324341
 30
0.0
  0
VERTEX
  5
14CBF
  8
0
 10
416.77361646667111
 20
184.19027561061489
 30
0.0
  0
VERTEX
  5
14CC0
  8
0
 10
414.60832128301251
 20
183.8975478868972
 30
0.0
  0
VERTEX
  5
14CC1
  8
0
 10
412.42007086053479
 20
183.5728646229993
 30
0.0
  0
VERTEX
  5
14CC2
  8
0
 10
410.21152505651111
 20
183.2578224103938
 30
0.0
  0
VERTEX
  5
14CC3
  8
0
 10
407.98670718446368
 20
183.03742864840129
 30
0.0
  0
VERTEX
  5
14CC4
  8
0
 10
405.9326417185365
 20
182.98854574561139
 30
0.0
  0
SEQEND
  5
14CC5
  8
0
  0
LINE
  5
13787
  8
0
 10
311.74427160993218
 20
197.34171673655479
 30
0.0
 11
311.74427160993218
 21
197.28435285389389
 31
0.0
  0
LINE
  5
13788
  8
0
 10
311.74427160993218
 20
186.71581231057621
 30
0.0
 11
311.74451747909188
 21
186.6584968566892
 31
0.0
  0
ARC
  5
137AE
  8
0
 10
110.4596800797712
 20
279.77003616226989
 30
0.0
 40
81.270973922056257
 50
262.60544813265619
 51
264.5313473321587
  0
LINE
  5
144CA
  8
1
 10
226.0000009089708
 20
309.99999985098822
 30
0.0
 11
329.352822277695
 21
309.99999985098822
 31
0.0
  0
LINE
  5
144CB
  8
1
 10
256.64282431080937
 20
350.0000008195637
 30
0.0
 11
237.6428240425885
 21
350.0000008195637
 31
0.0
  0
LINE
  5
144CC
  8
1
 10
245.14282417669889
 20
357.30000096559502
 30
0.0
 11
245.14282417669889
 21
342.70000067353232
 31
0.0
  0
LINE
  5
144CD
  8
1
 10
249.14282417669889
 20
357.30000096559502
 30
0.0
 11
249.14282417669889
 21
342.70000067353232
 31
0.0
  0
LINE
  5
144CE
  8
1
 10
256.64282431080937
 20
269.99999888241268
 30
0.0
 11
237.6428240425885
 21
269.99999888241268
 31
0.0
  0
LINE
  5
144CF
  8
1
 10
245.14282417669889
 20
277.29999902844412
 30
0.0
 11
245.14282417669889
 21
262.6999987363813
 31
0.0
  0
LINE
  5
144D0
  8
1
 10
249.14282417669889
 20
277.29999902844412
 30
0.0
 11
249.14282417669889
 21
262.6999987363813
 31
0.0
  0
LINE
  5
144D1
  8
1
 10
314.14282390847802
 20
325.20999822020508
 30
0.0
 11
314.14282390847802
 21
294.7900014817713
 31
0.0
  0
CIRCLE
  5
144D3
  8
0
 10
314.14282390847802
 20
309.99999985098822
 30
0.0
 40
2.4999999999996021
  0
CIRCLE
  5
144D4
  8
3
 10
314.14282390847802
 20
309.99999985098822
 30
0.0
 40
2.066999999999779
  0
LINE
  5
144D5
  8
1
 10
226.00000007201521
 20
70.000000745057804
 30
0.0
 11
329.35282144073921
 21
70.000000745057804
 31
0.0
  0
LINE
  5
144D6
  8
1
 10
256.6428234738537
 20
110.0000017136333
 30
0.0
 11
237.64282320563279
 21
110.0000017136333
 31
0.0
  0
LINE
  5
144D7
  8
1
 10
245.14282417669889
 20
117.3000018596647
 30
0.0
 11
245.14282417669889
 21
102.7000015676019
 31
0.0
  0
LINE
  5
144D8
  8
1
 10
249.14282417669889
 20
117.3000018596646
 30
0.0
 11
249.14282417669889
 21
102.7000015676019
 31
0.0
  0
LINE
  5
144D9
  8
1
 10
256.6428234738537
 20
29.99999977648233
 30
0.0
 11
237.64282320563279
 21
29.99999977648233
 31
0.0
  0
LINE
  5
144DA
  8
1
 10
245.14282417669889
 20
37.299999922513742
 30
0.0
 11
245.14282417669889
 21
22.699999630450979
 31
0.0
  0
LINE
  5
144DB
  8
1
 10
249.14282417669889
 20
37.299999922513713
 30
0.0
 11
249.14282417669889
 21
22.69999963045095
 31
0.0
  0
LINE
  5
144DC
  8
1
 10
314.1428230715224
 20
85.209999114274709
 30
0.0
 11
314.1428230715224
 21
54.790002375840878
 31
0.0
  0
CIRCLE
  5
144DD
  8
0
 10
314.1428230715224
 20
70.000000745057804
 30
0.0
 40
2.4999999999996021
  0
CIRCLE
  5
144DE
  8
3
 10
314.1428230715224
 20
70.000000745057804
 30
0.0
 40
2.066999999999779
  0
LINE
  5
144E6
  8
1
 10
70.000000745058045
 20
214.9999998509881
 30
0.0
 11
70.000000745058045
 21
165.5000007688065
 31
0.0
  0
LINE
  5
144E7
  8
1
 10
29.999999776482579
 20
183.0000005215403
 30
0.0
 11
29.999999776482579
 21
167.0000007450578
 31
0.0
  0
LINE
  5
144E8
  8
1
 10
110.00000171363349
 20
183.0000005215403
 30
0.0
 11
110.00000171363349
 21
167.0000007450578
 31
0.0
  0
CIRCLE
  5
144E9
  8
0
 10
50.000000745058053
 20
192.0000007450578
 30
0.0
 40
2.0669999999999988
  0
CIRCLE
  5
144EA
  8
3
 10
50.000000745058053
 20
192.0000007450578
 30
0.0
 40
2.5
  0
LINE
  5
144EB
  8
1
 10
50.000000745058053
 20
197.5000007450578
 30
0.0
 11
50.000000745058053
 21
186.5000007450578
 31
0.0
  0
LINE
  5
144EC
  8
1
 10
44.50000074505806
 20
192.0000007450578
 30
0.0
 11
55.50000074505806
 21
192.0000007450578
 31
0.0
  0
CIRCLE
  5
144ED
  8
0
 10
90.000000745058045
 20
192.0000007450578
 30
0.0
 40
2.0669999999999988
  0
CIRCLE
  5
144EE
  8
3
 10
90.000000745058045
 20
192.0000007450578
 30
0.0
 40
2.5
  0
LINE
  5
144EF
  8
1
 10
90.000000745058045
 20
197.5000007450578
 30
0.0
 11
90.000000745058045
 21
186.5000007450578
 31
0.0
  0
LINE
  5
144F0
  8
1
 10
84.500000745058074
 20
192.0000007450578
 30
0.0
 11
95.50000074505806
 21
192.0000007450578
 31
0.0
  0
LINE
  5
144F2
  8
1
 10
153.4799827171675
 20
192.00000062584849
 30
0.0
 11
97.000000074505806
 21
192.00000062584849
 31
0.0
  0
LINE
  5
144FD
  8
1
 10
477.14282492175698
 20
214.9999998509881
 30
0.0
 11
477.14282492175698
 21
165.5000007688065
 31
0.0
  0
LINE
  5
144FE
  8
1
 10
437.14282395318151
 20
183.0000005215403
 30
0.0
 11
437.14282395318151
 21
167.0000007450578
 31
0.0
  0
LINE
  5
144FF
  8
1
 10
517.14282589033246
 20
183.0000005215403
 30
0.0
 11
517.14282589033246
 21
167.0000007450578
 31
0.0
  0
LINE
  5
14500
  8
1
 10
393.66284294964731
 20
192.00000062584849
 30
0.0
 11
487.64282475411892
 21
192.00000062584849
 31
0.0
  0
LINE
  5
1450A
  8
1
 10
245.14282417669889
 20
167.0000007450578
 30
0.0
 11
245.14282417669889
 21
183.00000067661909
 31
0.0
  0
LINE
  5
1450B
  8
1
 10
249.14282417669889
 20
167.0000007450578
 30
0.0
 11
249.14282417669889
 21
183.00000064059861
 31
0.0
  0
LINE
  5
1450C
  8
1
 10
314.14282390847802
 20
204.00000023841841
 30
0.0
 11
314.14282390847802
 21
180.00000101327871
 31
0.0
  0
LINE
  5
1450D
  8
1
 10
226.13943316973749
 20
192.00000062584849
 30
0.0
 11
327.05509689822787
 21
192.00000062584849
 31
0.0
  0
TEXT
  5
14957
  8
0
 62
     3
 10
0.0
 20
0.0
 30
0.0
 40
10.0
  1
QLSCH40L
  7
STANDARD1
  0
ENDSEC
  0
EOF
