  0
SECTION
  2
HEADER
  9
$ACADVER
  1
AC1009
  9
$INSBASE
 10
0.0
 20
0.0
 30
0.0
  9
$EXTMIN
 10
0.0
 20
-2.960436562073669
 30
0.0
  9
$EXTMAX
 10
396.0000000000002274
 20
402.0000000000027853
 30
0.0
  9
$LIMMIN
 10
0.0
 20
0.0
  9
$LIMMAX
 10
420.0
 20
297.0
  9
$ORTHOMODE
 70
     1
  9
$REGENMODE
 70
     1
  9
$FILLMODE
 70
     1
  9
$QTEXTMODE
 70
     0
  9
$MIRRTEXT
 70
     0
  9
$DRAGMODE
 70
     2
  9
$LTSCALE
 40
10.0
  9
$OSMODE
 70
    37
  9
$ATTMODE
 70
     1
  9
$TEXTSIZE
 40
2.5
  9
$TRACEWID
 40
1.0
  9
$TEXTSTYLE
  7
STANDARD
  9
$CLAYER
  8
0
  9
$CELTYPE
  6
BYLAYER
  9
$CECOLOR
 62
   256
  9
$DIMSCALE
 40
1.0
  9
$DIMASZ
 40
2.5
  9
$DIMEXO
 40
0.625
  9
$DIMDLI
 40
3.75
  9
$DIMRND
 40
0.0
  9
$DIMDLE
 40
0.0
  9
$DIMEXE
 40
1.25
  9
$DIMTP
 40
0.0
  9
$DIMTM
 40
0.0
  9
$DIMTXT
 40
2.5
  9
$DIMCEN
 40
2.5
  9
$DIMTSZ
 40
0.0
  9
$DIMTOL
 70
     0
  9
$DIMLIM
 70
     0
  9
$DIMTIH
 70
     0
  9
$DIMTOH
 70
     0
  9
$DIMSE1
 70
     0
  9
$DIMSE2
 70
     0
  9
$DIMTAD
 70
     1
  9
$DIMZIN
 70
     8
  9
$DIMBLK
  1

  9
$DIMASO
 70
     1
  9
$DIMSHO
 70
     1
  9
$DIMPOST
  1

  9
$DIMAPOST
  1

  9
$DIMALT
 70
     0
  9
$DIMALTD
 70
     3
  9
$DIMALTF
 40
0.03937007874016
  9
$DIMLFAC
 40
1.0
  9
$DIMTOFL
 70
     1
  9
$DIMTVP
 40
0.0
  9
$DIMTIX
 70
     0
  9
$DIMSOXD
 70
     0
  9
$DIMSAH
 70
     0
  9
$DIMBLK1
  1

  9
$DIMBLK2
  1

  9
$DIMSTYLE
  2
ISO-25
  9
$DIMCLRD
 70
     0
  9
$DIMCLRE
 70
     0
  9
$DIMCLRT
 70
     0
  9
$DIMTFAC
 40
1.0
  9
$DIMGAP
 40
0.625
  9
$LUNITS
 70
     2
  9
$LUPREC
 70
     1
  9
$SKETCHINC
 40
1.0
  9
$FILLETRAD
 40
0.0
  9
$AUNITS
 70
     0
  9
$AUPREC
 70
     1
  9
$MENU
  1
.
  9
$ELEVATION
 40
0.0
  9
$PELEVATION
 40
0.0
  9
$THICKNESS
 40
0.0
  9
$LIMCHECK
 70
     0
  9
$BLIPMODE
 70
     0
  9
$CHAMFERA
 40
0.0
  9
$CHAMFERB
 40
0.0
  9
$SKPOLY
 70
     0
  9
$TDCREATE
 40
2454083.4444560189731419
  9
$TDUPDATE
 40
2460671.6141087962314487
  9
$TDINDWG
 40
2.5613437615999999
  9
$TDUSRTIMER
 40
2.5613437615999999
  9
$USRTIMER
 70
     1
  9
$ANGBASE
 50
0.0
  9
$ANGDIR
 70
     0
  9
$PDMODE
 70
     0
  9
$PDSIZE
 40
0.0
  9
$PLINEWID
 40
0.0
  9
$COORDS
 70
     1
  9
$SPLFRAME
 70
     0
  9
$SPLINETYPE
 70
     6
  9
$SPLINESEGS
 70
     8
  9
$ATTDIA
 70
     1
  9
$ATTREQ
 70
     1
  9
$HANDLING
 70
     1
  9
$HANDSEED
  5
129FF
  9
$SURFTAB1
 70
     6
  9
$SURFTAB2
 70
     6
  9
$SURFTYPE
 70
     6
  9
$SURFU
 70
     6
  9
$SURFV
 70
     6
  9
$UCSNAME
  2

  9
$UCSORG
 10
0.0
 20
0.0
 30
0.0
  9
$UCSXDIR
 10
1.0
 20
0.0
 30
0.0
  9
$UCSYDIR
 10
0.0
 20
1.0
 30
0.0
  9
$PUCSNAME
  2

  9
$PUCSORG
 10
0.0
 20
0.0
 30
0.0
  9
$PUCSXDIR
 10
1.0
 20
0.0
 30
0.0
  9
$PUCSYDIR
 10
0.0
 20
1.0
 30
0.0
  9
$USERI1
 70
     0
  9
$USERI2
 70
     0
  9
$USERI3
 70
     0
  9
$USERI4
 70
     0
  9
$USERI5
 70
     0
  9
$USERR1
 40
0.0
  9
$USERR2
 40
0.0
  9
$USERR3
 40
0.0
  9
$USERR4
 40
0.0
  9
$USERR5
 40
0.0
  9
$WORLDVIEW
 70
     1
  9
$SHADEDGE
 70
     3
  9
$SHADEDIF
 70
    70
  9
$TILEMODE
 70
     1
  9
$MAXACTVP
 70
    64
  9
$PLIMCHECK
 70
     0
  9
$PEXTMIN
 10
0.0
 20
0.0
 30
0.0
  9
$PEXTMAX
 10
0.0
 20
0.0
 30
0.0
  9
$PLIMMIN
 10
0.0
 20
0.0
  9
$PLIMMAX
 10
12.0
 20
9.0
  9
$UNITMODE
 70
     0
  9
$VISRETAIN
 70
     1
  9
$PLINEGEN
 70
     0
  9
$PSLTSCALE
 70
     1
  0
ENDSEC
  0
SECTION
  2
TABLES
  0
TABLE
  2
VPORT
 70
     1
  0
VPORT
  2
*ACTIVE
 70
     0
 10
0.0
 20
0.0
 11
1.0
 21
1.0
 12
253.544958184776192
 22
199.523845152913907
 13
0.0
 23
0.0
 14
10.0
 24
10.0
 15
10.0
 25
10.0
 16
0.0
 26
0.0
 36
1.0
 17
0.0
 27
0.0
 37
0.0
 40
408.2305452177603229
 41
2.3485221674876842
 42
50.0
 43
0.0
 44
0.0
 50
0.0
 51
0.0
 71
     0
 72
  1000
 73
     1
 74
     3
 75
     0
 76
     0
 77
     0
 78
     0
  0
ENDTAB
  0
TABLE
  2
LTYPE
 70
     3
  0
LTYPE
  2
CONTINUOUS
 70
     0
  3
Solid line
 72
    65
 73
     0
 40
0.0
  0
LTYPE
  2
CENTER
 70
     0
  3
____ _ ____ _ ____ _ ____ _ ____ _ ____ _ ____
 72
    65
 73
     4
 40
2.0
 49
1.25
 49
-0.25
 49
0.25
 49
-0.25
  0
LTYPE
  2
HIDDEN
 70
     0
  3
Hidden __ __ __ __ __ __ __ __ __ __ __ __ __ __
 72
    65
 73
     2
 40
1.905
 49
1.27
 49
-0.635
  0
ENDTAB
  0
TABLE
  2
LAYER
 70
     5
  0
LAYER
  2
0
 70
     0
 62
     7
  6
CONTINUOUS
  0
LAYER
  2
DEFPOINTS
 70
     0
 62
     7
  6
CONTINUOUS
  0
LAYER
  2
1
 70
     0
 62
     1
  6
CENTER
  0
LAYER
  2
3
 70
     0
 62
     3
  6
CONTINUOUS
  0
LAYER
  2
2
 70
     0
 62
     2
  6
HIDDEN
  0
ENDTAB
  0
TABLE
  2
STYLE
 70
     2
  0
STYLE
  2
STANDARD
 70
     0
 40
0.0
 41
1.0
 50
0.0
 71
     0
 42
2.5
  3
txt
  4

  0
STYLE
  2
STANDARD1
 70
     0
 40
0.0
 41
1.0
 50
0.0
 71
     0
 42
3.0
  3
txt
  4

  0
ENDTAB
  0
TABLE
  2
VIEW
 70
     3
  0
VIEW
  2
OLE1
 70
     0
 40
17.336203194614189
 10
1078.2627039085309661
 20
377.6744486595430885
 41
31.0749116297020009
 11
0.0
 21
0.0
 31
1.0
 12
0.0
 22
0.0
 32
0.0
 42
50.0
 43
0.0
 44
0.0
 50
0.0
 71
     0
  0
VIEW
  2
OLE2
 70
     0
 40
50.523198253338478
 10
1031.7677389415230209
 20
579.9283567158205415
 41
90.5621550086675455
 11
0.0
 21
0.0
 31
1.0
 12
0.0
 22
0.0
 32
0.0
 42
50.0
 43
0.0
 44
0.0
 50
0.0
 71
     0
  0
VIEW
  2
OLE3
 70
     0
 40
95.502301876216066
 10
202.0430959360805048
 20
425.5599226159864088
 41
146.7053432435849061
 11
0.0
 21
0.0
 31
1.0
 12
0.0
 22
0.0
 32
0.0
 42
50.0
 43
0.0
 44
0.0
 50
0.0
 71
     0
  0
ENDTAB
  0
TABLE
  2
UCS
 70
     0
  0
ENDTAB
  0
TABLE
  2
APPID
 70
    44
  0
APPID
  2
ACAD
 70
     0
  0
APPID
  2
_FTCNV
 70
     0
  0
APPID
  2
DCO15
 70
     0
  0
APPID
  2
GENIUS_GENOREF_13
 70
     0
  0
APPID
  2
GENIUS_GENOENT_13
 70
     0
  0
APPID
  2
GENIUS_GENBH_13
 70
     0
  0
APPID
  2
GENIUS_GENOBJ_13
 70
     0
  0
APPID
  2
GENIUS_GENODEF_13
 70
     0
  0
APPID
  2
GENIUS_GENOLIS_13
 70
     0
  0
APPID
  2
GENIUS_GENOBJ-NBEHI-BHF_13
 70
     0
  0
APPID
  2
GENIUS_GENOBJ-NBEHI-BHB_13
 70
     0
  0
APPID
  2
GENIUS_GENOBJ-F-PART_13
 70
     0
  0
APPID
  2
GENIUS_GEFSTDP_13
 70
     0
  0
APPID
  2
GENIUS_GENOBJ-N-RSSYM_13
 70
     0
  0
APPID
  2
GENIUS_GENSYMENT_13
 70
     0
  0
APPID
  2
GENIUS_GENOBJ-N-TIT_13
 70
     0
  0
APPID
  2
GENIUS_GENTITLE_13
 70
     0
  0
APPID
  2
GENIUS_GENZVEED_13
 70
     0
  0
APPID
  2
GENIUS_GENOBJ-N-LEADER_13
 70
     0
  0
APPID
  2
GENIUS_GENOBJ-N-FIL_13
 70
     0
  0
APPID
  2
GENIUS_GENOBJ-N-SEC_13
 70
     0
  0
APPID
  2
GENIUS_GENOBJ-N-CRS_13
 70
     0
  0
APPID
  2
GENIUS_GENOBJ-N-ZOO_13
 70
     0
  0
APPID
  2
GENIUS_GENZOO_13
 70
     0
  0
APPID
  2
GENIUS_GENOBJ-F-TOL_13
 70
     0
  0
APPID
  2
GENIUS_GENFIL_13
 70
     0
  0
APPID
  2
GENIUS_GENOBJ-N-CHA_13
 70
     0
  0
APPID
  2
_CALL_MAC$
 70
     0
  0
APPID
  2
ASM_BASE
 70
     0
  0
APPID
  2
ASM_EXPLO_VER_2_00
 70
     0
  0
APPID
  2
ASM_CADM_VER_12_00
 70
     0
  0
APPID
  2
ASM_BASEFORO
 70
     0
  0
APPID
  2
ASM_BASETRAVI
 70
     0
  0
APPID
  2
ASM_BASETRAVI1
 70
     0
  0
APPID
  2
ASM_GRUPPI
 70
     0
  0
APPID
  2
ASM_CADM_ALBERO
 70
     0
  0
APPID
  2
ASM_GOLE
 70
     0
  0
APPID
  2
ACAD_MLEADERVER
 70
     0
  0
APPID
  2
ACAD_EXEMPT_FROM_CAD_STANDARDS
 70
     0
  0
APPID
  2
ACAD_DSTYLE_DIMJAG
 70
     0
  0
APPID
  2
ACAD_DSTYLE_DIMTALN
 70
     0
  0
APPID
  2
ACAD_NAV_VCDISPLAY
 70
     0
  0
APPID
  2
ACAECLAYERSTANDARD
 70
     0
  0
APPID
  2
ACCMTRANSPARENCY
 70
     0
  0
ENDTAB
  0
TABLE
  2
DIMSTYLE
 70
     2
  0
DIMSTYLE
  2
ISO-25
 70
     0
  3

  4

  5

  6

  7

 40
1.0
 41
2.5
 42
0.625
 43
3.75
 44
1.25
 45
0.0
 46
0.0
 47
0.0
 48
0.0
140
2.5
141
2.5
142
0.0
143
0.03937007874016
144
1.0
145
0.0
146
1.0
147
0.625
 71
     0
 72
     0
 73
     0
 74
     0
 75
     0
 76
     0
 77
     1
 78
     8
170
     0
171
     3
172
     1
173
     0
174
     0
175
     0
176
     0
177
     0
178
     0
  0
DIMSTYLE
  2
STANDARD
 70
     0
  3

  4

  5

  6

  7

 40
1.0
 41
0.18
 42
0.0625
 43
0.38
 44
0.18
 45
0.0
 46
0.0
 47
0.0
 48
0.0
140
0.18
141
0.09
142
0.0
143
25.3999999999999986
144
1.0
145
0.0
146
1.0
147
0.09
 71
     0
 72
     0
 73
     1
 74
     1
 75
     0
 76
     0
 77
     0
 78
     0
170
     0
171
     2
172
     0
173
     0
174
     0
175
     0
176
     0
177
     0
178
     0
  0
ENDTAB
  0
ENDSEC
  0
SECTION
  2
BLOCKS
  0
BLOCK
  8
0
  2
$MODEL_SPACE
 70
     0
 10
0.0
 20
0.0
 30
0.0
  3
$MODEL_SPACE
  1

  0
ENDBLK
  5
21
  8
0
  0
BLOCK
 67
     1
  8
0
  2
$PAPER_SPACE
 70
     0
 10
0.0
 20
0.0
 30
0.0
  3
$PAPER_SPACE
  1

  0
ENDBLK
  5
53
 67
     1
  8
0
  0
ENDSEC
  0
SECTION
  2
ENTITIES
  0
TEXT
  5
C317
  8
0
 62
     3
 10
0.0
 20
0.0
 30
0.0
 40
10.0
  1
QLSCW36-200
  7
STANDARD1
  0
ARC
  5
1267C
  8
0
 10
225.4176999999995985
 20
370.2114813968183853
 30
0.0
 40
13.0000000000000107
 50
274.411725785771182
 51
309.8961837675813058
  0
LINE
  5
1267D
  8
0
 10
225.4176999999999111
 20
326.7500000000026716
 30
0.0
 11
250.4176999999999111
 21
326.7500000000027853
 31
0.0
  0
LINE
  5
1267E
  8
0
 10
226.4176999999995985
 20
357.2500000000026716
 30
0.0
 11
225.4176999999997122
 21
357.2500000000026716
 31
0.0
  0
LINE
  5
1267F
  8
0
 10
250.4176999999993996
 20
402.0000000000027853
 30
0.0
 11
236.4176999999993996
 21
402.0000000000026716
 31
0.0
  0
ARC
  5
12680
  8
0
 10
241.0903209469109925
 20
342.0000000000027853
 30
0.0
 40
15.9999999999999805
 50
39.6046785347978982
 51
54.3409123038611028
  0
ARC
  5
12681
  8
0
 10
241.0903209469109925
 20
342.0000000000027853
 30
0.0
 40
16.0
 50
305.6590876961387835
 51
320.3953214652020733
  0
LINE
  5
12682
  8
0
 10
253.4176999999997975
 20
335.4800000000029172
 30
0.0
 11
253.4876999999997906
 21
335.4800000000029172
 31
0.0
  0
LINE
  5
12683
  8
0
 10
253.4876999999997054
 20
348.5200000000028808
 30
0.0
 11
253.4176999999997975
 21
348.5200000000028808
 31
0.0
  0
LINE
  5
12684
  8
0
 10
223.9999999999996021
 20
370.0000000000026716
 30
0.0
 11
217.9999999999996021
 21
370.0000000000025011
 31
0.0
  0
LINE
  5
12685
  8
0
 10
218.0
 20
314.0000000000026148
 30
0.0
 11
224.0
 21
314.0000000000026148
 31
0.0
  0
LINE
  5
12686
  8
0
 10
225.4176999999997122
 20
353.0000000000026716
 30
0.0
 11
223.9999999999996874
 21
353.0000000000026716
 31
0.0
  0
LINE
  5
12687
  8
0
 10
223.999999999999801
 20
331.0000000000026716
 30
0.0
 11
225.4176999999999111
 21
331.0000000000026716
 31
0.0
  0
LINE
  5
12688
  8
0
 10
216.9999999999996021
 20
313.0000000000022169
 30
0.0
 11
154.4588208898609878
 21
313.0000000000022169
 31
0.0
  0
LINE
  5
12689
  8
0
 10
153.4588208898609878
 20
314.0000000000022169
 30
0.0
 11
154.4588208898609878
 21
313.0000000000022169
 31
0.0
  0
LINE
  5
1268A
  8
0
 10
153.4588208898605899
 20
370.0000000000021032
 30
0.0
 11
153.4588208898609025
 21
314.0000000000022737
 31
0.0
  0
LINE
  5
1268B
  8
0
 10
217.0
 20
371.0000000000022169
 30
0.0
 11
154.4588208898605899
 21
371.0000000000022169
 31
0.0
  0
LINE
  5
1268C
  8
0
 10
154.4588208898605899
 20
371.0000000000022169
 30
0.0
 11
153.4588208898605899
 21
370.0000000000021032
 31
0.0
  0
LINE
  5
1268D
  8
0
 10
152.4588208898607036
 20
348.0000000000021032
 30
0.0
 11
152.4588208898605899
 21
369.0000000000022169
 31
0.0
  0
LINE
  5
1268E
  8
0
 10
153.4588208898607036
 20
347.0000000000021032
 30
0.0
 11
152.4588208898607036
 21
348.0000000000021032
 31
0.0
  0
LINE
  5
1268F
  8
0
 10
152.4588208898605899
 20
369.0000000000022169
 30
0.0
 11
153.4588208898605899
 21
370.0000000000021032
 31
0.0
  0
LINE
  5
12690
  8
0
 10
152.4588208898609878
 20
315.0000000000022169
 30
0.0
 11
152.4588208898607888
 21
336.0000000000021032
 31
0.0
  0
LINE
  5
12691
  8
0
 10
152.4588208898607888
 20
336.0000000000021032
 30
0.0
 11
153.4588208898607888
 21
337.0000000000021032
 31
0.0
  0
LINE
  5
12692
  8
0
 10
153.4588208898609878
 20
314.0000000000022169
 30
0.0
 11
152.4588208898609878
 21
315.0000000000022169
 31
0.0
  0
LINE
  5
12693
  8
0
 10
236.4176999999993996
 20
398.3108108108136207
 30
0.0
 11
236.4176999999995132
 21
384.0000000000026716
 31
0.0
  0
LINE
  5
12694
  8
0
 10
238.4176999999995132
 20
382.0000000000026716
 30
0.0
 11
238.4176999999995132
 21
375.0000000000026716
 31
0.0
  0
LINE
  5
12695
  8
0
 10
238.4176999999995985
 20
382.000000000002899
 30
0.0
 11
236.4176999999997122
 21
384.000000000002899
 31
0.0
  0
LINE
  5
12696
  8
0
 10
250.4176999999995132
 20
375.0000000000027853
 30
0.0
 11
250.4176999999993996
 21
398.3108108108136776
 31
0.0
  0
LINE
  5
12697
  8
0
 10
250.4176999999997975
 20
343.000000000002899
 30
0.0
 11
226.4176999999997975
 21
343.0000000000026716
 31
0.0
  0
LINE
  5
12698
  8
0
 10
238.4176999999995132
 20
375.0000000000026716
 30
0.0
 11
238.4176999999997122
 21
365.7344724525954121
 31
0.0
  0
LINE
  5
12699
  8
0
 10
250.4176999999995132
 20
375.0000000000027853
 30
0.0
 11
250.4176999999997975
 21
343.000000000002899
 31
0.0
  0
LINE
  5
1269B
  8
0
 10
226.4176999999995985
 20
357.2500000000026716
 30
0.0
 11
226.4176999999997975
 21
343.0000000000026716
 31
0.0
  0
LINE
  5
1269C
  8
0
 10
250.4176999999997975
 20
341.000000000002899
 30
0.0
 11
225.4176999999997975
 21
341.0000000000026716
 31
0.0
  0
LINE
  5
1269D
  8
0
 10
225.4176999999997122
 20
357.2500000000026716
 30
0.0
 11
225.4176999999999111
 21
326.7500000000026716
 31
0.0
  0
LINE
  5
1269E
  8
0
 10
226.4176999999997975
 20
343.0000000000026716
 30
0.0
 11
225.4176999999997975
 21
343.0000000000026716
 31
0.0
  0
LINE
  5
1269F
  8
0
 10
250.4176999999999111
 20
326.7500000000027853
 30
0.0
 11
250.4176999999997975
 21
341.000000000002899
 31
0.0
  0
LINE
  5
126A0
  8
0
 10
249.9176999999997975
 20
341.000000000002899
 30
0.0
 11
249.9176999999997975
 21
343.000000000002899
 31
0.0
  0
LINE
  5
126A1
  8
0
 10
236.4176999999993996
 20
402.0000000000026716
 30
0.0
 11
236.4176999999993996
 21
398.3108108108136207
 31
0.0
  0
LINE
  5
126A2
  8
0
 10
250.4176999999993996
 20
398.3108108108136776
 30
0.0
 11
250.4176999999993996
 21
402.0000000000027853
 31
0.0
  0
LINE
  5
126A3
  8
0
 10
253.4176999999997975
 20
342.000000000002899
 30
0.0
 11
253.4176999999997122
 21
352.1997904724324826
 31
0.0
  0
LINE
  5
126A4
  8
0
 10
253.4176999999999111
 20
331.8002095275732017
 30
0.0
 11
253.4176999999997975
 21
342.000000000002899
 31
0.0
  0
LINE
  5
126A5
  8
0
 10
251.0276244040869074
 20
341.000000000002899
 30
0.0
 11
250.4176999999997975
 21
341.000000000002899
 31
0.0
  0
LINE
  5
126A6
  8
0
 10
251.0276244040869074
 20
343.000000000002899
 30
0.0
 11
250.4176999999997975
 21
343.000000000002899
 31
0.0
  0
LINE
  5
126A7
  8
0
 10
253.4876999999997906
 20
335.4800000000029172
 30
0.0
 11
253.4876999999997054
 21
348.5200000000028808
 31
0.0
  0
LINE
  5
126A8
  8
0
 10
164.8686935486360881
 20
371.0000000000022737
 30
0.0
 11
164.868693548636486
 21
313.0000000000022169
 31
0.0
  0
LINE
  5
126A9
  8
0
 10
217.0000000000003126
 20
313.0000000000027853
 30
0.0
 11
154.4588208898609878
 21
313.0000000000021032
 31
0.0
  0
LINE
  5
126AA
  8
0
 10
158.0
 20
303.0000000000022169
 30
0.0
 11
157.9999999999996021
 21
381.0000000000022737
 31
0.0
  0
LINE
  5
126AB
  8
0
 10
217.9999999999996021
 20
370.0000000000025011
 30
0.0
 11
218.0
 21
314.0000000000025011
 31
0.0
  0
LINE
  5
126AC
  8
0
 10
218.0
 20
314.0000000000025011
 30
0.0
 11
217.0
 21
313.0000000000025011
 31
0.0
  0
LINE
  5
126AD
  8
0
 10
216.9999999999996021
 20
371.0000000000026148
 30
0.0
 11
217.9999999999996021
 21
370.0000000000025011
 31
0.0
  0
LINE
  5
126AE
  8
0
 10
224.0
 20
314.0000000000026148
 30
0.0
 11
223.9999999999996021
 21
370.0000000000026716
 31
0.0
  0
LINE
  5
126AF
  8
0
 10
223.9999999999996021
 20
365.6431808350764072
 30
0.0
 11
217.9999999999996021
 21
365.6431808350764072
 31
0.0
  0
LINE
  5
126B0
  8
0
 10
223.999999999999801
 20
343.0000000000026148
 30
0.0
 11
217.999999999999801
 21
343.0000000000025011
 31
0.0
  0
LINE
  5
126B1
  8
0
 10
223.9999999999998863
 20
318.3568191649288224
 30
0.0
 11
217.9999999999998863
 21
318.3568191649288224
 31
0.0
  0
LINE
  5
126B2
  8
0
 10
217.999999999999801
 20
341.0000000000025011
 30
0.0
 11
223.999999999999801
 21
341.0000000000026148
 31
0.0
  0
LINE
  5
126B3
  8
0
 10
193.9999999999994031
 20
385.0000000000025011
 30
0.0
 11
161.9999999999994031
 21
385.0000000000022737
 31
0.0
  0
LINE
  5
126B4
  8
0
 10
201.9999999999996021
 20
377.0000000000026148
 30
0.0
 11
193.9999999999994031
 21
385.0000000000025011
 31
0.0
  0
ARC
  5
126B5
  8
0
 10
206.9999999999996021
 20
377.0000000000026148
 30
0.0
 40
5.000000000000056
 50
180.0
 51
270.0000000000017053
  0
LINE
  5
126B6
  8
0
 10
206.9999999999996021
 20
372.0000000000025011
 30
0.0
 11
215.9999999999996021
 21
372.0000000000026716
 31
0.0
  0
ARC
  5
126B7
  8
0
 10
184.9999999999994884
 20
378.0000000000025011
 30
0.0
 40
3.3000000000001251
 50
270.0000000000017053
 51
90.0
  0
LINE
  5
126B8
  8
0
 10
184.9999999999994031
 20
381.3000000000025125
 30
0.0
 11
174.9999999999994884
 21
381.3000000000023988
 31
0.0
  0
ARC
  5
126B9
  8
0
 10
174.9999999999996021
 20
378.0000000000023874
 30
0.0
 40
3.3000000000000109
 50
90.0
 51
270.0
  0
LINE
  5
126BA
  8
0
 10
174.9999999999996021
 20
374.7000000000023761
 30
0.0
 11
184.9999999999996021
 21
374.7000000000023761
 31
0.0
  0
LINE
  5
126BB
  8
0
 10
161.9999999999994031
 20
385.0000000000022737
 30
0.0
 11
157.9999999999996021
 21
381.0000000000022737
 31
0.0
  0
LINE
  5
126BC
  8
0
 10
216.9999999999996021
 20
371.0000000000026716
 30
0.0
 11
215.9999999999996021
 21
372.0000000000026716
 31
0.0
  0
ARC
  5
126BD
  8
0
 10
207.0
 20
307.0000000000026148
 30
0.0
 40
5.0
 50
90.0
 51
180.0
  0
LINE
  5
126BE
  8
0
 10
194.0000000000001137
 20
299.0000000000025011
 30
0.0
 11
202.0
 21
307.0000000000025011
 31
0.0
  0
LINE
  5
126BF
  8
0
 10
162.0000000000001137
 20
299.0000000000022737
 30
0.0
 11
194.0000000000001137
 21
299.0000000000025011
 31
0.0
  0
LINE
  5
126C0
  8
0
 10
158.0
 20
303.0000000000022169
 30
0.0
 11
162.0000000000001137
 21
299.0000000000022737
 31
0.0
  0
LINE
  5
126C1
  8
0
 10
216.0
 20
312.0000000000026148
 30
0.0
 11
207.0
 21
312.0000000000026148
 31
0.0
  0
ARC
  5
126C2
  8
0
 10
185.0
 20
306.0000000000023874
 30
0.0
 40
3.3000000000000682
 50
270.0000000000017053
 51
90.0
  0
LINE
  5
126C3
  8
0
 10
185.0
 20
309.3000000000025125
 30
0.0
 11
175.0
 21
309.3000000000023988
 31
0.0
  0
ARC
  5
126C4
  8
0
 10
175.0
 20
306.0000000000023874
 30
0.0
 40
3.3000000000000682
 50
90.0
 51
270.0000000000017053
  0
LINE
  5
126C5
  8
0
 10
175.0000000000001137
 20
302.7000000000023192
 30
0.0
 11
185.0
 21
302.7000000000024897
 31
0.0
  0
LINE
  5
126C6
  8
0
 10
216.0
 20
312.0000000000026148
 30
0.0
 11
217.0
 21
313.0000000000026148
 31
0.0
  0
LINE
  5
126C7
  8
0
 10
171.9999999999996021
 20
379.3747727084891039
 30
0.0
 11
171.9999999999996021
 21
376.6252272915157278
 31
0.0
  0
LINE
  5
126C8
  8
0
 10
172.0
 20
307.3747727084891039
 30
0.0
 11
172.0
 21
304.6252272915156141
 31
0.0
  0
LINE
  5
126C9
  8
0
 10
176.5000000000001137
 20
234.0000000000013927
 30
0.0
 11
174.4588208898609878
 21
234.0000000000013927
 31
0.0
  0
LINE
  5
126CA
  8
0
 10
174.4588208898609878
 20
218.0000000000013927
 30
0.0
 11
176.5000000000001137
 21
218.0000000000013927
 31
0.0
  0
LINE
  5
126CB
  8
0
 10
225.4176999999997975
 20
210.7500000000015064
 30
0.0
 11
250.4176999999997975
 21
210.7500000000015064
 31
0.0
  0
ARC
  5
126CC
  8
0
 10
241.0903209469109925
 20
226.0000000000015064
 30
0.0
 40
16.0
 50
39.6046785347979124
 51
45.9868321445741728
  0
ARC
  5
126CD
  8
0
 10
241.0903209469109925
 20
226.0000000000015064
 30
0.0
 40
15.9999999999999893
 50
305.6590876961387835
 51
320.3953214652020733
  0
LINE
  5
126CE
  8
0
 10
253.4176999999999111
 20
219.4800000000014961
 30
0.0
 11
253.4876999999997906
 21
219.4800000000014961
 31
0.0
  0
LINE
  5
126CF
  8
0
 10
253.4876999999997906
 20
232.5200000000016018
 30
0.0
 11
253.4176999999999111
 21
232.5200000000016018
 31
0.0
  0
LINE
  5
126D0
  8
0
 10
225.4176999999999111
 20
237.0000000000015064
 30
0.0
 11
223.999999999999801
 21
237.0000000000015064
 31
0.0
  0
LINE
  5
126D1
  8
0
 10
223.999999999999801
 20
215.0000000000015064
 30
0.0
 11
225.4176999999999111
 21
215.0000000000015064
 31
0.0
  0
LINE
  5
126D2
  8
0
 10
153.4588208898609878
 20
237.5000000000013927
 30
0.0
 11
152.4588208898609025
 21
236.5000000000013927
 31
0.0
  0
LINE
  5
126D3
  8
0
 10
153.4588208898609878
 20
237.5000000000013927
 30
0.0
 11
154.4588208898609878
 21
237.5000000000013927
 31
0.0
  0
LINE
  5
126D4
  8
0
 10
154.4588208898609878
 20
237.5000000000013927
 30
0.0
 11
154.4588208898609878
 21
214.5000000000015064
 31
0.0
  0
LINE
  5
126D5
  8
0
 10
154.4588208898609878
 20
214.5000000000015064
 30
0.0
 11
153.4588208898609878
 21
214.5000000000015064
 31
0.0
  0
LINE
  5
126D6
  8
0
 10
152.4588208898609025
 20
215.5000000000013927
 30
0.0
 11
153.4588208898609878
 21
214.5000000000015064
 31
0.0
  0
LINE
  5
126D7
  8
0
 10
152.4588208898609025
 20
215.5000000000013927
 30
0.0
 11
152.4588208898609025
 21
236.5000000000013927
 31
0.0
  0
LINE
  5
126D8
  8
0
 10
174.4588208898609025
 20
237.5000000000013927
 30
0.0
 11
174.4588208898609025
 21
214.5000000000015064
 31
0.0
  0
LINE
  5
126D9
  8
0
 10
154.4588208898609878
 20
214.5000000000015064
 30
0.0
 11
174.4588208898609025
 21
214.5000000000015064
 31
0.0
  0
LINE
  5
126DA
  8
0
 10
174.4588208898609025
 20
237.5000000000013927
 30
0.0
 11
154.4588208898609878
 21
237.5000000000013927
 31
0.0
  0
LINE
  5
126DB
  8
0
 10
225.4176999999997975
 20
241.2171777935346881
 30
0.0
 11
225.4176999999997975
 21
210.7500000000015064
 31
0.0
  0
LINE
  5
126DC
  8
0
 10
250.4176999999997975
 20
241.2171777935346881
 30
0.0
 11
225.4176999999997975
 21
241.2171777935346881
 31
0.0
  0
LINE
  5
126DD
  8
0
 10
250.4176999999997975
 20
210.7500000000015064
 30
0.0
 11
250.4176999999997975
 21
241.2171777935346881
 31
0.0
  0
LINE
  5
126DE
  8
0
 10
253.4176999999997975
 20
215.8002095275718943
 30
0.0
 11
253.4176999999997975
 21
236.1997904724312036
 31
0.0
  0
ARC
  5
126DF
  8
0
 10
238.3326647100732885
 20
222.2631272691716902
 30
0.0
 40
20.6126928985765687
 50
47.6916009800065765
 51
54.105757883129229
  0
LINE
  5
126E1
  8
0
 10
253.4876999999997906
 20
219.4800000000014961
 30
0.0
 11
253.4876999999997906
 21
232.5200000000016018
 31
0.0
  0
LINE
  5
126E2
  8
0
 10
250.4176999999997975
 20
241.2500000000015916
 30
0.0
 11
226.7770928164738962
 21
241.2500000000015916
 31
0.0
  0
LINE
  5
126E3
  8
0
 10
250.4176999999997975
 20
241.2171777935346881
 30
0.0
 11
250.4176999999997975
 21
241.2500000000015916
 31
0.0
  0
LINE
  5
126E4
  8
0
 10
162.0000000000001137
 20
214.0000000000013927
 30
0.0
 11
162.0000000000001137
 21
206.0000000000013927
 31
0.0
  0
LINE
  5
126E5
  8
0
 10
162.0000000000001137
 20
206.0000000000013927
 30
0.0
 11
158.0
 21
206.0000000000013927
 31
0.0
  0
LINE
  5
126E6
  8
0
 10
158.0
 20
206.0000000000013927
 30
0.0
 11
158.0
 21
214.0000000000013927
 31
0.0
  0
LINE
  5
126E7
  8
0
 10
158.0
 20
214.0000000000013927
 30
0.0
 11
162.0000000000001137
 21
214.0000000000013927
 31
0.0
  0
LINE
  5
126E8
  8
0
 10
194.0
 20
206.0000000000013927
 30
0.0
 11
194.0
 21
214.0000000000013927
 31
0.0
  0
LINE
  5
126E9
  8
0
 10
162.0000000000001137
 20
206.0000000000013927
 30
0.0
 11
194.0
 21
206.0000000000013927
 31
0.0
  0
LINE
  5
126EA
  8
0
 10
162.0000000000001137
 20
214.0000000000013927
 30
0.0
 11
194.0
 21
214.0000000000013927
 31
0.0
  0
LINE
  5
126EB
  8
0
 10
202.0
 20
214.0000000000013927
 30
0.0
 11
202.0
 21
206.0000000000013927
 31
0.0
  0
LINE
  5
126EC
  8
0
 10
202.0
 20
206.0000000000013927
 30
0.0
 11
194.0
 21
206.0000000000013927
 31
0.0
  0
LINE
  5
126ED
  8
0
 10
194.0
 20
214.0000000000013927
 30
0.0
 11
202.0
 21
214.0000000000013927
 31
0.0
  0
LINE
  5
126EE
  8
0
 10
207.0
 20
206.0000000000015064
 30
0.0
 11
202.0
 21
206.0000000000013927
 31
0.0
  0
LINE
  5
126EF
  8
0
 10
202.0
 20
214.0000000000013927
 30
0.0
 11
207.0
 21
214.0000000000013927
 31
0.0
  0
LINE
  5
126F0
  8
0
 10
216.0
 20
206.0000000000015064
 30
0.0
 11
216.0
 21
214.0000000000013927
 31
0.0
  0
LINE
  5
126F1
  8
0
 10
216.0
 20
206.0000000000015064
 30
0.0
 11
207.0
 21
206.0000000000015064
 31
0.0
  0
LINE
  5
126F2
  8
0
 10
216.0
 20
214.0000000000013927
 30
0.0
 11
207.0
 21
214.0000000000013927
 31
0.0
  0
LINE
  5
126F3
  8
0
 10
217.0
 20
214.0000000000013927
 30
0.0
 11
217.0
 21
242.0000000000013927
 31
0.0
  0
LINE
  5
126F4
  8
0
 10
218.0
 20
242.0000000000013927
 30
0.0
 11
217.0
 21
242.0000000000013927
 31
0.0
  0
LINE
  5
126F5
  8
0
 10
218.0
 20
242.0000000000013927
 30
0.0
 11
218.0
 21
226.0000000000013927
 31
0.0
  0
LINE
  5
126F6
  8
0
 10
218.0
 20
226.0000000000013927
 30
0.0
 11
218.0
 21
206.0000000000015064
 31
0.0
  0
LINE
  5
126F7
  8
0
 10
218.0
 20
206.0000000000015064
 30
0.0
 11
216.0
 21
206.0000000000015064
 31
0.0
  0
LINE
  5
126F8
  8
0
 10
216.0
 20
214.0000000000013927
 30
0.0
 11
217.0
 21
214.0000000000013927
 31
0.0
  0
LINE
  5
126F9
  8
0
 10
176.5
 20
214.5000000000015064
 30
0.0
 11
158.0
 21
214.5000000000015064
 31
0.0
  0
LINE
  5
126FA
  8
0
 10
176.5
 20
237.5000000000013927
 30
0.0
 11
176.5
 21
214.5000000000015064
 31
0.0
  0
LINE
  5
126FB
  8
0
 10
158.0
 20
237.5000000000013927
 30
0.0
 11
176.5
 21
237.5000000000013927
 31
0.0
  0
LINE
  5
126FC
  8
0
 10
158.0
 20
237.5000000000013927
 30
0.0
 11
158.0
 21
239.5000000000013927
 31
0.0
  0
LINE
  5
126FD
  8
0
 10
164.868693548636486
 20
242.0000000000013927
 30
0.0
 11
158.0
 21
239.5000000000013927
 31
0.0
  0
LINE
  5
126FE
  8
0
 10
217.0
 20
242.0000000000013927
 30
0.0
 11
164.868693548636486
 21
242.0000000000013927
 31
0.0
  0
LINE
  5
126FF
  8
0
 10
158.0
 20
214.5000000000015064
 30
0.0
 11
158.0
 21
214.0000000000013927
 31
0.0
  0
LINE
  5
12700
  8
0
 10
223.9999999999998863
 20
211.0000000000013927
 30
0.0
 11
223.9999999999998863
 21
241.0000000000013927
 31
0.0
  0
LINE
  5
12701
  8
0
 10
223.9999999999998863
 20
211.0000000000013927
 30
0.0
 11
217.9999999999998863
 21
211.0000000000013927
 31
0.0
  0
LINE
  5
12702
  8
0
 10
223.9999999999998863
 20
241.0000000000013927
 30
0.0
 11
217.9999999999998863
 21
241.0000000000013927
 31
0.0
  0
LINE
  5
12703
  8
0
 10
57.0000000000001705
 20
237.5000000000017053
 30
0.0
 11
115.0
 21
237.4999999999984084
 31
0.0
  0
LINE
  5
12704
  8
0
 10
59.0000000000001918
 20
236.5000000000015916
 30
0.0
 11
58.000000000000199
 21
237.5000000000015916
 31
0.0
  0
LINE
  5
12705
  8
0
 10
59.0000000000001918
 20
236.5000000000015916
 30
0.0
 11
59.0000000000001421
 21
215.5000000000015916
 31
0.0
  0
LINE
  5
12706
  8
0
 10
58.0000000000001066
 20
214.5000000000015916
 30
0.0
 11
59.0000000000001421
 21
215.5000000000015916
 31
0.0
  0
LINE
  5
12707
  8
0
 10
58.0000000000001066
 20
214.5000000000015916
 30
0.0
 11
57.0000000000000924
 21
214.5000000000015916
 31
0.0
  0
LINE
  5
12708
  8
0
 10
59.0000000000001421
 20
215.5000000000015916
 30
0.0
 11
80.0000000000000853
 21
215.5000000000015916
 31
0.0
  0
LINE
  5
12709
  8
0
 10
80.0000000000000853
 20
215.5000000000015916
 30
0.0
 11
81.0000000000000853
 21
214.5000000000015916
 31
0.0
  0
LINE
  5
1270A
  8
0
 10
81.0000000000000853
 20
214.5000000000015916
 30
0.0
 11
58.0000000000001066
 21
214.5000000000015916
 31
0.0
  0
LINE
  5
1270B
  8
0
 10
80.0000000000001847
 20
236.5000000000015916
 30
0.0
 11
59.0000000000001918
 21
236.5000000000015916
 31
0.0
  0
LINE
  5
1270C
  8
0
 10
81.000000000000199
 20
237.5000000000015064
 30
0.0
 11
80.0000000000001847
 21
236.5000000000015916
 31
0.0
  0
LINE
  5
1270D
  8
0
 10
80.0000000000000853
 20
215.5000000000015916
 30
0.0
 11
80.0000000000001847
 21
236.5000000000015916
 31
0.0
  0
CIRCLE
  5
1270E
  8
3
 10
70.0000000000001421
 20
226.0000000000015916
 30
0.0
 40
2.5
  0
LINE
  5
1270F
  8
0
 10
81.0000000000000853
 20
214.5000000000015916
 30
0.0
 11
81.000000000000199
 21
237.5000000000015064
 31
0.0
  0
LINE
  5
12710
  8
0
 10
113.000000000000199
 20
236.5000000000013927
 30
0.0
 11
92.000000000000199
 21
236.5000000000015064
 31
0.0
  0
LINE
  5
12711
  8
0
 10
92.000000000000199
 20
236.5000000000015064
 30
0.0
 11
91.000000000000199
 21
237.5000000000015064
 31
0.0
  0
LINE
  5
12712
  8
0
 10
114.000000000000199
 20
237.5000000000013927
 30
0.0
 11
113.000000000000199
 21
236.5000000000013927
 31
0.0
  0
LINE
  5
12713
  8
0
 10
92.0000000000000853
 20
215.5000000000015064
 30
0.0
 11
92.000000000000199
 21
236.5000000000015064
 31
0.0
  0
LINE
  5
12714
  8
0
 10
91.0000000000000853
 20
214.5000000000015064
 30
0.0
 11
92.0000000000000853
 21
215.5000000000015064
 31
0.0
  0
LINE
  5
12715
  8
0
 10
91.0000000000000853
 20
214.5000000000015064
 30
0.0
 11
91.000000000000199
 21
237.5000000000015064
 31
0.0
  0
LINE
  5
12716
  8
0
 10
92.0000000000000853
 20
215.5000000000015064
 30
0.0
 11
113.000000000000199
 21
215.5000000000013927
 31
0.0
  0
LINE
  5
12717
  8
0
 10
113.000000000000199
 20
215.5000000000013927
 30
0.0
 11
114.0000000000000995
 21
214.5000000000015064
 31
0.0
  0
LINE
  5
12718
  8
0
 10
114.0000000000000995
 20
214.5000000000015064
 30
0.0
 11
91.0000000000000853
 21
214.5000000000015064
 31
0.0
  0
LINE
  5
12719
  8
0
 10
113.000000000000199
 20
215.5000000000013927
 30
0.0
 11
113.000000000000199
 21
236.5000000000013927
 31
0.0
  0
CIRCLE
  5
1271A
  8
3
 10
102.000000000000199
 20
226.0000000000013927
 30
0.0
 40
2.4999999999999849
  0
LINE
  5
1271B
  8
0
 10
115.0000000000000995
 20
214.5000000000015064
 30
0.0
 11
114.0000000000000995
 21
214.5000000000015064
 31
0.0
  0
CIRCLE
  5
1271C
  8
0
 10
86.0000000000001279
 20
226.0000000000015064
 30
0.0
 40
2.0
  0
LINE
  5
1271D
  8
0
 10
91.0000000000000853
 20
214.5000000000015064
 30
0.0
 11
81.0000000000000853
 21
214.5000000000015916
 31
0.0
  0
ARC
  5
1271E
  8
0
 10
35.9929353265214615
 20
241.654568481524592
 30
0.0
 40
12.0000000000000693
 50
221.4860597865747138
 51
283.7246076467898774
  0
ARC
  5
1271F
  8
0
 10
29.999999999998721
 20
236.3550660358118023
 30
0.0
 40
4.0000000000001199
 50
94.456529155603377
 51
221.4860597865746001
  0
ARC
  5
12720
  8
0
 10
52.9999999999996021
 20
-58.7499999999983302
 30
0.0
 40
299.9999999999997726
 50
91.7191313208778922
 51
94.4565291556017144
  0
LINE
  5
12721
  8
0
 10
43.9999999999987494
 20
241.1149696113249092
 30
0.0
 11
43.999999999998721
 21
231.0200450800564056
 31
0.0
  0
ARC
  5
12722
  8
0
 10
53.0753233673846694
 20
171.7103620107853885
 30
0.0
 40
59.9999999999999574
 50
98.6996852168076373
 51
103.7246076467883995
  0
LINE
  5
12723
  8
0
 10
45.9999999999986571
 20
231.2917332542112092
 30
0.0
 11
45.999999999998721
 21
241.1683222145670129
 31
0.0
  0
ARC
  5
12724
  8
0
 10
53.0753233673844989
 20
171.7103620107853885
 30
0.0
 40
59.9999999999999574
 50
96.772193660154926
 51
98.6996852168076373
  0
ARC
  5
12725
  8
0
 10
52.99999999999946
 20
-58.7499999999983302
 30
0.0
 40
299.9999999999997158
 50
91.3370228631376477
 51
91.7191313208778922
  0
ARC
  5
12726
  8
0
 10
53.075323367384641
 20
171.7103620107853885
 30
0.0
 40
60.0000000000000213
 50
88.9919822035774359
 51
96.772193660154926
  0
ARC
  5
12727
  8
0
 10
52.9999999999995808
 20
-58.7499999999983302
 30
0.0
 40
300.0
 50
90.0
 51
91.3370228631376477
  0
ARC
  5
12728
  8
0
 10
53.7790162433526291
 20
211.704171735995601
 30
0.0
 40
20.0000000000000604
 50
80.7321999300842492
 51
88.9919822035774359
  0
LINE
  5
12729
  8
0
 10
52.999999999998721
 20
241.2500000000017053
 30
0.0
 11
57.0000000000000213
 21
241.2500000000017053
 31
0.0
  0
LINE
  5
1272A
  8
0
 10
47.0000000000000213
 20
214.0000000000017053
 30
0.0
 11
47.0
 21
206.0000000000017053
 31
0.0
  0
LINE
  5
1272B
  8
0
 10
42.9999999999999432
 20
206.0000000000017053
 30
0.0
 11
42.9999999999999716
 21
214.0000000000017053
 31
0.0
  0
LINE
  5
1272C
  8
0
 10
125.0
 20
206.0000000000013927
 30
0.0
 11
125.0
 21
214.0000000000013927
 31
0.0
  0
LINE
  5
1272D
  8
0
 10
56.9999999999999716
 20
242.0000000000015916
 30
0.0
 11
57.0000000000000213
 21
214.0000000000015916
 31
0.0
  0
LINE
  5
1272E
  8
0
 10
115.0
 20
242.0000000000013927
 30
0.0
 11
115.0
 21
214.0000000000013927
 31
0.0
  0
LINE
  5
1272F
  8
0
 10
115.0
 20
214.0000000000013927
 30
0.0
 11
128.9999999999998863
 21
214.0000000000013927
 31
0.0
  0
CIRCLE
  5
12730
  8
0
 10
122.0
 20
210.0000000000013927
 30
0.0
 40
2.0
  0
CIRCLE
  5
12731
  8
0
 10
50.0
 20
210.0000000000017053
 30
0.0
 40
2.0
  0
LINE
  5
12732
  8
0
 10
42.9999999999999716
 20
214.0000000000017053
 30
0.0
 11
57.0000000000000213
 21
214.0000000000015916
 31
0.0
  0
LINE
  5
12733
  8
0
 10
128.9999999999998863
 20
206.0000000000013927
 30
0.0
 11
42.9999999999999076
 21
206.0000000000017053
 31
0.0
  0
LINE
  5
12734
  8
0
 10
115.0000000000000995
 20
239.5000000000013927
 30
0.0
 11
57.0000000000001066
 21
239.5000000000017053
 31
0.0
  0
LINE
  5
12735
  8
0
 10
56.9999999999999716
 20
242.0000000000015916
 30
0.0
 11
115.0
 21
242.0000000000013927
 31
0.0
  0
LINE
  5
12736
  8
0
 10
129.0
 20
214.0000000000013927
 30
0.0
 11
128.9999999999998863
 21
206.0000000000013927
 31
0.0
  0
LINE
  5
12737
  8
0
 10
51.1547005383792808
 20
210.0000000000017053
 30
0.0
 11
50.577350269189651
 21
209.0000000000017053
 31
0.0
  0
LINE
  5
12738
  8
0
 10
50.5773502691896795
 20
211.0000000000017053
 30
0.0
 11
51.1547005383792808
 21
210.0000000000017053
 31
0.0
  0
LINE
  5
12739
  8
0
 10
49.4226497308103703
 20
211.0000000000017053
 30
0.0
 11
50.5773502691896795
 21
211.0000000000017053
 31
0.0
  0
LINE
  5
1273A
  8
0
 10
48.8452994616207476
 20
210.0000000000017053
 30
0.0
 11
49.4226497308103703
 21
211.0000000000017053
 31
0.0
  0
LINE
  5
1273B
  8
0
 10
49.4226497308103703
 20
209.0000000000017053
 30
0.0
 11
48.8452994616207476
 21
210.0000000000017053
 31
0.0
  0
LINE
  5
1273C
  8
0
 10
50.577350269189651
 20
209.0000000000017053
 30
0.0
 11
49.4226497308103703
 21
209.0000000000017053
 31
0.0
  0
LINE
  5
1273D
  8
0
 10
123.1547005383792026
 20
210.0000000000013927
 30
0.0
 11
122.5773502691895942
 21
209.0000000000013927
 31
0.0
  0
LINE
  5
1273E
  8
0
 10
122.5773502691895942
 20
211.0000000000013927
 30
0.0
 11
123.1547005383792026
 21
210.0000000000013927
 31
0.0
  0
LINE
  5
1273F
  8
0
 10
121.4226497308104058
 20
211.0000000000013927
 30
0.0
 11
122.5773502691895942
 21
211.0000000000013927
 31
0.0
  0
LINE
  5
12740
  8
0
 10
120.8452994616207974
 20
210.0000000000013927
 30
0.0
 11
121.4226497308104058
 21
211.0000000000013927
 31
0.0
  0
LINE
  5
12741
  8
0
 10
121.4226497308104058
 20
209.0000000000013927
 30
0.0
 11
120.8452994616207974
 21
210.0000000000013927
 31
0.0
  0
LINE
  5
12742
  8
0
 10
122.5773502691895942
 20
209.0000000000013927
 30
0.0
 11
121.4226497308104058
 21
209.0000000000013927
 31
0.0
  0
LINE
  5
12743
  8
0
 10
338.2869317900277792
 20
225.678633665276692
 30
0.0
 11
337.4217773048068238
 21
227.8198578595253139
 31
0.0
  0
LINE
  5
12744
  8
0
 10
337.4217773048068238
 20
227.8198578595253139
 30
0.0
 11
335.134845514779272
 21
228.1412241942502135
 31
0.0
  0
LINE
  5
12745
  8
0
 10
335.134845514779272
 20
228.1412241942502135
 30
0.0
 11
333.7130682099726755
 21
226.3213663347264912
 31
0.0
  0
LINE
  5
12746
  8
0
 10
333.7130682099726755
 20
226.3213663347264912
 30
0.0
 11
334.5782226951935741
 21
224.1801421404778978
 31
0.0
  0
LINE
  5
12747
  8
0
 10
334.5782226951935741
 20
224.1801421404778978
 30
0.0
 11
336.8651544852211828
 21
223.8587758057531119
 31
0.0
  0
LINE
  5
12748
  8
0
 10
336.8651544852211828
 20
223.8587758057531119
 30
0.0
 11
338.2869317900277792
 21
225.678633665276692
 31
0.0
  0
CIRCLE
  5
12749
  8
0
 10
336.0000000000002274
 20
226.0000000000015916
 30
0.0
 40
6.5199999999999321
  0
CIRCLE
  5
1274A
  8
0
 10
336.0000000000002274
 20
226.0000000000015916
 30
0.0
 40
10.1997904724296902
  0
LINE
  5
1274B
  8
0
 10
335.0000000000002274
 20
238.5000000000015916
 30
0.0
 11
335.0000000000002274
 21
238.9614813968173053
 31
0.0
  0
LINE
  5
1274D
  8
0
 10
337.0000000000002274
 20
238.5000000000015916
 30
0.0
 11
337.0000000000002274
 21
238.9614813968173053
 31
0.0
  0
ARC
  5
1274E
  8
0
 10
336.0000000000002274
 20
226.0000000000015916
 30
0.0
 40
13.0000000000000497
 50
94.4117257857695051
 51
85.5882742142288748
  0
CIRCLE
  5
1274F
  8
0
 10
336.0000000000002274
 20
226.0000000000015916
 30
0.0
 40
6.6499999999999773
  0
ARC
  5
12750
  8
0
 10
336.0000000000002274
 20
226.0000000000015916
 30
0.0
 40
12.6999514552642498
 50
85.4838290741416245
 51
94.516170925858404
  0
LINE
  5
12751
  8
0
 10
369.0000000000001137
 20
241.2500000000017053
 30
0.0
 11
337.0000000000002274
 21
241.2500000000015916
 31
0.0
  0
ARC
  5
12752
  8
0
 10
368.9999999999993179
 20
-58.7499999999982592
 30
0.0
 40
300.0
 50
85.5434708443982714
 51
90.0
  0
ARC
  5
12753
  8
0
 10
392.0000000000001137
 20
236.3550660358118023
 30
0.0
 40
4.000000000000127
 50
318.5139402134261104
 51
85.5434708443966514
  0
ARC
  5
12754
  8
0
 10
386.0070646734773732
 20
241.654568481524592
 30
0.0
 40
12.0000000000000693
 50
256.2753923532114868
 51
318.5139402134259967
  0
ARC
  5
12755
  8
0
 10
368.9246766326143074
 20
171.7103620107855022
 30
0.0
 40
60.0000000000000213
 50
76.2753923532115721
 51
91.0080177964225641
  0
ARC
  5
12756
  8
0
 10
368.2209837566463193
 20
211.704171735995601
 30
0.0
 40
20.0000000000000391
 50
91.0080177964225641
 51
156.0740632205830138
  0
ARC
  5
12757
  8
0
 10
336.0000000000002274
 20
226.0000000000015916
 30
0.0
 40
15.25
 50
93.7597980573370648
 51
336.0740632205830138
  0
LINE
  5
12758
  8
0
 10
337.0000000000002274
 20
238.9614813968173053
 30
0.0
 11
337.0000000000002274
 21
241.2500000000015916
 31
0.0
  0
LINE
  5
12759
  8
0
 10
335.0000000000002274
 20
238.9614813968173053
 30
0.0
 11
335.0000000000002274
 21
241.2171777935348018
 31
0.0
  0
LINE
  5
1275A
  8
0
 10
335.0000000000002274
 20
240.7500000000015916
 30
0.0
 11
337.0000000000002274
 21
240.7500000000015916
 31
0.0
  0
CIRCLE
  5
1275B
  8
0
 10
315.0
 20
237.0000000000015064
 30
0.0
 40
3.250000000000056
  0
ARC
  5
1275C
  8
0
 10
336.0
 20
226.0000000000015916
 30
0.0
 40
28.0000000000001101
 50
327.6076345141577804
 51
10.5875175464942206
  0
LINE
  5
1275D
  8
0
 10
359.6431808350739061
 20
211.0000000000017053
 30
0.0
 11
338.7500000000002842
 21
211.0000000000015916
 31
0.0
  0
LINE
  5
1275E
  8
0
 10
333.2500000000003979
 20
211.0000000000015916
 30
0.0
 11
312.3568191649263781
 21
211.0000000000015064
 31
0.0
  0
LINE
  5
1275F
  8
0
 10
312.3568191649263213
 20
241.0000000000015064
 30
0.0
 11
333.2500000000002274
 21
241.0000000000015916
 31
0.0
  0
CIRCLE
  5
12760
  8
0
 10
315.0000000000001137
 20
215.0000000000015064
 30
0.0
 40
3.25
  0
CIRCLE
  5
12761
  8
0
 10
357.0000000000001137
 20
215.0000000000017053
 30
0.0
 40
3.25
  0
ARC
  5
12762
  8
0
 10
336.0
 20
226.0000000000015916
 30
0.0
 40
27.9999999999999396
 50
147.6076345141572972
 51
212.3923654858427028
  0
CIRCLE
  5
12763
  8
0
 10
315.0000000000001137
 20
215.0000000000015064
 30
0.0
 40
2.75
  0
CIRCLE
  5
12764
  8
0
 10
315.0
 20
237.0000000000015064
 30
0.0
 40
2.750000000000056
  0
CIRCLE
  5
12765
  8
0
 10
357.0000000000001137
 20
215.0000000000017053
 30
0.0
 40
2.7499999999999432
  0
LINE
  5
12766
  8
0
 10
306.0
 20
206.0000000000015064
 30
0.0
 11
306.0
 21
214.0000000000015064
 31
0.0
  0
LINE
  5
12767
  8
0
 10
292.9999999999998863
 20
214.0000000000015064
 30
0.0
 11
307.0
 21
214.0000000000015064
 31
0.0
  0
LINE
  5
12768
  8
0
 10
307.0
 20
214.0000000000015064
 30
0.0
 11
306.9999999999998863
 21
242.0000000000015064
 31
0.0
  0
LINE
  5
12769
  8
0
 10
307.9999999999998863
 20
242.0000000000015064
 30
0.0
 11
306.9999999999998863
 21
242.0000000000015064
 31
0.0
  0
LINE
  5
1276A
  8
0
 10
307.9999999999998863
 20
242.0000000000015064
 30
0.0
 11
308.0
 21
226.0000000000015064
 31
0.0
  0
LINE
  5
1276B
  8
0
 10
308.0
 20
226.0000000000015064
 30
0.0
 11
308.0
 21
206.0000000000015064
 31
0.0
  0
LINE
  5
1276C
  8
0
 10
364.0000000000001137
 20
206.0000000000017053
 30
0.0
 11
364.0
 21
226.0000000000017053
 31
0.0
  0
LINE
  5
1276D
  8
0
 10
292.9999999999998863
 20
206.0000000000015064
 30
0.0
 11
378.9999999999998863
 21
206.0000000000017053
 31
0.0
  0
LINE
  5
1276E
  8
0
 10
364.0
 20
226.0000000000017053
 30
0.0
 11
364.0
 21
231.2536805821565906
 31
0.0
  0
LINE
  5
1276F
  8
0
 10
363.9999999999998863
 20
241.2500000000017053
 30
0.0
 11
363.9999999999998863
 21
242.0000000000017053
 31
0.0
  0
LINE
  5
12770
  8
0
 10
363.9999999999998863
 20
242.0000000000017053
 30
0.0
 11
307.9999999999998863
 21
242.0000000000015064
 31
0.0
  0
LINE
  5
12771
  8
0
 10
365.0
 20
242.0000000000017053
 30
0.0
 11
365.0
 21
241.2500000000017053
 31
0.0
  0
LINE
  5
12772
  8
0
 10
365.0
 20
231.4430993573083981
 30
0.0
 11
365.0
 21
214.0000000000017053
 31
0.0
  0
LINE
  5
12773
  8
0
 10
365.0
 20
214.0000000000017053
 30
0.0
 11
378.9999999999998863
 21
214.0000000000017053
 31
0.0
  0
LINE
  5
12774
  8
0
 10
366.0
 20
214.0000000000017053
 30
0.0
 11
366.0
 21
206.0000000000017053
 31
0.0
  0
LINE
  5
12775
  8
0
 10
365.0
 20
242.0000000000017053
 30
0.0
 11
363.9999999999998863
 21
242.0000000000017053
 31
0.0
  0
LINE
  5
12776
  8
0
 10
300.9999999999998863
 20
214.0000000000013927
 30
0.0
 11
300.9999999999998863
 21
206.0000000000015064
 31
0.0
  0
LINE
  5
12777
  8
0
 10
370.9999999999998863
 20
206.0000000000017053
 30
0.0
 11
370.9999999999998863
 21
214.0000000000017053
 31
0.0
  0
LINE
  5
12778
  8
0
 10
292.9999999999998863
 20
206.0000000000015064
 30
0.0
 11
292.9999999999998863
 21
214.0000000000015064
 31
0.0
  0
LINE
  5
12779
  8
0
 10
378.9999999999998863
 20
214.0000000000017053
 30
0.0
 11
378.9999999999998863
 21
206.0000000000017053
 31
0.0
  0
CIRCLE
  5
1277A
  8
0
 10
102.000000000000199
 20
226.0000000000013927
 30
0.0
 40
2.0669999999999988
  0
LINE
  5
1277B
  8
1
 10
107.5000000000000995
 20
226.0000000000013927
 30
0.0
 11
96.5000000000001847
 21
226.0000000000013927
 31
0.0
  0
LINE
  5
1277C
  8
1
 10
102.000000000000199
 20
231.5000000000015064
 30
0.0
 11
102.000000000000199
 21
220.5000000000015064
 31
0.0
  0
CIRCLE
  5
1277D
  8
0
 10
70.0000000000001421
 20
226.0000000000013927
 30
0.0
 40
2.0669999999999988
  0
LINE
  5
1277E
  8
1
 10
64.5000000000001421
 20
226.0000000000013927
 30
0.0
 11
75.5000000000001421
 21
226.0000000000013927
 31
0.0
  0
LINE
  5
1277F
  8
1
 10
70.0000000000001421
 20
231.5000000000015064
 30
0.0
 11
70.0000000000001421
 21
220.5000000000015064
 31
0.0
  0
CIRCLE
  5
12780
  8
3
 10
50.0
 20
210.0000000000017053
 30
0.0
 40
1.6209999999999991
  0
LINE
  5
12781
  8
1
 10
45.0
 20
210.0000000000017053
 30
0.0
 11
55.0
 21
210.0000000000017053
 31
0.0
  0
LINE
  5
12782
  8
1
 10
50.0000000000000284
 20
217.0000000000017053
 30
0.0
 11
50.0000000000000284
 21
203.0000000000017906
 31
0.0
  0
CIRCLE
  5
12783
  8
3
 10
122.0000000000002984
 20
210.0000000000017053
 30
0.0
 40
1.6209999999999991
  0
LINE
  5
12784
  8
1
 10
127.0000000000002984
 20
210.0000000000017053
 30
0.0
 11
117.0000000000002984
 21
210.0000000000017053
 31
0.0
  0
LINE
  5
12785
  8
1
 10
122.0000000000002984
 20
217.0000000000013074
 30
0.0
 11
122.0000000000002984
 21
203.0000000000013927
 31
0.0
  0
LINE
  5
12786
  8
1
 10
85.9999999999999147
 20
201.0000000000015916
 30
0.0
 11
86.0000000000000853
 21
247.0000000000015064
 31
0.0
  0
ARC
  5
12787
  8
0
 10
226.3007605666776954
 20
369.7899270581713154
 30
0.0
 40
12.1170907950448594
 50
307.961878855265013
 51
359.7136171988572073
  0
ARC
  5
12788
  8
0
 10
214.128172666597294
 20
366.4435348869341738
 30
0.0
 40
24.2998746419788816
 50
327.5488825580134176
 51
358.3278904546195918
  0
ARC
  5
12789
  8
0
 10
186.7637553032745075
 20
383.0209474207836138
 30
0.0
 40
56.2907140974354192
 50
318.205377846028
 51
328.2556514577167945
  0
ARC
  5
1278A
  8
0
 10
242.9131321717391074
 20
332.4318866787493221
 30
0.0
 40
19.2887735547267098
 50
137.3301344015582117
 51
146.777667292416993
  0
ARC
  5
1278B
  8
0
 10
251.0489856552925119
 20
342.3400527703947205
 30
0.0
 40
1.3402230152060011
 50
269.0867479880395763
 51
304.8266253990972814
  0
ARC
  5
1278C
  8
0
 10
251.291867888833508
 20
342.0003445821471928
 30
0.0
 40
0.9226688186141622
 50
304.4930065290379275
 51
55.5069934712479665
  0
ARC
  5
1278D
  8
0
 10
251.0489856552925119
 20
341.6582286320262938
 30
0.0
 40
1.3402230152060011
 50
55.1733746009003667
 51
90.9132520119604379
  0
LINE
  5
1278E
  8
0
 10
250.1478090608001992
 20
343.000000000002899
 30
0.0
 11
250.5870610232942113
 21
342.9473693819106757
 31
0.0
  0
LINE
  5
1278F
  8
0
 10
250.5870610232942113
 20
342.9473693819106757
 30
0.0
 11
251.050406447888804
 21
342.7382073622524103
 31
0.0
  0
LINE
  5
12790
  8
0
 10
251.050406447888804
 20
342.7382073622524103
 30
0.0
 11
251.2945365410506042
 21
342.4961666634983999
 31
0.0
  0
LINE
  5
12791
  8
0
 10
250.1478090608001992
 20
341.000000000002899
 30
0.0
 11
250.5870610232942113
 21
341.0526306180951224
 31
0.0
  0
LINE
  5
12792
  8
0
 10
250.5870610232942113
 20
341.0526306180951224
 30
0.0
 11
251.050406447888804
 21
341.2617926377533877
 31
0.0
  0
LINE
  5
12793
  8
0
 10
251.050406447888804
 20
341.2617926377533877
 30
0.0
 11
251.2945365410506042
 21
341.5038333365073981
 31
0.0
  0
ARC
  5
12794
  8
0
 10
250.5847638450580064
 20
342.0000000000030127
 30
0.0
 40
0.8660015230592117
 50
325.0445237007760966
 51
34.9554762992178567
  0
LINE
  5
12795
  8
1
 10
191.2999999999996135
 20
378.0000000000026148
 30
0.0
 11
154.9999999999996021
 21
378.0000000000023874
 31
0.0
  0
LINE
  5
12796
  8
1
 10
184.9999999999994884
 20
384.3000000000026262
 30
0.0
 11
184.9999999999996874
 21
371.7000000000023761
 31
0.0
  0
LINE
  5
12797
  8
1
 10
174.9999999999994031
 20
384.3000000000022851
 30
0.0
 11
174.9999999999996021
 21
371.7000000000020918
 31
0.0
  0
LINE
  5
12798
  8
1
 10
258.4876999999997906
 20
342.0000000000030127
 30
0.0
 11
147.4588208898607888
 21
342.0000000000019895
 31
0.0
  0
LINE
  5
12799
  8
1
 10
191.3000000000002103
 20
306.0000000000022169
 30
0.0
 11
155.0000000000001137
 21
306.0000000000017053
 31
0.0
  0
LINE
  5
1279A
  8
1
 10
185.000000000000199
 20
299.7000000000020918
 30
0.0
 11
185.0000000000001137
 21
312.3000000000022283
 31
0.0
  0
LINE
  5
1279B
  8
1
 10
175.0000000000001137
 20
299.7000000000020918
 30
0.0
 11
175.0000000000001137
 21
312.3000000000022851
 31
0.0
  0
LINE
  5
1279C
  8
1
 10
256.4876999999997906
 20
226.0000000000009948
 30
0.0
 11
149.4588208898609025
 21
226.0000000000013927
 31
0.0
  0
LINE
  5
1279D
  8
2
 10
152.4588208898609025
 20
228.5000000000013927
 30
0.0
 11
162.4588208898609025
 21
228.5000000000013927
 31
0.0
  0
LINE
  5
1279E
  8
2
 10
162.4588208898609025
 20
228.5000000000013927
 30
0.0
 11
162.4588208898609025
 21
223.5000000000013927
 31
0.0
  0
LINE
  5
1279F
  8
2
 10
162.4588208898609025
 20
223.5000000000013927
 30
0.0
 11
152.4588208898609025
 21
223.5000000000013927
 31
0.0
  0
LINE
  5
127A0
  8
2
 10
152.4588208898609025
 20
228.0670000000013999
 30
0.0
 11
162.4588208898609025
 21
228.0670000000013999
 31
0.0
  0
LINE
  5
127A1
  8
2
 10
162.4588208898609025
 20
223.9330000000014138
 30
0.0
 11
152.4588208898609025
 21
223.9330000000014138
 31
0.0
  0
LINE
  5
127A2
  8
1
 10
300.0
 20
217.0000000000015064
 30
0.0
 11
300.0
 21
203.0000000000015064
 31
0.0
  0
LINE
  5
127A3
  8
1
 10
372.0000000000002842
 20
217.0000000000011084
 30
0.0
 11
372.0000000000002274
 21
203.0000000000011084
 31
0.0
  0
LINE
  5
127A4
  8
1
 10
335.9999999999998863
 20
201.0000000000013074
 30
0.0
 11
336.0000000000001137
 21
247.0000000000013074
 31
0.0
  0
LINE
  5
127A5
  8
1
 10
317.7500000000002274
 20
226.0000000000015916
 30
0.0
 11
354.2500000000002274
 21
226.0000000000015916
 31
0.0
  0
LINE
  5
127A6
  8
1
 10
175.0
 20
217.0000000000013074
 30
0.0
 11
175.0
 21
203.0000000000013927
 31
0.0
  0
LINE
  5
127A7
  8
1
 10
185.0000000000001137
 20
217.0000000000013074
 30
0.0
 11
185.0000000000001137
 21
203.0000000000013927
 31
0.0
  0
LINE
  5
127A8
  8
1
 10
165.4588208898609025
 20
326.0000000000025011
 30
0.0
 11
149.4588208898607888
 21
326.0000000000026148
 31
0.0
  0
LINE
  5
127A9
  8
1
 10
165.4588208898607036
 20
358.0000000000019895
 30
0.0
 11
149.4588208898605899
 21
358.0000000000017053
 31
0.0
  0
LINE
  5
1285B
  8
0
 10
253.4177000000001101
 20
103.4799999999999045
 30
0.0
 11
253.4876999999999043
 21
103.4799999999999045
 31
0.0
  0
LINE
  5
1285C
  8
0
 10
253.4876999999999043
 20
116.5199999999998965
 30
0.0
 11
253.4177000000001101
 21
116.5199999999998965
 31
0.0
  0
ARC
  5
1285D
  8
0
 10
248.9177000000001101
 20
123.7499999999999005
 30
0.0
 40
1.5000000000000071
 50
0.0000000000016284
 51
90.0
  0
LINE
  5
1285E
  8
0
 10
248.9177000000001101
 20
125.2499999999999005
 30
0.0
 11
226.4176999999999964
 21
125.2499999999999005
 31
0.0
  0
ARC
  5
1285F
  8
0
 10
226.4177000000001101
 20
124.2499999999999005
 30
0.0
 40
1.0000000000000071
 50
90.0
 51
179.9999999999984084
  0
ARC
  5
12860
  8
0
 10
226.4177000000001101
 20
95.7499999999999147
 30
0.0
 40
1.0
 50
180.0000000000032117
 51
270.0
  0
ARC
  5
12861
  8
0
 10
241.0903209469113051
 20
109.9999999999999005
 30
0.0
 40
15.9999999999999893
 50
39.6046785347995396
 51
54.3409123038611668
  0
ARC
  5
12862
  8
0
 10
241.0903209469113051
 20
109.9999999999999005
 30
0.0
 40
16.0
 50
305.6590876961387835
 51
320.3953214652023007
  0
ARC
  5
12863
  8
0
 10
224.6440195018683141
 20
77.9662849252094645
 30
0.0
 40
16.8771749478756483
 50
67.9669257868961694
 51
83.9674495088447941
  0
ARC
  5
12864
  8
0
 10
248.9177000000001101
 20
51.499999999999801
 30
0.0
 40
1.5
 50
270.0
 51
0.0
  0
LINE
  5
12865
  8
0
 10
237.4177000000001101
 20
49.9999999999997726
 30
0.0
 11
248.9177000000001101
 21
49.9999999999997726
 31
0.0
  0
ARC
  5
12866
  8
0
 10
237.4176999999999964
 20
50.9999999999997726
 30
0.0
 40
1.0
 50
180.0
 51
270.0
  0
LINE
  5
1286D
  8
0
 10
225.4177000000001101
 20
120.9999999999999005
 30
0.0
 11
224.0000000000001137
 21
120.9999999999999005
 31
0.0
  0
LINE
  5
1286E
  8
0
 10
224.0000000000001137
 20
98.9999999999999432
 30
0.0
 11
225.4177000000001101
 21
98.9999999999999432
 31
0.0
  0
LINE
  5
12873
  8
0
 10
253.4876999999999043
 20
116.0451958245796931
 30
0.0
 11
253.4876999999999043
 21
116.5199999999998965
 31
0.0
  0
LINE
  5
12874
  8
0
 10
253.4876999999999043
 20
103.4799999999999045
 30
0.0
 11
253.4876999999999043
 21
116.0451958245796931
 31
0.0
  0
CIRCLE
  5
12875
  8
0
 10
166.0000000000001137
 20
109.9999999999999005
 30
0.0
 40
2.0
  0
LINE
  5
12876
  8
0
 10
250.4177000000001101
 20
123.7499999999999005
 30
0.0
 11
250.4177000000001101
 21
97.431531158755007
 31
0.0
  0
LINE
  5
12878
  8
0
 10
225.4177000000001101
 20
110.0
 30
0.0
 11
225.4177000000001101
 21
124.2499999999999005
 31
0.0
  0
LINE
  5
12879
  8
0
 10
225.4177000000001101
 20
95.7499999999999147
 30
0.0
 11
225.4177000000001101
 21
110.0
 31
0.0
  0
LINE
  5
1287C
  8
0
 10
253.4177000000001101
 20
99.8002095275702743
 30
0.0
 11
253.4177000000001101
 21
120.1997904724295978
 31
0.0
  0
ARC
  5
1287D
  8
0
 10
225.7892351431295879
 20
82.0901004181668554
 30
0.0
 40
12.6342432676242495
 50
1.7329409792809889
 51
65.7649433741811293
  0
LINE
  5
1287E
  8
0
 10
250.4177000000001101
 20
97.431531158755007
 30
0.0
 11
250.4177000000001101
 21
78.1572511641865901
 31
0.0
  0
LINE
  5
1287F
  8
0
 10
236.4177000000001101
 20
51.7526492525537591
 30
0.0
 11
236.4177000000001101
 21
62.6027446105433967
 31
0.0
  0
LINE
  5
12880
  8
0
 10
250.4177000000001101
 20
62.4841169158151786
 30
0.0
 11
250.4177000000001101
 21
52.1272077104614979
 31
0.0
  0
LINE
  5
12881
  8
0
 10
250.4177000000001101
 20
78.1572511641865901
 30
0.0
 11
250.4177000000001101
 21
62.4841169158151786
 31
0.0
  0
LINE
  5
12882
  8
0
 10
236.4177000000001101
 20
62.6027446105433967
 30
0.0
 11
236.4177000000001101
 21
67.585786437626723
 31
0.0
  0
LINE
  5
12883
  8
0
 10
236.7105932188136137
 20
68.2928932188132762
 30
0.0
 11
238.1248067811866065
 21
69.7071067811864111
 31
0.0
  0
ARC
  5
12884
  8
0
 10
237.4177000000001101
 20
67.5857864376266946
 30
0.0
 40
1.0
 50
134.9999999999974989
 51
179.9999999999984084
  0
ARC
  5
12885
  8
0
 10
237.4177000000005933
 20
70.414213562372737
 30
0.0
 40
0.9999999999994956
 50
314.9999999999882903
 51
0.0000000000113991
  0
LINE
  5
12886
  8
0
 10
238.4177000000001101
 20
78.1484550032370464
 30
0.0
 11
238.4177000000001101
 21
82.4721714904748069
 31
0.0
  0
LINE
  5
12887
  8
0
 10
238.4177000000001101
 20
70.4142135623729359
 30
0.0
 11
238.4177000000001101
 21
78.1484550032370464
 31
0.0
  0
LINE
  5
12888
  8
0
 10
250.4177000000001101
 20
52.1272077104614979
 30
0.0
 11
250.4177000000001101
 21
51.499999999999801
 31
0.0
  0
LINE
  5
12889
  8
0
 10
236.4177000000001101
 20
50.9999999999997726
 30
0.0
 11
236.4177000000001101
 21
51.7526492525537591
 31
0.0
  0
LINE
  5
12897
  8
0
 10
153.4588208898611015
 20
104.9999999999999005
 30
0.0
 11
153.4588208898611015
 21
81.9999999999999289
 31
0.0
  0
LINE
  5
12898
  8
0
 10
153.4588208898611015
 20
114.9999999999999005
 30
0.0
 11
153.4588208898611015
 21
104.9999999999999005
 31
0.0
  0
LINE
  5
12899
  8
0
 10
153.4588208898611015
 20
137.9999999999998863
 30
0.0
 11
153.4588208898611015
 21
114.9999999999999005
 31
0.0
  0
LINE
  5
1289A
  8
0
 10
154.4588208898611015
 20
138.9999999999998863
 30
0.0
 11
153.4588208898611015
 21
137.9999999999998863
 31
0.0
  0
LINE
  5
1289B
  8
0
 10
154.4588208898611015
 20
138.9999999999998863
 30
0.0
 11
158.0000000000001137
 21
138.9999999999998863
 31
0.0
  0
LINE
  5
1289C
  8
0
 10
154.4588208898611015
 20
80.9999999999999147
 30
0.0
 11
158.0000000000001137
 21
80.9999999999999147
 31
0.0
  0
LINE
  5
1289D
  8
0
 10
153.4588208898611015
 20
81.9999999999999289
 30
0.0
 11
154.4588208898611015
 21
80.9999999999999147
 31
0.0
  0
LINE
  5
1289E
  8
0
 10
152.4588208898611015
 20
82.9999999999999432
 30
0.0
 11
152.4588208898611015
 21
103.9999999999999005
 31
0.0
  0
LINE
  5
1289F
  8
0
 10
152.4588208898611015
 20
103.9999999999999005
 30
0.0
 11
153.4588208898611015
 21
104.9999999999999005
 31
0.0
  0
LINE
  5
128A0
  8
0
 10
153.4588208898611015
 20
81.9999999999999289
 30
0.0
 11
152.4588208898611015
 21
82.9999999999999432
 31
0.0
  0
LINE
  5
128A1
  8
0
 10
152.4588208898611015
 20
115.9999999999999005
 30
0.0
 11
152.4588208898611015
 21
136.9999999999998863
 31
0.0
  0
LINE
  5
128A2
  8
0
 10
152.4588208898611015
 20
136.9999999999998863
 30
0.0
 11
153.4588208898611015
 21
137.9999999999998863
 31
0.0
  0
LINE
  5
128A3
  8
0
 10
153.4588208898611015
 20
114.9999999999999005
 30
0.0
 11
152.4588208898611015
 21
115.9999999999999005
 31
0.0
  0
ARC
  5
128A5
  8
0
 10
207.0000000000001137
 20
74.9999999999999432
 30
0.0
 40
5.0
 50
90.0
 51
180.0
  0
LINE
  5
128A6
  8
0
 10
194.0000000000001137
 20
66.9999999999999432
 30
0.0
 11
202.0000000000001137
 21
74.9999999999999432
 31
0.0
  0
LINE
  5
128A7
  8
0
 10
194.0000000000001137
 20
66.9999999999999432
 30
0.0
 11
162.0000000000001137
 21
66.9999999999999432
 31
0.0
  0
LINE
  5
128A8
  8
0
 10
158.0000000000001137
 20
70.9999999999999716
 30
0.0
 11
162.0000000000001137
 21
66.9999999999999432
 31
0.0
  0
LINE
  5
128A9
  8
0
 10
158.0000000000001137
 20
148.9999999999998863
 30
0.0
 11
158.0000000000001137
 21
70.9999999999999716
 31
0.0
  0
LINE
  5
128AA
  8
0
 10
162.0000000000001137
 20
152.9999999999998863
 30
0.0
 11
158.0000000000001137
 21
148.9999999999998863
 31
0.0
  0
LINE
  5
128AB
  8
0
 10
162.0000000000001137
 20
152.9999999999998863
 30
0.0
 11
194.0000000000001137
 21
152.9999999999998863
 31
0.0
  0
LINE
  5
128AC
  8
0
 10
202.0000000000001137
 20
144.9999999999998863
 30
0.0
 11
194.0000000000001137
 21
152.9999999999998863
 31
0.0
  0
ARC
  5
128AD
  8
0
 10
207.0000000000001137
 20
144.9999999999998863
 30
0.0
 40
5.0
 50
180.0000000000015916
 51
270.0
  0
LINE
  5
128AE
  8
0
 10
216.0000000000001137
 20
139.9999999999998863
 30
0.0
 11
207.0000000000001137
 21
139.9999999999998863
 31
0.0
  0
LINE
  5
128AF
  8
0
 10
217.0000000000001137
 20
138.9999999999998863
 30
0.0
 11
216.0000000000001137
 21
139.9999999999998863
 31
0.0
  0
LINE
  5
128B1
  8
0
 10
216.0000000000001137
 20
79.9999999999999147
 30
0.0
 11
217.0000000000001137
 21
80.9999999999999432
 31
0.0
  0
LINE
  5
128B2
  8
0
 10
207.0000000000001137
 20
79.9999999999999147
 30
0.0
 11
216.0000000000001137
 21
79.9999999999999147
 31
0.0
  0
ARC
  5
128B3
  8
0
 10
185.0000000000001137
 20
73.9999999999999432
 30
0.0
 40
3.2999999999999972
 50
270.0
 51
90.0
  0
LINE
  5
128B4
  8
0
 10
175.0000000000001137
 20
77.2999999999999261
 30
0.0
 11
185.0000000000001137
 21
77.2999999999999261
 31
0.0
  0
ARC
  5
128B5
  8
0
 10
175.0000000000001137
 20
73.9999999999999432
 30
0.0
 40
3.2999999999999972
 50
90.0
 51
270.0
  0
LINE
  5
128B6
  8
0
 10
185.0000000000001137
 20
70.6999999999999318
 30
0.0
 11
175.0000000000001137
 21
70.6999999999999318
 31
0.0
  0
ARC
  5
128B7
  8
0
 10
185.0000000000001137
 20
145.9999999999998863
 30
0.0
 40
3.2999999999999998
 50
270.0
 51
90.0
  0
LINE
  5
128B8
  8
0
 10
175.0000000000001137
 20
149.2999999999998977
 30
0.0
 11
185.0000000000001137
 21
149.2999999999998977
 31
0.0
  0
ARC
  5
128B9
  8
0
 10
175.0000000000001137
 20
145.9999999999998863
 30
0.0
 40
3.2999999999999998
 50
90.0
 51
270.0
  0
LINE
  5
128BA
  8
0
 10
185.0000000000001137
 20
142.6999999999999034
 30
0.0
 11
175.0000000000001137
 21
142.6999999999999034
 31
0.0
  0
LINE
  5
128BB
  8
0
 10
218.0000000000001137
 20
137.999999999999801
 30
0.0
 11
217.0000000000001137
 21
138.9999999999998863
 31
0.0
  0
LINE
  5
128BC
  8
0
 10
218.0000000000001137
 20
137.999999999999801
 30
0.0
 11
218.0000000000001137
 21
81.9999999999999716
 31
0.0
  0
LINE
  5
128BD
  8
0
 10
217.0000000000001137
 20
80.9999999999999432
 30
0.0
 11
218.0000000000001137
 21
81.9999999999999716
 31
0.0
  0
CIRCLE
  5
128BE
  8
0
 10
166.0000000000001137
 20
109.9999999999999005
 30
0.0
 40
2.5
  0
LINE
  5
128EF
  8
0
 10
223.9999999999998863
 20
81.9999999999998579
 30
0.0
 11
217.9999999999998863
 21
81.9999999999999716
 31
0.0
  0
LINE
  5
128F0
  8
0
 10
218.0000000000003126
 20
137.9999999999998863
 30
0.0
 11
224.0000000000003126
 21
137.9999999999998863
 31
0.0
  0
LINE
  5
12919
  8
0
 10
224.0000000000003126
 20
137.9999999999998863
 30
0.0
 11
223.9999999999998863
 21
81.9999999999998579
 31
0.0
  0
LINE
  5
1291A
  8
0
 10
224.0
 20
86.3568191649260655
 30
0.0
 11
217.9999999999998863
 21
86.3568191649261792
 31
0.0
  0
LINE
  5
1291B
  8
0
 10
224.0000000000001137
 20
108.9999999999999005
 30
0.0
 11
218.000000000000199
 21
108.9999999999999005
 31
0.0
  0
LINE
  5
1291C
  8
0
 10
224.0000000000003126
 20
133.6431808350737072
 30
0.0
 11
218.0000000000003126
 21
133.6431808350737072
 31
0.0
  0
LINE
  5
1291D
  8
0
 10
218.000000000000199
 20
110.9999999999999005
 30
0.0
 11
224.0000000000001137
 21
110.9999999999999005
 31
0.0
  0
LINE
  5
12932
  8
0
 10
171.9999999999998863
 20
72.6252272915134256
 30
0.0
 11
171.9999999999998863
 21
75.3747727084868586
 31
0.0
  0
LINE
  5
12933
  8
0
 10
172.0000000000003979
 20
144.6252272915133972
 30
0.0
 11
172.0000000000003979
 21
147.3747727084870007
 31
0.0
  0
LINE
  5
12942
  8
1
 10
191.3000000000000114
 20
73.9999999999999147
 30
0.0
 11
154.9999999999998863
 21
74.0000000000001421
 31
0.0
  0
LINE
  5
12943
  8
1
 10
184.9999999999998863
 20
67.6999999999999602
 30
0.0
 11
185.0
 21
80.3000000000001535
 31
0.0
  0
LINE
  5
12944
  8
1
 10
174.999999999999801
 20
67.7000000000001876
 30
0.0
 11
175.0
 21
80.3000000000003809
 31
0.0
  0
LINE
  5
12945
  8
1
 10
258.4877000000001885
 20
109.9999999999996021
 30
0.0
 11
147.4588208898611015
 21
110.0000000000003979
 31
0.0
  0
LINE
  5
12946
  8
1
 10
191.3000000000004945
 20
146.0000000000003126
 30
0.0
 11
155.0000000000005116
 21
146.0000000000007958
 31
0.0
  0
LINE
  5
12947
  8
1
 10
185.0000000000005116
 20
152.3000000000004093
 30
0.0
 11
185.0000000000005116
 21
139.7000000000003013
 31
0.0
  0
LINE
  5
12948
  8
1
 10
175.0000000000005116
 20
152.3000000000004093
 30
0.0
 11
175.0000000000005116
 21
139.7000000000001876
 31
0.0
  0
LINE
  5
12949
  8
1
 10
165.4588208898613004
 20
126.0
 30
0.0
 11
149.4588208898611867
 21
125.9999999999999005
 31
0.0
  0
LINE
  5
1294A
  8
1
 10
165.4588208898611015
 20
94.0000000000005258
 30
0.0
 11
149.4588208898609878
 21
94.0000000000008242
 31
0.0
  0
POLYLINE
  5
12950
  8
0
 66
     1
 10
0.0
 20
0.0
 30
0.0
  0
VERTEX
  5
129B8
  8
0
 10
337.0000000000002274
 20
238.5000000000015916
 30
0.0
  0
VERTEX
  5
129B9
  8
0
 10
336.989037106555827
 20
238.4196832735931935
 30
0.0
  0
VERTEX
  5
129BA
  8
0
 10
336.976498240990793
 20
238.3395599267610123
 30
0.0
  0
VERTEX
  5
129BB
  8
0
 10
336.9691453273753723
 20
238.2996312018034075
 30
0.0
  0
VERTEX
  5
129BC
  8
0
 10
336.9608074311844916
 20
238.2598233390808105
 30
0.0
  0
VERTEX
  5
129BD
  8
0
 10
336.9512875559033205
 20
238.2201605110402056
 30
0.0
  0
VERTEX
  5
129BE
  8
0
 10
336.9403887050165167
 20
238.1806668901288049
 30
0.0
  0
VERTEX
  5
129BF
  8
0
 10
336.927913882009193
 20
238.1413666487933085
 30
0.0
  0
VERTEX
  5
129C0
  8
0
 10
336.9136660903661209
 20
238.1022839594809
 30
0.0
  0
VERTEX
  5
129C1
  8
0
 10
336.8974483335722994
 20
238.0634429946387058
 30
0.0
  0
VERTEX
  5
129C2
  8
0
 10
336.8790636151126137
 20
238.024867926713398
 30
0.0
  0
VERTEX
  5
129C3
  8
0
 10
336.858315236471924
 20
237.9865830614363063
 30
0.0
  0
VERTEX
  5
129C4
  8
0
 10
336.8350668017426983
 20
237.9486396755922044
 30
0.0
  0
VERTEX
  5
129C5
  8
0
 10
336.8093150736722237
 20
237.9111486027485967
 30
0.0
  0
VERTEX
  5
129C6
  8
0
 10
336.7810746196200853
 20
237.8742286397963142
 30
0.0
  0
VERTEX
  5
129C7
  8
0
 10
336.7503600069456979
 20
237.8379985836257049
 30
0.0
  0
VERTEX
  5
129C8
  8
0
 10
336.71718580300859
 20
237.802577231127799
 30
0.0
  0
VERTEX
  5
129C9
  8
0
 10
336.6815665751681195
 20
237.7680833791928876
 30
0.0
  0
VERTEX
  5
129CA
  8
0
 10
336.6435160905685962
 20
237.7346371092322102
 30
0.0
  0
VERTEX
  5
129CB
  8
0
 10
336.6030174732792943
 20
237.70240769147469
 30
0.0
  0
VERTEX
  5
129CC
  8
0
 10
336.5600143080408202
 20
237.6716278653952088
 30
0.0
  0
VERTEX
  5
129CD
  8
0
 10
336.5144475638126096
 20
237.6425345693681095
 30
0.0
  0
VERTEX
  5
129CE
  8
0
 10
336.4662582095540984
 20
237.6153647417677917
 30
0.0
  0
VERTEX
  5
129CF
  8
0
 10
336.4153872420412199
 20
237.5903553294488972
 30
0.0
  0
VERTEX
  5
129D0
  8
0
 10
336.361839586825397
 20
237.5677627689221936
 30
0.0
  0
VERTEX
  5
129D1
  8
0
 10
336.3058204733761727
 20
237.5479045623845025
 30
0.0
  0
VERTEX
  5
129D2
  8
0
 10
336.2475742566905978
 20
237.5311101400426992
 30
0.0
  0
VERTEX
  5
129D3
  8
0
 10
336.2176923455708106
 20
237.523964794884904
 30
0.0
  0
VERTEX
  5
129D4
  8
0
 10
336.1873452984356732
 20
237.5177089277746916
 30
0.0
  0
VERTEX
  5
129D5
  8
0
 10
336.1565733493474113
 20
237.5123774285559932
 30
0.0
  0
VERTEX
  5
129D6
  8
0
 10
336.125445777343316
 20
237.5079863359096919
 30
0.0
  0
VERTEX
  5
129D7
  8
0
 10
336.0940372845507227
 20
237.5045481687494942
 30
0.0
  0
VERTEX
  5
129D8
  8
0
 10
336.0624225730969101
 20
237.5020754459891918
 30
0.0
  0
VERTEX
  5
129D9
  8
0
 10
336.0306763451093843
 20
237.5005806865426052
 30
0.0
  0
VERTEX
  5
129DA
  8
0
 10
335.998873302715424
 20
237.5000764093232988
 30
0.0
  0
VERTEX
  5
129DB
  8
0
 10
335.967088148042194
 20
237.5005751332452064
 30
0.0
  0
VERTEX
  5
129DC
  8
0
 10
335.9353955832172005
 20
237.5020893772220916
 30
0.0
  0
VERTEX
  5
129DD
  8
0
 10
335.9038672215028214
 20
237.5046245135881122
 30
0.0
  0
VERTEX
  5
129DE
  8
0
 10
335.8725617162205026
 20
237.5081559297935883
 30
0.0
  0
VERTEX
  5
129DF
  8
0
 10
335.8415343222649199
 20
237.5126511504888072
 30
0.0
  0
VERTEX
  5
129E0
  8
0
 10
335.8108402945176749
 20
237.5180777002935884
 30
0.0
  0
VERTEX
  5
129E1
  8
0
 10
335.7805348878604264
 20
237.5244031038278933
 30
0.0
  0
VERTEX
  5
129E2
  8
0
 10
335.7506733571744917
 20
237.5315948857117974
 30
0.0
  0
VERTEX
  5
129E3
  8
0
 10
335.7213109573419274
 20
237.5396205705650914
 30
0.0
  0
VERTEX
  5
129E4
  8
0
 10
335.6924995507303038
 20
237.5484471061566865
 30
0.0
  0
VERTEX
  5
129E5
  8
0
 10
335.636628953153604
 20
237.5683521203924045
 30
0.0
  0
VERTEX
  5
129E6
  8
0
 10
335.5832065203802017
 20
237.5909996104178106
 30
0.0
  0
VERTEX
  5
129E7
  8
0
 10
335.5323663613523877
 20
237.6160774138469947
 30
0.0
  0
VERTEX
  5
129E8
  8
0
 10
335.484231785932991
 20
237.6432789794646112
 30
0.0
  0
VERTEX
  5
129E9
  8
0
 10
335.4388019536932006
 20
237.6723622641879956
 30
0.0
  0
VERTEX
  5
129EA
  8
0
 10
335.3959965818971796
 20
237.703126502927887
 30
0.0
  0
VERTEX
  5
129EB
  8
0
 10
335.3557340928747976
 20
237.735371603439205
 30
0.0
  0
VERTEX
  5
129EC
  8
0
 10
335.317932908955413
 20
237.7688974734768976
 30
0.0
  0
VERTEX
  5
129ED
  8
0
 10
335.2825114524687251
 20
237.8035040207957991
 30
0.0
  0
VERTEX
  5
129EE
  8
0
 10
335.2493923148443855
 20
237.8389977294542916
 30
0.0
  0
VERTEX
  5
129EF
  8
0
 10
335.2185419243365914
 20
237.8752542313474976
 30
0.0
  0
VERTEX
  5
129F0
  8
0
 10
335.1899529376810278
 20
237.9121905309565079
 30
0.0
  0
VERTEX
  5
129F1
  8
0
 10
335.1636183651175998
 20
237.9497241903769975
 30
0.0
  0
VERTEX
  5
129F2
  8
0
 10
335.1395312168864962
 20
237.9877727717043001
 30
0.0
  0
VERTEX
  5
129F3
  8
0
 10
335.1176845032272809
 20
238.0262538370338916
 30
0.0
  0
VERTEX
  5
129F4
  8
0
 10
335.0980712343801997
 20
238.06508494846139
 30
0.0
  0
VERTEX
  5
129F5
  8
0
 10
335.0806844205848734
 20
238.1041836680822996
 30
0.0
  0
VERTEX
  5
129F6
  8
0
 10
335.0655170720813771
 20
238.1434675579920111
 30
0.0
  0
VERTEX
  5
129F7
  8
0
 10
335.0525414770946782
 20
238.1828603423126935
 30
0.0
  0
VERTEX
  5
129F8
  8
0
 10
335.0415759779045857
 20
238.2223315234859911
 30
0.0
  0
VERTEX
  5
129F9
  8
0
 10
335.032369604535802
 20
238.2618712150743079
 30
0.0
  0
VERTEX
  5
129FA
  8
0
 10
335.024671053299528
 20
238.3014696298756974
 30
0.0
  0
VERTEX
  5
129FB
  8
0
 10
335.0182290205070785
 20
238.3411169806877865
 30
0.0
  0
VERTEX
  5
129FC
  8
0
 10
335.0081092954986275
 20
238.4205193415361066
 30
0.0
  0
VERTEX
  5
129FD
  8
0
 10
335.0000000000002274
 20
238.5000000000015916
 30
0.0
  0
SEQEND
  5
129FE
  8
0
  0
ENDSEC
  0
EOF
