  0
SECTION
  2
HEADER
  9
$ACADVER
  1
AC1009
  9
$INSBASE
 10
0.0
 20
0.0
 30
0.0
  9
$EXTMIN
 10
0.0
 20
-2.960436562073669
 30
0.0
  9
$EXTMAX
 10
215.1782989268838
 20
136.1660502605751
 30
0.0
  9
$LIMMIN
 10
0.0
 20
0.0
  9
$LIMMAX
 10
385.0
 20
270.0
  9
$ORTHOMODE
 70
     0
  9
$REGENMODE
 70
     1
  9
$FILLMODE
 70
     1
  9
$QTEXTMODE
 70
     0
  9
$MIRRTEXT
 70
     0
  9
$DRAGMODE
 70
     2
  9
$LTSCALE
 40
5.0
  9
$OSMODE
 70
  3071
  9
$ATTMODE
 70
     1
  9
$TEXTSIZE
 40
4.000000000000048
  9
$TRACEWID
 40
0.05
  9
$TEXTSTYLE
  7
STANDARD
  9
$CLAYER
  8
0
  9
$CELTYPE
  6
BYLAYER
  9
$CECOLOR
 62
   256
  9
$DIMSCALE
 40
1.0
  9
$DIMASZ
 40
3.0
  9
$DIMEXO
 40
2.0
  9
$DIMDLI
 40
0.38
  9
$DIMRND
 40
0.0
  9
$DIMDLE
 40
0.0
  9
$DIMEXE
 40
2.0
  9
$DIMTP
 40
0.0
  9
$DIMTM
 40
0.0
  9
$DIMTXT
 40
3.0
  9
$DIMCEN
 40
0.0
  9
$DIMTSZ
 40
0.0
  9
$DIMTOL
 70
     0
  9
$DIMLIM
 70
     0
  9
$DIMTIH
 70
     0
  9
$DIMTOH
 70
     0
  9
$DIMSE1
 70
     0
  9
$DIMSE2
 70
     0
  9
$DIMTAD
 70
     1
  9
$DIMZIN
 70
     0
  9
$DIMBLK
  1

  9
$DIMASO
 70
     0
  9
$DIMSHO
 70
     0
  9
$DIMPOST
  1

  9
$DIMAPOST
  1

  9
$DIMALT
 70
     0
  9
$DIMALTD
 70
     2
  9
$DIMALTF
 40
25.399999999999999
  9
$DIMLFAC
 40
1.0
  9
$DIMTOFL
 70
     1
  9
$DIMTVP
 40
1.6000000000000001
  9
$DIMTIX
 70
     1
  9
$DIMSOXD
 70
     0
  9
$DIMSAH
 70
     0
  9
$DIMBLK1
  1

  9
$DIMBLK2
  1

  9
$DIMSTYLE
  2
STANDARD
  9
$DIMCLRD
 70
     0
  9
$DIMCLRE
 70
     0
  9
$DIMCLRT
 70
     0
  9
$DIMTFAC
 40
1.0
  9
$DIMGAP
 40
1.0
  9
$LUNITS
 70
     2
  9
$LUPREC
 70
     4
  9
$SKETCHINC
 40
0.1
  9
$FILLETRAD
 40
0.0
  9
$AUNITS
 70
     0
  9
$AUPREC
 70
     4
  9
$MENU
  1
E:\r13\win\SUPPORT\ACAD
  9
$ELEVATION
 40
0.0
  9
$PELEVATION
 40
0.0
  9
$THICKNESS
 40
0.0
  9
$LIMCHECK
 70
     0
  9
$BLIPMODE
 70
     0
  9
$CHAMFERA
 40
0.0
  9
$CHAMFERB
 40
0.0
  9
$SKPOLY
 70
     0
  9
$TDCREATE
 40
2450280.598206134
  9
$TDUPDATE
 40
2456598.4300878709
  9
$TDINDWG
 40
0.1084704398
  9
$TDUSRTIMER
 40
0.1084704398
  9
$USRTIMER
 70
     1
  9
$ANGBASE
 50
0.0
  9
$ANGDIR
 70
     0
  9
$PDMODE
 70
     0
  9
$PDSIZE
 40
0.0
  9
$PLINEWID
 40
0.0
  9
$COORDS
 70
     1
  9
$SPLFRAME
 70
     0
  9
$SPLINETYPE
 70
     6
  9
$SPLINESEGS
 70
     8
  9
$ATTDIA
 70
     0
  9
$ATTREQ
 70
     1
  9
$HANDLING
 70
     1
  9
$HANDSEED
  5
CD9
  9
$SURFTAB1
 70
     6
  9
$SURFTAB2
 70
     6
  9
$SURFTYPE
 70
     6
  9
$SURFU
 70
     6
  9
$SURFV
 70
     6
  9
$UCSNAME
  2

  9
$UCSORG
 10
0.0
 20
0.0
 30
0.0
  9
$UCSXDIR
 10
1.0
 20
0.0
 30
0.0
  9
$UCSYDIR
 10
0.0
 20
1.0
 30
0.0
  9
$PUCSNAME
  2

  9
$PUCSORG
 10
0.0
 20
0.0
 30
0.0
  9
$PUCSXDIR
 10
1.0
 20
0.0
 30
0.0
  9
$PUCSYDIR
 10
0.0
 20
1.0
 30
0.0
  9
$USERI1
 70
     3
  9
$USERI2
 70
     1
  9
$USERI3
 70
     1
  9
$USERI4
 70
     0
  9
$USERI5
 70
     0
  9
$USERR1
 40
1.0
  9
$USERR2
 40
3.0
  9
$USERR3
 40
3.0
  9
$USERR4
 40
3.0
  9
$USERR5
 40
10.0
  9
$WORLDVIEW
 70
     1
  9
$SHADEDGE
 70
     3
  9
$SHADEDIF
 70
    70
  9
$TILEMODE
 70
     1
  9
$MAXACTVP
 70
    16
  9
$PLIMCHECK
 70
     0
  9
$PEXTMIN
 10
1.0000000000000000E+020
 20
1.0000000000000000E+020
 30
1.0000000000000000E+020
  9
$PEXTMAX
 10
-1.0000000000000000E+020
 20
-1.0000000000000000E+020
 30
-1.0000000000000000E+020
  9
$PLIMMIN
 10
0.0
 20
0.0
  9
$PLIMMAX
 10
12.0
 20
9.0
  9
$UNITMODE
 70
     0
  9
$VISRETAIN
 70
     0
  9
$PLINEGEN
 70
     0
  9
$PSLTSCALE
 70
     0
  0
ENDSEC
  0
SECTION
  2
TABLES
  0
TABLE
  2
VPORT
 70
     1
  0
VPORT
  2
*ACTIVE
 70
     0
 10
0.0
 20
0.0
 11
1.0
 21
1.0
 12
192.49412581440311
 22
149.37525922376949
 13
0.0
 23
0.0
 14
5.0
 24
5.0
 15
10.0
 25
10.0
 16
0.0
 26
0.0
 36
1.0
 17
0.0
 27
0.0
 37
0.0
 40
308.52635987286669
 41
2.304913294797688
 42
50.0
 43
0.0
 44
0.0
 50
0.0
 51
0.0
 71
     0
 72
   500
 73
     1
 74
     0
 75
     0
 76
     0
 77
     0
 78
     2
  0
ENDTAB
  0
TABLE
  2
LTYPE
 70
     4
  0
LTYPE
  2
CONTINUOUS
 70
     0
  3
Solid Line
 72
    65
 73
     0
 40
0.0
  0
LTYPE
  2
CENTER
 70
     0
  3
____ _ ____ _ ____ _ ____ _ ____ _ ____ _ ____
 72
    65
 73
     4
 40
2.0
 49
1.25
 49
-0.25
 49
0.25
 49
-0.25
  0
LTYPE
  2
HIDDEN
 70
     0
  3
_ _ _ _ _ _ _ _ _ _ _ _ _ _ _ _ _ _ _ _ _ _ _
 72
    65
 73
     2
 40
0.375
 49
0.25
 49
-0.125
  0
LTYPE
  2
PHANTOM2
 70
     0
  3
___ _ _ ___ _ _ ___ _ _ ___ _ _
 72
    65
 73
     6
 40
1.25
 49
0.625
 49
-0.125
 49
0.125
 49
-0.125
 49
0.125
 49
-0.125
  0
ENDTAB
  0
TABLE
  2
LAYER
 70
     4
  0
LAYER
  2
0
 70
     0
 62
     7
  6
CONTINUOUS
  0
LAYER
  2
1
 70
     0
 62
     1
  6
CENTER
  0
LAYER
  2
2
 70
     0
 62
     2
  6
HIDDEN
  0
LAYER
  2
3
 70
     0
 62
     3
  6
CONTINUOUS
  0
ENDTAB
  0
TABLE
  2
STYLE
 70
     2
  0
STYLE
  2
STANDARD
 70
     0
 40
0.0
 41
1.0
 50
0.0
 71
     0
 42
4.000000000000048
  3
SIMPLEX
  4
BIGFONT
  0
STYLE
  2
STANDARD1
 70
     0
 40
0.0
 41
1.0
 50
0.0
 71
     0
 42
3.0
  3
txt
  4

  0
ENDTAB
  0
TABLE
  2
VIEW
 70
     0
  0
ENDTAB
  0
TABLE
  2
UCS
 70
     0
  0
ENDTAB
  0
TABLE
  2
APPID
 70
     3
  0
APPID
  2
ACAD
 70
     0
  0
APPID
  2
ACAD_MLEADERVER
 70
     0
  0
APPID
  2
ACAD_NAV_VCDISPLAY
 70
     0
  0
ENDTAB
  0
TABLE
  2
DIMSTYLE
 70
     1
  0
DIMSTYLE
  2
STANDARD
 70
     0
  3

  4

  5

  6

  7

 40
1.0
 41
0.18
 42
0.0625
 43
0.38
 44
0.18
 45
0.0
 46
0.0
 47
0.0
 48
0.0
140
0.18
141
0.09
142
0.0
143
25.399999999999999
144
1.0
145
0.0
146
1.0
147
0.09
 71
     0
 72
     0
 73
     1
 74
     1
 75
     0
 76
     0
 77
     0
 78
     0
170
     0
171
     2
172
     0
173
     0
174
     0
175
     0
176
     0
177
     0
178
     0
  0
ENDTAB
  0
ENDSEC
  0
SECTION
  2
BLOCKS
  0
BLOCK
  8
0
  2
$MODEL_SPACE
 70
     0
 10
0.0
 20
0.0
 30
0.0
  3
$MODEL_SPACE
  1

  0
ENDBLK
  5
175
  8
0
  0
BLOCK
 67
     1
  8
0
  2
$PAPER_SPACE
 70
     0
 10
0.0
 20
0.0
 30
0.0
  3
$PAPER_SPACE
  1

  0
ENDBLK
  5
173
 67
     1
  8
0
  0
ENDSEC
  0
SECTION
  2
ENTITIES
  0
CIRCLE
  5
B1F
  8
0
 10
200.27829892688391
 20
67.666050260575275
 30
0.0
 40
2.3209999999997422
  0
LINE
  5
B20
  8
0
 10
65.178298926883826
 20
61.866050260575257
 30
0.0
 11
64.978298926883781
 21
61.666050260575282
 31
0.0
  0
LINE
  5
B21
  8
0
 10
64.978298926883781
 20
73.666050260575219
 30
0.0
 11
65.178298926883826
 21
73.46605026057523
 31
0.0
  0
LINE
  5
B22
  8
0
 10
64.978298926883781
 20
61.666050260575282
 30
0.0
 11
35.378298926883872
 21
61.666050260575162
 31
0.0
  0
LINE
  5
B23
  8
0
 10
64.978298926883781
 20
73.666050260575219
 30
0.0
 11
35.378298926883872
 21
73.666050260575219
 31
0.0
  0
LINE
  5
B24
  8
0
 10
65.178298926883826
 20
73.46605026057523
 30
0.0
 11
65.178298926883826
 21
61.866050260575257
 31
0.0
  0
LINE
  5
B25
  8
0
 10
35.178298926883834
 20
73.46605026057523
 30
0.0
 11
35.178298926883834
 21
61.86605026057515
 31
0.0
  0
LINE
  5
B26
  8
1
 10
50.078298926883811
 20
78.666050260575275
 30
0.0
 11
50.078298926883811
 21
56.666050260575282
 31
0.0
  0
LINE
  5
B27
  8
0
 10
35.378298926883872
 20
73.666050260575219
 30
0.0
 11
35.178298926883834
 21
73.46605026057523
 31
0.0
  0
LINE
  5
B28
  8
0
 10
35.178298926883834
 20
61.86605026057515
 30
0.0
 11
35.378298926883872
 21
61.666050260575162
 31
0.0
  0
LINE
  5
B29
  8
0
 10
215.1782989268838
 20
61.86605026057515
 30
0.0
 11
214.97829892688381
 21
61.666050260575162
 31
0.0
  0
LINE
  5
B2A
  8
0
 10
214.97829892688381
 20
73.666050260575219
 30
0.0
 11
215.1782989268838
 21
73.46605026057523
 31
0.0
  0
LINE
  5
B2B
  8
2
 10
138.6782989268838
 20
124.6660502605751
 30
0.0
 11
138.1782989268838
 21
125.1660502605751
 31
0.0
  0
LINE
  5
B2C
  8
2
 10
141.6782989268838
 20
124.6660502605751
 30
0.0
 11
142.1782989268838
 21
125.1660502605751
 31
0.0
  0
LINE
  5
B2D
  8
2
 10
141.67829892688371
 20
124.6660502605751
 30
0.0
 11
138.67829892688371
 21
124.6660502605751
 31
0.0
  0
LINE
  5
B2E
  8
2
 10
138.6782989268838
 20
132.6660502605751
 30
0.0
 11
138.1782989268838
 21
132.1660502605751
 31
0.0
  0
LINE
  5
B2F
  8
2
 10
142.1782989268838
 20
132.1660502605751
 30
0.0
 11
141.6782989268838
 21
132.6660502605751
 31
0.0
  0
LINE
  5
B30
  8
2
 10
141.6782989268838
 20
132.6660502605751
 30
0.0
 11
138.6782989268838
 21
132.6660502605751
 31
0.0
  0
LINE
  5
B31
  8
2
 10
138.6782989268838
 20
124.6660502605751
 30
0.0
 11
138.6782989268838
 21
123.6660502605751
 31
0.0
  0
LINE
  5
B32
  8
2
 10
141.6782989268838
 20
124.6660502605751
 30
0.0
 11
141.6782989268838
 21
123.6660502605751
 31
0.0
  0
ARC
  5
B33
  8
0
 10
140.1782989268838
 20
124.11605026057531
 30
0.0
 40
1.25
 50
207.37526810574951
 51
332.62473189425049
  0
LINE
  5
B34
  8
2
 10
141.67829892688371
 20
123.6660502605751
 30
0.0
 11
138.67829892688371
 21
123.6660502605751
 31
0.0
  0
LINE
  5
B35
  8
2
 10
142.17829892688371
 20
125.1660502605751
 30
0.0
 11
138.17829892688371
 21
125.1660502605751
 31
0.0
  0
LINE
  5
B36
  8
2
 10
142.1782989268838
 20
132.1660502605751
 30
0.0
 11
138.1782989268838
 21
132.1660502605751
 31
0.0
  0
LINE
  5
B37
  8
2
 10
141.79929892688341
 20
132.9660502605752
 30
0.0
 11
142.49929892688351
 21
133.6660502605751
 31
0.0
  0
LINE
  5
B38
  8
2
 10
138.5572989268839
 20
132.9660502605752
 30
0.0
 11
141.79929892688341
 21
132.9660502605752
 31
0.0
  0
LINE
  5
B39
  8
2
 10
137.85729892688411
 20
133.6660502605751
 30
0.0
 11
138.5572989268839
 21
132.9660502605752
 31
0.0
  0
LINE
  5
B3A
  8
2
 10
142.1782989268838
 20
133.3450502605755
 30
0.0
 11
142.17829892688391
 21
124.3229045100676
 31
0.0
  0
LINE
  5
B3B
  8
2
 10
141.79929892688341
 20
132.9660502605752
 30
0.0
 11
141.7992989268833
 21
124.4429316857042
 31
0.0
  0
LINE
  5
B3C
  8
2
 10
138.1782989268838
 20
133.3450502605755
 30
0.0
 11
138.1782989268838
 21
124.3229045100674
 31
0.0
  0
LINE
  5
B3D
  8
2
 10
138.5572989268839
 20
132.9660502605752
 30
0.0
 11
138.5572989268839
 21
124.4429316857041
 31
0.0
  0
ARC
  5
B3E
  8
2
 10
140.1782989268838
 20
124.11605026057531
 30
0.0
 40
1.25
 50
332.62473189425049
 51
338.89980400000002
  0
ARC
  5
B3F
  8
2
 10
140.17829892688411
 20
124.11605026057531
 30
0.0
 40
1.25
 50
201.10019600000001
 51
207.37526810574951
  0
ARC
  5
B40
  8
2
 10
145.62829892688379
 20
118.66605026057491
 30
0.0
 40
1.25
 50
111.100196
 51
117.3752681057495
  0
ARC
  5
B41
  8
2
 10
145.62829892688379
 20
118.6660502605753
 30
0.0
 40
1.25
 50
242.62473189425049
 51
248.89980399999999
  0
LINE
  5
B42
  8
2
 10
154.47829892688389
 20
120.2870502605751
 30
0.0
 11
145.9551803520128
 21
120.2870502605751
 31
0.0
  0
LINE
  5
B43
  8
2
 10
154.85729892688411
 20
120.6660502605753
 30
0.0
 11
145.83515317637611
 21
120.6660502605753
 31
0.0
  0
LINE
  5
B44
  8
2
 10
154.47829892688389
 20
117.04505026057559
 30
0.0
 11
145.95518035201289
 21
117.04505026057571
 31
0.0
  0
LINE
  5
B45
  8
2
 10
154.85729892688411
 20
116.6660502605753
 30
0.0
 11
145.8351531763762
 21
116.6660502605751
 31
0.0
  0
LINE
  5
B46
  8
2
 10
155.1782989268838
 20
120.9870502605749
 30
0.0
 11
154.47829892688389
 21
120.2870502605751
 31
0.0
  0
LINE
  5
B47
  8
2
 10
154.47829892688389
 20
120.2870502605751
 30
0.0
 11
154.47829892688389
 21
117.04505026057559
 31
0.0
  0
LINE
  5
B48
  8
2
 10
154.47829892688389
 20
117.04505026057559
 30
0.0
 11
155.1782989268838
 21
116.3450502605756
 31
0.0
  0
LINE
  5
B49
  8
2
 10
153.6782989268838
 20
116.6660502605753
 30
0.0
 11
153.6782989268838
 21
120.6660502605753
 31
0.0
  0
LINE
  5
B4A
  8
2
 10
146.6782989268838
 20
116.6660502605753
 30
0.0
 11
146.6782989268838
 21
120.6660502605753
 31
0.0
  0
LINE
  5
B4B
  8
2
 10
145.1782989268838
 20
117.1660502605752
 30
0.0
 11
145.1782989268838
 21
120.1660502605752
 31
0.0
  0
ARC
  5
B4C
  8
0
 10
145.62829892688379
 20
118.6660502605753
 30
0.0
 40
1.25
 50
117.3752681057495
 51
242.62473189425049
  0
LINE
  5
B4D
  8
2
 10
146.1782989268838
 20
117.1660502605752
 30
0.0
 11
145.1782989268838
 21
117.1660502605752
 31
0.0
  0
LINE
  5
B4E
  8
2
 10
146.1782989268838
 20
120.1660502605752
 30
0.0
 11
145.1782989268838
 21
120.1660502605752
 31
0.0
  0
LINE
  5
B4F
  8
2
 10
154.1782989268838
 20
117.1660502605752
 30
0.0
 11
154.1782989268838
 21
120.1660502605752
 31
0.0
  0
LINE
  5
B50
  8
2
 10
153.6782989268838
 20
116.6660502605753
 30
0.0
 11
154.1782989268838
 21
117.1660502605752
 31
0.0
  0
LINE
  5
B51
  8
2
 10
154.1782989268838
 20
120.1660502605752
 30
0.0
 11
153.6782989268838
 21
120.6660502605753
 31
0.0
  0
LINE
  5
B52
  8
2
 10
146.1782989268838
 20
117.1660502605752
 30
0.0
 11
146.1782989268838
 21
120.1660502605752
 31
0.0
  0
LINE
  5
B53
  8
2
 10
146.1782989268838
 20
117.1660502605752
 30
0.0
 11
146.6782989268838
 21
116.6660502605753
 31
0.0
  0
LINE
  5
B54
  8
2
 10
146.1782989268838
 20
120.1660502605752
 30
0.0
 11
146.6782989268838
 21
120.6660502605753
 31
0.0
  0
CIRCLE
  5
B55
  8
0
 10
200.27829892688391
 20
67.666050260575219
 30
0.0
 40
2.0
  0
LINE
  5
B56
  8
0
 10
202.25567092688379
 20
67.36605026057515
 30
0.0
 11
198.30092692688379
 21
67.36605026057515
 31
0.0
  0
LINE
  5
B57
  8
0
 10
202.25567092688379
 20
67.966050260575173
 30
0.0
 11
198.30092692688379
 21
67.966050260575173
 31
0.0
  0
CIRCLE
  5
B58
  8
3
 10
200.27829892688391
 20
67.666050260575219
 30
0.0
 40
1.6209999999999991
  0
LINE
  5
B59
  8
1
 10
200.27829892688391
 20
78.666050260575275
 30
0.0
 11
200.27829892688391
 21
56.666050260575282
 31
0.0
  0
LINE
  5
B5A
  8
0
 10
215.1782989268838
 20
73.46605026057523
 30
0.0
 11
215.1782989268838
 21
61.86605026057515
 31
0.0
  0
LINE
  5
B5B
  8
0
 10
185.1782989268838
 20
73.46605026057523
 30
0.0
 11
185.1782989268838
 21
61.866050260575257
 31
0.0
  0
LINE
  5
B5C
  8
0
 10
185.37829892688379
 20
73.666050260575219
 30
0.0
 11
214.97829892688381
 21
73.666050260575219
 31
0.0
  0
LINE
  5
B5D
  8
0
 10
185.37829892688379
 20
61.666050260575282
 30
0.0
 11
214.97829892688381
 21
61.666050260575162
 31
0.0
  0
LINE
  5
B5E
  8
0
 10
185.37829892688379
 20
73.666050260575219
 30
0.0
 11
185.1782989268838
 21
73.46605026057523
 31
0.0
  0
LINE
  5
B5F
  8
0
 10
185.1782989268838
 20
61.866050260575257
 30
0.0
 11
185.37829892688379
 21
61.666050260575282
 31
0.0
  0
LINE
  5
B60
  8
1
 10
195.77829892688379
 20
67.666050260575219
 30
0.0
 11
204.77829892688391
 21
67.666050260575275
 31
0.0
  0
LINE
  5
B61
  8
2
 10
146.1782989268838
 20
69.166050260575275
 30
0.0
 11
146.6782989268838
 21
69.666050260575275
 31
0.0
  0
LINE
  5
B62
  8
2
 10
146.1782989268838
 20
66.166050260575275
 30
0.0
 11
146.6782989268838
 21
65.666050260575275
 31
0.0
  0
LINE
  5
B63
  8
2
 10
146.1782989268838
 20
66.166050260575275
 30
0.0
 11
146.1782989268838
 21
69.166050260575275
 31
0.0
  0
LINE
  5
B64
  8
2
 10
154.1782989268838
 20
69.166050260575275
 30
0.0
 11
153.6782989268838
 21
69.666050260575275
 31
0.0
  0
LINE
  5
B65
  8
2
 10
153.6782989268838
 20
65.666050260575275
 30
0.0
 11
154.1782989268838
 21
66.166050260575275
 31
0.0
  0
LINE
  5
B66
  8
2
 10
154.1782989268838
 20
66.166050260575275
 30
0.0
 11
154.1782989268838
 21
69.166050260575275
 31
0.0
  0
LINE
  5
B67
  8
2
 10
146.1782989268838
 20
69.166050260575275
 30
0.0
 11
145.1782989268838
 21
69.166050260575275
 31
0.0
  0
LINE
  5
B68
  8
2
 10
146.1782989268838
 20
66.166050260575275
 30
0.0
 11
145.1782989268838
 21
66.166050260575275
 31
0.0
  0
ARC
  5
B69
  8
2
 10
145.62829892688379
 20
67.666050260575275
 30
0.0
 40
1.25
 50
111.100196
 51
248.89980399999999
  0
LINE
  5
B6A
  8
2
 10
145.1782989268838
 20
66.166050260575275
 30
0.0
 11
145.1782989268838
 21
69.166050260575275
 31
0.0
  0
LINE
  5
B6B
  8
2
 10
146.6782989268838
 20
65.666050260575275
 30
0.0
 11
146.6782989268838
 21
69.666050260575275
 31
0.0
  0
LINE
  5
B6C
  8
2
 10
153.6782989268838
 20
65.666050260575275
 30
0.0
 11
153.6782989268838
 21
69.666050260575275
 31
0.0
  0
LINE
  5
B6D
  8
2
 10
130.58697115640209
 20
66.666050260575275
 30
0.0
 11
130.58697115640209
 21
61.666050260575162
 31
0.0
  0
LINE
  5
B6E
  8
2
 10
133.4054481495468
 20
66.666050260575162
 30
0.0
 11
133.40544814954691
 21
61.666050260575162
 31
0.0
  0
LINE
  5
B6F
  8
2
 10
136.96152752790101
 20
66.666050260575275
 30
0.0
 11
136.96152752790101
 21
61.666050260575162
 31
0.0
  0
LINE
  5
B70
  8
2
 10
129.1782989268838
 20
66.666050260575219
 30
0.0
 11
129.1782989268838
 21
61.666050260575219
 31
0.0
  0
ARC
  5
B71
  8
2
 10
132.3308489328532
 20
114.2595177699213
 30
0.0
 40
2.0000000000000129
 50
209.31526146328179
 51
302.50000000000279
  0
LINE
  5
B72
  8
2
 10
136.96152752790101
 20
114.8382072953159
 30
0.0
 11
133.4054481495468
 21
112.57273487829561
 31
0.0
  0
ARC
  5
B73
  8
2
 10
140.1782989268838
 20
118.6660502605751
 30
0.0
 40
11.00000000000002
 50
150.6847385367181
 51
209.31526146328179
  0
ARC
  5
B74
  8
2
 10
132.3308489328532
 20
123.07258275122901
 30
0.0
 40
2.0000000000000049
 50
57.49999999999725
 51
150.6847385367181
  0
LINE
  5
B75
  8
2
 10
133.4054481495468
 20
124.7593656428547
 30
0.0
 11
136.96152752790101
 21
122.4938932258345
 31
0.0
  0
LINE
  5
B76
  8
2
 10
129.1782989268838
 20
66.666050260575219
 30
0.0
 11
136.9615275279011
 21
66.666050260575219
 31
0.0
  0
LINE
  5
B77
  8
2
 10
154.47829892688389
 20
66.045050260575579
 30
0.0
 11
155.1782989268838
 21
65.345050260575533
 31
0.0
  0
LINE
  5
B78
  8
2
 10
154.47829892688389
 20
69.287050260575086
 30
0.0
 11
154.47829892688389
 21
66.045050260575579
 31
0.0
  0
LINE
  5
B79
  8
2
 10
155.1782989268838
 20
69.987050260575018
 30
0.0
 11
154.47829892688389
 21
69.287050260575086
 31
0.0
  0
LINE
  5
B7A
  8
2
 10
154.85729892688411
 20
65.666050260575332
 30
0.0
 11
145.17829892688371
 21
65.666050260575332
 31
0.0
  0
LINE
  5
B7B
  8
2
 10
154.47829892688389
 20
66.045050260575579
 30
0.0
 11
145.1782989268838
 21
66.045050260575579
 31
0.0
  0
LINE
  5
B7C
  8
2
 10
154.85729892688411
 20
69.666050260575332
 30
0.0
 11
145.17829892688371
 21
69.666050260575275
 31
0.0
  0
LINE
  5
B7D
  8
2
 10
154.47829892688389
 20
69.287050260575086
 30
0.0
 11
145.1782989268838
 21
69.287050260575143
 31
0.0
  0
LINE
  5
B7E
  8
1
 10
141.8782989268839
 20
67.666050260575275
 30
0.0
 11
157.6782989268838
 21
67.666050260575332
 31
0.0
  0
LINE
  5
B7F
  8
2
 10
145.1782989268838
 20
62.166050260575211
 30
0.0
 11
145.6782989268838
 21
61.666050260575162
 31
0.0
  0
LINE
  5
B80
  8
2
 10
136.96152752790101
 20
62.166050260575211
 30
0.0
 11
145.17829892688371
 21
62.166050260575211
 31
0.0
  0
LINE
  5
B81
  8
0
 10
155.1782989268838
 20
73.466050260575173
 30
0.0
 11
154.97829892688381
 21
73.666050260575162
 31
0.0
  0
LINE
  5
B82
  8
0
 10
154.97829892688381
 20
61.666050260575219
 30
0.0
 11
155.1782989268838
 21
61.8660502605752
 31
0.0
  0
LINE
  5
B83
  8
0
 10
95.178298926883826
 20
61.8660502605752
 30
0.0
 11
95.378298926883872
 21
61.666050260575219
 31
0.0
  0
LINE
  5
B84
  8
0
 10
95.378298926883872
 20
73.666050260575162
 30
0.0
 11
95.178298926883826
 21
73.466050260575173
 31
0.0
  0
LINE
  5
B85
  8
0
 10
95.178298926883713
 20
133.46605026057509
 30
0.0
 11
95.378298926883758
 21
133.6660502605751
 31
0.0
  0
LINE
  5
B86
  8
0
 10
95.378298926883758
 20
103.6660502605751
 30
0.0
 11
95.178298926883713
 21
103.86605026057509
 31
0.0
  0
LINE
  5
B87
  8
0
 10
155.1782989268838
 20
103.86605026057509
 30
0.0
 11
154.97829892688381
 21
103.6660502605751
 31
0.0
  0
LINE
  5
B88
  8
0
 10
154.97829892688381
 20
133.6660502605751
 30
0.0
 11
155.1782989268838
 21
133.46605026057509
 31
0.0
  0
CIRCLE
  5
B89
  8
0
 10
140.1782989268838
 20
118.6660502605751
 30
0.0
 40
6.0
  0
CIRCLE
  5
B8A
  8
0
 10
140.1782989268838
 20
118.6660502605751
 30
0.0
 40
5.0
  0
LINE
  5
B8B
  8
1
 10
160.1782989268838
 20
118.6660502605751
 30
0.0
 11
90.178298926883826
 21
118.6660502605751
 31
0.0
  0
LINE
  5
B8C
  8
2
 10
145.1782989268838
 20
72.666050260575162
 30
0.0
 11
135.1782989268838
 21
72.666050260575105
 31
0.0
  0
LINE
  5
B8D
  8
2
 10
146.1782989268838
 20
73.666050260575162
 30
0.0
 11
145.1782989268838
 21
72.666050260575162
 31
0.0
  0
LINE
  5
B8E
  8
2
 10
134.1782989268838
 20
73.666050260575162
 30
0.0
 11
135.1782989268838
 21
72.666050260575162
 31
0.0
  0
LINE
  5
B8F
  8
2
 10
135.17829892688371
 20
72.666050260575034
 30
0.0
 11
135.17829892688371
 21
66.666050260575105
 31
0.0
  0
LINE
  5
B90
  8
2
 10
145.17829892688371
 20
72.666050260575105
 30
0.0
 11
145.1782989268838
 21
62.166050260575332
 31
0.0
  0
LINE
  5
B91
  8
1
 10
140.1782989268838
 20
78.666050260575162
 30
0.0
 11
140.1782989268838
 21
56.666050260575162
 31
0.0
  0
LINE
  5
B92
  8
1
 10
140.1782989268838
 20
136.1660502605751
 30
0.0
 11
140.1782989268838
 21
107.6660502605751
 31
0.0
  0
LINE
  5
B93
  8
0
 10
95.378298926883872
 20
61.666050260575219
 30
0.0
 11
154.97829892688381
 21
61.666050260575219
 31
0.0
  0
LINE
  5
B94
  8
0
 10
95.378298926883872
 20
73.666050260575162
 30
0.0
 11
154.97829892688381
 21
73.666050260575162
 31
0.0
  0
LINE
  5
B95
  8
0
 10
155.1782989268838
 20
73.466050260575173
 30
0.0
 11
155.1782989268838
 21
61.8660502605752
 31
0.0
  0
LINE
  5
B96
  8
0
 10
95.178298926883826
 20
73.466050260575173
 30
0.0
 11
95.178298926883826
 21
61.8660502605752
 31
0.0
  0
LINE
  5
B97
  8
0
 10
95.178298926883713
 20
133.46605026057509
 30
0.0
 11
95.178298926883713
 21
103.86605026057509
 31
0.0
  0
LINE
  5
B98
  8
0
 10
95.378298926883758
 20
103.6660502605751
 30
0.0
 11
154.97829892688381
 21
103.6660502605751
 31
0.0
  0
LINE
  5
B99
  8
0
 10
155.1782989268838
 20
133.46605026057509
 30
0.0
 11
155.1782989268838
 21
103.86605026057509
 31
0.0
  0
LINE
  5
B9A
  8
0
 10
95.378298926883758
 20
133.6660502605751
 30
0.0
 11
154.97829892688381
 21
133.6660502605751
 31
0.0
  0
TEXT
  5
C43
  8
0
 62
     3
 10
0.0
 20
0.0
 30
0.0
 40
10.0
  1
QLSW150-SH
  7
STANDARD1
  0
ENDSEC
  0
EOF
