  0
SECTION
  2
HEADER
  9
$ACADVER
  1
AC1009
  9
$INSBASE
 10
0.0
 20
0.0
 30
0.0
  9
$EXTMIN
 10
0.0
 20
-2.960436562073669
 30
0.0
  9
$EXTMAX
 10
252.1364084116552
 20
163.01699767868641
 30
0.0
  9
$LIMMIN
 10
0.0
 20
0.0
  9
$LIMMAX
 10
385.0
 20
270.0
  9
$ORTHOMODE
 70
     0
  9
$REGENMODE
 70
     1
  9
$FILLMODE
 70
     1
  9
$QTEXTMODE
 70
     0
  9
$MIRRTEXT
 70
     0
  9
$DRAGMODE
 70
     2
  9
$LTSCALE
 40
5.0
  9
$OSMODE
 70
  3071
  9
$ATTMODE
 70
     1
  9
$TEXTSIZE
 40
4.000000000000048
  9
$TRACEWID
 40
0.05
  9
$TEXTSTYLE
  7
STANDARD
  9
$CLAYER
  8
0
  9
$CELTYPE
  6
BYLAYER
  9
$CECOLOR
 62
   256
  9
$DIMSCALE
 40
1.0
  9
$DIMASZ
 40
3.0
  9
$DIMEXO
 40
2.0
  9
$DIMDLI
 40
0.38
  9
$DIMRND
 40
0.0
  9
$DIMDLE
 40
0.0
  9
$DIMEXE
 40
2.0
  9
$DIMTP
 40
0.0
  9
$DIMTM
 40
0.0
  9
$DIMTXT
 40
3.0
  9
$DIMCEN
 40
0.0
  9
$DIMTSZ
 40
0.0
  9
$DIMTOL
 70
     0
  9
$DIMLIM
 70
     0
  9
$DIMTIH
 70
     0
  9
$DIMTOH
 70
     0
  9
$DIMSE1
 70
     0
  9
$DIMSE2
 70
     0
  9
$DIMTAD
 70
     1
  9
$DIMZIN
 70
     0
  9
$DIMBLK
  1

  9
$DIMASO
 70
     0
  9
$DIMSHO
 70
     0
  9
$DIMPOST
  1

  9
$DIMAPOST
  1

  9
$DIMALT
 70
     0
  9
$DIMALTD
 70
     2
  9
$DIMALTF
 40
25.399999999999999
  9
$DIMLFAC
 40
1.0
  9
$DIMTOFL
 70
     1
  9
$DIMTVP
 40
1.6000000000000001
  9
$DIMTIX
 70
     1
  9
$DIMSOXD
 70
     0
  9
$DIMSAH
 70
     0
  9
$DIMBLK1
  1

  9
$DIMBLK2
  1

  9
$DIMSTYLE
  2
STANDARD
  9
$DIMCLRD
 70
     0
  9
$DIMCLRE
 70
     0
  9
$DIMCLRT
 70
     0
  9
$DIMTFAC
 40
1.0
  9
$DIMGAP
 40
1.0
  9
$LUNITS
 70
     2
  9
$LUPREC
 70
     4
  9
$SKETCHINC
 40
0.1
  9
$FILLETRAD
 40
0.0
  9
$AUNITS
 70
     0
  9
$AUPREC
 70
     4
  9
$MENU
  1
E:\r13\win\SUPPORT\ACAD
  9
$ELEVATION
 40
0.0
  9
$PELEVATION
 40
0.0
  9
$THICKNESS
 40
0.0
  9
$LIMCHECK
 70
     0
  9
$BLIPMODE
 70
     0
  9
$CHAMFERA
 40
0.0
  9
$CHAMFERB
 40
0.0
  9
$SKPOLY
 70
     0
  9
$TDCREATE
 40
2450280.598206134
  9
$TDUPDATE
 40
2456598.4301363188
  9
$TDINDWG
 40
0.109200162
  9
$TDUSRTIMER
 40
0.109200162
  9
$USRTIMER
 70
     1
  9
$ANGBASE
 50
0.0
  9
$ANGDIR
 70
     0
  9
$PDMODE
 70
     0
  9
$PDSIZE
 40
0.0
  9
$PLINEWID
 40
0.0
  9
$COORDS
 70
     1
  9
$SPLFRAME
 70
     0
  9
$SPLINETYPE
 70
     6
  9
$SPLINESEGS
 70
     8
  9
$ATTDIA
 70
     0
  9
$ATTREQ
 70
     1
  9
$HANDLING
 70
     1
  9
$HANDSEED
  5
D57
  9
$SURFTAB1
 70
     6
  9
$SURFTAB2
 70
     6
  9
$SURFTYPE
 70
     6
  9
$SURFU
 70
     6
  9
$SURFV
 70
     6
  9
$UCSNAME
  2

  9
$UCSORG
 10
0.0
 20
0.0
 30
0.0
  9
$UCSXDIR
 10
1.0
 20
0.0
 30
0.0
  9
$UCSYDIR
 10
0.0
 20
1.0
 30
0.0
  9
$PUCSNAME
  2

  9
$PUCSORG
 10
0.0
 20
0.0
 30
0.0
  9
$PUCSXDIR
 10
1.0
 20
0.0
 30
0.0
  9
$PUCSYDIR
 10
0.0
 20
1.0
 30
0.0
  9
$USERI1
 70
     3
  9
$USERI2
 70
     1
  9
$USERI3
 70
     1
  9
$USERI4
 70
     0
  9
$USERI5
 70
     0
  9
$USERR1
 40
1.0
  9
$USERR2
 40
3.0
  9
$USERR3
 40
3.0
  9
$USERR4
 40
3.0
  9
$USERR5
 40
10.0
  9
$WORLDVIEW
 70
     1
  9
$SHADEDGE
 70
     3
  9
$SHADEDIF
 70
    70
  9
$TILEMODE
 70
     1
  9
$MAXACTVP
 70
    16
  9
$PLIMCHECK
 70
     0
  9
$PEXTMIN
 10
1.0000000000000000E+020
 20
1.0000000000000000E+020
 30
1.0000000000000000E+020
  9
$PEXTMAX
 10
-1.0000000000000000E+020
 20
-1.0000000000000000E+020
 30
-1.0000000000000000E+020
  9
$PLIMMIN
 10
0.0
 20
0.0
  9
$PLIMMAX
 10
12.0
 20
9.0
  9
$UNITMODE
 70
     0
  9
$VISRETAIN
 70
     0
  9
$PLINEGEN
 70
     0
  9
$PSLTSCALE
 70
     0
  0
ENDSEC
  0
SECTION
  2
TABLES
  0
TABLE
  2
VPORT
 70
     1
  0
VPORT
  2
*ACTIVE
 70
     0
 10
0.0
 20
0.0
 11
1.0
 21
1.0
 12
192.49412581440311
 22
149.37525922376949
 13
0.0
 23
0.0
 14
5.0
 24
5.0
 15
10.0
 25
10.0
 16
0.0
 26
0.0
 36
1.0
 17
0.0
 27
0.0
 37
0.0
 40
308.52635987286669
 41
2.304913294797688
 42
50.0
 43
0.0
 44
0.0
 50
0.0
 51
0.0
 71
     0
 72
   500
 73
     1
 74
     0
 75
     0
 76
     0
 77
     0
 78
     2
  0
ENDTAB
  0
TABLE
  2
LTYPE
 70
     4
  0
LTYPE
  2
CONTINUOUS
 70
     0
  3
Solid Line
 72
    65
 73
     0
 40
0.0
  0
LTYPE
  2
CENTER
 70
     0
  3
____ _ ____ _ ____ _ ____ _ ____ _ ____ _ ____
 72
    65
 73
     4
 40
2.0
 49
1.25
 49
-0.25
 49
0.25
 49
-0.25
  0
LTYPE
  2
HIDDEN
 70
     0
  3
_ _ _ _ _ _ _ _ _ _ _ _ _ _ _ _ _ _ _ _ _ _ _
 72
    65
 73
     2
 40
0.375
 49
0.25
 49
-0.125
  0
LTYPE
  2
PHANTOM2
 70
     0
  3
___ _ _ ___ _ _ ___ _ _ ___ _ _
 72
    65
 73
     6
 40
1.25
 49
0.625
 49
-0.125
 49
0.125
 49
-0.125
 49
0.125
 49
-0.125
  0
ENDTAB
  0
TABLE
  2
LAYER
 70
     4
  0
LAYER
  2
0
 70
     0
 62
     7
  6
CONTINUOUS
  0
LAYER
  2
1
 70
     0
 62
     1
  6
CENTER
  0
LAYER
  2
2
 70
     0
 62
     2
  6
HIDDEN
  0
LAYER
  2
3
 70
     0
 62
     3
  6
CONTINUOUS
  0
ENDTAB
  0
TABLE
  2
STYLE
 70
     2
  0
STYLE
  2
STANDARD
 70
     0
 40
0.0
 41
1.0
 50
0.0
 71
     0
 42
4.000000000000048
  3
SIMPLEX
  4
BIGFONT
  0
STYLE
  2
STANDARD1
 70
     0
 40
0.0
 41
1.0
 50
0.0
 71
     0
 42
3.0
  3
txt
  4

  0
ENDTAB
  0
TABLE
  2
VIEW
 70
     0
  0
ENDTAB
  0
TABLE
  2
UCS
 70
     0
  0
ENDTAB
  0
TABLE
  2
APPID
 70
     3
  0
APPID
  2
ACAD
 70
     0
  0
APPID
  2
ACAD_MLEADERVER
 70
     0
  0
APPID
  2
ACAD_NAV_VCDISPLAY
 70
     0
  0
ENDTAB
  0
TABLE
  2
DIMSTYLE
 70
     1
  0
DIMSTYLE
  2
STANDARD
 70
     0
  3

  4

  5

  6

  7

 40
1.0
 41
0.18
 42
0.0625
 43
0.38
 44
0.18
 45
0.0
 46
0.0
 47
0.0
 48
0.0
140
0.18
141
0.09
142
0.0
143
25.399999999999999
144
1.0
145
0.0
146
1.0
147
0.09
 71
     0
 72
     0
 73
     1
 74
     1
 75
     0
 76
     0
 77
     0
 78
     0
170
     0
171
     2
172
     0
173
     0
174
     0
175
     0
176
     0
177
     0
178
     0
  0
ENDTAB
  0
ENDSEC
  0
SECTION
  2
BLOCKS
  0
BLOCK
  8
0
  2
$MODEL_SPACE
 70
     0
 10
0.0
 20
0.0
 30
0.0
  3
$MODEL_SPACE
  1

  0
ENDBLK
  5
175
  8
0
  0
BLOCK
 67
     1
  8
0
  2
$PAPER_SPACE
 70
     0
 10
0.0
 20
0.0
 30
0.0
  3
$PAPER_SPACE
  1

  0
ENDBLK
  5
173
 67
     1
  8
0
  0
ENDSEC
  0
SECTION
  2
ENTITIES
  0
LINE
  5
B9E
  8
0
 10
76.936408411655066
 20
74.516997678686494
 30
0.0
 11
77.136408411655054
 21
74.716997678686482
 31
0.0
  0
LINE
  5
B9F
  8
0
 10
76.936408411655066
 20
74.516997678686494
 30
0.0
 11
37.33640841165505
 21
74.516997678686494
 31
0.0
  0
LINE
  5
BA0
  8
0
 10
76.936408411655066
 20
90.516997678686494
 30
0.0
 11
37.336408411654993
 21
90.51699767868655
 31
0.0
  0
LINE
  5
BA1
  8
0
 10
77.136408411654983
 20
90.316997678686505
 30
0.0
 11
77.136408411655054
 21
74.716997678686482
 31
0.0
  0
LINE
  5
BA2
  8
0
 10
76.936408411655066
 20
90.516997678686494
 30
0.0
 11
77.136408411654983
 21
90.316997678686505
 31
0.0
  0
LINE
  5
BA3
  8
0
 10
37.136408411654998
 20
90.316997678686576
 30
0.0
 11
37.136408411655047
 21
74.716997678686482
 31
0.0
  0
LINE
  5
BA4
  8
0
 10
37.136408411654998
 20
90.316997678686576
 30
0.0
 11
37.336408411654993
 21
90.51699767868655
 31
0.0
  0
LINE
  5
BA5
  8
0
 10
37.136408411655047
 20
74.716997678686482
 30
0.0
 11
37.33640841165505
 21
74.516997678686494
 31
0.0
  0
LINE
  5
BA6
  8
1
 10
57.136408411654941
 20
95.516997678686494
 30
0.0
 11
57.136408411655111
 21
69.516997678686437
 31
0.0
  0
CIRCLE
  5
BA7
  8
0
 10
232.13640841165511
 20
82.516997678686494
 30
0.0
 40
2.8670000000004729
  0
CIRCLE
  5
BA8
  8
0
 10
232.1364084116552
 20
82.516997678686437
 30
0.0
 40
2.5000000000001128
  0
LINE
  5
BA9
  8
0
 10
234.6042014116552
 20
82.116997678686516
 30
0.0
 11
229.66861641165519
 21
82.116997678686516
 31
0.0
  0
LINE
  5
BAA
  8
0
 10
234.6042014116552
 20
82.916997678686528
 30
0.0
 11
229.66861641165519
 21
82.916997678686528
 31
0.0
  0
CIRCLE
  5
BAB
  8
3
 10
232.13640841165511
 20
82.516997678686494
 30
0.0
 40
2.0669999999999988
  0
LINE
  5
BAC
  8
1
 10
227.13640841165511
 20
82.516997678686494
 30
0.0
 11
237.13640841165531
 21
82.516997678686494
 31
0.0
  0
LINE
  5
BAD
  8
1
 10
232.13640841165531
 20
95.516997678686494
 30
0.0
 11
232.13640841165511
 21
69.516997678686437
 31
0.0
  0
LINE
  5
BAE
  8
0
 10
252.1364084116552
 20
74.716997678686482
 30
0.0
 11
251.93640841165521
 21
74.516997678686494
 31
0.0
  0
LINE
  5
BAF
  8
0
 10
252.1364084116552
 20
90.316997678686576
 30
0.0
 11
251.93640841165521
 21
90.51699767868655
 31
0.0
  0
LINE
  5
BB0
  8
0
 10
252.1364084116552
 20
90.316997678686576
 30
0.0
 11
252.1364084116552
 21
74.716997678686482
 31
0.0
  0
LINE
  5
BB1
  8
0
 10
212.3364084116551
 20
90.516997678686494
 30
0.0
 11
212.1364084116552
 21
90.316997678686505
 31
0.0
  0
LINE
  5
BB2
  8
0
 10
212.1364084116552
 20
90.316997678686505
 30
0.0
 11
212.1364084116552
 21
74.716997678686482
 31
0.0
  0
LINE
  5
BB3
  8
0
 10
212.3364084116551
 20
90.516997678686494
 30
0.0
 11
251.93640841165521
 21
90.51699767868655
 31
0.0
  0
LINE
  5
BB4
  8
0
 10
212.3364084116551
 20
74.516997678686494
 30
0.0
 11
251.93640841165521
 21
74.516997678686494
 31
0.0
  0
LINE
  5
BB5
  8
0
 10
212.3364084116551
 20
74.516997678686494
 30
0.0
 11
212.1364084116552
 21
74.716997678686482
 31
0.0
  0
LINE
  5
BB6
  8
2
 10
160.63640841165511
 20
160.51699767868641
 30
0.0
 11
159.63640841165511
 21
159.51699767868641
 31
0.0
  0
LINE
  5
BB7
  8
2
 10
164.63640841165511
 20
159.51699767868641
 30
0.0
 11
163.63640841165511
 21
160.51699767868641
 31
0.0
  0
LINE
  5
BB8
  8
2
 10
163.63640841165511
 20
160.51699767868641
 30
0.0
 11
160.63640841165511
 21
160.51699767868641
 31
0.0
  0
LINE
  5
BB9
  8
2
 10
164.63640841165511
 20
159.51699767868641
 30
0.0
 11
159.63640841165511
 21
159.51699767868641
 31
0.0
  0
ARC
  5
BBA
  8
0
 10
162.13640841165511
 20
149.11699767868649
 30
0.0
 40
1.5
 50
208.2458468749127
 51
331.75415312508773
  0
LINE
  5
BBB
  8
2
 10
164.63640841165511
 20
150.16699767868641
 30
0.0
 11
159.6364084116552
 21
150.16699767868641
 31
0.0
  0
LINE
  5
BBC
  8
2
 10
160.28640841165509
 20
149.51699767868641
 30
0.0
 11
159.63640841165511
 21
150.16699767868641
 31
0.0
  0
LINE
  5
BBD
  8
2
 10
163.98640841165519
 20
149.51699767868641
 30
0.0
 11
164.63640841165511
 21
150.16699767868641
 31
0.0
  0
LINE
  5
BBE
  8
2
 10
160.28640841165509
 20
149.51699767868641
 30
0.0
 11
160.28640841165509
 21
148.51699767868629
 31
0.0
  0
LINE
  5
BBF
  8
2
 10
163.98640841165519
 20
149.51699767868641
 30
0.0
 11
163.98640841165519
 21
148.51699767868629
 31
0.0
  0
LINE
  5
BC0
  8
2
 10
163.98640841165519
 20
149.51699767868641
 30
0.0
 11
160.28640841165509
 21
149.51699767868641
 31
0.0
  0
LINE
  5
BC1
  8
2
 10
163.98640841165519
 20
148.51699767868629
 30
0.0
 11
160.28640841165509
 21
148.51699767868629
 31
0.0
  0
LINE
  5
BC2
  8
2
 10
160.06940841165499
 20
159.71699767868631
 30
0.0
 11
159.26940841165489
 21
160.51699767868629
 31
0.0
  0
LINE
  5
BC3
  8
2
 10
164.2034084116554
 20
159.7169976786864
 30
0.0
 11
160.06940841165499
 21
159.71699767868631
 31
0.0
  0
LINE
  5
BC4
  8
2
 10
165.0034084116555
 20
160.51699767868649
 30
0.0
 11
164.2034084116554
 21
159.7169976786864
 31
0.0
  0
LINE
  5
BC5
  8
2
 10
159.6364084116552
 20
160.14999767868619
 30
0.0
 11
159.63640841165531
 21
148.11633975547181
 31
0.0
  0
LINE
  5
BC6
  8
2
 10
160.06940841165499
 20
159.7169976786864
 30
0.0
 11
160.06940841165499
 21
148.24535526616901
 31
0.0
  0
LINE
  5
BC7
  8
2
 10
164.2034084116554
 20
159.7169976786864
 30
0.0
 11
164.20340841165549
 21
148.24535526616901
 31
0.0
  0
LINE
  5
BC8
  8
2
 10
164.6364084116552
 20
160.14999767868619
 30
0.0
 11
164.6364084116552
 21
148.11633975547181
 31
0.0
  0
ARC
  5
BC9
  8
2
 10
162.13640841165511
 20
149.11699767868649
 30
0.0
 40
1.5
 50
331.75415312508773
 51
336.42182199999831
  0
ARC
  5
BCA
  8
2
 10
162.13640841165531
 20
149.11699767868649
 30
0.0
 40
1.5
 50
203.57817800000171
 51
208.2458468749123
  0
ARC
  5
BCB
  8
2
 10
170.73640841165519
 20
140.51699767868649
 30
0.0
 40
1.5
 50
113.5781779999995
 51
118.24584687491379
  0
ARC
  5
BCC
  8
2
 10
170.73640841165519
 20
140.51699767868661
 30
0.0
 40
1.5
 50
241.75415312508611
 51
246.4218220000005
  0
LINE
  5
BCD
  8
2
 10
181.76940841165489
 20
138.01699767868661
 30
0.0
 11
169.73575048844049
 21
138.01699767868661
 31
0.0
  0
LINE
  5
BCE
  8
2
 10
181.3364084116551
 20
138.44999767868629
 30
0.0
 11
169.86476599913769
 21
138.4499976786862
 31
0.0
  0
LINE
  5
BCF
  8
2
 10
181.3364084116551
 20
142.58399767868681
 30
0.0
 11
169.86476599913769
 21
142.5839976786867
 31
0.0
  0
LINE
  5
BD0
  8
2
 10
181.76940841165489
 20
143.01699767868661
 30
0.0
 11
169.73575048844049
 21
143.01699767868649
 31
0.0
  0
LINE
  5
BD1
  8
2
 10
182.1364084116552
 20
137.6499976786863
 30
0.0
 11
181.3364084116551
 21
138.44999767868629
 31
0.0
  0
LINE
  5
BD2
  8
2
 10
181.3364084116551
 20
138.44999767868629
 30
0.0
 11
181.33640841165499
 21
142.5839976786867
 31
0.0
  0
LINE
  5
BD3
  8
2
 10
181.33640841165499
 20
142.5839976786867
 30
0.0
 11
182.136408411655
 21
143.3839976786868
 31
0.0
  0
LINE
  5
BD4
  8
2
 10
170.1364084116552
 20
138.6669976786865
 30
0.0
 11
170.1364084116552
 21
142.3669976786866
 31
0.0
  0
LINE
  5
BD5
  8
2
 10
171.13640841165511
 20
138.6669976786865
 30
0.0
 11
171.13640841165511
 21
142.3669976786866
 31
0.0
  0
LINE
  5
BD6
  8
2
 10
171.13640841165511
 20
138.6669976786865
 30
0.0
 11
170.1364084116552
 21
138.6669976786865
 31
0.0
  0
LINE
  5
BD7
  8
2
 10
171.13640841165511
 20
142.3669976786866
 30
0.0
 11
170.1364084116552
 21
142.3669976786866
 31
0.0
  0
LINE
  5
BD8
  8
2
 10
171.13640841165511
 20
138.6669976786865
 30
0.0
 11
171.78640841165509
 21
138.01699767868661
 31
0.0
  0
LINE
  5
BD9
  8
2
 10
171.13640841165511
 20
142.3669976786866
 30
0.0
 11
171.78640841165509
 21
143.01699767868661
 31
0.0
  0
LINE
  5
BDA
  8
2
 10
171.78640841165509
 20
138.01699767868661
 30
0.0
 11
171.78640841165509
 21
143.01699767868661
 31
0.0
  0
ARC
  5
BDB
  8
0
 10
170.73640841165519
 20
140.51699767868661
 30
0.0
 40
1.5
 50
118.24584687491451
 51
241.75415312508611
  0
LINE
  5
BDC
  8
2
 10
181.13640841165511
 20
138.01699767868661
 30
0.0
 11
181.13640841165511
 21
143.01699767868661
 31
0.0
  0
LINE
  5
BDD
  8
2
 10
182.13640841165511
 20
139.01699767868661
 30
0.0
 11
182.13640841165511
 21
142.01699767868661
 31
0.0
  0
LINE
  5
BDE
  8
2
 10
181.13640841165511
 20
138.01699767868661
 30
0.0
 11
182.13640841165511
 21
139.01699767868661
 31
0.0
  0
LINE
  5
BDF
  8
2
 10
182.13640841165511
 20
142.01699767868661
 30
0.0
 11
181.13640841165511
 21
143.01699767868661
 31
0.0
  0
LINE
  5
BE0
  8
2
 10
147.13640841165531
 20
80.51699767868655
 30
0.0
 11
156.67812550623839
 21
80.51699767868655
 31
0.0
  0
LINE
  5
BE1
  8
2
 10
147.13640841165531
 20
80.516997678686593
 30
0.0
 11
147.1364084116552
 21
74.516997678686593
 31
0.0
  0
LINE
  5
BE2
  8
2
 10
149.17328170832451
 20
80.516997678686664
 30
0.0
 11
149.17328170832451
 21
74.516997678686593
 31
0.0
  0
LINE
  5
BE3
  8
2
 10
152.67705184641329
 20
80.516997678686664
 30
0.0
 11
152.67705184641321
 21
74.516997678686593
 31
0.0
  0
LINE
  5
BE4
  8
2
 10
156.6781255062385
 20
80.516997678686593
 30
0.0
 11
156.6781255062385
 21
74.516997678686664
 31
0.0
  0
LINE
  5
BE5
  8
2
 10
156.6781256392035
 20
134.66831007089161
 30
0.0
 11
152.67705184641321
 21
132.11934482972839
 31
0.0
  0
ARC
  5
BE6
  8
2
 10
151.33380282554609
 20
134.22782344426071
 30
0.0
 40
2.5000000000000111
 50
210.2075572240461
 51
302.5
  0
ARC
  5
BE7
  8
2
 10
162.13640841165511
 20
140.51699767868661
 30
0.0
 40
15.0
 50
149.7924427759539
 51
210.2075572240461
  0
ARC
  5
BE8
  8
2
 10
151.33380282554609
 20
146.80617191311251
 30
0.0
 40
2.5000000000000111
 50
57.5
 51
149.7924427759539
  0
LINE
  5
BE9
  8
2
 10
152.67705184641321
 20
148.91465052764471
 30
0.0
 11
156.6781256392035
 21
146.36568528648161
 31
0.0
  0
LINE
  5
BEA
  8
2
 10
182.13640841165511
 20
84.016997678686536
 30
0.0
 11
181.13640841165511
 21
85.016997678686565
 31
0.0
  0
LINE
  5
BEB
  8
2
 10
181.13640841165511
 20
80.016997678686565
 30
0.0
 11
182.13640841165511
 21
81.01699767868655
 31
0.0
  0
LINE
  5
BEC
  8
2
 10
182.13640841165511
 20
81.01699767868655
 30
0.0
 11
182.13640841165511
 21
84.016997678686536
 31
0.0
  0
LINE
  5
BED
  8
2
 10
181.13640841165511
 20
80.016997678686565
 30
0.0
 11
181.13640841165511
 21
85.016997678686565
 31
0.0
  0
ARC
  5
BEE
  8
2
 10
170.73640841165519
 20
82.516997678686565
 30
0.0
 40
1.5
 50
113.5781779999995
 51
246.4218220000005
  0
LINE
  5
BEF
  8
2
 10
171.78640841165509
 20
80.016997678686565
 30
0.0
 11
171.78640841165509
 21
85.016997678686494
 31
0.0
  0
LINE
  5
BF0
  8
2
 10
171.13640841165511
 20
84.366997678686573
 30
0.0
 11
171.78640841165509
 21
85.016997678686565
 31
0.0
  0
LINE
  5
BF1
  8
2
 10
171.13640841165511
 20
80.666997678686528
 30
0.0
 11
171.78640841165509
 21
80.016997678686565
 31
0.0
  0
LINE
  5
BF2
  8
2
 10
171.13640841165511
 20
84.366997678686573
 30
0.0
 11
170.1364084116552
 21
84.366997678686573
 31
0.0
  0
LINE
  5
BF3
  8
2
 10
171.13640841165511
 20
80.666997678686528
 30
0.0
 11
170.1364084116552
 21
80.666997678686528
 31
0.0
  0
LINE
  5
BF4
  8
2
 10
171.13640841165511
 20
80.666997678686528
 30
0.0
 11
171.13640841165511
 21
84.366997678686573
 31
0.0
  0
LINE
  5
BF5
  8
2
 10
170.1364084116552
 20
80.666997678686528
 30
0.0
 11
170.1364084116552
 21
84.366997678686573
 31
0.0
  0
LINE
  5
BF6
  8
2
 10
181.33640841165499
 20
84.583997678686686
 30
0.0
 11
182.136408411655
 21
85.383997678686796
 31
0.0
  0
LINE
  5
BF7
  8
2
 10
181.3364084116551
 20
80.449997678686259
 30
0.0
 11
181.33640841165499
 21
84.583997678686686
 31
0.0
  0
LINE
  5
BF8
  8
2
 10
182.1364084116552
 20
79.649997678686248
 30
0.0
 11
181.3364084116551
 21
80.449997678686259
 31
0.0
  0
LINE
  5
BF9
  8
2
 10
181.76940841165489
 20
85.016997678686494
 30
0.0
 11
170.13640841165511
 21
85.016997678686437
 31
0.0
  0
LINE
  5
BFA
  8
2
 10
181.3364084116551
 20
84.583997678686728
 30
0.0
 11
170.13640841165511
 21
84.583997678686728
 31
0.0
  0
LINE
  5
BFB
  8
2
 10
181.3364084116551
 20
80.449997678686259
 30
0.0
 11
170.136408411655
 21
80.449997678686259
 31
0.0
  0
LINE
  5
BFC
  8
2
 10
181.76940841165489
 20
80.016997678686494
 30
0.0
 11
170.136408411655
 21
80.016997678686494
 31
0.0
  0
CIRCLE
  5
BFD
  8
0
 10
162.13640841165511
 20
140.51699767868661
 30
0.0
 40
9.0
  0
CIRCLE
  5
BFE
  8
0
 10
162.13640841165511
 20
140.51699767868661
 30
0.0
 40
8.0
  0
LINE
  5
BFF
  8
1
 10
166.73640841165519
 20
82.516997678686565
 30
0.0
 11
184.63640841165511
 21
82.516997678686565
 31
0.0
  0
LINE
  5
C00
  8
2
 10
170.1364084116552
 20
75.016997678686607
 30
0.0
 11
170.63640841165511
 21
74.516997678686593
 31
0.0
  0
LINE
  5
C01
  8
2
 10
156.6781255062385
 20
75.016997678686664
 30
0.0
 11
170.13640841165511
 21
75.016997678686607
 31
0.0
  0
LINE
  5
C02
  8
2
 10
154.1364084116552
 20
89.51699767868655
 30
0.0
 11
153.1364084116552
 21
90.516997678686593
 31
0.0
  0
LINE
  5
C03
  8
2
 10
171.1364084116552
 20
90.516997678686664
 30
0.0
 11
170.1364084116552
 21
89.51699767868655
 31
0.0
  0
LINE
  5
C04
  8
2
 10
154.1364084116552
 20
89.51699767868655
 30
0.0
 11
170.1364084116552
 21
89.51699767868655
 31
0.0
  0
LINE
  5
C05
  8
2
 10
154.1364084116552
 20
89.51699767868655
 30
0.0
 11
154.13640841165511
 21
80.51699767868655
 31
0.0
  0
LINE
  5
C06
  8
2
 10
170.1364084116552
 20
89.51699767868655
 30
0.0
 11
170.13640841165511
 21
75.01699767868655
 31
0.0
  0
LINE
  5
C07
  8
1
 10
162.13640841165531
 20
95.516997678686664
 30
0.0
 11
162.13640841165511
 21
69.516997678686593
 31
0.0
  0
LINE
  5
C08
  8
1
 10
162.1364084116552
 20
163.01699767868641
 30
0.0
 11
162.13640841165511
 21
126.51699767868649
 31
0.0
  0
LINE
  5
C09
  8
0
 10
107.3364084116551
 20
74.516997678686593
 30
0.0
 11
107.1364084116551
 21
74.716997678686596
 31
0.0
  0
LINE
  5
C0A
  8
0
 10
182.13640841165511
 20
74.716997678686596
 30
0.0
 11
181.93640841165521
 21
74.516997678686593
 31
0.0
  0
LINE
  5
C0B
  8
0
 10
107.3364084116551
 20
74.516997678686593
 30
0.0
 11
182.13640841165511
 21
74.516997678686593
 31
0.0
  0
LINE
  5
C0C
  8
0
 10
107.3364084116551
 20
90.516997678686593
 30
0.0
 11
181.93640841165521
 21
90.516997678686664
 31
0.0
  0
LINE
  5
C0D
  8
0
 10
182.1364084116552
 20
90.316997678686675
 30
0.0
 11
182.13640841165511
 21
74.716997678686596
 31
0.0
  0
LINE
  5
C0E
  8
0
 10
107.1364084116552
 20
90.316997678686619
 30
0.0
 11
107.1364084116551
 21
74.716997678686596
 31
0.0
  0
LINE
  5
C0F
  8
0
 10
181.93640841165521
 20
90.516997678686664
 30
0.0
 11
182.1364084116552
 21
90.316997678686675
 31
0.0
  0
LINE
  5
C10
  8
0
 10
107.3364084116551
 20
90.516997678686593
 30
0.0
 11
107.1364084116552
 21
90.316997678686619
 31
0.0
  0
LINE
  5
C11
  8
1
 10
102.1364084116551
 20
140.51699767868649
 30
0.0
 11
187.13640841165531
 21
140.51699767868661
 31
0.0
  0
LINE
  5
C12
  8
0
 10
181.93640841165521
 20
120.51699767868659
 30
0.0
 11
182.13640841165511
 21
120.7169976786866
 31
0.0
  0
LINE
  5
C13
  8
0
 10
107.1364084116551
 20
120.7169976786865
 30
0.0
 11
107.3364084116551
 21
120.51699767868649
 31
0.0
  0
LINE
  5
C14
  8
0
 10
107.3364084116551
 20
160.51699767868649
 30
0.0
 11
107.1364084116551
 21
160.3169976786865
 31
0.0
  0
LINE
  5
C15
  8
0
 10
181.93640841165521
 20
160.51699767868661
 30
0.0
 11
182.13640841165511
 21
160.3169976786865
 31
0.0
  0
LINE
  5
C16
  8
0
 10
107.1364084116551
 20
160.3169976786865
 30
0.0
 11
107.1364084116551
 21
120.7169976786865
 31
0.0
  0
LINE
  5
C17
  8
0
 10
107.3364084116551
 20
120.51699767868649
 30
0.0
 11
181.93640841165521
 21
120.51699767868659
 31
0.0
  0
LINE
  5
C18
  8
0
 10
182.13640841165511
 20
160.3169976786865
 30
0.0
 11
182.13640841165511
 21
120.7169976786866
 31
0.0
  0
LINE
  5
C19
  8
0
 10
107.3364084116551
 20
160.51699767868649
 30
0.0
 11
181.93640841165521
 21
160.51699767868661
 31
0.0
  0
TEXT
  5
CC1
  8
0
 62
     3
 10
0.0
 20
0.0
 30
0.0
 40
10.0
  1
QLSW200-SH
  7
STANDARD1
  0
ENDSEC
  0
EOF
