  0
SECTION
  2
HEADER
  9
$ACADVER
  1
AC1009
  9
$INSBASE
 10
0.0
 20
0.0
 30
0.0
  9
$EXTMIN
 10
0.0
 20
-2.960436562073669
 30
0.0
  9
$EXTMAX
 10
253.15628419855631
 20
111.9656603781317
 30
0.0
  9
$LIMMIN
 10
0.0
 20
0.0
  9
$LIMMAX
 10
0.0
 20
0.0
  9
$ORTHOMODE
 70
     0
  9
$REGENMODE
 70
     1
  9
$FILLMODE
 70
     1
  9
$QTEXTMODE
 70
     0
  9
$MIRRTEXT
 70
     0
  9
$DRAGMODE
 70
     2
  9
$LTSCALE
 40
1.0
  9
$OSMODE
 70
    37
  9
$ATTMODE
 70
     1
  9
$TEXTSIZE
 40
0.0
  9
$TRACEWID
 40
0.05
  9
$TEXTSTYLE
  7
STANDARD
  9
$CLAYER
  8
1
  9
$CELTYPE
  6
BYLAYER
  9
$CECOLOR
 62
   256
  9
$DIMSCALE
 40
1.0
  9
$DIMASZ
 40
6.0
  9
$DIMEXO
 40
1.0
  9
$DIMDLI
 40
0.38
  9
$DIMRND
 40
0.0
  9
$DIMDLE
 40
1.0
  9
$DIMEXE
 40
0.18
  9
$DIMTP
 40
0.0
  9
$DIMTM
 40
0.0
  9
$DIMTXT
 40
3.5
  9
$DIMCEN
 40
0.09
  9
$DIMTSZ
 40
0.0
  9
$DIMTOL
 70
     0
  9
$DIMLIM
 70
     0
  9
$DIMTIH
 70
     1
  9
$DIMTOH
 70
     1
  9
$DIMSE1
 70
     0
  9
$DIMSE2
 70
     0
  9
$DIMTAD
 70
     1
  9
$DIMZIN
 70
     0
  9
$DIMBLK
  1

  9
$DIMASO
 70
     1
  9
$DIMSHO
 70
     1
  9
$DIMPOST
  1

  9
$DIMAPOST
  1

  9
$DIMALT
 70
     0
  9
$DIMALTD
 70
     2
  9
$DIMALTF
 40
0.0394
  9
$DIMLFAC
 40
2.0
  9
$DIMTOFL
 70
     0
  9
$DIMTVP
 40
0.0
  9
$DIMTIX
 70
     0
  9
$DIMSOXD
 70
     0
  9
$DIMSAH
 70
     0
  9
$DIMBLK1
  1

  9
$DIMBLK2
  1

  9
$DIMSTYLE
  2
STANDARD
  9
$DIMCLRD
 70
     0
  9
$DIMCLRE
 70
     0
  9
$DIMCLRT
 70
     0
  9
$DIMTFAC
 40
1.0
  9
$DIMGAP
 40
1.0
  9
$LUNITS
 70
     2
  9
$LUPREC
 70
     2
  9
$SKETCHINC
 40
0.1
  9
$FILLETRAD
 40
0.0
  9
$AUNITS
 70
     0
  9
$AUPREC
 70
     2
  9
$MENU
  1
acad
  9
$ELEVATION
 40
0.0
  9
$PELEVATION
 40
0.0
  9
$THICKNESS
 40
0.0
  9
$LIMCHECK
 70
     0
  9
$BLIPMODE
 70
     0
  9
$CHAMFERA
 40
0.0
  9
$CHAMFERB
 40
0.0
  9
$SKPOLY
 70
     0
  9
$TDCREATE
 40
2444972.375
  9
$TDUPDATE
 40
2456598.7270961921
  9
$TDINDWG
 40
0.0288040856
  9
$TDUSRTIMER
 40
2456598.1776552899
  9
$USRTIMER
 70
     1
  9
$ANGBASE
 50
0.0
  9
$ANGDIR
 70
     0
  9
$PDMODE
 70
     0
  9
$PDSIZE
 40
-1.0
  9
$PLINEWID
 40
0.0
  9
$COORDS
 70
     1
  9
$SPLFRAME
 70
     0
  9
$SPLINETYPE
 70
     6
  9
$SPLINESEGS
 70
     8
  9
$ATTDIA
 70
     0
  9
$ATTREQ
 70
     1
  9
$HANDLING
 70
     1
  9
$HANDSEED
  5
302
  9
$SURFTAB1
 70
     6
  9
$SURFTAB2
 70
     6
  9
$SURFTYPE
 70
     6
  9
$SURFU
 70
     6
  9
$SURFV
 70
     6
  9
$UCSNAME
  2

  9
$UCSORG
 10
0.0
 20
0.0
 30
0.0
  9
$UCSXDIR
 10
1.0
 20
0.0
 30
0.0
  9
$UCSYDIR
 10
0.0
 20
1.0
 30
0.0
  9
$PUCSNAME
  2

  9
$PUCSORG
 10
0.0
 20
0.0
 30
0.0
  9
$PUCSXDIR
 10
1.0
 20
0.0
 30
0.0
  9
$PUCSYDIR
 10
0.0
 20
1.0
 30
0.0
  9
$USERI1
 70
     0
  9
$USERI2
 70
     1
  9
$USERI3
 70
     0
  9
$USERI4
 70
     0
  9
$USERI5
 70
     0
  9
$USERR1
 40
0.0
  9
$USERR2
 40
0.0
  9
$USERR3
 40
0.0
  9
$USERR4
 40
0.0
  9
$USERR5
 40
0.0
  9
$WORLDVIEW
 70
     1
  9
$SHADEDGE
 70
     3
  9
$SHADEDIF
 70
    70
  9
$TILEMODE
 70
     1
  9
$MAXACTVP
 70
    16
  9
$PLIMCHECK
 70
     0
  9
$PEXTMIN
 10
1.0000000000000000E+020
 20
1.0000000000000000E+020
 30
1.0000000000000000E+020
  9
$PEXTMAX
 10
-1.0000000000000000E+020
 20
-1.0000000000000000E+020
 30
-1.0000000000000000E+020
  9
$PLIMMIN
 10
0.0
 20
0.0
  9
$PLIMMAX
 10
12.0
 20
9.0
  9
$UNITMODE
 70
     0
  9
$VISRETAIN
 70
     0
  9
$PLINEGEN
 70
     1
  9
$PSLTSCALE
 70
     1
  0
ENDSEC
  0
SECTION
  2
TABLES
  0
TABLE
  2
VPORT
 70
     1
  0
VPORT
  2
*ACTIVE
 70
     0
 10
0.0
 20
0.0
 11
1.0
 21
1.0
 12
237.15932715044531
 22
55.592830189065872
 13
0.0
 23
0.0
 14
1.0
 24
1.0
 15
0.0
 25
0.0
 16
0.0
 26
0.0
 36
1.0
 17
0.0
 27
0.0
 37
0.0
 40
272.42342046946311
 41
1.755244755244755
 42
50.0
 43
0.0
 44
0.0
 50
0.0
 51
0.0
 71
    16
 72
  2000
 73
     1
 74
     0
 75
     0
 76
     0
 77
     0
 78
     0
  0
ENDTAB
  0
TABLE
  2
LTYPE
 70
     3
  0
LTYPE
  2
CONTINUOUS
 70
     0
  3
Solid Line
 72
    65
 73
     0
 40
0.0
  0
LTYPE
  2
CENTERX2
 70
     0
  3
Center (2x) ________  __  ________  __  _____
 72
    65
 73
     4
 40
20.32
 49
12.699999999999999
 49
-2.54
 49
2.54
 49
-2.54
  0
LTYPE
  2
PHANTOM2
 70
     0
  3
___ _ _ ___ _ _ ___ _ _ ___ _ _
 72
    65
 73
     6
 40
1.25
 49
0.625
 49
-0.125
 49
0.125
 49
-0.125
 49
0.125
 49
-0.125
  0
ENDTAB
  0
TABLE
  2
LAYER
 70
     3
  0
LAYER
  2
0
 70
     0
 62
     7
  6
CONTINUOUS
  0
LAYER
  2
DEFPOINTS
 70
     0
 62
     7
  6
CONTINUOUS
  0
LAYER
  2
1
 70
     0
 62
     1
  6
CENTERX2
  0
ENDTAB
  0
TABLE
  2
STYLE
 70
     2
  0
STYLE
  2
STANDARD
 70
     0
 40
0.0
 41
1.0
 50
0.0
 71
     0
 42
0.0
  3
txt
  4
bigfont
  0
STYLE
  2
STANDARD1
 70
     0
 40
0.0
 41
1.0
 50
0.0
 71
     0
 42
3.0
  3
txt
  4

  0
ENDTAB
  0
TABLE
  2
VIEW
 70
     0
  0
ENDTAB
  0
TABLE
  2
UCS
 70
     0
  0
ENDTAB
  0
TABLE
  2
APPID
 70
     3
  0
APPID
  2
ACAD
 70
     0
  0
APPID
  2
ACAD_MLEADERVER
 70
     0
  0
APPID
  2
ACAD_NAV_VCDISPLAY
 70
     0
  0
ENDTAB
  0
TABLE
  2
DIMSTYLE
 70
     1
  0
DIMSTYLE
  2
STANDARD
 70
     0
  3

  4

  5

  6

  7

 40
1.0
 41
0.18
 42
0.0625
 43
0.38
 44
0.18
 45
0.0
 46
0.0
 47
0.0
 48
0.0
140
0.18
141
0.09
142
0.0
143
25.399999999999999
144
1.0
145
0.0
146
1.0
147
0.09
 71
     0
 72
     0
 73
     1
 74
     1
 75
     0
 76
     0
 77
     0
 78
     0
170
     0
171
     2
172
     0
173
     0
174
     0
175
     0
176
     0
177
     0
178
     0
  0
ENDTAB
  0
ENDSEC
  0
SECTION
  2
BLOCKS
  0
BLOCK
  8
0
  2
$MODEL_SPACE
 70
     0
 10
0.0
 20
0.0
 30
0.0
  3
$MODEL_SPACE
  1

  0
ENDBLK
  5
E
  8
0
  0
BLOCK
 67
     1
  8
0
  2
$PAPER_SPACE
 70
     0
 10
0.0
 20
0.0
 30
0.0
  3
$PAPER_SPACE
  1

  0
ENDBLK
  5
10
 67
     1
  8
0
  0
ENDSEC
  0
SECTION
  2
ENTITIES
  0
LINE
  5
27
  8
0
 10
237.8574938051942
 20
44.168155236727813
 30
0.0
 11
238.53192854557429
 21
43.000000000000028
 31
0.0
  0
LINE
  5
28
  8
0
 10
238.53192854557429
 20
43.000000000000028
 30
0.0
 11
239.88079802633439
 21
43.000000000000028
 31
0.0
  0
LINE
  5
29
  8
0
 10
235.16491140162691
 20
51.168155236727813
 30
0.0
 11
234.49047666124679
 21
50.0
 31
0.0
  0
LINE
  5
2A
  8
0
 10
234.49047666124679
 20
50.0
 30
0.0
 11
235.16491140162691
 21
48.831844763272223
 31
0.0
  0
LINE
  5
2B
  8
0
 10
245.2659628334689
 20
43.000000000000028
 30
0.0
 11
246.61483231422901
 21
43.000000000000028
 31
0.0
  0
LINE
  5
2C
  8
0
 10
246.61483231422901
 20
43.000000000000028
 30
0.0
 11
247.2892670546091
 21
44.168155236727813
 31
0.0
  0
LINE
  5
2D
  8
0
 10
247.2892670546091
 20
55.83184476327218
 30
0.0
 11
246.61483231422901
 21
57.0
 31
0.0
  0
LINE
  5
2E
  8
0
 10
246.61483231422901
 20
57.0
 30
0.0
 11
245.26596283346879
 21
57.0
 31
0.0
  0
LINE
  5
2F
  8
0
 10
250.65628419855639
 20
50.000000000000028
 30
0.0
 11
249.9818494581763
 21
51.168155236727813
 31
0.0
  0
LINE
  5
30
  8
0
 10
249.9818494581763
 20
48.831844763272223
 30
0.0
 11
250.65628419855639
 21
50.000000000000028
 31
0.0
  0
LINE
  5
31
  8
0
 10
238.53192854557429
 20
57.0
 30
0.0
 11
237.8574938051942
 21
55.83184476327218
 31
0.0
  0
LINE
  5
32
  8
0
 10
239.8807980263343
 20
57.0
 30
0.0
 11
238.53192854557429
 21
57.0
 31
0.0
  0
CIRCLE
  5
33
  8
0
 10
242.57338042990159
 20
50.0
 30
0.0
 40
7.4999999999999707
  0
LINE
  5
34
  8
0
 10
108.49152193936069
 20
96.382756609476957
 30
0.0
 11
126.49152193936069
 21
96.382756609477013
 31
0.0
  0
LINE
  5
35
  8
0
 10
126.4915219393606
 20
111.382756609477
 30
0.0
 11
108.4915219393606
 21
111.382756609477
 31
0.0
  0
LINE
  5
36
  8
0
 10
96.57442570801544
 20
111.9656603781316
 30
0.0
 11
93.491521939360666
 21
108.8827566094769
 31
0.0
  0
LINE
  5
37
  8
0
 10
93.491521939360723
 20
98.882756609476914
 30
0.0
 11
96.574425708015497
 21
95.799852840822155
 31
0.0
  0
LINE
  5
38
  8
0
 10
85.491521939360666
 20
98.882756609476871
 30
0.0
 11
93.491521939360723
 21
98.882756609476914
 31
0.0
  0
LINE
  5
39
  8
0
 10
93.491521939360666
 20
108.8827566094769
 30
0.0
 11
85.491521939360609
 21
108.8827566094769
 31
0.0
  0
LINE
  5
3A
  8
0
 10
127.7113945521175
 20
110.16288399672
 30
0.0
 11
126.4915219393606
 21
111.382756609477
 31
0.0
  0
LINE
  5
3B
  8
0
 10
126.49152193936069
 20
96.382756609477013
 30
0.0
 11
127.7113945521176
 21
97.602629222233986
 31
0.0
  0
LINE
  5
3C
  8
0
 10
85.491521939360609
 20
106.8827566094769
 30
0.0
 11
78.991521939360595
 21
106.8827566094769
 31
0.0
  0
LINE
  5
3D
  8
0
 10
78.991521939360666
 20
100.8827566094768
 30
0.0
 11
85.491521939360666
 21
100.8827566094768
 31
0.0
  0
LINE
  5
3E
  8
0
 10
129.99152193936069
 20
96.382756609477056
 30
0.0
 11
204.49152193936069
 21
96.382756609477298
 31
0.0
  0
LINE
  5
3F
  8
0
 10
204.49152193936069
 20
111.3827566094773
 30
0.0
 11
129.99152193936061
 21
111.382756609477
 31
0.0
  0
LINE
  5
40
  8
0
 10
126.4915219393606
 20
110.16288399672
 30
0.0
 11
126.4915219393606
 21
111.382756609477
 31
0.0
  0
LINE
  5
41
  8
0
 10
113.9915219393606
 20
110.16288399672
 30
0.0
 11
126.4915219393606
 21
110.16288399672
 31
0.0
  0
LINE
  5
42
  8
0
 10
113.99152193936069
 20
103.882756609477
 30
0.0
 11
113.9915219393606
 21
110.16288399672
 31
0.0
  0
LINE
  5
43
  8
0
 10
113.99152193936069
 20
103.882756609477
 30
0.0
 11
112.3087668775843
 21
97.602629222233929
 31
0.0
  0
LINE
  5
44
  8
0
 10
126.49152193936069
 20
97.602629222233986
 30
0.0
 11
112.3087668775843
 21
97.602629222233972
 31
0.0
  0
LINE
  5
45
  8
0
 10
126.49152193936069
 20
96.382756609477013
 30
0.0
 11
126.49152193936069
 21
97.602629222233986
 31
0.0
  0
LINE
  5
46
  8
0
 10
108.4915219393606
 20
108.59864323418439
 30
0.0
 11
108.4915219393606
 21
111.29122563775159
 31
0.0
  0
LINE
  5
47
  8
0
 10
108.49152193936069
 20
96.474287581202248
 30
0.0
 11
108.49152193936069
 21
99.166869984769505
 31
0.0
  0
LINE
  5
48
  8
0
 10
108.49152193936069
 20
101.1901742059097
 30
0.0
 11
108.4915219393606
 21
106.5753390130442
 31
0.0
  0
POLYLINE
  5
49
  8
0
 66
     1
 10
0.0
 20
0.0
 30
0.0
 70
   128
  0
VERTEX
  5
289
  8
0
 10
96.57442570801544
 20
111.9656603781316
 30
0.0
  0
VERTEX
  5
28A
  8
0
 10
95.877612813887495
 20
111.12331663274971
 30
0.0
  0
VERTEX
  5
28B
  8
0
 10
95.639110955734495
 20
110.6662771914374
 30
0.0
  0
VERTEX
  5
28C
  8
0
 10
95.509896762595304
 20
110.19869867665879
 30
0.0
  0
VERTEX
  5
28D
  8
0
 10
95.535733017813868
 20
109.5509453124498
 30
0.0
  0
VERTEX
  5
28E
  8
0
 10
95.799944246978853
 20
108.89457299502359
 30
0.0
  0
VERTEX
  5
28F
  8
0
 10
96.574425708015497
 20
107.9242084938043
 30
0.0
  0
SEQEND
  5
290
  8
0
  0
POLYLINE
  5
52
  8
0
 66
     1
 10
0.0
 20
0.0
 30
0.0
 70
   128
  0
VERTEX
  5
291
  8
0
 10
96.574425708015497
 20
107.9242084938043
 30
0.0
  0
VERTEX
  5
292
  8
0
 10
95.988339873327106
 20
106.5664628406133
 30
0.0
  0
VERTEX
  5
293
  8
0
 10
95.629991033463426
 20
105.2718213412648
 30
0.0
  0
VERTEX
  5
294
  8
0
 10
95.491740518200587
 20
103.93807524589241
 30
0.0
  0
VERTEX
  5
295
  8
0
 10
95.617191130435032
 20
102.5629711669124
 30
0.0
  0
VERTEX
  5
296
  8
0
 10
95.978220826315365
 20
101.2274486755587
 30
0.0
  0
VERTEX
  5
297
  8
0
 10
96.574425708015497
 20
99.841304725149556
 30
0.0
  0
SEQEND
  5
298
  8
0
  0
POLYLINE
  5
5B
  8
0
 66
     1
 10
0.0
 20
0.0
 30
0.0
 70
   128
  0
VERTEX
  5
299
  8
0
 10
96.574425708015497
 20
99.841304725149556
 30
0.0
  0
VERTEX
  5
29A
  8
0
 10
95.877612813887566
 20
98.998960979767574
 30
0.0
  0
VERTEX
  5
29B
  8
0
 10
95.639110955734566
 20
98.541921538455284
 30
0.0
  0
VERTEX
  5
29C
  8
0
 10
95.509896762595361
 20
98.074343023676676
 30
0.0
  0
VERTEX
  5
29D
  8
0
 10
95.535733017813897
 20
97.426589659467709
 30
0.0
  0
VERTEX
  5
29E
  8
0
 10
95.799944246978896
 20
96.770217342041462
 30
0.0
  0
VERTEX
  5
29F
  8
0
 10
96.574425708015497
 20
95.799852840822155
 30
0.0
  0
SEQEND
  5
2A0
  8
0
  0
LINE
  5
64
  8
0
 10
93.491521939360723
 20
103.8827566094769
 30
0.0
 11
93.491521939360666
 21
108.8827566094769
 31
0.0
  0
LINE
  5
65
  8
0
 10
93.491521939360723
 20
98.882756609476914
 30
0.0
 11
93.491521939360723
 21
103.8827566094769
 31
0.0
  0
LINE
  5
66
  8
0
 10
108.4915219393606
 20
111.9656603781317
 30
0.0
 11
108.4915219393606
 21
111.29122563775159
 31
0.0
  0
LINE
  5
67
  8
0
 10
108.4915219393606
 20
108.59864323418439
 30
0.0
 11
108.4915219393606
 21
107.9242084938043
 31
0.0
  0
LINE
  5
68
  8
0
 10
108.4915219393606
 20
107.9242084938043
 30
0.0
 11
96.574425708015497
 21
107.9242084938043
 31
0.0
  0
LINE
  5
69
  8
0
 10
108.4915219393606
 20
111.9656603781317
 30
0.0
 11
96.57442570801544
 21
111.9656603781316
 31
0.0
  0
LINE
  5
6A
  8
0
 10
108.4915219393606
 20
107.9242084938043
 30
0.0
 11
108.4915219393606
 21
106.5753390130442
 31
0.0
  0
LINE
  5
6B
  8
0
 10
108.49152193936069
 20
101.1901742059097
 30
0.0
 11
108.49152193936069
 21
99.84130472514957
 31
0.0
  0
LINE
  5
6C
  8
0
 10
108.49152193936069
 20
99.84130472514957
 30
0.0
 11
96.574425708015497
 21
99.841304725149556
 31
0.0
  0
LINE
  5
6D
  8
0
 10
108.49152193936069
 20
99.84130472514957
 30
0.0
 11
108.49152193936069
 21
99.166869984769505
 31
0.0
  0
LINE
  5
6E
  8
0
 10
108.49152193936069
 20
96.474287581202248
 30
0.0
 11
108.49152193936069
 21
95.799852840822211
 31
0.0
  0
LINE
  5
6F
  8
0
 10
108.49152193936069
 20
95.799852840822211
 30
0.0
 11
96.574425708015497
 21
95.799852840822155
 31
0.0
  0
LINE
  5
70
  8
0
 10
85.491521939360609
 20
108.8827566094769
 30
0.0
 11
85.491521939360666
 21
98.882756609476871
 31
0.0
  0
LINE
  5
71
  8
0
 10
78.991521939360666
 20
100.8827566094768
 30
0.0
 11
78.991521939360595
 21
106.8827566094769
 31
0.0
  0
LINE
  5
72
  8
0
 10
129.99152193936069
 20
97.602629222234015
 30
0.0
 11
129.99152193936069
 21
96.382756609477056
 31
0.0
  0
LINE
  5
73
  8
0
 10
114.49152193936069
 20
97.602629222233972
 30
0.0
 11
129.99152193936069
 21
97.602629222234015
 31
0.0
  0
LINE
  5
74
  8
0
 10
129.99152193936061
 20
110.16288399672
 30
0.0
 11
114.4915219393606
 21
110.16288399672
 31
0.0
  0
LINE
  5
75
  8
0
 10
129.99152193936061
 20
111.382756609477
 30
0.0
 11
129.99152193936061
 21
110.16288399672
 31
0.0
  0
LINE
  5
76
  8
0
 10
204.49152193936069
 20
111.3827566094773
 30
0.0
 11
204.49152193936069
 21
96.382756609477298
 31
0.0
  0
LINE
  5
78
  8
0
 10
114.4915219393606
 20
110.16288399672
 30
0.0
 11
114.49152193936069
 21
97.602629222233972
 31
0.0
  0
LINE
  5
79
  8
0
 10
95.491521939360709
 20
57.0
 30
0.0
 11
93.491521939360723
 21
55.0
 31
0.0
  0
LINE
  5
7A
  8
0
 10
93.491521939360723
 20
45.000000000000021
 30
0.0
 11
95.491521939360709
 21
43.000000000000028
 31
0.0
  0
LINE
  5
7B
  8
0
 10
108.4915219393606
 20
42.5
 30
0.0
 11
113.9915219393606
 21
42.500000000000021
 31
0.0
  0
LINE
  5
7C
  8
0
 10
113.9915219393606
 20
57.5
 30
0.0
 11
108.4915219393606
 21
57.5
 31
0.0
  0
LINE
  5
7D
  8
0
 10
85.491521939360666
 20
45.000000000000021
 30
0.0
 11
93.491521939360723
 21
45.000000000000021
 31
0.0
  0
LINE
  5
7E
  8
0
 10
93.491521939360723
 20
55.0
 30
0.0
 11
85.491521939360666
 21
55.0
 31
0.0
  0
LINE
  5
7F
  8
0
 10
85.491521939360666
 20
53.0
 30
0.0
 11
78.991521939360723
 21
53.0
 31
0.0
  0
LINE
  5
80
  8
0
 10
78.991521939360723
 20
47.000000000000021
 30
0.0
 11
85.491521939360666
 21
47.000000000000021
 31
0.0
  0
LINE
  5
81
  8
0
 10
114.4915219393606
 20
42.500000000000021
 30
0.0
 11
204.49152193936069
 21
42.5
 31
0.0
  0
LINE
  5
82
  8
0
 10
204.49152193936069
 20
57.499999999999972
 30
0.0
 11
114.4915219393606
 21
57.5
 31
0.0
  0
LINE
  5
83
  8
0
 10
95.496568250810583
 20
57.0
 30
0.0
 11
96.574425708015497
 21
57.0
 31
0.0
  0
POLYLINE
  5
84
  8
0
 66
     1
 10
0.0
 20
0.0
 30
0.0
 70
   128
  0
VERTEX
  5
2A1
  8
0
 10
96.574425708015497
 20
57.0
 30
0.0
  0
VERTEX
  5
2A2
  8
0
 10
95.877612813887566
 20
55.541017835560581
 30
0.0
  0
VERTEX
  5
2A3
  8
0
 10
95.639110955734566
 20
54.749402302144851
 30
0.0
  0
VERTEX
  5
2A4
  8
0
 10
95.509896762595361
 20
53.93953255802063
 30
0.0
  0
VERTEX
  5
2A5
  8
0
 10
95.535733017813925
 20
52.81759082043709
 30
0.0
  0
VERTEX
  5
2A6
  8
0
 10
95.799944246978896
 20
51.680720617973073
 30
0.0
  0
VERTEX
  5
2A7
  8
0
 10
96.574425708015497
 20
50.0
 30
0.0
  0
SEQEND
  5
2A8
  8
0
  0
POLYLINE
  5
8D
  8
0
 66
     1
 10
0.0
 20
0.0
 30
0.0
 70
   128
  0
VERTEX
  5
2A9
  8
0
 10
96.574425708015497
 20
50.0
 30
0.0
  0
VERTEX
  5
2AA
  8
0
 10
95.877612813887566
 20
48.541017835560552
 30
0.0
  0
VERTEX
  5
2AB
  8
0
 10
95.639110955734537
 20
47.749402302144823
 30
0.0
  0
VERTEX
  5
2AC
  8
0
 10
95.509896762595332
 20
46.93953255802063
 30
0.0
  0
VERTEX
  5
2AD
  8
0
 10
95.535733017813897
 20
45.81759082043709
 30
0.0
  0
VERTEX
  5
2AE
  8
0
 10
95.799944246978896
 20
44.68072061797303
 30
0.0
  0
VERTEX
  5
2AF
  8
0
 10
96.574425708015497
 20
43.000000000000028
 30
0.0
  0
SEQEND
  5
2B0
  8
0
  0
LINE
  5
96
  8
0
 10
96.574425708015497
 20
43.000000000000028
 30
0.0
 11
95.496568251459209
 21
43.000000000000028
 31
0.0
  0
LINE
  5
97
  8
0
 10
93.491521939360723
 20
45.000000000000021
 30
0.0
 11
93.491521939360723
 21
55.0
 31
0.0
  0
LINE
  5
98
  8
0
 10
108.49152193936069
 20
50.0
 30
0.0
 11
108.49152193936069
 21
48.831844763272223
 31
0.0
  0
LINE
  5
99
  8
0
 10
108.49152193936069
 20
44.168155236727813
 30
0.0
 11
108.4915219393606
 21
43.000000000000028
 31
0.0
  0
LINE
  5
9A
  8
0
 10
108.4915219393606
 20
43.000000000000028
 30
0.0
 11
96.574425708015497
 21
43.000000000000028
 31
0.0
  0
LINE
  5
9B
  8
0
 10
108.49152193936069
 20
50.0
 30
0.0
 11
96.574425708015497
 21
50.0
 31
0.0
  0
LINE
  5
9C
  8
0
 10
108.4915219393606
 20
57.0
 30
0.0
 11
108.49152193936069
 21
55.83184476327218
 31
0.0
  0
LINE
  5
9D
  8
0
 10
108.49152193936069
 20
51.168155236727813
 30
0.0
 11
108.49152193936069
 21
50.0
 31
0.0
  0
LINE
  5
9E
  8
0
 10
108.4915219393606
 20
57.0
 30
0.0
 11
96.574425708015497
 21
57.0
 31
0.0
  0
POLYLINE
  5
9F
  8
0
 66
     1
 10
0.0
 20
0.0
 30
0.0
 70
   128
  0
VERTEX
  5
2B1
  8
0
 10
112.3087668775843
 20
45.899999999999999
 30
0.0
  0
VERTEX
  5
2B2
  8
0
 10
112.48088066206979
 20
45.053756584158968
 30
0.0
  0
VERTEX
  5
2B3
  8
0
 10
112.6833073165519
 20
44.306765608913913
 30
0.0
  0
VERTEX
  5
2B4
  8
0
 10
112.91198490193661
 20
43.674016364350763
 30
0.0
  0
VERTEX
  5
2B5
  8
0
 10
113.16232472200539
 20
43.168205740114558
 30
0.0
  0
VERTEX
  5
2B6
  8
0
 10
113.4293034012322
 20
42.799483446746017
 30
0.0
  0
VERTEX
  5
2B7
  8
0
 10
113.7075636849751
 20
42.57524834929125
 30
0.0
  0
VERTEX
  5
2B8
  8
0
 10
113.9915219393606
 20
42.500000000000021
 30
0.0
  0
SEQEND
  5
2B9
  8
0
  0
POLYLINE
  5
A9
  8
0
 66
     1
 10
0.0
 20
0.0
 30
0.0
 70
   128
  0
VERTEX
  5
2BA
  8
0
 10
113.9915219393606
 20
57.5
 30
0.0
  0
VERTEX
  5
2BB
  8
0
 10
113.7075636849751
 20
57.424751650708771
 30
0.0
  0
VERTEX
  5
2BC
  8
0
 10
113.4293034012322
 20
57.200516553253983
 30
0.0
  0
VERTEX
  5
2BD
  8
0
 10
113.16232472200539
 20
56.831794259885442
 30
0.0
  0
VERTEX
  5
2BE
  8
0
 10
112.91198490193661
 20
56.325983635649273
 30
0.0
  0
VERTEX
  5
2BF
  8
0
 10
112.6833073165519
 20
55.693234391086122
 30
0.0
  0
VERTEX
  5
2C0
  8
0
 10
112.48088066206979
 20
54.946243415841032
 30
0.0
  0
VERTEX
  5
2C1
  8
0
 10
112.3087668775843
 20
54.100000000000023
 30
0.0
  0
SEQEND
  5
2C2
  8
0
  0
LINE
  5
B3
  8
0
 10
126.49152193936069
 20
54.100000000000023
 30
0.0
 11
112.3087668775843
 21
54.100000000000023
 31
0.0
  0
LINE
  5
B4
  8
0
 10
126.49152193936069
 20
45.899999999999999
 30
0.0
 11
126.49152193936069
 21
54.100000000000023
 31
0.0
  0
LINE
  5
B5
  8
0
 10
112.3087668775843
 20
45.899999999999999
 30
0.0
 11
126.49152193936069
 21
45.899999999999999
 31
0.0
  0
LINE
  5
B6
  8
0
 10
108.4915219393606
 20
42.5
 30
0.0
 11
108.4915219393606
 21
43.000000000000028
 31
0.0
  0
LINE
  5
B7
  8
0
 10
108.49152193936069
 20
44.168155236727813
 30
0.0
 11
108.49152193936069
 21
48.831844763272223
 31
0.0
  0
LINE
  5
B8
  8
0
 10
108.49152193936069
 20
51.168155236727813
 30
0.0
 11
108.49152193936069
 21
55.83184476327218
 31
0.0
  0
LINE
  5
B9
  8
0
 10
108.4915219393606
 20
57.0
 30
0.0
 11
108.4915219393606
 21
57.5
 31
0.0
  0
LINE
  5
BA
  8
0
 10
128.49152193936069
 20
54.100000000000023
 30
0.0
 11
128.49152193936069
 21
45.899999999999999
 31
0.0
  0
LINE
  5
BB
  8
0
 10
113.9915219393606
 20
42.500000000000021
 30
0.0
 11
113.9915219393606
 21
45.899999999999999
 31
0.0
  0
LINE
  5
BC
  8
0
 10
113.9915219393606
 20
57.5
 30
0.0
 11
113.9915219393606
 21
54.100000000000023
 31
0.0
  0
LINE
  5
BD
  8
0
 10
85.491521939360666
 20
55.0
 30
0.0
 11
85.491521939360666
 21
45.000000000000021
 31
0.0
  0
LINE
  5
BE
  8
0
 10
78.991521939360723
 20
47.000000000000021
 30
0.0
 11
78.991521939360723
 21
53.0
 31
0.0
  0
LINE
  5
BF
  8
0
 10
129.99152193936069
 20
45.899999999999999
 30
0.0
 11
114.49152193936069
 21
45.899999999999999
 31
0.0
  0
LINE
  5
C0
  8
0
 10
129.99152193936069
 20
54.100000000000001
 30
0.0
 11
129.99152193936069
 21
45.899999999999999
 31
0.0
  0
LINE
  5
C1
  8
0
 10
114.49152193936069
 20
54.100000000000023
 30
0.0
 11
129.99152193936069
 21
54.100000000000001
 31
0.0
  0
LINE
  5
C2
  8
0
 10
114.4915219393606
 20
57.5
 30
0.0
 11
114.49152193936069
 21
54.100000000000023
 31
0.0
  0
LINE
  5
C3
  8
0
 10
114.49152193936069
 20
45.899999999999999
 30
0.0
 11
114.4915219393606
 21
42.500000000000021
 31
0.0
  0
LINE
  5
C4
  8
0
 10
204.49152193936069
 20
57.499999999999972
 30
0.0
 11
204.49152193936069
 21
42.5
 31
0.0
  0
CIRCLE
  5
C5
  8
0
 10
30.000000000000231
 20
50.0
 30
0.0
 40
2.9999999999999711
  0
CIRCLE
  5
C6
  8
0
 10
30.000000000000171
 20
50.0
 30
0.0
 40
4.9999999999999707
  0
LINE
  5
C7
  8
0
 10
25.95854811567273
 20
43.000000000000028
 30
0.0
 11
21.91709623134534
 21
50.000000000000028
 31
0.0
  0
LINE
  5
C8
  8
0
 10
21.91709623134534
 20
50.000000000000028
 30
0.0
 11
25.95854811567273
 21
57.0
 31
0.0
  0
LINE
  5
C9
  8
0
 10
25.95854811567273
 20
57.0
 30
0.0
 11
34.0414518843275
 21
57.0
 31
0.0
  0
LINE
  5
CA
  8
0
 10
34.0414518843275
 20
57.0
 30
0.0
 11
38.082903768654887
 21
50.0
 31
0.0
  0
LINE
  5
CB
  8
0
 10
38.082903768654887
 20
50.0
 30
0.0
 11
34.0414518843275
 21
43.000000000000028
 31
0.0
  0
LINE
  5
CC
  8
0
 10
34.0414518843275
 20
43.000000000000028
 30
0.0
 11
25.95854811567273
 21
43.000000000000028
 31
0.0
  0
ARC
  5
CD
  8
0
 10
30.0
 20
50.0
 30
0.0
 40
7.4999999999999956
 50
188.96053021868349
 51
231.0394697813183
  0
ARC
  5
CE
  8
0
 10
30.0
 20
50.0
 30
0.0
 40
7.5
 50
128.96053021868249
 51
171.03946978131711
  0
ARC
  5
CF
  8
0
 10
30.0
 20
50.0
 30
0.0
 40
7.5000000000000124
 50
68.960530218682521
 51
111.03946978131719
  0
ARC
  5
D0
  8
0
 10
30.0
 20
50.0
 30
0.0
 40
7.4999999999999849
 50
248.9605302186836
 51
291.03946978131847
  0
ARC
  5
D1
  8
0
 10
30.0
 20
50.0
 30
0.0
 40
7.5000000000000151
 50
8.9605302186828748
 51
51.039469781316981
  0
ARC
  5
D2
  8
0
 10
30.0
 20
50.0
 30
0.0
 40
7.5000000000000098
 50
308.96053021868357
 51
351.03946978131808
  0
LINE
  5
EA
  8
1
 10
30.000000000000231
 20
39.41709623134534
 30
0.0
 11
30.000000000000231
 21
60.58290376865466
 31
0.0
  0
LINE
  5
EB
  8
1
 10
19.41709623134556
 20
50.0
 30
0.0
 11
40.58290376865488
 21
50.0
 31
0.0
  0
LINE
  5
EC
  8
1
 10
73.991521939360723
 20
50.000000000000007
 30
0.0
 11
209.49152193936069
 21
50.000000000000007
 31
0.0
  0
LINE
  5
ED
  8
1
 10
73.991521939360638
 20
103.8827566094768
 30
0.0
 11
209.49152193936069
 21
103.8827566094768
 31
0.0
  0
LINE
  5
EE
  8
1
 10
231.9904766612469
 20
50.0
 30
0.0
 11
253.15628419855631
 21
50.0
 31
0.0
  0
LINE
  5
EF
  8
1
 10
242.57338042990159
 20
39.41709623134534
 30
0.0
 11
242.57338042990159
 21
60.58290376865466
 31
0.0
  0
TEXT
  5
206
  8
0
 62
     3
 10
0.0
 20
0.0
 30
0.0
 40
10.0
  1
QLTL160
  7
STANDARD1
  0
ENDSEC
  0
EOF
