  0
SECTION
  2
HEADER
  9
$ACADVER
  1
AC1009
  9
$INSBASE
 10
0.0
 20
0.0
 30
0.0
  9
$EXTMIN
 10
0.0
 20
-2.960436562073669
 30
0.0
  9
$EXTMAX
 10
272.88741685190661
 20
198.7476837327122
 30
0.0
  9
$LIMMIN
 10
0.0
 20
0.0
  9
$LIMMAX
 10
187.5
 20
135.0
  9
$ORTHOMODE
 70
     1
  9
$REGENMODE
 70
     1
  9
$FILLMODE
 70
     1
  9
$QTEXTMODE
 70
     0
  9
$MIRRTEXT
 70
     0
  9
$DRAGMODE
 70
     2
  9
$LTSCALE
 40
5.0
  9
$OSMODE
 70
  3071
  9
$ATTMODE
 70
     1
  9
$TEXTSIZE
 40
0.2
  9
$TRACEWID
 40
0.05
  9
$TEXTSTYLE
  7
STANDARD
  9
$CLAYER
  8
0
  9
$CELTYPE
  6
BYLAYER
  9
$CECOLOR
 62
   256
  9
$DIMSCALE
 40
0.5
  9
$DIMASZ
 40
3.0
  9
$DIMEXO
 40
2.0
  9
$DIMDLI
 40
0.3799999999999999
  9
$DIMRND
 40
0.0
  9
$DIMDLE
 40
0.0
  9
$DIMEXE
 40
2.0
  9
$DIMTP
 40
0.0
  9
$DIMTM
 40
0.0
  9
$DIMTXT
 40
3.2000000000000002
  9
$DIMCEN
 40
0.09
  9
$DIMTSZ
 40
0.0
  9
$DIMTOL
 70
     0
  9
$DIMLIM
 70
     0
  9
$DIMTIH
 70
     0
  9
$DIMTOH
 70
     0
  9
$DIMSE1
 70
     0
  9
$DIMSE2
 70
     0
  9
$DIMTAD
 70
     1
  9
$DIMZIN
 70
     0
  9
$DIMBLK
  1

  9
$DIMASO
 70
     0
  9
$DIMSHO
 70
     0
  9
$DIMPOST
  1

  9
$DIMAPOST
  1

  9
$DIMALT
 70
     0
  9
$DIMALTD
 70
     2
  9
$DIMALTF
 40
25.399999999999999
  9
$DIMLFAC
 40
1.0
  9
$DIMTOFL
 70
     0
  9
$DIMTVP
 40
1.6000000000000001
  9
$DIMTIX
 70
     1
  9
$DIMSOXD
 70
     0
  9
$DIMSAH
 70
     0
  9
$DIMBLK1
  1

  9
$DIMBLK2
  1

  9
$DIMSTYLE
  2
STANDARD
  9
$DIMCLRD
 70
     0
  9
$DIMCLRE
 70
     0
  9
$DIMCLRT
 70
     0
  9
$DIMTFAC
 40
1.0
  9
$DIMGAP
 40
0.09
  9
$LUNITS
 70
     2
  9
$LUPREC
 70
     4
  9
$SKETCHINC
 40
0.1
  9
$FILLETRAD
 40
0.4
  9
$AUNITS
 70
     0
  9
$AUPREC
 70
     0
  9
$MENU
  1
E:\r13\win\SUPPORT\ACAD
  9
$ELEVATION
 40
0.0
  9
$PELEVATION
 40
0.0
  9
$THICKNESS
 40
0.0
  9
$LIMCHECK
 70
     0
  9
$BLIPMODE
 70
     0
  9
$CHAMFERA
 40
0.0
  9
$CHAMFERB
 40
0.0
  9
$SKPOLY
 70
     0
  9
$TDCREATE
 40
2451824.6906229062
  9
$TDUPDATE
 40
2456598.434412674
  9
$TDINDWG
 40
0.0936080208
  9
$TDUSRTIMER
 40
0.0936080208
  9
$USRTIMER
 70
     1
  9
$ANGBASE
 50
0.0
  9
$ANGDIR
 70
     0
  9
$PDMODE
 70
     0
  9
$PDSIZE
 40
0.0
  9
$PLINEWID
 40
0.0
  9
$COORDS
 70
     1
  9
$SPLFRAME
 70
     0
  9
$SPLINETYPE
 70
     6
  9
$SPLINESEGS
 70
     8
  9
$ATTDIA
 70
     0
  9
$ATTREQ
 70
     1
  9
$HANDLING
 70
     1
  9
$HANDSEED
  5
4D34
  9
$SURFTAB1
 70
     6
  9
$SURFTAB2
 70
     6
  9
$SURFTYPE
 70
     6
  9
$SURFU
 70
     6
  9
$SURFV
 70
     6
  9
$UCSNAME
  2

  9
$UCSORG
 10
0.0
 20
0.0
 30
0.0
  9
$UCSXDIR
 10
1.0
 20
0.0
 30
0.0
  9
$UCSYDIR
 10
0.0
 20
1.0
 30
0.0
  9
$PUCSNAME
  2

  9
$PUCSORG
 10
0.0
 20
0.0
 30
0.0
  9
$PUCSXDIR
 10
1.0
 20
0.0
 30
0.0
  9
$PUCSYDIR
 10
0.0
 20
1.0
 30
0.0
  9
$USERI1
 70
     0
  9
$USERI2
 70
     1
  9
$USERI3
 70
     0
  9
$USERI4
 70
     0
  9
$USERI5
 70
     0
  9
$USERR1
 40
0.0
  9
$USERR2
 40
0.0
  9
$USERR3
 40
0.0
  9
$USERR4
 40
0.0
  9
$USERR5
 40
0.0
  9
$WORLDVIEW
 70
     1
  9
$SHADEDGE
 70
     3
  9
$SHADEDIF
 70
    70
  9
$TILEMODE
 70
     1
  9
$MAXACTVP
 70
    16
  9
$PLIMCHECK
 70
     0
  9
$PEXTMIN
 10
1.0000000000000000E+020
 20
1.0000000000000000E+020
 30
1.0000000000000000E+020
  9
$PEXTMAX
 10
-1.0000000000000000E+020
 20
-1.0000000000000000E+020
 30
-1.0000000000000000E+020
  9
$PLIMMIN
 10
0.0
 20
0.0
  9
$PLIMMAX
 10
12.0
 20
9.0
  9
$UNITMODE
 70
     0
  9
$VISRETAIN
 70
     0
  9
$PLINEGEN
 70
     0
  9
$PSLTSCALE
 70
     0
  0
ENDSEC
  0
SECTION
  2
TABLES
  0
TABLE
  2
VPORT
 70
     1
  0
VPORT
  2
*ACTIVE
 70
     0
 10
0.0
 20
0.0
 11
1.0
 21
1.0
 12
136.4437090613188
 22
109.617167093272
 13
0.0
 23
0.0
 14
5.0
 24
5.0
 15
5.0
 25
5.0
 16
0.0
 26
0.0
 36
1.0
 17
0.0
 27
0.0
 37
0.0
 40
227.98793284410371
 41
2.304913294797688
 42
50.0
 43
0.0
 44
0.0
 50
0.0
 51
0.0
 71
     0
 72
   500
 73
     1
 74
     0
 75
     0
 76
     0
 77
     0
 78
     2
  0
ENDTAB
  0
TABLE
  2
LTYPE
 70
     4
  0
LTYPE
  2
CONTINUOUS
 70
     0
  3
Solid Line
 72
    65
 73
     0
 40
0.0
  0
LTYPE
  2
CENTER
 70
     0
  3
____ _ ____ _ ____ _ ____ _ ____ _ ____ _ ____
 72
    65
 73
     4
 40
2.0
 49
1.25
 49
-0.25
 49
0.25
 49
-0.25
  0
LTYPE
  2
HIDDEN
 70
     0
  3
__ __ __ __ __ __ __ __ __ __ __ __ __ __ __ __
 72
    65
 73
     2
 40
0.375
 49
0.25
 49
-0.125
  0
LTYPE
  2
PHANTOM2
 70
     0
  3
___ _ _ ___ _ _ ___ _ _ ___ _ _
 72
    65
 73
     6
 40
1.25
 49
0.625
 49
-0.125
 49
0.125
 49
-0.125
 49
0.125
 49
-0.125
  0
ENDTAB
  0
TABLE
  2
LAYER
 70
     4
  0
LAYER
  2
0
 70
     0
 62
     7
  6
CONTINUOUS
  0
LAYER
  2
1
 70
     0
 62
     1
  6
CENTER
  0
LAYER
  2
2
 70
     0
 62
     2
  6
HIDDEN
  0
LAYER
  2
DEFPOINTS
 70
     0
 62
     7
  6
CONTINUOUS
  0
ENDTAB
  0
TABLE
  2
STYLE
 70
     2
  0
STYLE
  2
STANDARD
 70
     0
 40
0.0
 41
1.0
 50
0.0
 71
     0
 42
0.2
  3
TXT
  4
BIGFONT
  0
STYLE
  2
STANDARD1
 70
     0
 40
0.0
 41
1.0
 50
0.0
 71
     0
 42
3.0
  3
txt
  4

  0
ENDTAB
  0
TABLE
  2
VIEW
 70
     0
  0
ENDTAB
  0
TABLE
  2
UCS
 70
     0
  0
ENDTAB
  0
TABLE
  2
APPID
 70
     3
  0
APPID
  2
ACAD
 70
     0
  0
APPID
  2
ACAD_MLEADERVER
 70
     0
  0
APPID
  2
ACAD_NAV_VCDISPLAY
 70
     0
  0
ENDTAB
  0
TABLE
  2
DIMSTYLE
 70
     1
  0
DIMSTYLE
  2
STANDARD
 70
     0
  3

  4

  5

  6

  7

 40
1.0
 41
0.18
 42
0.0625
 43
0.38
 44
0.18
 45
0.0
 46
0.0
 47
0.0
 48
0.0
140
0.18
141
0.09
142
0.0
143
25.399999999999999
144
1.0
145
0.0
146
1.0
147
0.09
 71
     0
 72
     0
 73
     1
 74
     1
 75
     0
 76
     0
 77
     0
 78
     0
170
     0
171
     2
172
     0
173
     0
174
     0
175
     0
176
     0
177
     0
178
     0
  0
ENDTAB
  0
ENDSEC
  0
SECTION
  2
BLOCKS
  0
BLOCK
  8
0
  2
$MODEL_SPACE
 70
     0
 10
0.0
 20
0.0
 30
0.0
  3
$MODEL_SPACE
  1

  0
ENDBLK
  5
9
  8
0
  0
BLOCK
 67
     1
  8
0
  2
$PAPER_SPACE
 70
     0
 10
0.0
 20
0.0
 30
0.0
  3
$PAPER_SPACE
  1

  0
ENDBLK
  5
E
 67
     1
  8
0
  0
ENDSEC
  0
SECTION
  2
ENTITIES
  0
LINE
  5
14A0
  8
1
 10
39.059749877768468
 20
60.995464028964108
 30
0.0
 11
84.05975002678008
 21
60.995464028964122
 31
0.0
  0
CIRCLE
  5
14A1
  8
0
 10
61.559749877768468
 20
60.995464028964108
 30
0.0
 40
9.4999999999999911
  0
LINE
  5
14A2
  8
0
 10
65.559750607925366
 20
58.686062576422763
 30
0.0
 11
65.559750607925366
 21
63.30486561561591
 31
0.0
  0
LINE
  5
14A3
  8
0
 10
65.559750607925366
 20
63.30486561561591
 30
0.0
 11
61.559749952274281
 21
65.614266203889912
 31
0.0
  0
LINE
  5
14A4
  8
0
 10
61.559749952274281
 20
65.614266203889912
 30
0.0
 11
57.559750227945763
 21
63.30486561561591
 31
0.0
  0
LINE
  5
14A5
  8
0
 10
57.559750227945763
 20
63.30486561561591
 30
0.0
 11
57.559750227945763
 21
58.686062576422763
 31
0.0
  0
LINE
  5
14A6
  8
0
 10
57.559750227945763
 20
58.686062576422763
 30
0.0
 11
61.559749952274281
 21
56.376661988148747
 31
0.0
  0
LINE
  5
14A7
  8
0
 10
61.559749952274281
 20
56.376661988148747
 30
0.0
 11
65.559750607925366
 21
58.686062576422763
 31
0.0
  0
LINE
  5
14AF
  8
0
 10
44.059749877768461
 20
39.99546531046397
 30
0.0
 11
44.059749877768461
 21
99.995463969359463
 31
0.0
  0
LINE
  5
14B1
  8
0
 10
45.059749925265912
 20
100.99546413327219
 30
0.0
 11
44.059749877768461
 21
99.995463969359463
 31
0.0
  0
LINE
  5
14B3
  8
0
 10
45.059749925265912
 20
38.995463283906048
 30
0.0
 11
44.059749877768461
 21
39.99546531046397
 31
0.0
  0
LINE
  5
14B6
  8
0
 10
45.059749925265912
 20
100.99546413327219
 30
0.0
 11
78.059751725512456
 21
100.99546413327219
 31
0.0
  0
CIRCLE
  5
14BA
  8
0
 10
61.559749877768468
 20
60.995464028964108
 30
0.0
 40
9.75
  0
LINE
  5
14BB
  8
0
 10
78.059751725512456
 20
38.995463283906048
 30
0.0
 11
45.059749925265912
 21
38.995463283906048
 31
0.0
  0
LINE
  5
14BD
  8
0
 10
79.05975002678008
 20
99.995463969359463
 30
0.0
 11
78.059751725512456
 21
100.99546413327219
 31
0.0
  0
LINE
  5
14C0
  8
0
 10
78.059751725512456
 20
38.995463283906048
 30
0.0
 11
79.05975002678008
 21
39.99546531046397
 31
0.0
  0
LINE
  5
14C1
  8
0
 10
79.05975002678008
 20
99.995463969359463
 30
0.0
 11
79.05975002678008
 21
39.99546531046397
 31
0.0
  0
LINE
  5
14C5
  8
1
 10
61.559749877768347
 20
105.99546413327219
 30
0.0
 11
61.559749877768347
 21
33.995463283906041
 31
0.0
  0
LINE
  5
14C8
  8
0
 10
263.53663634249449
 20
42.1221776625014
 30
0.0
 11
263.7183140937376
 21
43.554074945101803
 31
0.0
  0
LINE
  5
14C9
  8
0
 10
262.56909416729093
 20
44.427361222157543
 30
0.0
 11
263.7183140937376
 21
43.554074945101803
 31
0.0
  0
LINE
  5
14CA
  8
0
 10
262.56909416729093
 20
44.427361222157543
 30
0.0
 11
261.23819695526242
 21
43.868750216612881
 31
0.0
  0
LINE
  5
14CB
  8
0
 10
261.23819695526242
 20
43.868750216612881
 30
0.0
 11
261.0565196696806
 21
42.436852934012478
 31
0.0
  0
LINE
  5
14CC
  8
0
 10
262.20573959612727
 20
41.563566656956738
 30
0.0
 11
261.0565196696806
 21
42.436852934012478
 31
0.0
  0
LINE
  5
14CD
  8
0
 10
262.20573959612727
 20
41.563566656956738
 30
0.0
 11
263.53663634249449
 21
42.1221776625014
 31
0.0
  0
CIRCLE
  5
14CE
  8
0
 10
262.38741685190661
 20
42.995464028964058
 30
0.0
 40
2.7499999999999978
  0
LINE
  5
14CF
  8
0
 10
239.53663706520081
 20
42.1221776625014
 30
0.0
 11
239.7183138851214
 21
43.554074945101803
 31
0.0
  0
LINE
  5
14D0
  8
0
 10
238.56909349301341
 20
44.427361222157543
 30
0.0
 11
239.7183138851214
 21
43.554074945101803
 31
0.0
  0
LINE
  5
14D1
  8
0
 10
238.56909349301341
 20
44.427361222157543
 30
0.0
 11
237.23819628098491
 21
43.868750216612881
 31
0.0
  0
LINE
  5
14D2
  8
0
 10
237.23819628098491
 20
43.868750216612881
 30
0.0
 11
237.0565194610644
 21
42.436852934012478
 31
0.0
  0
LINE
  5
14D3
  8
0
 10
238.2057398531723
 20
41.563566656956738
 30
0.0
 11
237.0565194610644
 21
42.436852934012478
 31
0.0
  0
LINE
  5
14D4
  8
0
 10
238.2057398531723
 20
41.563566656956738
 30
0.0
 11
239.53663706520081
 21
42.1221776625014
 31
0.0
  0
CIRCLE
  5
14D5
  8
0
 10
238.38741685190669
 20
42.9954640289642
 30
0.0
 40
2.7500000000000271
  0
LINE
  5
14D6
  8
0
 10
237.23819628098491
 20
79.868749598214691
 30
0.0
 11
237.0565194610644
 21
78.436853246936863
 31
0.0
  0
LINE
  5
14D7
  8
0
 10
238.2057398531723
 20
77.563567901203697
 30
0.0
 11
237.0565194610644
 21
78.436853246936863
 31
0.0
  0
LINE
  5
14D8
  8
0
 10
238.2057398531723
 20
77.563567901203697
 30
0.0
 11
239.53663706520081
 21
78.12217890674836
 31
0.0
  0
LINE
  5
14D9
  8
0
 10
239.53663706520081
 20
78.12217890674836
 30
0.0
 11
239.7183138851214
 21
79.554075258026188
 31
0.0
  0
LINE
  5
14DA
  8
0
 10
238.56909349301341
 20
80.427360603759354
 30
0.0
 11
239.7183138851214
 21
79.554075258026188
 31
0.0
  0
LINE
  5
14DB
  8
0
 10
238.56909349301341
 20
80.427360603759354
 30
0.0
 11
237.23819628098491
 21
79.868749598214691
 31
0.0
  0
CIRCLE
  5
14DC
  8
0
 10
238.38741685190669
 20
78.995464028964093
 30
0.0
 40
2.7499999999999978
  0
LINE
  5
14DD
  8
0
 10
261.23819695526242
 20
79.868749598214691
 30
0.0
 11
261.0565196696806
 21
78.436853246936863
 31
0.0
  0
LINE
  5
14DE
  8
0
 10
262.20573959612727
 20
77.563567901203697
 30
0.0
 11
261.0565196696806
 21
78.436853246936863
 31
0.0
  0
LINE
  5
14DF
  8
0
 10
262.20573959612727
 20
77.563567901203697
 30
0.0
 11
263.53663634249449
 21
78.12217890674836
 31
0.0
  0
LINE
  5
14E0
  8
0
 10
263.53663634249449
 20
78.12217890674836
 30
0.0
 11
263.7183140937376
 21
79.554075258026188
 31
0.0
  0
LINE
  5
14E1
  8
0
 10
262.56909416729093
 20
80.427360603759354
 30
0.0
 11
263.7183140937376
 21
79.554075258026188
 31
0.0
  0
LINE
  5
14E2
  8
0
 10
262.56909416729093
 20
80.427360603759354
 30
0.0
 11
261.23819695526242
 21
79.868749598214691
 31
0.0
  0
CIRCLE
  5
14E3
  8
0
 10
262.38741685190678
 20
78.995464028964108
 30
0.0
 40
2.749999999999996
  0
LINE
  5
1787
  8
0
 10
264.38741674387319
 20
99.495463887403091
 30
0.0
 11
236.3874163452673
 21
99.495463887403091
 31
0.0
  0
ARC
  5
1788
  8
0
 10
264.38741685190661
 20
97.495464028964108
 30
0.0
 40
2.0
 50
0.0
 51
90.0
  0
LINE
  5
1789
  8
0
 10
266.38741683886809
 20
86.495464084843448
 30
0.0
 11
266.38741683886809
 21
97.495464490900105
 31
0.0
  0
LINE
  5
178A
  8
0
 10
236.3874163452673
 20
84.495464222679189
 30
0.0
 11
264.38741674387319
 21
84.495464222679189
 31
0.0
  0
ARC
  5
178B
  8
0
 10
236.38741685190681
 20
86.495464028964093
 30
0.0
 40
2.0
 50
179.9999999999996
 51
270.0
  0
LINE
  5
178C
  8
0
 10
234.38741601744181
 20
97.495464490900105
 30
0.0
 11
234.38741601744181
 21
86.495464084843448
 31
0.0
  0
ARC
  5
178D
  8
0
 10
236.38741685190681
 20
97.495464028964108
 30
0.0
 40
2.0
 50
90.0
 51
179.9999999999996
  0
ARC
  5
178E
  8
0
 10
264.38741685190661
 20
86.495464028964093
 30
0.0
 40
2.0
 50
270.0
 51
0.0
  0
CIRCLE
  5
178F
  8
0
 10
250.38741685190681
 20
60.995464028964108
 30
0.0
 40
1.749999999999996
  0
CIRCLE
  5
1790
  8
0
 10
250.38741685190681
 20
60.995464028964108
 30
0.0
 40
1.2499999999999709
  0
LINE
  5
1795
  8
0
 10
266.38741683886809
 20
38.995463283906048
 30
0.0
 11
234.38741601744181
 21
38.995463283906048
 31
0.0
  0
CIRCLE
  5
17A2
  8
0
 10
262.38741685190678
 20
42.995464028964122
 30
0.0
 40
3.250000000000028
  0
CIRCLE
  5
17A3
  8
0
 10
262.38741685190678
 20
78.995464028964108
 30
0.0
 40
3.2499999999999711
  0
CIRCLE
  5
17A4
  8
0
 10
238.38741685190681
 20
42.995464028964101
 30
0.0
 40
3.25
  0
CIRCLE
  5
17A5
  8
0
 10
238.38741685190669
 20
78.995464028964093
 30
0.0
 40
3.25
  0
CIRCLE
  5
17A6
  8
0
 10
250.38741685190669
 20
60.995464028964108
 30
0.0
 40
5.25
  0
CIRCLE
  5
17A7
  8
0
 10
250.38741685190669
 20
60.995464028964108
 30
0.0
 40
4.5735000000000241
  0
CIRCLE
  5
17AB
  8
0
 10
250.38741685190681
 20
60.995464028964108
 30
0.0
 40
4.4073183177588069
  0
LINE
  5
17AC
  8
0
 10
266.88741680440921
 20
100.99546413327219
 30
0.0
 11
267.88741685190672
 21
99.995463969359463
 31
0.0
  0
LINE
  5
17AF
  8
0
 10
233.88741500416279
 20
83.995464140722817
 30
0.0
 11
266.88741680440921
 21
83.995464140722817
 31
0.0
  0
LINE
  5
17B0
  8
0
 10
266.88741680440921
 20
83.995464140722817
 30
0.0
 11
267.88741685190672
 21
82.995463976810029
 31
0.0
  0
LINE
  5
17B3
  8
0
 10
233.88741500416279
 20
83.995464140722817
 30
0.0
 11
232.88741670289519
 21
82.995463976810029
 31
0.0
  0
LINE
  5
17B5
  8
0
 10
267.88741685190672
 20
99.995463969359463
 30
0.0
 11
267.88741685190672
 21
82.995463976810029
 31
0.0
  0
LINE
  5
17B8
  8
0
 10
233.88741500416279
 20
100.99546413327219
 30
0.0
 11
266.88741680440921
 21
100.99546413327219
 31
0.0
  0
LINE
  5
17BB
  8
0
 10
232.88741670289519
 20
99.995463969359463
 30
0.0
 11
233.88741500416279
 21
100.99546413327219
 31
0.0
  0
LINE
  5
17BC
  8
0
 10
232.88741670289519
 20
82.995463976810029
 30
0.0
 11
232.88741670289519
 21
99.995463969359463
 31
0.0
  0
LINE
  5
17BF
  8
0
 10
232.88741670289519
 20
39.99546531046397
 30
0.0
 11
232.88741670289519
 21
82.995463976810029
 31
0.0
  0
LINE
  5
17C0
  8
0
 10
267.88741685190672
 20
39.99546531046397
 30
0.0
 11
267.88741685190672
 21
82.995463976810029
 31
0.0
  0
LINE
  5
17C1
  8
0
 10
267.88741685190672
 20
39.99546531046397
 30
0.0
 11
266.88741680440921
 21
38.995463283906048
 31
0.0
  0
LINE
  5
17C2
  8
0
 10
266.88741680440921
 20
38.995463283906048
 30
0.0
 11
266.38741683886809
 21
38.995463283906048
 31
0.0
  0
LINE
  5
17C3
  8
0
 10
234.38741601744181
 20
38.995463283906048
 30
0.0
 11
233.88741500416279
 21
38.995463283906048
 31
0.0
  0
LINE
  5
17C4
  8
0
 10
232.88741670289519
 20
39.99546531046397
 30
0.0
 11
233.88741500416279
 21
38.995463283906048
 31
0.0
  0
LINE
  5
17C8
  8
1
 10
250.38741685190669
 20
105.99546413327219
 30
0.0
 11
250.38741685190681
 21
33.995463283906048
 31
0.0
  0
LINE
  5
17D8
  8
0
 10
173.44987184930829
 20
174.347683402939
 30
0.0
 11
173.44987184930829
 21
177.14768340791201
 31
0.0
  0
ARC
  5
17D9
  8
0
 10
171.34987185173239
 20
174.347683402939
 30
0.0
 40
2.0999999975759072
 50
269.99999865066798
 51
0.0
  0
LINE
  5
17DA
  8
0
 10
143.54987179730389
 20
172.24768406006129
 30
0.0
 11
171.34987180227671
 21
172.24768340536309
 31
0.0
  0
ARC
  5
17DB
  8
0
 10
143.54987184675949
 20
174.34768405751251
 30
0.0
 40
2.0999999974511638
 50
180.0
 51
269.99999865066798
  0
LINE
  5
17DC
  8
0
 10
141.44987184930829
 20
177.14768406248541
 30
0.0
 11
141.44987184930829
 21
174.34768405751251
 31
0.0
  0
ARC
  5
17DD
  8
0
 10
171.34987185185719
 20
177.14768340791201
 30
0.0
 40
2.0999999974511629
 50
0.0
 51
89.999998650668033
  0
LINE
  5
17DE
  8
0
 10
163.22487184930841
 20
174.5664334872003
 30
0.0
 11
164.01237184930841
 21
174.56643348720041
 31
0.0
  0
LINE
  5
17DF
  8
0
 10
164.01237184930841
 20
174.56643348720041
 30
0.0
 11
164.01237184930841
 21
173.6476834872004
 31
0.0
  0
LINE
  5
17E0
  8
0
 10
164.01237184930841
 20
173.6476834872004
 30
0.0
 11
165.32487184930841
 21
173.6476834872004
 31
0.0
  0
LINE
  5
17E1
  8
0
 10
165.32487184930841
 20
173.6476834872004
 30
0.0
 11
165.32487184930841
 21
176.14143366421709
 31
0.0
  0
ARC
  5
17E2
  8
0
 10
163.6186218493084
 20
176.14143366421709
 30
0.0
 40
1.7062500000000109
 50
0.0
 51
180.0
  0
LINE
  5
17E3
  8
0
 10
161.91237184930841
 20
176.14143366421709
 30
0.0
 11
161.91237184930841
 21
173.6476834872004
 31
0.0
  0
LINE
  5
17E4
  8
0
 10
161.91237184930841
 20
173.6476834872004
 30
0.0
 11
163.22487184930841
 21
173.64768348720031
 31
0.0
  0
LINE
  5
17E5
  8
0
 10
163.22487184930841
 20
173.64768348720031
 30
0.0
 11
163.22487184930841
 21
174.5664334872003
 31
0.0
  0
LINE
  5
17E6
  8
0
 10
155.34987184930841
 20
177.84768348720041
 30
0.0
 11
154.03737184930841
 21
177.84768348720041
 31
0.0
  0
LINE
  5
17E7
  8
0
 10
154.03737184930841
 20
177.84768348720041
 30
0.0
 11
154.03737184930841
 21
173.6476834872004
 31
0.0
  0
LINE
  5
17E8
  8
0
 10
154.03737184930841
 20
173.6476834872004
 30
0.0
 11
155.34987184930841
 21
173.6476834872004
 31
0.0
  0
LINE
  5
17E9
  8
0
 10
155.34987184930841
 20
173.6476834872004
 30
0.0
 11
155.34987184930841
 21
177.84768348720041
 31
0.0
  0
ARC
  5
17EA
  8
0
 10
150.53737184930841
 20
179.3476834871997
 30
0.0
 40
2.6999999999999078
 50
232.33177022329261
 51
264.26082952273191
  0
LINE
  5
17EB
  8
0
 10
150.26737184930829
 20
176.661217407012
 30
0.0
 11
150.26737184930829
 21
176.0176834872006
 31
0.0
  0
LINE
  5
17EC
  8
0
 10
150.26737184930829
 20
176.0176834872006
 30
0.0
 11
149.8173718493089
 21
176.0176834872006
 31
0.0
  0
LINE
  5
17ED
  8
0
 10
149.8173718493089
 20
176.0176834872006
 30
0.0
 11
149.8173718493089
 21
175.74768348720039
 31
0.0
  0
ARC
  5
17EE
  8
0
 10
147.61237184930889
 20
175.74768348720039
 30
0.0
 40
2.2050000000000498
 50
277.03346131539041
 51
0.0
  0
LINE
  5
17EF
  8
0
 10
147.88237184930921
 20
173.55927653235861
 30
0.0
 11
147.88237184930921
 21
173.06121740701249
 31
0.0
  0
ARC
  5
17F0
  8
0
 10
147.61237184930889
 20
175.74768348720039
 30
0.0
 40
2.700000000000117
 50
275.73917047727468
 51
302.79716829581741
  0
ARC
  5
17F1
  8
0
 10
150.5373718493085
 20
175.74768348720019
 30
0.0
 40
2.6999999999999411
 50
237.2028317041794
 51
122.79716829581309
  0
ARC
  5
17F2
  8
0
 10
147.61237184930889
 20
175.74768348720039
 30
0.0
 40
2.7000000000000841
 50
57.202831704174919
 51
264.26082952273191
  0
LINE
  5
17F3
  8
0
 10
147.34237184930879
 20
173.06121740701241
 30
0.0
 11
147.34237184930879
 21
173.55927653235889
 31
0.0
  0
ARC
  5
17F4
  8
0
 10
147.61237184930889
 20
175.74768348720039
 30
0.0
 40
2.204999999999723
 50
180.0
 51
262.96653868461942
  0
LINE
  5
17F5
  8
0
 10
145.40737184930919
 20
175.74768348720039
 30
0.0
 11
145.4073718493093
 21
176.0176834872006
 31
0.0
  0
LINE
  5
17F6
  8
0
 10
145.4073718493093
 20
176.0176834872006
 30
0.0
 11
145.90237184930899
 21
176.0176834872006
 31
0.0
  0
LINE
  5
17F7
  8
0
 10
145.90237184930899
 20
176.0176834872006
 30
0.0
 11
145.90237184930899
 21
175.7476834872005
 31
0.0
  0
ARC
  5
17F8
  8
0
 10
147.61237184930889
 20
175.74768348720039
 30
0.0
 40
1.7099999999999249
 50
179.9999999999971
 51
260.91527971261019
  0
LINE
  5
17F9
  8
0
 10
147.34237184930879
 20
174.059133813664
 30
0.0
 11
147.34237184930879
 21
174.563063294903
 31
0.0
  0
ARC
  5
17FA
  8
0
 10
147.61237184930889
 20
175.74768348720039
 30
0.0
 40
1.214999999999445
 50
180.0
 51
257.16041159308878
  0
LINE
  5
17FB
  8
0
 10
146.39737184930959
 20
175.74768348720039
 30
0.0
 11
146.39737184930959
 21
176.0176834872006
 31
0.0
  0
LINE
  5
17FC
  8
0
 10
146.39737184930959
 20
176.0176834872006
 30
0.0
 11
146.8923718493094
 21
176.0176834872006
 31
0.0
  0
LINE
  5
17FD
  8
0
 10
146.8923718493094
 20
176.0176834872006
 30
0.0
 11
146.8923718493094
 21
175.74768348720031
 31
0.0
  0
ARC
  5
17FE
  8
0
 10
147.61237184930889
 20
175.74768348720039
 30
0.0
 40
0.7199999999995157
 50
180.0000000000052
 51
359.99999999999642
  0
ARC
  5
17FF
  8
0
 10
150.5373718493085
 20
175.74768348720019
 30
0.0
 40
2.2050000000001262
 50
138.4408524081351
 51
179.99999999999551
  0
LINE
  5
1800
  8
0
 10
157.18737184930851
 20
173.6476834872004
 30
0.0
 11
157.18737184930851
 21
176.14143348720029
 31
0.0
  0
ARC
  5
1801
  8
0
 10
157.5811218493084
 20
176.14143348720029
 30
0.0
 40
0.3937500000000114
 50
0.0
 51
180.0
  0
LINE
  5
1802
  8
0
 10
157.97487184930841
 20
176.14143348720029
 30
0.0
 11
157.97487184930841
 21
173.6476834872004
 31
0.0
  0
LINE
  5
1803
  8
0
 10
157.97487184930841
 20
173.6476834872004
 30
0.0
 11
159.28737184930841
 21
173.6476834872004
 31
0.0
  0
LINE
  5
1804
  8
0
 10
159.28737184930841
 20
173.6476834872004
 30
0.0
 11
159.28737184930841
 21
176.14143348720029
 31
0.0
  0
ARC
  5
1805
  8
0
 10
159.6811218493084
 20
176.14143348720029
 30
0.0
 40
0.3937500000000114
 50
0.0
 51
180.0
  0
LINE
  5
1806
  8
0
 10
160.07487184930841
 20
176.14143348720029
 30
0.0
 11
160.07487184930841
 21
173.6476834872004
 31
0.0
  0
LINE
  5
1807
  8
0
 10
160.07487184930841
 20
173.6476834872004
 30
0.0
 11
161.38737184930841
 21
173.6476834872004
 31
0.0
  0
LINE
  5
1808
  8
0
 10
161.38737184930841
 20
173.6476834872004
 30
0.0
 11
161.38737184930841
 21
176.14143348720029
 31
0.0
  0
ARC
  5
1809
  8
0
 10
159.6811218493084
 20
176.14143348720029
 30
0.0
 40
1.7062499999999841
 50
0.0
 51
127.9798724448506
  0
ARC
  5
180A
  8
0
 10
157.5811218493084
 20
176.14143348720029
 30
0.0
 40
1.7062500000000009
 50
52.02012755514658
 51
180.0
  0
LINE
  5
180B
  8
0
 10
155.87487184930851
 20
176.14143348720029
 30
0.0
 11
155.87487184930851
 21
173.6476834872004
 31
0.0
  0
LINE
  5
180C
  8
0
 10
155.87487184930851
 20
173.6476834872004
 30
0.0
 11
157.18737184930851
 21
173.6476834872004
 31
0.0
  0
LINE
  5
180D
  8
0
 10
149.32237184930929
 20
175.74768348720039
 30
0.0
 11
149.32237184930929
 21
176.0176834872006
 31
0.0
  0
LINE
  5
180E
  8
0
 10
149.32237184930929
 20
176.0176834872006
 30
0.0
 11
148.82737184930849
 21
176.0176834872006
 31
0.0
  0
LINE
  5
180F
  8
0
 10
148.82737184930849
 20
176.0176834872006
 30
0.0
 11
148.82737184930849
 21
175.74768348720039
 31
0.0
  0
ARC
  5
1810
  8
0
 10
147.61237184930889
 20
175.74768348720039
 30
0.0
 40
1.21499999999977
 50
282.83958840692458
 51
0.0
  0
LINE
  5
1811
  8
0
 10
147.88237184930921
 20
174.5630632949028
 30
0.0
 11
147.88237184930921
 21
174.05913381366369
 31
0.0
  0
ARC
  5
1812
  8
0
 10
147.61237184930889
 20
175.74768348720039
 30
0.0
 40
1.710000000000462
 50
279.08472028740289
 51
0.0
  0
CIRCLE
  5
1813
  8
0
 10
167.94987184930849
 20
175.74768348720039
 30
0.0
 40
2.0999999999999091
  0
ARC
  5
1814
  8
0
 10
143.5498718468842
 20
177.14768406248541
 30
0.0
 40
2.0999999975759058
 50
89.999998650668033
 51
180.0
  0
LINE
  5
1815
  8
0
 10
171.34987190131281
 20
179.24768340536309
 30
0.0
 11
143.54987189633979
 21
179.24768406006129
 31
0.0
  0
LINE
  5
1816
  8
0
 10
150.26737184930829
 20
177.15927653235801
 30
0.0
 11
150.26737184930829
 21
177.93609044204209
 31
0.0
  0
ARC
  5
1817
  8
0
 10
150.53737184930841
 20
179.3476834871997
 30
0.0
 40
2.2049999999999339
 50
234.7187381727237
 51
262.96653868461618
  0
ARC
  5
1818
  8
0
 10
150.5373718493085
 20
175.74768348720019
 30
0.0
 40
2.205000000000195
 50
97.033461315383875
 51
125.2812618272756
  0
ARC
  5
1819
  8
0
 10
150.5373718493085
 20
175.74768348720019
 30
0.0
 40
2.2050000000001768
 50
54.718738172724152
 51
82.96653868461614
  0
ARC
  5
181A
  8
0
 10
150.53737184930841
 20
179.3476834871997
 30
0.0
 40
2.2049999999999779
 50
277.03346131538723
 51
305.28126182728329
  0
LINE
  5
181B
  8
0
 10
150.80737184930871
 20
177.93609044204209
 30
0.0
 11
150.80737184930871
 21
177.15927653235809
 31
0.0
  0
LINE
  5
181C
  8
0
 10
150.80737184930871
 20
176.661217407012
 30
0.0
 11
150.80737184930871
 21
176.0176834872006
 31
0.0
  0
ARC
  5
181D
  8
0
 10
150.53737184930841
 20
179.3476834871997
 30
0.0
 40
2.6999999999999331
 50
275.73917047727463
 51
307.66822977671171
  0
ARC
  5
181E
  8
0
 10
150.5373718493085
 20
175.74768348720019
 30
0.0
 40
2.2050000000000778
 50
7.0334613153890606
 51
41.559147591865511
  0
LINE
  5
181F
  8
0
 10
150.80737184930871
 20
176.0176834872006
 30
0.0
 11
152.72577880415031
 21
176.0176834872006
 31
0.0
  0
ARC
  5
1820
  8
0
 10
163.6186218493084
 20
176.14143366421709
 30
0.0
 40
0.3937500000000114
 50
0.0
 51
180.0
  0
LINE
  5
1821
  8
0
 10
164.01237184930841
 20
175.6164334872004
 30
0.0
 11
164.01237184930841
 21
176.14143366421709
 31
0.0
  0
LINE
  5
1822
  8
0
 10
163.22487184930841
 20
175.6164334872004
 30
0.0
 11
164.01237184930841
 21
175.6164334872004
 31
0.0
  0
LINE
  5
1823
  8
0
 10
163.22487184930841
 20
176.14143366421709
 30
0.0
 11
163.22487184930841
 21
175.6164334872004
 31
0.0
  0
CIRCLE
  5
1824
  8
0
 10
167.94987184930849
 20
175.74768348720039
 30
0.0
 40
0.7874999999999944
  0
ARC
  5
1825
  8
0
 10
150.5373718493083
 20
172.14768348720119
 30
0.0
 40
2.6999999999997821
 50
52.331770223284479
 51
84.260829522725331
  0
LINE
  5
1826
  8
0
 10
150.80737184930871
 20
175.47768348720021
 30
0.0
 11
150.80737184930871
 21
174.83414956738869
 31
0.0
  0
LINE
  5
1827
  8
0
 10
152.72577880415031
 20
175.47768348720021
 30
0.0
 11
150.80737184930871
 21
175.47768348720021
 31
0.0
  0
ARC
  5
1828
  8
0
 10
150.5373718493085
 20
175.74768348720019
 30
0.0
 40
2.204999999999945
 50
318.4408524081403
 51
352.96653868462153
  0
LINE
  5
1829
  8
0
 10
150.1477898057145
 20
174.8194293267801
 30
0.0
 11
150.26737184930829
 21
174.83414956738869
 31
0.0
  0
ARC
  5
182A
  8
0
 10
147.61237184930889
 20
175.74768348720039
 30
0.0
 40
2.7000000000003102
 50
339.89157145151938
 51
349.52468615667578
  0
LINE
  5
182B
  8
0
 10
150.26737184930829
 20
174.83414956738869
 30
0.0
 11
150.26737184930829
 21
175.2567914420373
 31
0.0
  0
LINE
  5
182C
  8
0
 10
150.80737184930871
 20
174.33609044204269
 30
0.0
 11
150.80737184930871
 21
173.55927653235861
 31
0.0
  0
ARC
  5
182D
  8
0
 10
150.5373718493083
 20
172.14768348720119
 30
0.0
 40
2.2049999999998708
 50
54.718738172715767
 51
82.966538684609617
  0
ARC
  5
182E
  8
0
 10
150.5373718493085
 20
175.74768348720019
 30
0.0
 40
2.2049999999998189
 50
277.03346131538711
 51
305.28126182728039
  0
ARC
  5
182F
  8
0
 10
150.5373718493085
 20
175.74768348720019
 30
0.0
 40
2.2049999999998069
 50
241.63809460783901
 51
262.96653868461618
  0
ARC
  5
1830
  8
0
 10
147.61237184930889
 20
175.74768348720039
 30
0.0
 40
2.700000000000224
 50
314.05787401223222
 51
326.17031835295029
  0
ARC
  5
1831
  8
0
 10
150.5373718493083
 20
172.14768348720119
 30
0.0
 40
2.2049999999997301
 50
97.033461315380563
 51
108.0201607483823
  0
LINE
  5
1832
  8
0
 10
150.26737184930829
 20
173.55927653235861
 30
0.0
 11
150.26737184930829
 21
174.33609044204269
 31
0.0
  0
LINE
  5
18B9
  8
0
 10
179.99987184930831
 20
191.99768373271229
 30
0.0
 11
180.24987184930831
 21
191.74768373271229
 31
0.0
  0
LINE
  5
18BA
  8
0
 10
180.24987184930831
 20
191.74768373271229
 30
0.0
 11
180.24987184930831
 21
159.74768373271229
 31
0.0
  0
LINE
  5
18BB
  8
0
 10
180.24987184930831
 20
159.74768373271229
 30
0.0
 11
179.99987184930831
 21
159.49768373271229
 31
0.0
  0
LINE
  5
18BE
  8
0
 10
179.99987184930831
 20
191.99768373271229
 30
0.0
 11
179.94987184930829
 21
192.0476837327123
 31
0.0
  0
LINE
  5
18BF
  8
0
 10
179.94987184930829
 20
159.44768373271219
 30
0.0
 11
179.99987184930831
 21
159.49768373271229
 31
0.0
  0
LINE
  5
18C0
  8
0
 10
134.94987184930829
 20
192.2476837327122
 30
0.0
 11
135.94987184930829
 21
193.2476837327122
 31
0.0
  0
LINE
  5
18C4
  8
0
 10
179.94987184930829
 20
192.2476837327122
 30
0.0
 11
178.94987184930829
 21
193.2476837327122
 31
0.0
  0
LINE
  5
18C6
  8
0
 10
149.94987163249641
 20
192.7476837327122
 30
0.0
 11
160.44987184930829
 21
192.7476837327122
 31
0.0
  0
LINE
  5
18C7
  8
0
 10
160.44987184930829
 20
192.7476837327122
 30
0.0
 11
160.44987184930829
 21
193.2476837327122
 31
0.0
  0
LINE
  5
18C8
  8
0
 10
160.44987184930829
 20
193.2476837327122
 30
0.0
 11
178.94987184930829
 21
193.2476837327122
 31
0.0
  0
LINE
  5
18CA
  8
0
 10
135.94987184930829
 20
193.2476837327122
 30
0.0
 11
149.94987163249641
 21
193.2476837327122
 31
0.0
  0
LINE
  5
18CB
  8
0
 10
149.94987163249641
 20
193.2476837327122
 30
0.0
 11
149.94987163249641
 21
192.7476837327122
 31
0.0
  0
LINE
  5
18CF
  8
0
 10
134.94987184930829
 20
159.2476837327122
 30
0.0
 11
134.94987184930829
 21
192.2476837327122
 31
0.0
  0
LINE
  5
18D1
  8
0
 10
179.94987184930829
 20
192.2476837327122
 30
0.0
 11
179.94987184930829
 21
159.2476837327122
 31
0.0
  0
LINE
  5
18D4
  8
0
 10
135.94987184930829
 20
158.2476837327122
 30
0.0
 11
134.94987184930829
 21
159.2476837327122
 31
0.0
  0
LINE
  5
18D5
  8
0
 10
149.94987163249641
 20
158.2476837327122
 30
0.0
 11
135.94987184930829
 21
158.2476837327122
 31
0.0
  0
LINE
  5
18D7
  8
0
 10
178.94987184930829
 20
158.2476837327122
 30
0.0
 11
160.44987184930829
 21
158.2476837327122
 31
0.0
  0
LINE
  5
18D8
  8
0
 10
160.44987184930829
 20
158.2476837327122
 30
0.0
 11
160.44987184930829
 21
158.7476837327122
 31
0.0
  0
LINE
  5
18D9
  8
0
 10
160.44987184930829
 20
158.7476837327122
 30
0.0
 11
149.94987163249641
 21
158.7476837327122
 31
0.0
  0
LINE
  5
18DA
  8
0
 10
149.94987163249641
 20
158.7476837327122
 30
0.0
 11
149.94987163249641
 21
158.2476837327122
 31
0.0
  0
LINE
  5
18DB
  8
0
 10
178.94987184930829
 20
158.2476837327122
 30
0.0
 11
179.94987184930829
 21
159.2476837327122
 31
0.0
  0
LINE
  5
18FD
  8
2
 10
163.44987184930821
 20
193.2476837327122
 30
0.0
 11
163.44987184930829
 21
158.2476837327122
 31
0.0
  0
LINE
  5
190A
  8
2
 10
176.44987184930829
 20
188.74768373271229
 30
0.0
 11
168.44987184930829
 21
188.74768373271229
 31
0.0
  0
LINE
  5
190C
  8
2
 10
146.44987184930829
 20
188.74768373271229
 30
0.0
 11
138.44987184930829
 21
188.74768373271229
 31
0.0
  0
POLYLINE
  5
190D
  8
2
 66
     1
 10
0.0
 20
0.0
 30
0.0
 70
   128
  0
VERTEX
  5
4CF3
  8
2
 10
138.44987184930829
 20
188.74768373271229
 30
0.0
  0
VERTEX
  5
4CF4
  8
2
 10
138.44987184930829
 20
188.74768373271229
 30
0.0
  0
SEQEND
  5
4CF5
  8
2
  0
LINE
  5
190E
  8
2
 10
138.44987184930829
 20
162.74768373271229
 30
0.0
 11
146.44987184930829
 21
162.74768373271229
 31
0.0
  0
POLYLINE
  5
190F
  8
2
 66
     1
 10
0.0
 20
0.0
 30
0.0
 70
   128
  0
VERTEX
  5
4CF6
  8
2
 10
146.44987184930829
 20
162.74768373271229
 30
0.0
  0
VERTEX
  5
4CF7
  8
2
 10
146.44987184930829
 20
162.74768373271229
 30
0.0
  0
SEQEND
  5
4CF8
  8
2
  0
LINE
  5
1910
  8
2
 10
168.44987184930829
 20
162.74768373271229
 30
0.0
 11
176.44987184930829
 21
162.74768373271229
 31
0.0
  0
POLYLINE
  5
1911
  8
2
 66
     1
 10
0.0
 20
0.0
 30
0.0
 70
   128
  0
VERTEX
  5
4CF9
  8
2
 10
176.44987184930829
 20
162.74768373271229
 30
0.0
  0
VERTEX
  5
4CFA
  8
2
 10
176.44987184930829
 20
162.74768373271229
 30
0.0
  0
SEQEND
  5
4CFB
  8
2
  0
LINE
  5
19AC
  8
1
 10
157.44987184930829
 20
198.2476837327122
 30
0.0
 11
157.44987184930821
 21
153.2476837327122
 31
0.0
  0
LINE
  5
242B
  8
2
 10
168.44987184930829
 20
162.74768373271229
 30
0.0
 11
168.44987184930829
 21
158.2476837327122
 31
0.0
  0
LINE
  5
242C
  8
2
 10
176.44987184930829
 20
162.74768373271229
 30
0.0
 11
176.44987184930829
 21
158.2476837327122
 31
0.0
  0
LINE
  5
242D
  8
2
 10
174.69987184930829
 20
188.74768373271229
 30
0.0
 11
174.69987184930829
 21
162.74768373271229
 31
0.0
  0
LINE
  5
242E
  8
2
 10
170.19987184930829
 20
188.74768373271229
 30
0.0
 11
170.19987184930829
 21
162.74768373271229
 31
0.0
  0
LINE
  5
242F
  8
2
 10
176.44987184930829
 20
188.74768373271229
 30
0.0
 11
176.44987184930829
 21
193.2476837327122
 31
0.0
  0
LINE
  5
2430
  8
2
 10
168.44987184930829
 20
188.74768373271229
 30
0.0
 11
168.44987184930829
 21
193.2476837327122
 31
0.0
  0
LINE
  5
2431
  8
2
 10
151.44987184930821
 20
192.7476837327122
 30
0.0
 11
151.44987184930821
 21
158.7476837327122
 31
0.0
  0
LINE
  5
2433
  8
2
 10
146.44987184930829
 20
188.74768373271229
 30
0.0
 11
146.44987184930829
 21
193.2476837327122
 31
0.0
  0
LINE
  5
2434
  8
2
 10
138.44987184930829
 20
188.74768373271229
 30
0.0
 11
138.44987184930829
 21
193.2476837327122
 31
0.0
  0
LINE
  5
2435
  8
2
 10
144.69987184930829
 20
188.74768373271229
 30
0.0
 11
144.69987184930829
 21
162.74768373271229
 31
0.0
  0
LINE
  5
2436
  8
2
 10
140.19987184930829
 20
188.74768373271229
 30
0.0
 11
140.19987184930829
 21
162.74768373271229
 31
0.0
  0
LINE
  5
2437
  8
2
 10
146.44987184930829
 20
162.74768373271229
 30
0.0
 11
146.44987184930829
 21
158.2476837327122
 31
0.0
  0
LINE
  5
2438
  8
2
 10
138.44987184930829
 20
162.74768373271229
 30
0.0
 11
138.44987184930829
 21
158.2476837327122
 31
0.0
  0
LINE
  5
2441
  8
1
 10
227.88741670289519
 20
60.995464028964108
 30
0.0
 11
272.88741685190661
 21
60.995464028964108
 31
0.0
  0
LINE
  5
2447
  8
1
 10
185.24987184930831
 20
175.74768373271229
 30
0.0
 11
129.94987184930829
 21
175.74768373271229
 31
0.0
  0
LINE
  5
2452
  8
1
 10
238.38741685190669
 20
85.245464028964093
 30
0.0
 11
238.38741685190669
 21
72.745464028964093
 31
0.0
  0
LINE
  5
2453
  8
1
 10
232.13741685190669
 20
78.995464028964093
 30
0.0
 11
244.63741685190669
 21
78.995464028964093
 31
0.0
  0
LINE
  5
2454
  8
1
 10
262.38741685190678
 20
85.245464028964079
 30
0.0
 11
262.38741685190678
 21
72.745464028964136
 31
0.0
  0
LINE
  5
2455
  8
1
 10
256.13741685190678
 20
78.995464028964108
 30
0.0
 11
268.63741685190678
 21
78.995464028964108
 31
0.0
  0
LINE
  5
2456
  8
1
 10
262.38741685190678
 20
49.24546402896415
 30
0.0
 11
262.38741685190678
 21
36.745464028964093
 31
0.0
  0
LINE
  5
2457
  8
1
 10
256.13741685190678
 20
42.995464028964122
 30
0.0
 11
268.63741685190678
 21
42.995464028964122
 31
0.0
  0
LINE
  5
2458
  8
1
 10
238.38741685190669
 20
49.245464028964101
 30
0.0
 11
238.38741685190669
 21
36.745464028964108
 31
0.0
  0
LINE
  5
2459
  8
1
 10
232.13741685190681
 20
42.9954640289642
 30
0.0
 11
244.63741685190681
 21
42.9954640289642
 31
0.0
  0
LINE
  5
249C
  8
1
 10
142.44987184930829
 20
198.7476837327122
 30
0.0
 11
142.44987184930829
 21
152.7476837327122
 31
0.0
  0
LINE
  5
249D
  8
1
 10
172.44987184930841
 20
198.7476837327122
 30
0.0
 11
172.44987184930829
 21
152.7476837327122
 31
0.0
  0
LINE
  5
4AFA
  8
1
 10
185.24987184930831
 20
60.995464028964122
 30
0.0
 11
129.9498705707887
 21
60.995464028964108
 31
0.0
  0
CIRCLE
  5
4B09
  8
0
 10
142.44987146485829
 20
88.995464028964093
 30
0.0
 40
2.25
  0
CIRCLE
  5
4B0A
  8
0
 10
172.44987146485829
 20
88.995464028964093
 30
0.0
 40
2.250000000000028
  0
LINE
  5
4B0B
  8
0
 10
160.44987149093541
 20
39.495464297185002
 30
0.0
 11
160.44987149093541
 21
38.995463283906041
 31
0.0
  0
LINE
  5
4B0C
  8
0
 10
149.94987163249641
 20
38.995463283906041
 30
0.0
 11
149.94987163249641
 21
39.495464297185002
 31
0.0
  0
LINE
  5
4B0D
  8
0
 10
160.44987149093541
 20
38.995463283906041
 30
0.0
 11
149.94987163249641
 21
38.995463283906041
 31
0.0
  0
ARC
  5
4B0F
  8
0
 10
157.44987146485829
 20
88.995464028964093
 30
0.0
 40
6.000000000000024
 50
59.999999999999858
 51
299.99999999999989
  0
ARC
  5
4B10
  8
0
 10
148.94987146485829
 20
84.995464028964108
 30
0.0
 40
2.000000000000016
 50
299.99999999999989
 51
59.999999999999858
  0
LINE
  5
4B11
  8
0
 10
160.44987149093541
 20
39.495464297185002
 30
0.0
 11
160.44987149093541
 21
83.799311621313009
 31
0.0
  0
LINE
  5
4B13
  8
0
 10
149.94987163249641
 20
39.495464297185002
 30
0.0
 11
149.94987163249641
 21
83.263413397768787
 31
0.0
  0
CIRCLE
  5
4B15
  8
0
 10
172.44987146485829
 20
88.995464028964093
 30
0.0
 40
4.0
  0
LINE
  5
4B16
  8
0
 10
134.9498705707887
 20
39.995465310463963
 30
0.0
 11
134.9498705707887
 21
99.995463969359463
 31
0.0
  0
LINE
  5
4B17
  8
0
 10
160.44987149093541
 20
99.995463969359463
 30
0.0
 11
160.44987149093541
 21
94.191616436615149
 31
0.0
  0
LINE
  5
4B18
  8
0
 10
162.44987135309961
 20
39.995465310463963
 30
0.0
 11
162.44987135309961
 21
85.678839070126003
 31
0.0
  0
LINE
  5
4B19
  8
0
 10
173.94987137545141
 20
39.995465310463963
 30
0.0
 11
173.94987137545141
 21
82.995463976810029
 31
0.0
  0
LINE
  5
4B1A
  8
0
 10
173.94987137545141
 20
82.995463976810029
 30
0.0
 11
178.94987219501519
 21
82.995463976810029
 31
0.0
  0
LINE
  5
4B1D
  8
0
 10
135.94987073470139
 20
38.995463283906041
 30
0.0
 11
134.9498705707887
 21
39.995465310463963
 31
0.0
  0
LINE
  5
4B1E
  8
0
 10
162.44987135309961
 20
38.995463283906041
 30
0.0
 11
162.44987135309961
 21
39.995465310463963
 31
0.0
  0
LINE
  5
4B1F
  8
0
 10
172.94987121153861
 20
38.995463283906041
 30
0.0
 11
162.44987135309961
 21
38.995463283906041
 31
0.0
  0
LINE
  5
4B20
  8
0
 10
173.94987137545141
 20
39.995465310463963
 30
0.0
 11
172.94987121153861
 21
38.995463283906041
 31
0.0
  0
LINE
  5
4B22
  8
0
 10
160.44987149093541
 20
99.995463969359463
 30
0.0
 11
160.44987149093541
 21
100.49546405131581
 31
0.0
  0
LINE
  5
4B23
  8
0
 10
149.94987163249641
 20
100.49546405131581
 30
0.0
 11
149.94987163249641
 21
99.995463969359463
 31
0.0
  0
LINE
  5
4B24
  8
0
 10
160.44987149093541
 20
100.49546405131581
 30
0.0
 11
149.94987163249641
 21
100.49546405131581
 31
0.0
  0
LINE
  5
4B26
  8
0
 10
135.94987073470139
 20
100.99546413327219
 30
0.0
 11
178.94987219501519
 21
100.99546413327219
 31
0.0
  0
LINE
  5
4B28
  8
0
 10
179.94987235892799
 20
83.995464140722817
 30
0.0
 11
178.94987219501519
 21
82.995463976810029
 31
0.0
  0
LINE
  5
4B29
  8
0
 10
179.94987235892799
 20
99.995463969359463
 30
0.0
 11
179.94987235892799
 21
83.995464140722817
 31
0.0
  0
LINE
  5
4B2A
  8
0
 10
147.94987177033209
 20
39.995465310463963
 30
0.0
 11
147.94987177033209
 21
38.995463283906041
 31
0.0
  0
LINE
  5
4B2C
  8
0
 10
147.94987177033209
 20
38.995463283906041
 30
0.0
 11
135.94987073470139
 21
38.995463283906041
 31
0.0
  0
LINE
  5
4B2F
  8
0
 10
178.94987219501519
 20
100.99546413327219
 30
0.0
 11
179.94987235892799
 21
99.995463969359463
 31
0.0
  0
ARC
  5
4B30
  8
0
 10
148.94987146485829
 20
84.995464028964108
 30
0.0
 40
2.0000000000000022
 50
59.999999999999858
 51
240.0000000000004
  0
LINE
  5
4B31
  8
0
 10
149.94987163249641
 20
86.727514745841077
 30
0.0
 11
149.94987163249641
 21
99.995463969359463
 31
0.0
  0
LINE
  5
4B35
  8
0
 10
147.94987177033209
 20
83.263413397768787
 30
0.0
 11
147.94987177033209
 21
39.995465310463963
 31
0.0
  0
ARC
  5
4B39
  8
0
 10
157.44987146485829
 20
88.995464028964093
 30
0.0
 40
6.0000000000000178
 50
326.44269023807908
 51
59.999999999999858
  0
CIRCLE
  5
4B3B
  8
0
 10
142.44987146485829
 20
88.995464028964093
 30
0.0
 40
4.0000000000000284
  0
LINE
  5
4B3E
  8
0
 10
134.9498705707887
 20
99.995463969359463
 30
0.0
 11
135.94987073470139
 21
100.99546413327219
 31
0.0
  0
LINE
  5
4B3F
  8
0
 10
174.2498708658317
 20
81.995463812897256
 30
0.0
 11
174.2498708658317
 21
82.995463976810029
 31
0.0
  0
LINE
  5
4B40
  8
0
 10
179.9998713426688
 20
82.745463935831836
 30
0.0
 11
179.74987083602929
 21
82.995463976810029
 31
0.0
  0
LINE
  5
4B41
  8
0
 10
178.94987219501519
 20
82.995463976810029
 30
0.0
 11
179.74987083602929
 21
82.995463976810029
 31
0.0
  0
LINE
  5
4B42
  8
0
 10
174.2498708658317
 20
38.995463283906041
 30
0.0
 11
174.2498708658317
 21
39.995465310463963
 31
0.0
  0
LINE
  5
4B43
  8
0
 10
179.74987083602929
 20
38.995463283906041
 30
0.0
 11
174.2498708658317
 21
38.995463283906041
 31
0.0
  0
LINE
  5
4B44
  8
0
 10
179.74987083602929
 20
38.995463283906041
 30
0.0
 11
179.9998713426688
 21
39.245463790545521
 31
0.0
  0
LINE
  5
4B45
  8
0
 10
174.2498708658317
 20
81.995463812897256
 30
0.0
 11
174.2498708658317
 21
39.995465310463963
 31
0.0
  0
LINE
  5
4B48
  8
0
 10
180.24987184930831
 20
82.495463894853657
 30
0.0
 11
180.24987184930831
 21
39.495464297185002
 31
0.0
  0
LINE
  5
4B49
  8
0
 10
180.24987184930831
 20
82.495463894853657
 30
0.0
 11
179.9998713426688
 21
82.745463935831836
 31
0.0
  0
LINE
  5
4B4D
  8
0
 10
179.9998713426688
 20
39.245463790545521
 30
0.0
 11
180.24987184930831
 21
39.495464297185002
 31
0.0
  0
LINE
  5
4BA2
  8
0
 10
160.9498714169618
 20
58.495464028963958
 30
0.0
 11
162.44987134739759
 21
58.495464028963958
 31
0.0
  0
LINE
  5
4BA3
  8
0
 10
160.9498715249951
 20
63.495464505801237
 30
0.0
 11
162.4498713588016
 21
63.495464505801237
 31
0.0
  0
LINE
  5
4BA4
  8
0
 10
160.9498715249951
 20
58.495463686237372
 30
0.0
 11
160.9498715249951
 21
63.495464505801237
 31
0.0
  0
ARC
  5
4BA5
  8
0
 10
166.94987141696171
 20
60.995464028964079
 30
0.0
 40
6.5
 50
157.38013505195909
 51
202.61986494804171
  0
LINE
  5
4BA6
  8
0
 10
148.22928693524301
 20
54.99551189854013
 30
0.0
 11
147.94987223599341
 21
58.415245147594142
 31
0.0
  0
LINE
  5
4BA7
  8
0
 10
148.59222638643999
 20
58.194615242240531
 30
0.0
 11
148.22928693524301
 21
54.99551189854013
 31
0.0
  0
LINE
  5
4BA8
  8
0
 10
149.59061848280911
 20
66.99486961878516
 30
0.0
 11
149.2303533951814
 21
63.819339257875242
 31
0.0
  0
LINE
  5
4BA9
  8
0
 10
149.9498716324963
 20
61.395762901184654
 30
0.0
 11
149.58734806760569
 21
66.995462613130655
 31
0.0
  0
LINE
  5
4BAA
  8
0
 10
148.01468229739069
 20
66.996206072723609
 30
0.0
 11
147.94987223599341
 21
66.770093398342183
 31
0.0
  0
LINE
  5
4BAB
  8
0
 10
148.01468229739069
 20
66.996206072723609
 30
0.0
 11
148.8015592798987
 21
55.004447581419981
 31
0.0
  0
LINE
  5
4BAC
  8
0
 10
149.80160642568109
 20
54.99551167772325
 30
0.0
 11
149.02472969588001
 21
66.995494082719134
 31
0.0
  0
LINE
  5
4BAD
  8
0
 10
149.80160642568109
 20
54.99551167772325
 30
0.0
 11
149.94987163249641
 21
56.032873572955168
 31
0.0
  0
LINE
  5
4BAE
  8
0
 10
148.22928693524301
 20
54.99551189854013
 30
0.0
 11
147.94987223599341
 21
54.99551189854013
 31
0.0
  0
LINE
  5
4BAF
  8
0
 10
148.8015592798987
 20
55.004447581419981
 30
0.0
 11
149.80160642568109
 21
54.99551167772325
 31
0.0
  0
LINE
  5
4BB0
  8
0
 10
149.58407197484891
 20
66.99486961878516
 30
0.0
 11
149.94987163249641
 21
66.99486961878516
 31
0.0
  0
LINE
  5
4BB1
  8
0
 10
149.0239800769705
 20
66.995379042916554
 30
0.0
 11
148.01468229739069
 21
66.996206072723609
 31
0.0
  0
LINE
  5
4BB2
  8
1
 10
142.4498714648584
 20
95.995464028964165
 30
0.0
 11
142.4498714648584
 21
81.995464028964108
 31
0.0
  0
LINE
  5
4BB3
  8
1
 10
135.44987146485829
 20
88.995464028964136
 30
0.0
 11
149.4498714648584
 21
88.995464028964136
 31
0.0
  0
LINE
  5
4BB4
  8
1
 10
150.44987146485829
 20
88.995464028964093
 30
0.0
 11
164.44987146485829
 21
88.995464028964093
 31
0.0
  0
LINE
  5
4BB5
  8
1
 10
157.44987146485829
 20
97.995464028964136
 30
0.0
 11
157.44987146485829
 21
79.995464028964079
 31
0.0
  0
LINE
  5
4BB6
  8
1
 10
165.44987146485829
 20
88.995464028964136
 30
0.0
 11
179.4498714648584
 21
88.995464028964136
 31
0.0
  0
LINE
  5
4BB7
  8
1
 10
172.4498714648584
 20
95.995464028964165
 30
0.0
 11
172.4498714648584
 21
81.995464028964108
 31
0.0
  0
TEXT
  5
4CC5
  8
0
 62
     3
 10
0.0
 20
0.0
 30
0.0
 40
10.0
  1
QSCA12-N
  7
STANDARD1
  0
ENDSEC
  0
EOF
