  0
SECTION
  2
HEADER
  9
$ACADVER
  1
AC1009
  9
$INSBASE
 10
0.0
 20
0.0
 30
0.0
  9
$EXTMIN
 10
0.0
 20
-2.960436562073669
 30
0.0
  9
$EXTMAX
 10
133.30589047963349
 20
91.367925044792401
 30
0.0
  9
$LIMMIN
 10
0.0
 20
0.0
  9
$LIMMAX
 10
187.5
 20
135.0
  9
$ORTHOMODE
 70
     1
  9
$REGENMODE
 70
     1
  9
$FILLMODE
 70
     1
  9
$QTEXTMODE
 70
     0
  9
$MIRRTEXT
 70
     0
  9
$DRAGMODE
 70
     2
  9
$LTSCALE
 40
10.0
  9
$OSMODE
 70
    55
  9
$ATTMODE
 70
     1
  9
$TEXTSIZE
 40
2.5
  9
$TRACEWID
 40
0.05
  9
$TEXTSTYLE
  7
STANDARD
  9
$CLAYER
  8
0
  9
$CELTYPE
  6
BYLAYER
  9
$CECOLOR
 62
   256
  9
$DIMSCALE
 40
0.5
  9
$DIMASZ
 40
3.0
  9
$DIMEXO
 40
2.0
  9
$DIMDLI
 40
10.0
  9
$DIMRND
 40
0.0
  9
$DIMDLE
 40
0.0
  9
$DIMEXE
 40
2.0
  9
$DIMTP
 40
0.0
  9
$DIMTM
 40
0.0
  9
$DIMTXT
 40
3.0
  9
$DIMCEN
 40
0.09
  9
$DIMTSZ
 40
0.0
  9
$DIMTOL
 70
     0
  9
$DIMLIM
 70
     0
  9
$DIMTIH
 70
     0
  9
$DIMTOH
 70
     0
  9
$DIMSE1
 70
     0
  9
$DIMSE2
 70
     0
  9
$DIMTAD
 70
     1
  9
$DIMZIN
 70
     0
  9
$DIMBLK
  1

  9
$DIMASO
 70
     0
  9
$DIMSHO
 70
     0
  9
$DIMPOST
  1

  9
$DIMAPOST
  1

  9
$DIMALT
 70
     0
  9
$DIMALTD
 70
     2
  9
$DIMALTF
 40
25.399999999999999
  9
$DIMLFAC
 40
1.0
  9
$DIMTOFL
 70
     1
  9
$DIMTVP
 40
1.6000000000000001
  9
$DIMTIX
 70
     1
  9
$DIMSOXD
 70
     0
  9
$DIMSAH
 70
     0
  9
$DIMBLK1
  1

  9
$DIMBLK2
  1

  9
$DIMSTYLE
  2
STANDARD
  9
$DIMCLRD
 70
     0
  9
$DIMCLRE
 70
     0
  9
$DIMCLRT
 70
     0
  9
$DIMTFAC
 40
1.0
  9
$DIMGAP
 40
0.09
  9
$LUNITS
 70
     2
  9
$LUPREC
 70
     4
  9
$SKETCHINC
 40
0.1
  9
$FILLETRAD
 40
0.0
  9
$AUNITS
 70
     0
  9
$AUPREC
 70
     0
  9
$MENU
  1
E:\r13\win\SUPPORT\ACAD
  9
$ELEVATION
 40
0.0
  9
$PELEVATION
 40
0.0
  9
$THICKNESS
 40
0.0
  9
$LIMCHECK
 70
     0
  9
$BLIPMODE
 70
     0
  9
$CHAMFERA
 40
3.2000000000000002
  9
$CHAMFERB
 40
3.2000000000000002
  9
$SKPOLY
 70
     0
  9
$TDCREATE
 40
2449840.5944097228
  9
$TDUPDATE
 40
2456598.5855333102
  9
$TDINDWG
 40
0.2768626273
  9
$TDUSRTIMER
 40
0.2768626273
  9
$USRTIMER
 70
     1
  9
$ANGBASE
 50
0.0
  9
$ANGDIR
 70
     0
  9
$PDMODE
 70
     0
  9
$PDSIZE
 40
0.0
  9
$PLINEWID
 40
0.0
  9
$COORDS
 70
     1
  9
$SPLFRAME
 70
     0
  9
$SPLINETYPE
 70
     6
  9
$SPLINESEGS
 70
     8
  9
$ATTDIA
 70
     0
  9
$ATTREQ
 70
     1
  9
$HANDLING
 70
     1
  9
$HANDSEED
  5
3BC9
  9
$SURFTAB1
 70
     6
  9
$SURFTAB2
 70
     6
  9
$SURFTYPE
 70
     6
  9
$SURFU
 70
     6
  9
$SURFV
 70
     6
  9
$UCSNAME
  2

  9
$UCSORG
 10
0.0
 20
0.0
 30
0.0
  9
$UCSXDIR
 10
1.0
 20
0.0
 30
0.0
  9
$UCSYDIR
 10
0.0
 20
1.0
 30
0.0
  9
$PUCSNAME
  2

  9
$PUCSORG
 10
0.0
 20
0.0
 30
0.0
  9
$PUCSXDIR
 10
1.0
 20
0.0
 30
0.0
  9
$PUCSYDIR
 10
0.0
 20
1.0
 30
0.0
  9
$USERI1
 70
     0
  9
$USERI2
 70
     1
  9
$USERI3
 70
     1
  9
$USERI4
 70
     0
  9
$USERI5
 70
     0
  9
$USERR1
 40
0.0
  9
$USERR2
 40
0.0
  9
$USERR3
 40
0.0
  9
$USERR4
 40
0.0
  9
$USERR5
 40
0.0
  9
$WORLDVIEW
 70
     1
  9
$SHADEDGE
 70
     3
  9
$SHADEDIF
 70
    70
  9
$TILEMODE
 70
     1
  9
$MAXACTVP
 70
    16
  9
$PLIMCHECK
 70
     0
  9
$PEXTMIN
 10
1.0000000000000000E+020
 20
1.0000000000000000E+020
 30
1.0000000000000000E+020
  9
$PEXTMAX
 10
-1.0000000000000000E+020
 20
-1.0000000000000000E+020
 30
-1.0000000000000000E+020
  9
$PLIMMIN
 10
0.0
 20
0.0
  9
$PLIMMAX
 10
12.0
 20
9.0
  9
$UNITMODE
 70
     0
  9
$VISRETAIN
 70
     0
  9
$PLINEGEN
 70
     0
  9
$PSLTSCALE
 70
     0
  0
ENDSEC
  0
SECTION
  2
TABLES
  0
TABLE
  2
VPORT
 70
     1
  0
VPORT
  2
*ACTIVE
 70
     0
 10
0.0
 20
0.0
 11
1.0
 21
1.0
 12
93.747139195326156
 22
96.983959220318994
 13
0.0
 23
0.0
 14
5.0
 24
5.0
 15
5.0
 25
5.0
 16
0.0
 26
0.0
 36
1.0
 17
0.0
 27
0.0
 37
0.0
 40
201.84293963319561
 41
1.7807262569832401
 42
50.0
 43
0.0
 44
0.0
 50
0.0
 51
0.0
 71
     0
 72
   100
 73
     1
 74
     0
 75
     0
 76
     0
 77
     0
 78
     0
  0
ENDTAB
  0
TABLE
  2
LTYPE
 70
     4
  0
LTYPE
  2
CONTINUOUS
 70
     0
  3
Solid Line
 72
    65
 73
     0
 40
0.0
  0
LTYPE
  2
CENTER
 70
     0
  3
____ _ ____ _ ____ _ ____ _ ____ _ ____ _ ____
 72
    65
 73
     4
 40
2.0
 49
1.25
 49
-0.25
 49
0.25
 49
-0.25
  0
LTYPE
  2
HIDDEN
 70
     0
  3
_ _ _ _ _ _ _ _ _ _ _ _ _ _ _ _ _ _ _ _ _ _ _
 72
    65
 73
     2
 40
0.375
 49
0.25
 49
-0.125
  0
LTYPE
  2
PHANTOM2
 70
     0
  3
___ _ _ ___ _ _ ___ _ _ ___ _ _
 72
    65
 73
     6
 40
1.25
 49
0.625
 49
-0.125
 49
0.125
 49
-0.125
 49
0.125
 49
-0.125
  0
ENDTAB
  0
TABLE
  2
LAYER
 70
     3
  0
LAYER
  2
0
 70
     0
 62
     7
  6
CONTINUOUS
  0
LAYER
  2
1
 70
     0
 62
     1
  6
CENTER
  0
LAYER
  2
2
 70
     0
 62
     2
  6
HIDDEN
  0
ENDTAB
  0
TABLE
  2
STYLE
 70
     2
  0
STYLE
  2
STANDARD
 70
     0
 40
0.0
 41
1.0
 50
0.0
 71
     0
 42
2.5
  3
TXT
  4
BIGFONT
  0
STYLE
  2
STANDARD1
 70
     0
 40
0.0
 41
1.0
 50
0.0
 71
     0
 42
3.0
  3
txt
  4

  0
ENDTAB
  0
TABLE
  2
VIEW
 70
     1
  0
VIEW
  2
ALL
 70
     0
 40
135.0
 10
110.49579799999999
 20
67.5
 41
0.0
 11
0.0
 21
0.0
 31
1.0
 12
0.0
 22
0.0
 32
0.0
 42
0.0
 43
0.0
 44
0.0
 50
0.0
 71
     0
  0
ENDTAB
  0
TABLE
  2
UCS
 70
     0
  0
ENDTAB
  0
TABLE
  2
APPID
 70
     4
  0
APPID
  2
ACAD
 70
     0
  0
APPID
  2
DCO15
 70
     0
  0
APPID
  2
ACAD_MLEADERVER
 70
     0
  0
APPID
  2
ACAD_NAV_VCDISPLAY
 70
     0
  0
ENDTAB
  0
TABLE
  2
DIMSTYLE
 70
     1
  0
DIMSTYLE
  2
STANDARD
 70
     0
  3

  4

  5

  6

  7

 40
1.0
 41
0.18
 42
0.0625
 43
0.38
 44
0.18
 45
0.0
 46
0.0
 47
0.0
 48
0.0
140
0.18
141
0.09
142
0.0
143
25.399999999999999
144
1.0
145
0.0
146
1.0
147
0.09
 71
     0
 72
     0
 73
     1
 74
     1
 75
     0
 76
     0
 77
     0
 78
     0
170
     0
171
     2
172
     0
173
     0
174
     0
175
     0
176
     0
177
     0
178
     0
  0
ENDTAB
  0
ENDSEC
  0
SECTION
  2
BLOCKS
  0
BLOCK
  8
0
  2
$MODEL_SPACE
 70
     0
 10
0.0
 20
0.0
 30
0.0
  3
$MODEL_SPACE
  1

  0
ENDBLK
  5
15D
  8
0
  0
BLOCK
 67
     1
  8
0
  2
$PAPER_SPACE
 70
     0
 10
0.0
 20
0.0
 30
0.0
  3
$PAPER_SPACE
  1

  0
ENDBLK
  5
15B
 67
     1
  8
0
  0
BLOCK
  8
0
  2
STDGX5
 70
     0
 10
0.0
 20
0.0
 30
0.0
  3
STDGX5
  1

  0
ENDBLK
  5
41
  8
0
  0
ENDSEC
  0
SECTION
  2
ENTITIES
  0
INSERT
  5
CA
  8
0
  2
STDGX5
 10
0.0
 20
0.0
 30
0.0
  0
INSERT
  5
69A
  8
0
  2
STDGX5
 10
194.3272563481562
 20
13.52129245667936
 30
0.0
  0
LINE
  5
3A39
  8
1
 10
122.30589054760971
 20
51.367925044792401
 30
0.0
 11
122.30589054760971
 21
91.367925044792401
 31
0.0
  0
CIRCLE
  5
3A3A
  8
0
 10
61.30589041165603
 20
71.36792483987324
 30
0.0
 40
12.800000000000001
  0
LINE
  5
3A3B
  8
0
 10
124.7058905476097
 20
84.167925044792412
 30
0.0
 11
128.30589054761009
 21
84.167925044792383
 31
0.0
  0
LINE
  5
3A3C
  8
0
 10
116.3058905476092
 20
84.167925044792383
 30
0.0
 11
119.9058905476097
 21
84.167925044792412
 31
0.0
  0
LINE
  5
3A3D
  8
0
 10
120.1058905476097
 20
86.367925044792401
 30
0.0
 11
124.5058905476096
 21
86.367925044792401
 31
0.0
  0
ARC
  5
3A3E
  8
0
 10
124.7058905476097
 20
84.367925044792415
 30
0.0
 40
0.2
 50
180.0
 51
270.0
  0
ARC
  5
3A3F
  8
0
 10
119.9058905476097
 20
84.367925044792415
 30
0.0
 40
0.2
 50
270.0
 51
0.0000000000008142
  0
LINE
  5
3A40
  8
0
 10
116.3058905476092
 20
58.56792504479241
 30
0.0
 11
119.9058905476097
 21
58.56792504479241
 31
0.0
  0
LINE
  5
3A41
  8
0
 10
124.7058905476096
 20
58.56792504479241
 30
0.0
 11
128.30589054761009
 21
58.56792504479241
 31
0.0
  0
LINE
  5
3A42
  8
0
 10
120.1058905476097
 20
86.367925044792401
 30
0.0
 11
120.1058905476097
 21
56.367925044792401
 31
0.0
  0
LINE
  5
3A43
  8
0
 10
124.5058905476096
 20
86.367925044792401
 30
0.0
 11
124.5058905476096
 21
56.367925044792401
 31
0.0
  0
LINE
  5
3A44
  8
0
 10
120.1058905476097
 20
56.367925044792401
 30
0.0
 11
124.5058905476096
 21
56.367925044792401
 31
0.0
  0
ARC
  5
3A45
  8
0
 10
124.7058905476096
 20
58.367925044792401
 30
0.0
 40
0.2
 50
90.0
 51
179.9999999999992
  0
ARC
  5
3A46
  8
0
 10
119.9058905476097
 20
58.367925044792401
 30
0.0
 40
0.2
 50
359.9999999999992
 51
90.0
  0
LINE
  5
3A47
  8
0
 10
128.30589041165689
 20
58.56792504479241
 30
0.0
 11
128.30589054761009
 21
84.167925044792383
 31
0.0
  0
LINE
  5
3A48
  8
0
 10
116.30589041165599
 20
58.56792504479241
 30
0.0
 11
116.30589041165599
 21
84.167925044792383
 31
0.0
  0
LINE
  5
3A49
  8
1
 10
111.30589041165599
 20
71.36792483987324
 30
0.0
 11
133.30589047963349
 21
71.367924839873226
 31
0.0
  0
LINE
  5
3A4A
  8
2
 10
119.30589041165599
 20
62.467924839872687
 30
0.0
 11
119.30589041165599
 21
80.267924839872876
 31
0.0
  0
LINE
  5
3A4B
  8
2
 10
118.1558904116564
 20
62.467924839872687
 30
0.0
 11
118.1558904116564
 21
80.267924839872876
 31
0.0
  0
LINE
  5
3A4C
  8
2
 10
117.30589041165599
 20
62.86792483987324
 30
0.0
 11
117.30589041165599
 21
79.86792483987324
 31
0.0
  0
LINE
  5
3A4D
  8
2
 10
118.30589041165599
 20
80.267924839872876
 30
0.0
 11
118.30589041165599
 21
62.467924839872687
 31
0.0
  0
LINE
  5
3A4E
  8
2
 10
125.30589041165599
 20
63.067924839873051
 30
0.0
 11
125.30589041165599
 21
79.667924839872967
 31
0.0
  0
LINE
  5
3A4F
  8
2
 10
119.6058904116562
 20
68.367924839873226
 30
0.0
 11
125.00589041165669
 21
68.367924839873226
 31
0.0
  0
LINE
  5
3A50
  8
2
 10
119.3058904116569
 20
66.467924839872694
 30
0.0
 11
121.0699697022264
 21
66.467924839872694
 31
0.0
  0
LINE
  5
3A51
  8
2
 10
119.30589041165599
 20
62.86792483987324
 30
0.0
 11
125.1058904116562
 21
62.86792483987324
 31
0.0
  0
LINE
  5
3A52
  8
2
 10
119.3058904116569
 20
64.767924839872876
 30
0.0
 11
121.06996970222551
 21
64.767924839872876
 31
0.0
  0
ARC
  5
3A53
  8
2
 10
119.6058904116562
 20
68.067924839873044
 30
0.0
 40
0.3
 50
90.0
 51
180.0
  0
LINE
  5
3A54
  8
2
 10
118.1558904116564
 20
62.467924839872687
 30
0.0
 11
119.30589041165599
 21
62.467924839872687
 31
0.0
  0
ARC
  5
3A55
  8
2
 10
119.6058904116562
 20
63.16792483987296
 30
0.0
 40
0.3
 50
180.0
 51
270.0
  0
LINE
  5
3A56
  8
2
 10
118.30589041165599
 20
63.754778315603517
 30
0.0
 11
119.30589041165599
 21
63.754778315603517
 31
0.0
  0
LINE
  5
3A57
  8
2
 10
117.30589041165599
 20
62.86792483987324
 30
0.0
 11
116.30589041165599
 21
62.290574570683248
 31
0.0
  0
LINE
  5
3A58
  8
2
 10
117.30589041165599
 20
62.86792483987324
 30
0.0
 11
118.1558904116564
 21
62.86792483987324
 31
0.0
  0
LINE
  5
3A59
  8
2
 10
123.5418111210865
 20
66.467924839872694
 30
0.0
 11
125.3058904116569
 21
66.467924839872694
 31
0.0
  0
ARC
  5
3A5A
  8
2
 10
125.00589041165669
 20
68.067924839873044
 30
0.0
 40
0.3
 50
0.0
 51
90.0
  0
LINE
  5
3A5B
  8
2
 10
123.54181112108741
 20
64.767924839872876
 30
0.0
 11
125.3058904116569
 21
64.767924839872876
 31
0.0
  0
ARC
  5
3A5C
  8
2
 10
125.1058904116562
 20
63.067924839873051
 30
0.0
 40
0.2
 50
270.0
 51
0.0
  0
ARC
  5
3A5D
  8
2
 10
125.0058904116558
 20
63.16792483987296
 30
0.0
 40
0.3
 50
270.0
 51
0.0
  0
CIRCLE
  5
3A5E
  8
2
 10
122.3058904116569
 20
65.61792483987324
 30
0.0
 40
1.5
  0
LINE
  5
3A5F
  8
2
 10
119.6058904116562
 20
74.36792483987324
 30
0.0
 11
125.00589041165669
 21
74.36792483987324
 31
0.0
  0
LINE
  5
3A60
  8
2
 10
119.30589041165599
 20
79.86792483987324
 30
0.0
 11
125.1058904116562
 21
79.86792483987324
 31
0.0
  0
LINE
  5
3A61
  8
2
 10
119.3058904116569
 20
77.967924839872694
 30
0.0
 11
121.06996970222551
 21
77.967924839872694
 31
0.0
  0
LINE
  5
3A62
  8
2
 10
119.3058904116569
 20
76.267924839872876
 30
0.0
 11
121.0699697022264
 21
76.267924839872876
 31
0.0
  0
LINE
  5
3A63
  8
2
 10
118.1558904116564
 20
80.267924839872876
 30
0.0
 11
119.30589041165599
 21
80.267924839872876
 31
0.0
  0
ARC
  5
3A64
  8
2
 10
119.6058904116562
 20
74.667924839872967
 30
0.0
 40
0.3
 50
180.0
 51
270.0
  0
LINE
  5
3A65
  8
2
 10
118.30589041165599
 20
78.981071364142494
 30
0.0
 11
119.30589041165599
 21
78.981071364142963
 31
0.0
  0
ARC
  5
3A66
  8
2
 10
119.6058904116562
 20
79.567924839873058
 30
0.0
 40
0.3
 50
90.0
 51
180.0
  0
LINE
  5
3A67
  8
2
 10
117.30589041165599
 20
79.86792483987324
 30
0.0
 11
116.30589041165599
 21
80.445275109062337
 31
0.0
  0
LINE
  5
3A68
  8
2
 10
117.30589041165599
 20
79.86792483987324
 30
0.0
 11
118.1558904116564
 21
79.86792483987324
 31
0.0
  0
LINE
  5
3A69
  8
2
 10
123.54181112108741
 20
77.967924839872694
 30
0.0
 11
125.3058904116569
 21
77.967924839872694
 31
0.0
  0
LINE
  5
3A6A
  8
2
 10
123.5418111210865
 20
76.267924839872876
 30
0.0
 11
125.3058904116569
 21
76.267924839872876
 31
0.0
  0
CIRCLE
  5
3A6B
  8
2
 10
122.3058904116569
 20
77.117924839873226
 30
0.0
 40
1.5
  0
ARC
  5
3A6C
  8
2
 10
125.00589041165669
 20
74.667924839872967
 30
0.0
 40
0.3
 50
270.0
 51
0.0
  0
ARC
  5
3A6D
  8
2
 10
125.1058904116562
 20
79.667924839872967
 30
0.0
 40
0.2
 50
0.0
 51
90.0
  0
ARC
  5
3A6E
  8
2
 10
125.00589041165669
 20
79.567924839873058
 30
0.0
 40
0.3
 50
0.0
 51
90.0
  0
LINE
  5
3A6F
  8
2
 10
125.30589041165599
 20
64.86792483987324
 30
0.0
 11
128.30589041165689
 21
64.86792483987324
 31
0.0
  0
LINE
  5
3A70
  8
2
 10
125.30589041165599
 20
77.86792483987324
 30
0.0
 11
128.30589041165689
 21
77.86792483987324
 31
0.0
  0
CIRCLE
  5
3A71
  8
0
 10
66.891754266065732
 20
68.142924839873245
 30
0.0
 40
0.85
  0
ARC
  5
3A72
  8
0
 10
66.891754266065732
 20
68.142924839873245
 30
0.0
 40
1.3499999999999719
 50
72.081469884707005
 51
227.91853011529309
  0
LINE
  5
3A73
  8
0
 10
67.30710114979172
 20
69.427443024321803
 30
0.0
 11
69.393597498924919
 21
68.752777794191033
 31
0.0
  0
LINE
  5
3A74
  8
0
 10
65.987002328573226
 20
67.140964794959544
 30
0.0
 11
67.384532432513694
 21
65.87902019381211
 31
0.0
  0
LINE
  5
3A75
  8
2
 10
69.393597498924919
 20
68.752777794191033
 30
0.0
 11
69.774195479502396
 21
68.629712050864796
 31
0.0
  0
LINE
  5
3A76
  8
2
 10
69.393597498924919
 20
73.983071885555432
 30
0.0
 11
69.774195479502396
 21
74.106137628881683
 31
0.0
  0
LINE
  5
3A77
  8
0
 10
65.987002328573226
 20
75.594884884786936
 30
0.0
 11
67.384532432513694
 21
76.856829485934369
 31
0.0
  0
LINE
  5
3A78
  8
0
 10
67.30710114979172
 20
73.308406655424676
 30
0.0
 11
69.393597498924919
 21
73.983071885555432
 31
0.0
  0
ARC
  5
3A79
  8
0
 10
66.891754266065732
 20
74.592924839873234
 30
0.0
 40
1.3499999999999719
 50
132.08146988470691
 51
287.91853011529298
  0
CIRCLE
  5
3A7A
  8
0
 10
66.891754266065732
 20
74.592924839873234
 30
0.0
 40
0.85
  0
ARC
  5
3A7B
  8
0
 10
62.055890411656037
 20
71.36792483987324
 30
0.0
 40
7.6500000000000901
 50
45.848778434530999
 51
314.15122156546897
  0
CIRCLE
  5
3A7C
  8
2
 10
61.30589041165603
 20
71.36792483987324
 30
0.0
 40
8.9000000000000892
  0
CIRCLE
  5
3A7D
  8
0
 10
61.30589041165603
 20
71.36792483987324
 30
0.0
 40
3.0
  0
CIRCLE
  5
3A7E
  8
0
 10
61.30589041165603
 20
71.36792483987324
 30
0.0
 40
8.5
  0
LINE
  5
3A7F
  8
1
 10
81.305890411656037
 20
71.36792483987324
 30
0.0
 11
41.30589041165603
 21
71.36792483987324
 31
0.0
  0
LINE
  5
3A80
  8
1
 10
61.30589041165603
 20
91.36792483987324
 30
0.0
 11
61.30589041165603
 21
51.36792483987324
 31
0.0
  0
CIRCLE
  5
3A81
  8
0
 10
61.30589041165603
 20
71.36792483987324
 30
0.0
 40
15.0
  0
TEXT
  5
3B32
  8
0
 62
     3
 10
0.0
 20
0.0
 30
0.0
 40
10.0
  1
RABJ35-30
  7
STANDARD1
  0
ENDSEC
  0
EOF
