  0
SECTION
  2
HEADER
  9
$ACADVER
  1
AC1009
  9
$INSBASE
 10
0.0
 20
0.0
 30
0.0
  9
$EXTMIN
 10
0.0
 20
-2.960436562073669
 30
0.0
  9
$EXTMAX
 10
166.2989852528402
 20
101.03773606150111
 30
0.0
  9
$LIMMIN
 10
0.0
 20
0.0
  9
$LIMMAX
 10
187.5
 20
135.0
  9
$ORTHOMODE
 70
     0
  9
$REGENMODE
 70
     1
  9
$FILLMODE
 70
     1
  9
$QTEXTMODE
 70
     0
  9
$MIRRTEXT
 70
     0
  9
$DRAGMODE
 70
     2
  9
$LTSCALE
 40
10.0
  9
$OSMODE
 70
    55
  9
$ATTMODE
 70
     1
  9
$TEXTSIZE
 40
2.5
  9
$TRACEWID
 40
0.05
  9
$TEXTSTYLE
  7
STANDARD
  9
$CLAYER
  8
0
  9
$CELTYPE
  6
BYLAYER
  9
$CECOLOR
 62
   256
  9
$DIMSCALE
 40
0.5
  9
$DIMASZ
 40
3.0
  9
$DIMEXO
 40
2.0
  9
$DIMDLI
 40
10.0
  9
$DIMRND
 40
0.0
  9
$DIMDLE
 40
0.0
  9
$DIMEXE
 40
2.0
  9
$DIMTP
 40
0.0
  9
$DIMTM
 40
0.0
  9
$DIMTXT
 40
3.0
  9
$DIMCEN
 40
0.09
  9
$DIMTSZ
 40
0.0
  9
$DIMTOL
 70
     0
  9
$DIMLIM
 70
     0
  9
$DIMTIH
 70
     0
  9
$DIMTOH
 70
     0
  9
$DIMSE1
 70
     0
  9
$DIMSE2
 70
     0
  9
$DIMTAD
 70
     1
  9
$DIMZIN
 70
     0
  9
$DIMBLK
  1

  9
$DIMASO
 70
     0
  9
$DIMSHO
 70
     0
  9
$DIMPOST
  1

  9
$DIMAPOST
  1

  9
$DIMALT
 70
     0
  9
$DIMALTD
 70
     2
  9
$DIMALTF
 40
25.399999999999999
  9
$DIMLFAC
 40
1.0
  9
$DIMTOFL
 70
     1
  9
$DIMTVP
 40
1.6000000000000001
  9
$DIMTIX
 70
     1
  9
$DIMSOXD
 70
     0
  9
$DIMSAH
 70
     0
  9
$DIMBLK1
  1

  9
$DIMBLK2
  1

  9
$DIMSTYLE
  2
STANDARD
  9
$DIMCLRD
 70
     0
  9
$DIMCLRE
 70
     0
  9
$DIMCLRT
 70
     0
  9
$DIMTFAC
 40
1.0
  9
$DIMGAP
 40
0.09
  9
$LUNITS
 70
     2
  9
$LUPREC
 70
     4
  9
$SKETCHINC
 40
0.1
  9
$FILLETRAD
 40
0.0
  9
$AUNITS
 70
     0
  9
$AUPREC
 70
     0
  9
$MENU
  1
E:\r13\win\SUPPORT\ACAD
  9
$ELEVATION
 40
0.0
  9
$PELEVATION
 40
0.0
  9
$THICKNESS
 40
0.0
  9
$LIMCHECK
 70
     0
  9
$BLIPMODE
 70
     0
  9
$CHAMFERA
 40
3.2000000000000002
  9
$CHAMFERB
 40
3.2000000000000002
  9
$SKPOLY
 70
     0
  9
$TDCREATE
 40
2449840.5944097228
  9
$TDUPDATE
 40
2456598.585589827
  9
$TDINDWG
 40
0.280922037
  9
$TDUSRTIMER
 40
0.280922037
  9
$USRTIMER
 70
     1
  9
$ANGBASE
 50
0.0
  9
$ANGDIR
 70
     0
  9
$PDMODE
 70
     0
  9
$PDSIZE
 40
0.0
  9
$PLINEWID
 40
0.0
  9
$COORDS
 70
     1
  9
$SPLFRAME
 70
     0
  9
$SPLINETYPE
 70
     6
  9
$SPLINESEGS
 70
     8
  9
$ATTDIA
 70
     0
  9
$ATTREQ
 70
     1
  9
$HANDLING
 70
     1
  9
$HANDSEED
  5
1C0
  9
$SURFTAB1
 70
     6
  9
$SURFTAB2
 70
     6
  9
$SURFTYPE
 70
     6
  9
$SURFU
 70
     6
  9
$SURFV
 70
     6
  9
$UCSNAME
  2

  9
$UCSORG
 10
0.0
 20
0.0
 30
0.0
  9
$UCSXDIR
 10
1.0
 20
0.0
 30
0.0
  9
$UCSYDIR
 10
0.0
 20
1.0
 30
0.0
  9
$PUCSNAME
  2

  9
$PUCSORG
 10
0.0
 20
0.0
 30
0.0
  9
$PUCSXDIR
 10
1.0
 20
0.0
 30
0.0
  9
$PUCSYDIR
 10
0.0
 20
1.0
 30
0.0
  9
$USERI1
 70
     0
  9
$USERI2
 70
     1
  9
$USERI3
 70
     1
  9
$USERI4
 70
     0
  9
$USERI5
 70
     0
  9
$USERR1
 40
0.0
  9
$USERR2
 40
0.0
  9
$USERR3
 40
0.0
  9
$USERR4
 40
0.0
  9
$USERR5
 40
0.0
  9
$WORLDVIEW
 70
     1
  9
$SHADEDGE
 70
     3
  9
$SHADEDIF
 70
    70
  9
$TILEMODE
 70
     1
  9
$MAXACTVP
 70
    16
  9
$PLIMCHECK
 70
     0
  9
$PEXTMIN
 10
1.0000000000000000E+020
 20
1.0000000000000000E+020
 30
1.0000000000000000E+020
  9
$PEXTMAX
 10
-1.0000000000000000E+020
 20
-1.0000000000000000E+020
 30
-1.0000000000000000E+020
  9
$PLIMMIN
 10
0.0
 20
0.0
  9
$PLIMMAX
 10
12.0
 20
9.0
  9
$UNITMODE
 70
     0
  9
$VISRETAIN
 70
     0
  9
$PLINEGEN
 70
     0
  9
$PSLTSCALE
 70
     0
  0
ENDSEC
  0
SECTION
  2
TABLES
  0
TABLE
  2
VPORT
 70
     1
  0
VPORT
  2
*ACTIVE
 70
     0
 10
0.0
 20
0.0
 11
1.0
 21
1.0
 12
93.747139195326156
 22
96.983959220318994
 13
0.0
 23
0.0
 14
5.0
 24
5.0
 15
5.0
 25
5.0
 16
0.0
 26
0.0
 36
1.0
 17
0.0
 27
0.0
 37
0.0
 40
201.84293963319561
 41
1.7807262569832401
 42
50.0
 43
0.0
 44
0.0
 50
0.0
 51
0.0
 71
     0
 72
   100
 73
     1
 74
     0
 75
     0
 76
     0
 77
     0
 78
     0
  0
ENDTAB
  0
TABLE
  2
LTYPE
 70
     4
  0
LTYPE
  2
CONTINUOUS
 70
     0
  3
Solid Line
 72
    65
 73
     0
 40
0.0
  0
LTYPE
  2
CENTER
 70
     0
  3
____ _ ____ _ ____ _ ____ _ ____ _ ____ _ ____
 72
    65
 73
     4
 40
2.0
 49
1.25
 49
-0.25
 49
0.25
 49
-0.25
  0
LTYPE
  2
HIDDEN
 70
     0
  3
_ _ _ _ _ _ _ _ _ _ _ _ _ _ _ _ _ _ _ _ _ _ _
 72
    65
 73
     2
 40
0.375
 49
0.25
 49
-0.125
  0
LTYPE
  2
PHANTOM2
 70
     0
  3
___ _ _ ___ _ _ ___ _ _ ___ _ _
 72
    65
 73
     6
 40
1.25
 49
0.625
 49
-0.125
 49
0.125
 49
-0.125
 49
0.125
 49
-0.125
  0
ENDTAB
  0
TABLE
  2
LAYER
 70
     3
  0
LAYER
  2
0
 70
     0
 62
     7
  6
CONTINUOUS
  0
LAYER
  2
1
 70
     0
 62
     1
  6
CENTER
  0
LAYER
  2
2
 70
     0
 62
     2
  6
HIDDEN
  0
ENDTAB
  0
TABLE
  2
STYLE
 70
     2
  0
STYLE
  2
STANDARD
 70
     0
 40
0.0
 41
1.0
 50
0.0
 71
     0
 42
2.5
  3
TXT
  4
BIGFONT
  0
STYLE
  2
STANDARD1
 70
     0
 40
0.0
 41
1.0
 50
0.0
 71
     0
 42
3.0
  3
txt
  4

  0
ENDTAB
  0
TABLE
  2
VIEW
 70
     0
  0
ENDTAB
  0
TABLE
  2
UCS
 70
     0
  0
ENDTAB
  0
TABLE
  2
APPID
 70
     3
  0
APPID
  2
ACAD
 70
     0
  0
APPID
  2
ACAD_MLEADERVER
 70
     0
  0
APPID
  2
ACAD_NAV_VCDISPLAY
 70
     0
  0
ENDTAB
  0
TABLE
  2
DIMSTYLE
 70
     1
  0
DIMSTYLE
  2
STANDARD
 70
     0
  3

  4

  5

  6

  7

 40
1.0
 41
0.18
 42
0.0625
 43
0.38
 44
0.18
 45
0.0
 46
0.0
 47
0.0
 48
0.0
140
0.18
141
0.09
142
0.0
143
25.399999999999999
144
1.0
145
0.0
146
1.0
147
0.09
 71
     0
 72
     0
 73
     1
 74
     1
 75
     0
 76
     0
 77
     0
 78
     0
170
     0
171
     2
172
     0
173
     0
174
     0
175
     0
176
     0
177
     0
178
     0
  0
ENDTAB
  0
ENDSEC
  0
SECTION
  2
BLOCKS
  0
BLOCK
  8
0
  2
$MODEL_SPACE
 70
     0
 10
0.0
 20
0.0
 30
0.0
  3
$MODEL_SPACE
  1

  0
ENDBLK
  5
9
  8
0
  0
BLOCK
 67
     1
  8
0
  2
$PAPER_SPACE
 70
     0
 10
0.0
 20
0.0
 30
0.0
  3
$PAPER_SPACE
  1

  0
ENDBLK
  5
E
 67
     1
  8
0
  0
ENDSEC
  0
SECTION
  2
ENTITIES
  0
LINE
  5
26
  8
2
 10
148.29898525284011
 20
83.53773606150115
 30
0.0
 11
151.2989852528402
 21
83.53773606150115
 31
0.0
  0
LINE
  5
27
  8
2
 10
148.29898525284011
 20
87.037736061501093
 30
0.0
 11
157.89898525284019
 21
87.037736061501093
 31
0.0
1001
ACAD
1000
ASC_BOUNDS
1002
{
1070
    19
1005
0
1005
0
1002
}
  0
LINE
  5
28
  8
2
 10
148.89898525284011
 20
77.037736061501093
 30
0.0
 11
157.69898525284009
 21
77.037736061501093
 31
0.0
  0
LINE
  5
29
  8
2
 10
148.29898525284011
 20
80.537736061501178
 30
0.0
 11
151.2989852528402
 21
80.537736061501178
 31
0.0
  0
LINE
  5
2A
  8
2
 10
148.29898525284011
 20
58.53773606150115
 30
0.0
 11
151.2989852528402
 21
58.53773606150115
 31
0.0
  0
LINE
  5
2B
  8
2
 10
148.29898525284011
 20
61.537736061501121
 30
0.0
 11
151.2989852528402
 21
61.537736061501121
 31
0.0
  0
LINE
  5
2C
  8
2
 10
148.89898525284011
 20
65.037736061501207
 30
0.0
 11
157.69898525284009
 21
65.037736061501136
 31
0.0
  0
LINE
  5
2D
  8
2
 10
148.29898525284011
 20
55.037736061501128
 30
0.0
 11
157.89898525284019
 21
55.037736061501207
 31
0.0
1001
ACAD
1000
ASC_BOUNDS
1002
{
1070
    19
1005
0
1002
}
  0
LINE
  5
2E
  8
1
 10
140.29898525284011
 20
71.037736061501164
 30
0.0
 11
166.2989852528402
 21
71.03773606150115
 31
0.0
  0
LINE
  5
31
  8
0
 10
145.29898525284
 20
93.837736061501161
 30
0.0
 11
145.29898525284
 21
48.23773606150116
 31
0.0
1001
ACAD
1000
ASC_BOUNDS
1002
{
1070
    19
1005
0
1005
0
1005
0
1005
0
1002
}
  0
LINE
  5
33
  8
2
 10
148.29898525284
 20
87.887736061501172
 30
0.0
 11
148.29898525284011
 21
54.187736061501127
 31
0.0
1001
ACAD
1000
ASC_BOUNDS
1002
{
1070
    19
1005
0
1005
0
1002
}
  0
LINE
  5
34
  8
2
 10
146.9489852528402
 20
87.887736061501172
 30
0.0
 11
146.9489852528402
 21
54.187736061501127
 31
0.0
1001
ACAD
1000
ASC_BOUNDS
1002
{
1070
    19
1005
0
1005
0
1002
}
  0
LINE
  5
35
  8
2
 10
147.09898525284001
 20
87.887736061501172
 30
0.0
 11
147.09898525284001
 21
54.187736061501127
 31
0.0
  0
LINE
  5
36
  8
2
 10
146.29898525284031
 20
55.037736061501207
 30
0.0
 11
146.2989852528394
 21
87.037736061501093
 31
0.0
  0
LINE
  5
37
  8
2
 10
148.29898525284011
 20
54.187736061501127
 30
0.0
 11
146.9489852528402
 21
54.187736061501127
 31
0.0
1001
ACAD
1000
ASC_BOUNDS
1002
{
1070
    19
1005
0
1002
}
  0
LINE
  5
38
  8
2
 10
146.29898525284031
 20
55.037736061501207
 30
0.0
 11
146.9489852528402
 21
55.037736061501057
 31
0.0
1001
ACAD
1000
ASC_BOUNDS
1002
{
1070
    19
1005
0
1002
}
  0
LINE
  5
39
  8
2
 10
146.29898525284031
 20
55.037736061501207
 30
0.0
 11
145.29898525284
 21
54.460385792311577
 31
0.0
1001
ACAD
1000
ASC_BOUNDS
1002
{
1070
    19
1005
0
1002
}
  0
ARC
  5
3A
  8
2
 10
148.89898525284011
 20
55.637736061501158
 30
0.0
 40
0.6
 50
180.0
 51
270.0
  0
LINE
  5
3B
  8
2
 10
147.09898525284001
 20
56.537305033424737
 30
0.0
 11
148.29898525284011
 21
56.537305033424737
 31
0.0
  0
ARC
  5
3C
  8
2
 10
148.89898525284011
 20
64.437736061501184
 30
0.0
 40
0.6
 50
90.0
 51
180.0
  0
ARC
  5
3D
  8
2
 10
148.89898525284011
 20
77.637736061501116
 30
0.0
 40
0.6
 50
180.0
 51
270.0
  0
LINE
  5
3E
  8
2
 10
146.29898525284031
 20
87.037736061501093
 30
0.0
 11
146.9489852528402
 21
87.037736061501235
 31
0.0
1001
ACAD
1000
ASC_BOUNDS
1002
{
1070
    19
1005
0
1002
}
  0
LINE
  5
3F
  8
2
 10
146.29898525284031
 20
87.037736061501093
 30
0.0
 11
145.29898525284
 21
87.615086330690858
 31
0.0
1001
ACAD
1000
ASC_BOUNDS
1002
{
1070
    19
1005
0
1002
}
  0
LINE
  5
40
  8
2
 10
148.29898525284011
 20
87.887736061501172
 30
0.0
 11
146.9489852528402
 21
87.887736061501172
 31
0.0
1001
ACAD
1000
ASC_BOUNDS
1002
{
1070
    19
1005
0
1005
0
1002
}
  0
ARC
  5
41
  8
2
 10
148.89898525284011
 20
86.43773606150107
 30
0.0
 40
0.6
 50
90.0
 51
180.0
  0
LINE
  5
42
  8
2
 10
147.09898525284001
 20
85.538167089577414
 30
0.0
 11
148.29898525284011
 21
85.538167089577414
 31
0.0
  0
LINE
  5
43
  8
2
 10
158.29898525284011
 20
86.43773606150107
 30
0.0
 11
158.29898525284011
 21
55.437736061501198
 31
0.0
1001
ACAD
1000
ASC_BOUNDS
1002
{
1070
    19
1005
0
1005
0
1002
}
  0
LINE
  5
44
  8
0
 10
161.29898525284011
 20
93.837736061501161
 30
0.0
 11
161.29898525284011
 21
48.23773606150116
 31
0.0
1001
ACAD
1000
ASC_BOUNDS
1002
{
1070
    19
1005
0
1005
0
1005
0
1002
}
  0
LINE
  5
45
  8
2
 10
161.29898525284011
 20
58.037736061501178
 30
0.0
 11
158.2989852528404
 21
58.037736061501178
 31
0.0
1001
ACAD
1000
ASC_BOUNDS
1002
{
1070
    19
1005
0
1002
}
  0
CIRCLE
  5
46
  8
2
 10
153.29898525284011
 20
60.037736061501128
 30
0.0
 40
2.5
  0
ARC
  5
47
  8
2
 10
157.69898525284009
 20
55.637736061501158
 30
0.0
 40
0.6
 50
270.0
 51
0.0
  0
ARC
  5
48
  8
2
 10
157.89898525284019
 20
55.437736061501198
 30
0.0
 40
0.4000000000000001
 50
270.0
 51
0.0
1001
ACAD
1000
ASC_BOUNDS
1002
{
1070
    19
1005
0
1002
}
  0
LINE
  5
49
  8
2
 10
155.29898525284031
 20
58.53773606150115
 30
0.0
 11
158.29898525284011
 21
58.53773606150115
 31
0.0
  0
ARC
  5
4A
  8
2
 10
157.69898525284009
 20
64.437736061501184
 30
0.0
 40
0.6
 50
0.0
 51
90.0
  0
LINE
  5
4B
  8
2
 10
155.29898525284031
 20
61.537736061501121
 30
0.0
 11
158.29898525284011
 21
61.537736061501121
 31
0.0
  0
CIRCLE
  5
4C
  8
2
 10
153.29898525284011
 20
82.037736061501093
 30
0.0
 40
2.5
  0
ARC
  5
4D
  8
2
 10
157.69898525284009
 20
77.637736061501116
 30
0.0
 40
0.6
 50
270.0
 51
0.0
  0
LINE
  5
4E
  8
2
 10
155.29898525284031
 20
80.537736061501178
 30
0.0
 11
158.29898525284011
 21
80.537736061501178
 31
0.0
  0
LINE
  5
4F
  8
2
 10
161.29898525284011
 20
84.037736061501121
 30
0.0
 11
158.29898525284011
 21
84.037736061501121
 31
0.0
1001
ACAD
1000
ASC_BOUNDS
1002
{
1070
    19
1005
0
1002
}
  0
LINE
  5
50
  8
2
 10
155.29898525284031
 20
83.53773606150115
 30
0.0
 11
158.29898525284011
 21
83.53773606150115
 31
0.0
  0
ARC
  5
51
  8
2
 10
157.69898525284009
 20
86.43773606150107
 30
0.0
 40
0.6
 50
0.0
 51
90.0
1001
ACAD
1000
ASC_BOUNDS
1002
{
1070
    19
1005
0
1002
}
  0
ARC
  5
52
  8
2
 10
157.89898525284019
 20
86.637736061501172
 30
0.0
 40
0.4000000000000001
 50
0.0
 51
90.0
1001
ACAD
1000
ASC_BOUNDS
1002
{
1070
    19
1005
0
1002
}
  0
CIRCLE
  5
53
  8
0
 10
72.670086545890342
 20
65.268996788740623
 30
0.0
 40
1.25
  0
CIRCLE
  5
54
  8
0
 10
72.670086545890342
 20
76.806475334261705
 30
0.0
 40
1.25
  0
LINE
  5
55
  8
2
 10
75.753798473465281
 20
66.896631339860903
 30
0.0
 11
76.574835425810875
 21
66.676635151523726
 31
0.0
  0
LINE
  5
58
  8
2
 10
75.753798473465281
 20
75.178840783141425
 30
0.0
 11
76.574835425810875
 21
75.398836971478602
 31
0.0
  0
LINE
  5
59
  8
0
 10
73.687270924350614
 20
67.450355727782807
 30
0.0
 11
75.753798473465281
 21
66.896631339860903
 31
0.0
  0
LINE
  5
5A
  8
0
 10
71.65290216743017
 20
63.087637849698439
 30
0.0
 11
73.009516389429621
 21
62.137726345011998
 31
0.0
  0
ARC
  5
5B
  8
0
 10
73.076336945211551
 20
65.07955911640866
 30
0.0
 40
2.448247720180674
 50
75.54974902690698
 51
234.45025097309301
  0
ARC
  5
5C
  8
0
 10
73.076336945211551
 20
76.995913006593668
 30
0.0
 40
2.448247720180674
 50
125.54974902690699
 51
284.45025097309298
  0
LINE
  5
5D
  8
0
 10
73.687270924350614
 20
74.625116395219521
 30
0.0
 11
75.753798473465281
 21
75.178840783141425
 31
0.0
  0
LINE
  5
5E
  8
0
 10
71.65290216743017
 20
78.987834273303889
 30
0.0
 11
73.009516389429621
 21
79.937745777990472
 31
0.0
  0
ARC
  5
5F
  8
0
 10
61.49898525284015
 20
71.037736061501164
 30
0.0
 40
14.550000000000001
 50
37.711404397751942
 51
322.28859560224799
  0
CIRCLE
  5
60
  8
0
 10
60.298985252840112
 20
71.037736061501164
 30
0.0
 40
16.0
  0
CIRCLE
  5
61
  8
2
 10
60.298985252840112
 20
71.037736061501164
 30
0.0
 40
16.850000000000001
  0
CIRCLE
  5
62
  8
0
 10
60.298985252840112
 20
71.037736061501164
 30
0.0
 40
6.0
  0
CIRCLE
  5
63
  8
0
 10
60.298985252840112
 20
71.037736061501164
 30
0.0
 40
25.0
  0
LINE
  5
64
  8
1
 10
60.298985252840112
 20
101.03773606150111
 30
0.0
 11
60.298985252840112
 21
41.037736061501157
 31
0.0
  0
LINE
  5
65
  8
1
 10
90.298985252840112
 20
71.037736061501164
 30
0.0
 11
30.298985252840112
 21
71.037736061501164
 31
0.0
  0
LINE
  5
66
  8
0
 10
155.69898525284009
 20
48.23773606150116
 30
0.0
 11
161.29898525284011
 21
48.23773606150116
 31
0.0
  0
LINE
  5
67
  8
0
 10
155.4989852528401
 20
46.037736061501157
 30
0.0
 11
155.4989852528401
 21
96.037736061501164
 31
0.0
  0
LINE
  5
68
  8
0
 10
151.09898525284009
 20
46.037736061501157
 30
0.0
 11
151.09898525284009
 21
96.037736061501164
 31
0.0
  0
LINE
  5
69
  8
0
 10
150.89898525284011
 20
48.23773606150116
 30
0.0
 11
145.29898525284
 21
48.23773606150116
 31
0.0
  0
LINE
  5
6A
  8
0
 10
151.09898525284009
 20
46.037736061501171
 30
0.0
 11
155.4989852528401
 21
46.037736061501171
 31
0.0
  0
ARC
  5
6B
  8
0
 10
155.69898525284009
 20
48.037736061501157
 30
0.0
 40
0.2
 50
90.0
 51
180.0
  0
ARC
  5
6C
  8
0
 10
150.89898525284011
 20
48.037736061501157
 30
0.0
 40
0.2
 50
0.0
 51
90.0
  0
ARC
  5
6D
  8
0
 10
150.89898525284011
 20
94.037736061501164
 30
0.0
 40
0.2
 50
270.0
 51
0.0
  0
ARC
  5
6E
  8
0
 10
155.69898525284009
 20
94.037736061501164
 30
0.0
 40
0.2
 50
180.0
 51
270.0
  0
LINE
  5
6F
  8
0
 10
151.09898525284009
 20
96.03773606150115
 30
0.0
 11
155.4989852528401
 21
96.03773606150115
 31
0.0
  0
LINE
  5
70
  8
0
 10
150.89898525284011
 20
93.837736061501161
 30
0.0
 11
145.29898525284
 21
93.837736061501161
 31
0.0
  0
LINE
  5
73
  8
0
 10
155.69898525284009
 20
93.837736061501161
 30
0.0
 11
161.29898525284011
 21
93.837736061501161
 31
0.0
  0
CIRCLE
  5
74
  8
0
 10
60.298985252840112
 20
71.037736061501164
 30
0.0
 40
22.800000000000001
  0
LINE
  5
75
  8
1
 10
153.29898525284011
 20
101.03773606150111
 30
0.0
 11
153.29898525284011
 21
41.037736061501171
 31
0.0
  0
TEXT
  5
12B
  8
0
 62
     3
 10
0.0
 20
0.0
 30
0.0
 40
10.0
  1
RABJ35-50
  7
STANDARD1
  0
ENDSEC
  0
EOF
