  0
SECTION
  2
HEADER
  9
$ACADVER
  1
AC1009
  9
$INSBASE
 10
0.0
 20
0.0
 30
0.0
  9
$EXTMIN
 10
0.0
 20
-2.960436562073669
 30
0.0
  9
$EXTMAX
 10
148.33262490248529
 20
94.71698117102008
 30
0.0
  9
$LIMMIN
 10
0.0
 20
0.0
  9
$LIMMAX
 10
187.5
 20
135.0
  9
$ORTHOMODE
 70
     0
  9
$REGENMODE
 70
     1
  9
$FILLMODE
 70
     1
  9
$QTEXTMODE
 70
     0
  9
$MIRRTEXT
 70
     0
  9
$DRAGMODE
 70
     2
  9
$LTSCALE
 40
10.0
  9
$OSMODE
 70
    55
  9
$ATTMODE
 70
     1
  9
$TEXTSIZE
 40
2.5
  9
$TRACEWID
 40
0.05
  9
$TEXTSTYLE
  7
STANDARD
  9
$CLAYER
  8
0
  9
$CELTYPE
  6
BYLAYER
  9
$CECOLOR
 62
   256
  9
$DIMSCALE
 40
0.5
  9
$DIMASZ
 40
3.0
  9
$DIMEXO
 40
2.0
  9
$DIMDLI
 40
10.0
  9
$DIMRND
 40
0.0
  9
$DIMDLE
 40
0.0
  9
$DIMEXE
 40
2.0
  9
$DIMTP
 40
0.0
  9
$DIMTM
 40
0.0
  9
$DIMTXT
 40
3.0
  9
$DIMCEN
 40
0.09
  9
$DIMTSZ
 40
0.0
  9
$DIMTOL
 70
     0
  9
$DIMLIM
 70
     0
  9
$DIMTIH
 70
     0
  9
$DIMTOH
 70
     0
  9
$DIMSE1
 70
     0
  9
$DIMSE2
 70
     0
  9
$DIMTAD
 70
     1
  9
$DIMZIN
 70
     0
  9
$DIMBLK
  1

  9
$DIMASO
 70
     0
  9
$DIMSHO
 70
     0
  9
$DIMPOST
  1

  9
$DIMAPOST
  1

  9
$DIMALT
 70
     0
  9
$DIMALTD
 70
     2
  9
$DIMALTF
 40
25.399999999999999
  9
$DIMLFAC
 40
1.0
  9
$DIMTOFL
 70
     1
  9
$DIMTVP
 40
1.6000000000000001
  9
$DIMTIX
 70
     1
  9
$DIMSOXD
 70
     0
  9
$DIMSAH
 70
     0
  9
$DIMBLK1
  1

  9
$DIMBLK2
  1

  9
$DIMSTYLE
  2
STANDARD
  9
$DIMCLRD
 70
     0
  9
$DIMCLRE
 70
     0
  9
$DIMCLRT
 70
     0
  9
$DIMTFAC
 40
1.0
  9
$DIMGAP
 40
0.09
  9
$LUNITS
 70
     2
  9
$LUPREC
 70
     4
  9
$SKETCHINC
 40
0.1
  9
$FILLETRAD
 40
0.0
  9
$AUNITS
 70
     0
  9
$AUPREC
 70
     0
  9
$MENU
  1
E:\r13\win\SUPPORT\ACAD
  9
$ELEVATION
 40
0.0
  9
$PELEVATION
 40
0.0
  9
$THICKNESS
 40
0.0
  9
$LIMCHECK
 70
     0
  9
$BLIPMODE
 70
     0
  9
$CHAMFERA
 40
3.2000000000000002
  9
$CHAMFERB
 40
3.2000000000000002
  9
$SKPOLY
 70
     0
  9
$TDCREATE
 40
2449840.5944097228
  9
$TDUPDATE
 40
2456598.585617268
  9
$TDINDWG
 40
0.283606875
  9
$TDUSRTIMER
 40
0.283606875
  9
$USRTIMER
 70
     1
  9
$ANGBASE
 50
0.0
  9
$ANGDIR
 70
     0
  9
$PDMODE
 70
     0
  9
$PDSIZE
 40
0.0
  9
$PLINEWID
 40
0.0
  9
$COORDS
 70
     1
  9
$SPLFRAME
 70
     0
  9
$SPLINETYPE
 70
     6
  9
$SPLINESEGS
 70
     8
  9
$ATTDIA
 70
     0
  9
$ATTREQ
 70
     1
  9
$HANDLING
 70
     1
  9
$HANDSEED
  5
1C2
  9
$SURFTAB1
 70
     6
  9
$SURFTAB2
 70
     6
  9
$SURFTYPE
 70
     6
  9
$SURFU
 70
     6
  9
$SURFV
 70
     6
  9
$UCSNAME
  2

  9
$UCSORG
 10
0.0
 20
0.0
 30
0.0
  9
$UCSXDIR
 10
1.0
 20
0.0
 30
0.0
  9
$UCSYDIR
 10
0.0
 20
1.0
 30
0.0
  9
$PUCSNAME
  2

  9
$PUCSORG
 10
0.0
 20
0.0
 30
0.0
  9
$PUCSXDIR
 10
1.0
 20
0.0
 30
0.0
  9
$PUCSYDIR
 10
0.0
 20
1.0
 30
0.0
  9
$USERI1
 70
     0
  9
$USERI2
 70
     1
  9
$USERI3
 70
     1
  9
$USERI4
 70
     0
  9
$USERI5
 70
     0
  9
$USERR1
 40
0.0
  9
$USERR2
 40
0.0
  9
$USERR3
 40
0.0
  9
$USERR4
 40
0.0
  9
$USERR5
 40
0.0
  9
$WORLDVIEW
 70
     1
  9
$SHADEDGE
 70
     3
  9
$SHADEDIF
 70
    70
  9
$TILEMODE
 70
     1
  9
$MAXACTVP
 70
    16
  9
$PLIMCHECK
 70
     0
  9
$PEXTMIN
 10
1.0000000000000000E+020
 20
1.0000000000000000E+020
 30
1.0000000000000000E+020
  9
$PEXTMAX
 10
-1.0000000000000000E+020
 20
-1.0000000000000000E+020
 30
-1.0000000000000000E+020
  9
$PLIMMIN
 10
0.0
 20
0.0
  9
$PLIMMAX
 10
12.0
 20
9.0
  9
$UNITMODE
 70
     0
  9
$VISRETAIN
 70
     0
  9
$PLINEGEN
 70
     0
  9
$PSLTSCALE
 70
     0
  0
ENDSEC
  0
SECTION
  2
TABLES
  0
TABLE
  2
VPORT
 70
     1
  0
VPORT
  2
*ACTIVE
 70
     0
 10
0.0
 20
0.0
 11
1.0
 21
1.0
 12
93.747139195326156
 22
96.983959220318994
 13
0.0
 23
0.0
 14
5.0
 24
5.0
 15
5.0
 25
5.0
 16
0.0
 26
0.0
 36
1.0
 17
0.0
 27
0.0
 37
0.0
 40
201.84293963319561
 41
1.7807262569832401
 42
50.0
 43
0.0
 44
0.0
 50
0.0
 51
0.0
 71
     0
 72
   100
 73
     1
 74
     0
 75
     0
 76
     0
 77
     0
 78
     0
  0
ENDTAB
  0
TABLE
  2
LTYPE
 70
     4
  0
LTYPE
  2
CONTINUOUS
 70
     0
  3
Solid Line
 72
    65
 73
     0
 40
0.0
  0
LTYPE
  2
CENTER
 70
     0
  3
____ _ ____ _ ____ _ ____ _ ____ _ ____ _ ____
 72
    65
 73
     4
 40
2.0
 49
1.25
 49
-0.25
 49
0.25
 49
-0.25
  0
LTYPE
  2
HIDDEN
 70
     0
  3
_ _ _ _ _ _ _ _ _ _ _ _ _ _ _ _ _ _ _ _ _ _ _
 72
    65
 73
     2
 40
0.375
 49
0.25
 49
-0.125
  0
LTYPE
  2
PHANTOM2
 70
     0
  3
___ _ _ ___ _ _ ___ _ _ ___ _ _
 72
    65
 73
     6
 40
1.25
 49
0.625
 49
-0.125
 49
0.125
 49
-0.125
 49
0.125
 49
-0.125
  0
ENDTAB
  0
TABLE
  2
LAYER
 70
     3
  0
LAYER
  2
0
 70
     0
 62
     7
  6
CONTINUOUS
  0
LAYER
  2
1
 70
     0
 62
     1
  6
CENTER
  0
LAYER
  2
2
 70
     0
 62
     2
  6
HIDDEN
  0
ENDTAB
  0
TABLE
  2
STYLE
 70
     2
  0
STYLE
  2
STANDARD
 70
     0
 40
0.0
 41
1.0
 50
0.0
 71
     0
 42
2.5
  3
TXT
  4
BIGFONT
  0
STYLE
  2
STANDARD1
 70
     0
 40
0.0
 41
1.0
 50
0.0
 71
     0
 42
3.0
  3
txt
  4

  0
ENDTAB
  0
TABLE
  2
VIEW
 70
     0
  0
ENDTAB
  0
TABLE
  2
UCS
 70
     0
  0
ENDTAB
  0
TABLE
  2
APPID
 70
     3
  0
APPID
  2
ACAD
 70
     0
  0
APPID
  2
ACAD_MLEADERVER
 70
     0
  0
APPID
  2
ACAD_NAV_VCDISPLAY
 70
     0
  0
ENDTAB
  0
TABLE
  2
DIMSTYLE
 70
     1
  0
DIMSTYLE
  2
STANDARD
 70
     0
  3

  4

  5

  6

  7

 40
1.0
 41
0.18
 42
0.0625
 43
0.38
 44
0.18
 45
0.0
 46
0.0
 47
0.0
 48
0.0
140
0.18
141
0.09
142
0.0
143
25.399999999999999
144
1.0
145
0.0
146
1.0
147
0.09
 71
     0
 72
     0
 73
     1
 74
     1
 75
     0
 76
     0
 77
     0
 78
     0
170
     0
171
     2
172
     0
173
     0
174
     0
175
     0
176
     0
177
     0
178
     0
  0
ENDTAB
  0
ENDSEC
  0
SECTION
  2
BLOCKS
  0
BLOCK
  8
0
  2
$MODEL_SPACE
 70
     0
 10
0.0
 20
0.0
 30
0.0
  3
$MODEL_SPACE
  1

  0
ENDBLK
  5
9
  8
0
  0
BLOCK
 67
     1
  8
0
  2
$PAPER_SPACE
 70
     0
 10
0.0
 20
0.0
 30
0.0
  3
$PAPER_SPACE
  1

  0
ENDBLK
  5
E
 67
     1
  8
0
  0
ENDSEC
  0
SECTION
  2
ENTITIES
  0
LINE
  5
26
  8
0
 10
128.33262490248569
 20
87.416981171019984
 30
0.0
 11
128.3326249024864
 21
52.016981171020433
 31
0.0
  0
LINE
  5
28
  8
0
 10
143.33262490248549
 20
52.01698117102039
 30
0.0
 11
143.33262490248509
 21
87.416981171020041
 31
0.0
1001
ACAD
1000
ASC_BOUNDS
1002
{
1070
    19
1005
0
1005
0
1005
0
1002
}
  0
LINE
  5
29
  8
0
 10
128.33262490248489
 20
52.016981171020433
 30
0.0
 11
128.33262490248509
 21
87.416981171019984
 31
0.0
1001
ACAD
1000
ASC_BOUNDS
1002
{
1070
    19
1005
0
1005
0
1005
0
1002
}
  0
LINE
  5
2A
  8
1
 10
123.33262490248499
 20
69.716981171019711
 30
0.0
 11
148.33262490248529
 21
69.716981171019981
 31
0.0
  0
LINE
  5
2D
  8
2
 10
130.6326249024855
 20
83.316981171019833
 30
0.0
 11
130.6326249024855
 21
56.116981171019873
 31
0.0
  0
LINE
  5
2E
  8
2
 10
131.83262490248549
 20
83.316981171019833
 30
0.0
 11
131.83262490248549
 21
56.116981171019873
 31
0.0
1001
ACAD
1000
ASC_BOUNDS
1002
{
1070
    19
1005
0
1005
0
1002
}
  0
LINE
  5
2F
  8
2
 10
130.48262490248561
 20
83.316981171019833
 30
0.0
 11
130.48262490248561
 21
56.116981171019873
 31
0.0
1001
ACAD
1000
ASC_BOUNDS
1002
{
1070
    19
1005
0
1005
0
1002
}
  0
LINE
  5
30
  8
2
 10
129.33262490248521
 20
56.716981171019889
 30
0.0
 11
129.33262490248521
 21
82.716981171019825
 31
0.0
  0
LINE
  5
31
  8
2
 10
139.83262490248569
 20
82.516981171019893
 30
0.0
 11
139.83262490248569
 21
56.916981171019849
 31
0.0
1001
ACAD
1000
ASC_BOUNDS
1002
{
1070
    19
1005
0
1005
0
1005
0
1002
}
  0
ARC
  5
32
  8
2
 10
139.53262490248559
 20
75.016981171019893
 30
0.0
 40
0.3
 50
270.0
 51
0.0
  0
ARC
  5
33
  8
2
 10
139.53262490248559
 20
64.416981171019856
 30
0.0
 40
0.3
 50
0.0
 51
90.0
  0
ARC
  5
34
  8
2
 10
139.53262490248559
 20
57.0169811710199
 30
0.0
 40
0.3
 50
270.0
 51
0.0
  0
LINE
  5
35
  8
2
 10
143.33262490248521
 20
80.716981171019825
 30
0.0
 11
139.83262490248569
 21
80.716981171019825
 31
0.0
1001
ACAD
1000
ASC_BOUNDS
1002
{
1070
    19
1005
0
1002
}
  0
LINE
  5
36
  8
2
 10
143.33262490248541
 20
58.716981171019917
 30
0.0
 11
139.83262490248569
 21
58.716981171019917
 31
0.0
1001
ACAD
1000
ASC_BOUNDS
1002
{
1070
    19
1005
0
1002
}
  0
LINE
  5
37
  8
2
 10
129.33262490248521
 20
56.716981171019889
 30
0.0
 11
130.48262490248561
 21
56.716981171019889
 31
0.0
1001
ACAD
1000
ASC_BOUNDS
1002
{
1070
    19
1005
0
1002
}
  0
LINE
  5
38
  8
2
 10
129.33262490248521
 20
56.716981171019889
 30
0.0
 11
128.33262490248501
 21
56.139630901830273
 31
0.0
1001
ACAD
1000
ASC_BOUNDS
1002
{
1070
    19
1005
0
1002
}
  0
CIRCLE
  5
39
  8
2
 10
135.83262490248549
 20
60.71698117101981
 30
0.0
 40
2.0
  0
LINE
  5
3A
  8
2
 10
131.83262490248549
 20
56.716981171019889
 30
0.0
 11
139.6326249024855
 21
56.716981171019889
 31
0.0
1001
ACAD
1000
ASC_BOUNDS
1002
{
1070
    19
1005
0
1002
}
  0
ARC
  5
3B
  8
2
 10
132.1326249024855
 20
57.0169811710199
 30
0.0
 40
0.3
 50
180.0
 51
270.0
  0
LINE
  5
3C
  8
2
 10
131.83262490248549
 20
56.116981171019873
 30
0.0
 11
130.48262490248561
 21
56.116981171019873
 31
0.0
1001
ACAD
1000
ASC_BOUNDS
1002
{
1070
    19
1005
0
1002
}
  0
LINE
  5
3D
  8
2
 10
130.6326249024855
 20
58.34508599035636
 30
0.0
 11
131.83262490248549
 21
58.34508599035636
 31
0.0
  0
LINE
  5
3E
  8
2
 10
131.83262490248549
 20
59.71698117101986
 30
0.0
 11
134.1005740949166
 21
59.71698117101986
 31
0.0
  0
ARC
  5
3F
  8
2
 10
139.6326249024855
 20
56.916981171019849
 30
0.0
 40
0.2
 50
270.0
 51
359.99999999999977
1001
ACAD
1000
ASC_BOUNDS
1002
{
1070
    19
1005
0
1002
}
  0
LINE
  5
40
  8
2
 10
137.56467571005459
 20
59.71698117101986
 30
0.0
 11
139.83262490248569
 21
59.71698117101986
 31
0.0
  0
LINE
  5
41
  8
2
 10
132.1326249024855
 20
64.716981171019853
 30
0.0
 11
139.53262490248559
 21
64.716981171019853
 31
0.0
  0
ARC
  5
42
  8
2
 10
132.1326249024855
 20
64.416981171019856
 30
0.0
 40
0.3
 50
90.0
 51
180.0
  0
LINE
  5
43
  8
2
 10
131.83262490248549
 20
61.716981171019889
 30
0.0
 11
134.1005740949166
 21
61.716981171019889
 31
0.0
  0
LINE
  5
44
  8
2
 10
137.56467571005459
 20
61.716981171019889
 30
0.0
 11
139.83262490248569
 21
61.716981171019889
 31
0.0
  0
LINE
  5
45
  8
2
 10
132.1326249024855
 20
74.716981171019881
 30
0.0
 11
139.53262490248559
 21
74.716981171019881
 31
0.0
  0
ARC
  5
46
  8
2
 10
132.1326249024855
 20
75.016981171019893
 30
0.0
 40
0.3
 50
180.0
 51
270.0
  0
CIRCLE
  5
47
  8
2
 10
135.83262490248549
 20
78.716981171019938
 30
0.0
 40
2.0
  0
LINE
  5
48
  8
2
 10
131.83262490248549
 20
77.716981171019825
 30
0.0
 11
134.1005740949166
 21
77.716981171019825
 31
0.0
  0
LINE
  5
49
  8
2
 10
130.6326249024855
 20
81.088876351683382
 30
0.0
 11
131.83262490248549
 21
81.088876351683382
 31
0.0
  0
LINE
  5
4A
  8
2
 10
131.83262490248549
 20
79.716981171019881
 30
0.0
 11
134.1005740949166
 21
79.716981171019881
 31
0.0
  0
LINE
  5
4B
  8
2
 10
137.56467571005459
 20
77.716981171019825
 30
0.0
 11
139.83262490248569
 21
77.716981171019825
 31
0.0
  0
LINE
  5
4C
  8
2
 10
137.56467571005459
 20
79.716981171019881
 30
0.0
 11
139.83262490248569
 21
79.716981171019881
 31
0.0
  0
ARC
  5
4D
  8
2
 10
139.53262490248559
 20
82.416981171019799
 30
0.0
 40
0.3
 50
0.0
 51
90.0
  0
LINE
  5
4E
  8
2
 10
129.33262490248521
 20
82.716981171019825
 30
0.0
 11
130.48262490248561
 21
82.716981171019825
 31
0.0
1001
ACAD
1000
ASC_BOUNDS
1002
{
1070
    19
1005
0
1002
}
  0
LINE
  5
4F
  8
2
 10
129.33262490248521
 20
82.716981171019825
 30
0.0
 11
128.33262490248501
 21
83.094331440209373
 31
0.0
  0
LINE
  5
50
  8
2
 10
131.83262490248549
 20
82.716981171019825
 30
0.0
 11
139.6326249024855
 21
82.716981171019825
 31
0.0
1001
ACAD
1000
ASC_BOUNDS
1002
{
1070
    19
1005
0
1002
}
  0
ARC
  5
51
  8
2
 10
132.1326249024855
 20
82.416981171019799
 30
0.0
 40
0.3
 50
90.0
 51
180.0
  0
LINE
  5
52
  8
2
 10
131.83262490248549
 20
83.316981171019833
 30
0.0
 11
130.48262490248561
 21
83.316981171019833
 31
0.0
1001
ACAD
1000
ASC_BOUNDS
1002
{
1070
    19
1005
0
1002
}
  0
ARC
  5
53
  8
2
 10
139.6326249024855
 20
82.516981171019893
 30
0.0
 40
0.2
 50
359.99999999999977
 51
90.0
1001
ACAD
1000
ASC_BOUNDS
1002
{
1070
    19
1005
0
1002
}
  0
LINE
  5
54
  8
2
 10
70.889660644241985
 20
73.081628757352547
 30
0.0
 11
71.469216140015476
 21
73.236920184414117
 31
0.0
  0
LINE
  5
57
  8
2
 10
70.889660644241985
 20
66.352333584687017
 30
0.0
 11
71.469216140015405
 21
66.197042157625589
 31
0.0
  0
CIRCLE
  5
58
  8
0
 10
58.332624902484099
 20
69.716981171019711
 30
0.0
 40
13.0
  0
LINE
  5
59
  8
0
 10
67.232764901466723
 20
63.485036052610347
 30
0.0
 11
68.200198488850674
 21
62.807631762006849
 31
0.0
  0
LINE
  5
5A
  8
0
 10
68.827471546085746
 20
66.904895488178283
 30
0.0
 11
70.889660644241985
 21
66.352333584687017
 31
0.0
  0
CIRCLE
  5
5B
  8
0
 10
68.030118223776185
 20
65.194965770394248
 30
0.0
 40
1.25
  0
ARC
  5
5C
  8
0
 10
68.208616064988504
 20
65.111730860072953
 30
0.0
 40
1.8969505765761081
 50
70.959464385027147
 51
239.04053561497179
  0
ARC
  5
5D
  8
0
 10
68.208616064988504
 20
74.322231481966611
 30
0.0
 40
1.8969505765761081
 50
120.9594643850281
 51
289.04053561497278
  0
CIRCLE
  5
5E
  8
0
 10
68.030118223776185
 20
74.238996571645316
 30
0.0
 40
1.25
  0
LINE
  5
5F
  8
0
 10
68.827471546085746
 20
72.529066853861281
 30
0.0
 11
70.889660644241985
 21
73.081628757352547
 31
0.0
  0
LINE
  5
60
  8
0
 10
67.232764901466723
 20
75.94892628942921
 30
0.0
 11
68.200198488850674
 21
76.626330580032715
 31
0.0
  0
ARC
  5
61
  8
0
 10
59.132624902484046
 20
69.716981171019711
 30
0.0
 40
11.4
 50
37.306834345821578
 51
322.69316565417859
  0
CIRCLE
  5
62
  8
2
 10
58.332624902484099
 20
69.716981171019711
 30
0.0
 40
13.6
  0
CIRCLE
  5
63
  8
0
 10
58.332624902485001
 20
69.716981171019711
 30
0.0
 40
5.0
  0
CIRCLE
  5
64
  8
0
 10
58.332624902485001
 20
69.716981171019711
 30
0.0
 40
20.0
  0
LINE
  5
65
  8
1
 10
58.332624902485001
 20
94.716981171019697
 30
0.0
 11
58.332624902485001
 21
44.716981171019711
 31
0.0
  0
LINE
  5
66
  8
1
 10
83.332624902484994
 20
69.716981171019711
 30
0.0
 11
33.332624902485009
 21
69.716981171019711
 31
0.0
  0
LINE
  5
67
  8
0
 10
131.83262490248521
 20
52.016981171020291
 30
0.0
 11
128.33262490248569
 21
52.016981171020419
 31
0.0
  0
LINE
  5
68
  8
0
 10
139.63262490248519
 20
49.716981171020329
 30
0.0
 11
132.03262490248531
 21
49.716981171020329
 31
0.0
  0
LINE
  5
69
  8
0
 10
139.63262490248519
 20
89.716981171020109
 30
0.0
 11
139.63262490248519
 21
49.716981171020329
 31
0.0
  0
LINE
  5
6A
  8
0
 10
132.0326249024852
 20
89.716981171020095
 30
0.0
 11
132.03262490248531
 21
49.716981171020329
 31
0.0
  0
LINE
  5
6B
  8
0
 10
139.83262490248521
 20
52.016981171020362
 30
0.0
 11
143.33262490248521
 21
52.016981171020397
 31
0.0
  0
ARC
  5
6C
  8
0
 10
139.83262490248521
 20
51.816981171020359
 30
0.0
 40
0.2
 50
90.0
 51
180.0
  0
ARC
  5
6D
  8
0
 10
131.83262490248521
 20
51.816981171020288
 30
0.0
 40
0.2
 50
0.0
 51
89.999999999996746
  0
ARC
  5
6E
  8
0
 10
131.83262490248521
 20
87.616981171020143
 30
0.0
 40
0.2
 50
270.0
 51
0.0
  0
ARC
  5
6F
  8
0
 10
139.83262490248521
 20
87.616981171020043
 30
0.0
 40
0.2
 50
180.0
 51
269.99999999999682
  0
LINE
  5
70
  8
0
 10
139.83262490248521
 20
87.416981171020041
 30
0.0
 11
143.33262490248521
 21
87.416981171020026
 31
0.0
  0
LINE
  5
73
  8
0
 10
139.63262490248519
 20
89.71698117102008
 30
0.0
 11
132.03262490248531
 21
89.71698117102008
 31
0.0
  0
LINE
  5
74
  8
0
 10
131.83262490248521
 20
87.416981171020126
 30
0.0
 11
128.33262490248569
 21
87.416981171019984
 31
0.0
  0
LINE
  5
75
  8
1
 10
135.83262490248521
 20
44.716981171020329
 30
0.0
 11
135.83262490248521
 21
94.71698117102008
 31
0.0
  0
CIRCLE
  5
76
  8
0
 10
58.332624902485001
 20
69.716981171019711
 30
0.0
 40
17.699999999999999
  0
TEXT
  5
12D
  8
0
 62
     3
 10
0.0
 20
0.0
 30
0.0
 40
10.0
  1
RABJ40-40
  7
STANDARD1
  0
ENDSEC
  0
EOF
