  0
SECTION
  2
HEADER
  9
$ACADVER
  1
AC1009
  9
$INSBASE
 10
0.0
 20
0.0
 30
0.0
  9
$EXTMIN
 10
0.0
 20
-2.960436562073669
 30
0.0
  9
$EXTMAX
 10
188.54914280929151
 20
132.45283045089181
 30
0.0
  9
$LIMMIN
 10
0.0
 20
0.0
  9
$LIMMAX
 10
187.5
 20
135.0
  9
$ORTHOMODE
 70
     0
  9
$REGENMODE
 70
     1
  9
$FILLMODE
 70
     1
  9
$QTEXTMODE
 70
     0
  9
$MIRRTEXT
 70
     0
  9
$DRAGMODE
 70
     2
  9
$LTSCALE
 40
10.0
  9
$OSMODE
 70
    55
  9
$ATTMODE
 70
     1
  9
$TEXTSIZE
 40
2.5
  9
$TRACEWID
 40
0.05
  9
$TEXTSTYLE
  7
STANDARD
  9
$CLAYER
  8
0
  9
$CELTYPE
  6
BYLAYER
  9
$CECOLOR
 62
   256
  9
$DIMSCALE
 40
0.5
  9
$DIMASZ
 40
3.0
  9
$DIMEXO
 40
2.0
  9
$DIMDLI
 40
10.0
  9
$DIMRND
 40
0.0
  9
$DIMDLE
 40
0.0
  9
$DIMEXE
 40
2.0
  9
$DIMTP
 40
0.0
  9
$DIMTM
 40
0.0
  9
$DIMTXT
 40
3.0
  9
$DIMCEN
 40
0.09
  9
$DIMTSZ
 40
0.0
  9
$DIMTOL
 70
     0
  9
$DIMLIM
 70
     0
  9
$DIMTIH
 70
     0
  9
$DIMTOH
 70
     0
  9
$DIMSE1
 70
     0
  9
$DIMSE2
 70
     0
  9
$DIMTAD
 70
     1
  9
$DIMZIN
 70
     0
  9
$DIMBLK
  1

  9
$DIMASO
 70
     0
  9
$DIMSHO
 70
     0
  9
$DIMPOST
  1

  9
$DIMAPOST
  1

  9
$DIMALT
 70
     0
  9
$DIMALTD
 70
     2
  9
$DIMALTF
 40
25.399999999999999
  9
$DIMLFAC
 40
1.0
  9
$DIMTOFL
 70
     1
  9
$DIMTVP
 40
1.6000000000000001
  9
$DIMTIX
 70
     1
  9
$DIMSOXD
 70
     0
  9
$DIMSAH
 70
     0
  9
$DIMBLK1
  1

  9
$DIMBLK2
  1

  9
$DIMSTYLE
  2
STANDARD
  9
$DIMCLRD
 70
     0
  9
$DIMCLRE
 70
     0
  9
$DIMCLRT
 70
     0
  9
$DIMTFAC
 40
1.0
  9
$DIMGAP
 40
0.09
  9
$LUNITS
 70
     2
  9
$LUPREC
 70
     4
  9
$SKETCHINC
 40
0.1
  9
$FILLETRAD
 40
0.0
  9
$AUNITS
 70
     0
  9
$AUPREC
 70
     0
  9
$MENU
  1
E:\r13\win\SUPPORT\ACAD
  9
$ELEVATION
 40
0.0
  9
$PELEVATION
 40
0.0
  9
$THICKNESS
 40
0.0
  9
$LIMCHECK
 70
     0
  9
$BLIPMODE
 70
     0
  9
$CHAMFERA
 40
3.2000000000000002
  9
$CHAMFERB
 40
3.2000000000000002
  9
$SKPOLY
 70
     0
  9
$TDCREATE
 40
2449840.5944097228
  9
$TDUPDATE
 40
2456598.585679919
  9
$TDINDWG
 40
0.2866984259
  9
$TDUSRTIMER
 40
0.2866984259
  9
$USRTIMER
 70
     1
  9
$ANGBASE
 50
0.0
  9
$ANGDIR
 70
     0
  9
$PDMODE
 70
     0
  9
$PDSIZE
 40
0.0
  9
$PLINEWID
 40
0.0
  9
$COORDS
 70
     1
  9
$SPLFRAME
 70
     0
  9
$SPLINETYPE
 70
     6
  9
$SPLINESEGS
 70
     8
  9
$ATTDIA
 70
     0
  9
$ATTREQ
 70
     1
  9
$HANDLING
 70
     1
  9
$HANDSEED
  5
1C1
  9
$SURFTAB1
 70
     6
  9
$SURFTAB2
 70
     6
  9
$SURFTYPE
 70
     6
  9
$SURFU
 70
     6
  9
$SURFV
 70
     6
  9
$UCSNAME
  2

  9
$UCSORG
 10
0.0
 20
0.0
 30
0.0
  9
$UCSXDIR
 10
1.0
 20
0.0
 30
0.0
  9
$UCSYDIR
 10
0.0
 20
1.0
 30
0.0
  9
$PUCSNAME
  2

  9
$PUCSORG
 10
0.0
 20
0.0
 30
0.0
  9
$PUCSXDIR
 10
1.0
 20
0.0
 30
0.0
  9
$PUCSYDIR
 10
0.0
 20
1.0
 30
0.0
  9
$USERI1
 70
     0
  9
$USERI2
 70
     1
  9
$USERI3
 70
     1
  9
$USERI4
 70
     0
  9
$USERI5
 70
     0
  9
$USERR1
 40
0.0
  9
$USERR2
 40
0.0
  9
$USERR3
 40
0.0
  9
$USERR4
 40
0.0
  9
$USERR5
 40
0.0
  9
$WORLDVIEW
 70
     1
  9
$SHADEDGE
 70
     3
  9
$SHADEDIF
 70
    70
  9
$TILEMODE
 70
     1
  9
$MAXACTVP
 70
    16
  9
$PLIMCHECK
 70
     0
  9
$PEXTMIN
 10
1.0000000000000000E+020
 20
1.0000000000000000E+020
 30
1.0000000000000000E+020
  9
$PEXTMAX
 10
-1.0000000000000000E+020
 20
-1.0000000000000000E+020
 30
-1.0000000000000000E+020
  9
$PLIMMIN
 10
0.0
 20
0.0
  9
$PLIMMAX
 10
12.0
 20
9.0
  9
$UNITMODE
 70
     0
  9
$VISRETAIN
 70
     0
  9
$PLINEGEN
 70
     0
  9
$PSLTSCALE
 70
     0
  0
ENDSEC
  0
SECTION
  2
TABLES
  0
TABLE
  2
VPORT
 70
     1
  0
VPORT
  2
*ACTIVE
 70
     0
 10
0.0
 20
0.0
 11
1.0
 21
1.0
 12
94.274571843645887
 22
96.983959220318994
 13
0.0
 23
0.0
 14
5.0
 24
5.0
 15
5.0
 25
5.0
 16
0.0
 26
0.0
 36
1.0
 17
0.0
 27
0.0
 37
0.0
 40
201.84293963319561
 41
1.7807262569832401
 42
50.0
 43
0.0
 44
0.0
 50
0.0
 51
0.0
 71
     0
 72
   100
 73
     1
 74
     0
 75
     0
 76
     0
 77
     0
 78
     0
  0
ENDTAB
  0
TABLE
  2
LTYPE
 70
     4
  0
LTYPE
  2
CONTINUOUS
 70
     0
  3
Solid Line
 72
    65
 73
     0
 40
0.0
  0
LTYPE
  2
CENTER
 70
     0
  3
____ _ ____ _ ____ _ ____ _ ____ _ ____ _ ____
 72
    65
 73
     4
 40
2.0
 49
1.25
 49
-0.25
 49
0.25
 49
-0.25
  0
LTYPE
  2
HIDDEN
 70
     0
  3
_ _ _ _ _ _ _ _ _ _ _ _ _ _ _ _ _ _ _ _ _ _ _
 72
    65
 73
     2
 40
0.375
 49
0.25
 49
-0.125
  0
LTYPE
  2
PHANTOM2
 70
     0
  3
___ _ _ ___ _ _ ___ _ _ ___ _ _
 72
    65
 73
     6
 40
1.25
 49
0.625
 49
-0.125
 49
0.125
 49
-0.125
 49
0.125
 49
-0.125
  0
ENDTAB
  0
TABLE
  2
LAYER
 70
     3
  0
LAYER
  2
0
 70
     0
 62
     7
  6
CONTINUOUS
  0
LAYER
  2
1
 70
     0
 62
     1
  6
CENTER
  0
LAYER
  2
2
 70
     0
 62
     2
  6
HIDDEN
  0
ENDTAB
  0
TABLE
  2
STYLE
 70
     2
  0
STYLE
  2
STANDARD
 70
     0
 40
0.0
 41
1.0
 50
0.0
 71
     0
 42
2.5
  3
TXT
  4
BIGFONT
  0
STYLE
  2
STANDARD1
 70
     0
 40
0.0
 41
1.0
 50
0.0
 71
     0
 42
3.0
  3
txt
  4

  0
ENDTAB
  0
TABLE
  2
VIEW
 70
     0
  0
ENDTAB
  0
TABLE
  2
UCS
 70
     0
  0
ENDTAB
  0
TABLE
  2
APPID
 70
     3
  0
APPID
  2
ACAD
 70
     0
  0
APPID
  2
ACAD_MLEADERVER
 70
     0
  0
APPID
  2
ACAD_NAV_VCDISPLAY
 70
     0
  0
ENDTAB
  0
TABLE
  2
DIMSTYLE
 70
     1
  0
DIMSTYLE
  2
STANDARD
 70
     0
  3

  4

  5

  6

  7

 40
1.0
 41
0.18
 42
0.0625
 43
0.38
 44
0.18
 45
0.0
 46
0.0
 47
0.0
 48
0.0
140
0.18
141
0.09
142
0.0
143
25.399999999999999
144
1.0
145
0.0
146
1.0
147
0.09
 71
     0
 72
     0
 73
     1
 74
     1
 75
     0
 76
     0
 77
     0
 78
     0
170
     0
171
     2
172
     0
173
     0
174
     0
175
     0
176
     0
177
     0
178
     0
  0
ENDTAB
  0
ENDSEC
  0
SECTION
  2
BLOCKS
  0
BLOCK
  8
0
  2
$MODEL_SPACE
 70
     0
 10
0.0
 20
0.0
 30
0.0
  3
$MODEL_SPACE
  1

  0
ENDBLK
  5
9
  8
0
  0
BLOCK
 67
     1
  8
0
  2
$PAPER_SPACE
 70
     0
 10
0.0
 20
0.0
 30
0.0
  3
$PAPER_SPACE
  1

  0
ENDBLK
  5
E
 67
     1
  8
0
  0
ENDSEC
  0
SECTION
  2
ENTITIES
  0
CIRCLE
  5
26
  8
0
 10
74.549142809291993
 20
97.452830450891838
 30
0.0
 40
30.0
  0
LINE
  5
27
  8
1
 10
74.549142809291993
 20
132.45283045089181
 30
0.0
 11
74.549142809291993
 21
62.452830450891838
 31
0.0
  0
LINE
  5
2A
  8
1
 10
39.549142809292
 20
97.452830450891838
 30
0.0
 11
109.54914280929199
 21
97.452830450891838
 31
0.0
  0
CIRCLE
  5
2B
  8
0
 10
74.549142809291993
 20
97.452830450891838
 30
0.0
 40
7.5
  0
CIRCLE
  5
2C
  8
0
 10
74.549142809291993
 20
97.452830450891838
 30
0.0
 40
17.5
  0
CIRCLE
  5
2D
  8
2
 10
74.549142809291993
 20
97.452830450891838
 30
0.0
 40
18.5
  0
CIRCLE
  5
30
  8
0
 10
88.868805844471069
 20
104.1301989863949
 30
0.0
 40
1.25
  0
ARC
  5
31
  8
0
 10
88.868805844471069
 20
104.1301989863949
 30
0.0
 40
2.4999999999999818
 50
124.10404913382629
 51
285.89595086617629
  0
LINE
  5
32
  8
0
 10
89.553533972121954
 20
101.7257973162899
 30
0.0
 11
91.37995450002694
 21
102.24592734444821
 31
0.0
  0
LINE
  5
33
  8
0
 10
87.467062062519005
 20
106.2002507658822
 30
0.0
 11
88.474955168145357
 21
106.88274958435809
 31
0.0
  0
ARC
  5
34
  8
0
 10
75.549142809291993
 20
97.452830450891838
 30
0.0
 40
16.0
 50
36.112310385599713
 51
323.88768961440019
  0
LINE
  5
35
  8
0
 10
87.467062062519005
 20
88.705410135901474
 30
0.0
 11
88.474955168145357
 21
88.022911317425539
 31
0.0
  0
LINE
  5
36
  8
0
 10
89.553533972121954
 20
93.179863585493763
 30
0.0
 11
91.37995450002694
 21
92.659733557335457
 31
0.0
  0
ARC
  5
37
  8
0
 10
88.868805844471069
 20
90.775461915388775
 30
0.0
 40
2.4999999999999818
 50
74.104049133823665
 51
235.89595086617371
  0
CIRCLE
  5
38
  8
0
 10
88.868805844471069
 20
90.775461915388775
 30
0.0
 40
1.25
  0
LINE
  5
39
  8
2
 10
91.37995450002694
 20
92.659733557335457
 30
0.0
 11
92.341715168068944
 21
92.385842306275094
 31
0.0
  0
LINE
  5
3A
  8
2
 10
91.37995450002694
 20
102.24592734444821
 30
0.0
 11
92.341715168068944
 21
102.5198185955086
 31
0.0
  0
LINE
  5
3B
  8
1
 10
159.54914280929199
 20
97.452830450891838
 30
0.0
 11
188.54914280929151
 21
97.452830450891838
 31
0.0
  0
ARC
  5
3D
  8
2
 10
178.9491428092916
 20
114.3528304508915
 30
0.0
 40
0.6
 50
0.0
 51
90.0
  0
ARC
  5
3E
  8
2
 10
179.1491428092923
 20
114.55283045089131
 30
0.0
 40
0.4
 50
0.0
 51
90.0
  0
ARC
  5
3F
  8
2
 10
178.9491428092916
 20
105.55283045089131
 30
0.0
 40
0.6
 50
270.0
 51
0.0
  0
LINE
  5
40
  8
2
 10
183.54914280929199
 20
111.9528304508918
 30
0.0
 11
179.54914280929199
 21
111.9528304508918
 31
0.0
  0
ARC
  5
41
  8
2
 10
178.9491428092916
 20
89.352830450891474
 30
0.0
 40
0.6
 50
0.0
 51
90.0
  0
CIRCLE
  5
42
  8
2
 10
174.04914280929199
 20
109.9528304508918
 30
0.0
 40
3.0
  0
LINE
  5
43
  8
2
 10
168.54914280929199
 20
111.4528304508918
 30
0.0
 11
171.45106659793791
 21
111.4528304508918
 31
0.0
  0
ARC
  5
44
  8
2
 10
169.1491428092923
 20
114.3528304508915
 30
0.0
 40
0.6
 50
90.0
 51
180.0
  0
LINE
  5
45
  8
2
 10
168.54914280929199
 20
108.4528304508918
 30
0.0
 11
171.45106659793791
 21
108.4528304508918
 31
0.0
  0
ARC
  5
46
  8
2
 10
169.1491428092923
 20
105.55283045089131
 30
0.0
 40
0.6
 50
180.0
 51
270.0
  0
ARC
  5
47
  8
2
 10
169.1491428092923
 20
89.352830450891474
 30
0.0
 40
0.6
 50
90.0
 51
180.0
  0
LINE
  5
48
  8
2
 10
165.54914280929199
 20
114.9528304508918
 30
0.0
 11
166.79914280929199
 21
114.9528304508918
 31
0.0
  0
LINE
  5
49
  8
2
 10
165.54914280929199
 20
114.9528304508918
 30
0.0
 11
164.54914280929199
 21
115.53018072008091
 31
0.0
  0
LINE
  5
4A
  8
2
 10
166.9491428092916
 20
113.4215498735626
 30
0.0
 11
168.54914280929199
 21
113.4215498735626
 31
0.0
  0
LINE
  5
4B
  8
2
 10
168.54914280929199
 20
115.9528304508918
 30
0.0
 11
166.79914280929199
 21
115.9528304508918
 31
0.0
  0
LINE
  5
4C
  8
2
 10
168.54914280929199
 20
114.9528304508918
 30
0.0
 11
179.1491428092923
 21
114.9528304508918
 31
0.0
  0
LINE
  5
4D
  8
2
 10
169.1491428092923
 20
104.9528304508918
 30
0.0
 11
178.9491428092916
 21
104.9528304508918
 31
0.0
  0
LINE
  5
4E
  8
2
 10
169.1491428092923
 20
89.952830450891838
 30
0.0
 11
178.9491428092916
 21
89.952830450891838
 31
0.0
  0
LINE
  5
4F
  8
2
 10
176.64721902064599
 20
111.4528304508918
 30
0.0
 11
179.54914280929199
 21
111.4528304508918
 31
0.0
  0
LINE
  5
50
  8
2
 10
176.64721902064599
 20
108.4528304508918
 30
0.0
 11
179.54914280929199
 21
108.4528304508918
 31
0.0
  0
LINE
  5
51
  8
2
 10
183.54914280929199
 20
82.952830450891824
 30
0.0
 11
179.54914280929199
 21
82.952830450891824
 31
0.0
  0
ARC
  5
52
  8
2
 10
179.1491428092923
 20
80.352830450891474
 30
0.0
 40
0.4
 50
270.0
 51
0.0
  0
ARC
  5
53
  8
2
 10
178.9491428092916
 20
80.552830450891292
 30
0.0
 40
0.6
 50
270.0
 51
0.0
  0
CIRCLE
  5
54
  8
2
 10
174.04914280929199
 20
84.952830450891838
 30
0.0
 40
3.0
  0
LINE
  5
55
  8
2
 10
168.54914280929199
 20
83.452830450891838
 30
0.0
 11
171.45106659793791
 21
83.452830450891838
 31
0.0
  0
LINE
  5
56
  8
2
 10
168.54914280929199
 20
86.452830450891838
 30
0.0
 11
171.45106659793791
 21
86.452830450891838
 31
0.0
  0
ARC
  5
57
  8
2
 10
169.1491428092923
 20
80.552830450891292
 30
0.0
 40
0.6
 50
180.0
 51
270.0
  0
LINE
  5
58
  8
2
 10
165.54914280929199
 20
79.952830450891838
 30
0.0
 11
166.79914280929199
 21
79.952830450891838
 31
0.0
  0
LINE
  5
59
  8
2
 10
165.54914280929199
 20
79.952830450891838
 30
0.0
 11
164.54914280929199
 21
79.375480181701846
 31
0.0
  0
LINE
  5
5A
  8
2
 10
166.9491428092916
 20
81.484111028220127
 30
0.0
 11
168.54914280929199
 21
81.484111028220127
 31
0.0
  0
LINE
  5
5B
  8
2
 10
168.54914280929199
 20
78.952830450891824
 30
0.0
 11
166.79914280929199
 21
78.952830450891824
 31
0.0
  0
LINE
  5
5C
  8
2
 10
168.54914280929199
 20
79.952830450891838
 30
0.0
 11
179.1491428092923
 21
79.952830450891838
 31
0.0
  0
LINE
  5
5D
  8
2
 10
176.64721902064599
 20
83.452830450891838
 30
0.0
 11
179.54914280929199
 21
83.452830450891838
 31
0.0
  0
LINE
  5
5E
  8
2
 10
176.64721902064599
 20
86.452830450891838
 30
0.0
 11
179.54914280929199
 21
86.452830450891838
 31
0.0
  0
LINE
  5
5F
  8
0
 10
183.54914299599361
 20
69.752830363076257
 30
0.0
 11
183.54914283102829
 21
125.15283036307621
 31
0.0
  0
LINE
  5
60
  8
2
 10
168.54914280929199
 20
115.9528304508918
 30
0.0
 11
168.54914280929199
 21
78.952830450891824
 31
0.0
  0
LINE
  5
61
  8
2
 10
179.54914280929199
 20
114.55283045089131
 30
0.0
 11
179.54914280929199
 21
80.352830450891474
 31
0.0
  0
LINE
  5
62
  8
0
 10
164.54914299599361
 20
69.752830363076257
 30
0.0
 11
164.5491428310292
 21
125.15283036307621
 31
0.0
  0
LINE
  5
63
  8
2
 10
165.54914280929199
 20
79.952830450891838
 30
0.0
 11
165.54914280929199
 21
114.9528304508918
 31
0.0
  0
LINE
  5
64
  8
2
 10
166.9491428092916
 20
115.9528304508918
 30
0.0
 11
166.9491428092916
 21
78.952830450891824
 31
0.0
  0
LINE
  5
65
  8
2
 10
166.79914280929199
 20
115.9528304508918
 30
0.0
 11
166.79914280929199
 21
78.952830450891824
 31
0.0
  0
LINE
  5
66
  8
0
 10
164.54914299599361
 20
69.752830363076257
 30
0.0
 11
169.8491429959945
 21
69.752830363076214
 31
0.0
  0
LINE
  5
67
  8
0
 10
178.24914299599271
 20
69.752830363076257
 30
0.0
 11
183.54914299599361
 21
69.752830363076257
 31
0.0
  0
LINE
  5
68
  8
0
 10
170.24914299599359
 20
67.452830363076245
 30
0.0
 11
177.84914299599359
 21
67.452830363076245
 31
0.0
  0
LINE
  5
69
  8
0
 10
177.8491429959945
 20
127.4528303630762
 30
0.0
 11
177.84914299599271
 21
67.452830363076245
 31
0.0
  0
LINE
  5
6A
  8
0
 10
170.2491429959945
 20
127.4528303630762
 30
0.0
 11
170.2491429959945
 21
67.452830363076245
 31
0.0
  0
ARC
  5
6B
  8
0
 10
178.24914299599271
 20
69.352830363076251
 30
0.0
 40
0.4
 50
90.0
 51
179.9999999999992
  0
ARC
  5
6C
  8
0
 10
169.8491429959945
 20
69.352830363076194
 30
0.0
 40
0.4
 50
0.0000000000008142
 51
90.0
  0
ARC
  5
6D
  8
0
 10
169.8491429959945
 20
125.5528303630763
 30
0.0
 40
0.4
 50
270.0
 51
359.9999999999992
  0
ARC
  5
6E
  8
0
 10
178.24914299599271
 20
125.5528303630763
 30
0.0
 40
0.4
 50
180.0000000000008
 51
270.0
  0
LINE
  5
71
  8
0
 10
170.24914299599359
 20
127.4528303630762
 30
0.0
 11
177.84914299599359
 21
127.4528303630762
 31
0.0
  0
LINE
  5
72
  8
0
 10
178.24914299599271
 20
125.15283036307621
 30
0.0
 11
183.54914299599361
 21
125.15283036307621
 31
0.0
  0
LINE
  5
73
  8
0
 10
164.54914299599361
 20
125.15283036307621
 30
0.0
 11
169.8491429959945
 21
125.1528303630763
 31
0.0
  0
CIRCLE
  5
74
  8
0
 10
74.549142809291993
 20
97.452830450891838
 30
0.0
 40
27.699999999999999
  0
LINE
  5
75
  8
1
 10
174.04914299599361
 20
62.452830363076252
 30
0.0
 11
174.04914299599361
 21
132.4528303630762
 31
0.0
  0
TEXT
  5
12C
  8
0
 62
     3
 10
0.0
 20
0.0
 30
0.0
 40
10.0
  1
RABJ40-60
  7
STANDARD1
  0
ENDSEC
  0
EOF
