  0
SECTION
  2
HEADER
  9
$ACADVER
  1
AC1009
  9
$INSBASE
 10
0.0
 20
0.0
 30
0.0
  9
$EXTMIN
 10
0.0
 20
-2.960436562073669
 30
0.0
  9
$EXTMAX
 10
313.11630897722102
 20
202.48333306349559
 30
0.0
  9
$LIMMIN
 10
0.0
 20
0.0
  9
$LIMMAX
 10
375.0
 20
270.0
  9
$ORTHOMODE
 70
     1
  9
$REGENMODE
 70
     1
  9
$FILLMODE
 70
     1
  9
$QTEXTMODE
 70
     0
  9
$MIRRTEXT
 70
     0
  9
$DRAGMODE
 70
     2
  9
$LTSCALE
 40
10.0
  9
$OSMODE
 70
    55
  9
$ATTMODE
 70
     1
  9
$TEXTSIZE
 40
0.2
  9
$TRACEWID
 40
0.05
  9
$TEXTSTYLE
  7
STANDARD
  9
$CLAYER
  8
0
  9
$CELTYPE
  6
BYLAYER
  9
$CECOLOR
 62
   256
  9
$DIMSCALE
 40
1.0
  9
$DIMASZ
 40
3.0
  9
$DIMEXO
 40
2.0
  9
$DIMDLI
 40
0.38
  9
$DIMRND
 40
0.0
  9
$DIMDLE
 40
0.0
  9
$DIMEXE
 40
2.0
  9
$DIMTP
 40
0.0
  9
$DIMTM
 40
0.0
  9
$DIMTXT
 40
3.2000000000000002
  9
$DIMCEN
 40
0.0
  9
$DIMTSZ
 40
0.0
  9
$DIMTOL
 70
     0
  9
$DIMLIM
 70
     0
  9
$DIMTIH
 70
     0
  9
$DIMTOH
 70
     0
  9
$DIMSE1
 70
     0
  9
$DIMSE2
 70
     0
  9
$DIMTAD
 70
     1
  9
$DIMZIN
 70
     0
  9
$DIMBLK
  1

  9
$DIMASO
 70
     1
  9
$DIMSHO
 70
     0
  9
$DIMPOST
  1

  9
$DIMAPOST
  1

  9
$DIMALT
 70
     0
  9
$DIMALTD
 70
     2
  9
$DIMALTF
 40
25.399999999999999
  9
$DIMLFAC
 40
1.0
  9
$DIMTOFL
 70
     1
  9
$DIMTVP
 40
1.6000000000000001
  9
$DIMTIX
 70
     1
  9
$DIMSOXD
 70
     0
  9
$DIMSAH
 70
     0
  9
$DIMBLK1
  1

  9
$DIMBLK2
  1

  9
$DIMSTYLE
  2
STANDARD
  9
$DIMCLRD
 70
     0
  9
$DIMCLRE
 70
     0
  9
$DIMCLRT
 70
     0
  9
$DIMTFAC
 40
1.0
  9
$DIMGAP
 40
0.09
  9
$LUNITS
 70
     2
  9
$LUPREC
 70
     4
  9
$SKETCHINC
 40
0.1
  9
$FILLETRAD
 40
0.0
  9
$AUNITS
 70
     0
  9
$AUPREC
 70
     4
  9
$MENU
  1
E:\r13\win\SUPPORT\ACAD
  9
$ELEVATION
 40
0.0
  9
$PELEVATION
 40
0.0
  9
$THICKNESS
 40
0.0
  9
$LIMCHECK
 70
     0
  9
$BLIPMODE
 70
     0
  9
$CHAMFERA
 40
0.0
  9
$CHAMFERB
 40
0.0
  9
$SKPOLY
 70
     0
  9
$TDCREATE
 40
2449840.6307523148
  9
$TDUPDATE
 40
2456598.5867220829
  9
$TDINDWG
 40
0.0001706829
  9
$TDUSRTIMER
 40
0.0001706829
  9
$USRTIMER
 70
     1
  9
$ANGBASE
 50
0.0
  9
$ANGDIR
 70
     0
  9
$PDMODE
 70
     0
  9
$PDSIZE
 40
0.0
  9
$PLINEWID
 40
0.0
  9
$COORDS
 70
     1
  9
$SPLFRAME
 70
     0
  9
$SPLINETYPE
 70
     6
  9
$SPLINESEGS
 70
     8
  9
$ATTDIA
 70
     0
  9
$ATTREQ
 70
     1
  9
$HANDLING
 70
     1
  9
$HANDSEED
  5
259
  9
$SURFTAB1
 70
     6
  9
$SURFTAB2
 70
     6
  9
$SURFTYPE
 70
     6
  9
$SURFU
 70
     6
  9
$SURFV
 70
     6
  9
$UCSNAME
  2

  9
$UCSORG
 10
0.0
 20
0.0
 30
0.0
  9
$UCSXDIR
 10
1.0
 20
0.0
 30
0.0
  9
$UCSYDIR
 10
0.0
 20
1.0
 30
0.0
  9
$PUCSNAME
  2

  9
$PUCSORG
 10
0.0
 20
0.0
 30
0.0
  9
$PUCSXDIR
 10
1.0
 20
0.0
 30
0.0
  9
$PUCSYDIR
 10
0.0
 20
1.0
 30
0.0
  9
$USERI1
 70
     0
  9
$USERI2
 70
     1
  9
$USERI3
 70
     1
  9
$USERI4
 70
     0
  9
$USERI5
 70
     0
  9
$USERR1
 40
0.0
  9
$USERR2
 40
0.0
  9
$USERR3
 40
0.0
  9
$USERR4
 40
0.0
  9
$USERR5
 40
0.0
  9
$WORLDVIEW
 70
     1
  9
$SHADEDGE
 70
     3
  9
$SHADEDIF
 70
    70
  9
$TILEMODE
 70
     1
  9
$MAXACTVP
 70
    16
  9
$PLIMCHECK
 70
     0
  9
$PEXTMIN
 10
1.0000000000000000E+020
 20
1.0000000000000000E+020
 30
1.0000000000000000E+020
  9
$PEXTMAX
 10
-1.0000000000000000E+020
 20
-1.0000000000000000E+020
 30
-1.0000000000000000E+020
  9
$PLIMMIN
 10
0.0
 20
0.0
  9
$PLIMMAX
 10
12.0
 20
9.0
  9
$UNITMODE
 70
     0
  9
$VISRETAIN
 70
     0
  9
$PLINEGEN
 70
     0
  9
$PSLTSCALE
 70
     0
  0
ENDSEC
  0
SECTION
  2
TABLES
  0
TABLE
  2
VPORT
 70
     1
  0
VPORT
  2
*ACTIVE
 70
     0
 10
0.0
 20
0.0
 11
1.0
 21
1.0
 12
187.49427839065231
 22
194.785247995265
 13
0.0
 23
0.0
 14
10.0
 24
10.0
 15
10.0
 25
10.0
 16
0.0
 26
0.0
 36
1.0
 17
0.0
 27
0.0
 37
0.0
 40
399.3463374158577
 41
1.7807262569832401
 42
50.0
 43
0.0
 44
0.0
 50
0.0
 51
0.0
 71
     0
 72
   500
 73
     1
 74
     0
 75
     0
 76
     0
 77
     0
 78
     2
  0
ENDTAB
  0
TABLE
  2
LTYPE
 70
     4
  0
LTYPE
  2
CONTINUOUS
 70
     0
  3
Solid Line
 72
    65
 73
     0
 40
0.0
  0
LTYPE
  2
CENTER
 70
     0
  3
____ _ ____ _ ____ _ ____ _ ____ _ ____ _ ____
 72
    65
 73
     4
 40
2.0
 49
1.25
 49
-0.25
 49
0.25
 49
-0.25
  0
LTYPE
  2
HIDDEN
 70
     0
  3
_ _ _ _ _ _ _ _ _ _ _ _ _ _ _ _ _ _ _ _ _ _ _
 72
    65
 73
     2
 40
0.375
 49
0.25
 49
-0.125
  0
LTYPE
  2
PHANTOM2
 70
     0
  3
___ _ _ ___ _ _ ___ _ _ ___ _ _
 72
    65
 73
     6
 40
1.25
 49
0.625
 49
-0.125
 49
0.125
 49
-0.125
 49
0.125
 49
-0.125
  0
ENDTAB
  0
TABLE
  2
LAYER
 70
     3
  0
LAYER
  2
0
 70
     0
 62
     7
  6
CONTINUOUS
  0
LAYER
  2
1
 70
     0
 62
     1
  6
CENTER
  0
LAYER
  2
2
 70
     0
 62
     2
  6
HIDDEN
  0
ENDTAB
  0
TABLE
  2
STYLE
 70
     2
  0
STYLE
  2
STANDARD
 70
     0
 40
0.0
 41
1.0
 50
0.0
 71
     0
 42
0.2
  3
TXT
  4
BIGFONT
  0
STYLE
  2
STANDARD1
 70
     0
 40
0.0
 41
1.0
 50
0.0
 71
     0
 42
3.0
  3
txt
  4

  0
ENDTAB
  0
TABLE
  2
VIEW
 70
     1
  0
VIEW
  2
ALL
 70
     0
 40
270.0
 10
220.99159663865549
 20
135.0
 41
0.0
 11
0.0
 21
0.0
 31
1.0
 12
0.0
 22
0.0
 32
0.0
 42
0.0
 43
0.0
 44
0.0
 50
0.0
 71
     0
  0
ENDTAB
  0
TABLE
  2
UCS
 70
     0
  0
ENDTAB
  0
TABLE
  2
APPID
 70
     3
  0
APPID
  2
ACAD
 70
     0
  0
APPID
  2
ACAD_MLEADERVER
 70
     0
  0
APPID
  2
ACAD_NAV_VCDISPLAY
 70
     0
  0
ENDTAB
  0
TABLE
  2
DIMSTYLE
 70
     1
  0
DIMSTYLE
  2
STANDARD
 70
     0
  3

  4

  5

  6

  7

 40
1.0
 41
0.18
 42
0.0625
 43
0.38
 44
0.18
 45
0.0
 46
0.0
 47
0.0
 48
0.0
140
0.18
141
0.09
142
0.0
143
25.399999999999999
144
1.0
145
0.0
146
1.0
147
0.09
 71
     0
 72
     0
 73
     1
 74
     1
 75
     0
 76
     0
 77
     0
 78
     0
170
     0
171
     2
172
     0
173
     0
174
     0
175
     0
176
     0
177
     0
178
     0
  0
ENDTAB
  0
ENDSEC
  0
SECTION
  2
BLOCKS
  0
BLOCK
  8
0
  2
$MODEL_SPACE
 70
     0
 10
0.0
 20
0.0
 30
0.0
  3
$MODEL_SPACE
  1

  0
ENDBLK
  5
DA
  8
0
  0
BLOCK
 67
     1
  8
0
  2
$PAPER_SPACE
 70
     0
 10
0.0
 20
0.0
 30
0.0
  3
$PAPER_SPACE
  1

  0
ENDBLK
  5
D8
 67
     1
  8
0
  0
ENDSEC
  0
SECTION
  2
ENTITIES
  0
LINE
  5
35
  8
1
 10
146.21630897722099
 20
85.0
 30
0.0
 11
146.21630897722099
 21
110.0
 31
0.0
  0
LINE
  5
36
  8
2
 10
148.71630897722099
 20
90.46700000000024
 30
0.0
 11
148.71630897722099
 21
100.0
 31
0.0
  0
LINE
  5
37
  8
2
 10
148.2833089772212
 20
90.900000000000034
 30
0.0
 11
148.2833089772212
 21
102.5
 31
0.0
  0
LINE
  5
38
  8
2
 10
144.1493089772207
 20
90.900000000000034
 30
0.0
 11
144.1493089772207
 21
102.5
 31
0.0
  0
LINE
  5
39
  8
2
 10
143.71630897722099
 20
90.46700000000024
 30
0.0
 11
143.71630897722099
 21
100.0
 31
0.0
  0
LINE
  5
3A
  8
2
 10
143.71630897722099
 20
100.0
 30
0.0
 11
148.71630897722099
 21
100.0
 31
0.0
  0
LINE
  5
3B
  8
2
 10
148.2833089772212
 20
102.5
 30
0.0
 11
144.1493089772207
 21
102.5
 31
0.0
  0
LINE
  5
3C
  8
2
 10
144.1493089772207
 20
102.5
 30
0.0
 11
146.21630897722099
 21
103.6933830064151
 31
0.0
  0
LINE
  5
3D
  8
2
 10
148.28330897722111
 20
102.5
 30
0.0
 11
146.21630897722099
 21
103.6933830064151
 31
0.0
  0
LINE
  5
3E
  8
2
 10
148.2833089772212
 20
90.900000000000006
 30
0.0
 11
144.1493089772207
 21
90.900000000000006
 31
0.0
  0
LINE
  5
3F
  8
2
 10
148.2833089772212
 20
90.900000000000034
 30
0.0
 11
149.1833089772212
 21
90.000000000000028
 31
0.0
  0
LINE
  5
40
  8
2
 10
144.1493089772207
 20
90.900000000000034
 30
0.0
 11
143.24930897722081
 21
90.000000000000028
 31
0.0
  0
LINE
  5
41
  8
0
 10
151.2163089772209
 20
91.0
 30
0.0
 11
151.2163089772209
 21
112.5
 31
0.0
  0
LINE
  5
42
  8
0
 10
141.2163089772209
 20
91.0
 30
0.0
 11
141.2163089772209
 21
112.5
 31
0.0
  0
LINE
  5
43
  8
0
 10
158.7163089772209
 20
130.0
 30
0.0
 11
233.71630897722099
 21
130.0
 31
0.0
  0
LINE
  5
44
  8
0
 10
158.7163089772209
 20
120.0
 30
0.0
 11
233.71630897722099
 21
120.0
 31
0.0
  0
ARC
  5
45
  8
0
 10
158.7163089772209
 20
112.5
 30
0.0
 40
17.5
 50
90.0
 51
179.99999999999989
  0
ARC
  5
46
  8
0
 10
158.7163089772209
 20
112.5
 30
0.0
 40
7.5
 50
90.0
 51
179.99999999999989
  0
ARC
  5
47
  8
2
 10
141.41630897722089
 20
90.200000000000017
 30
0.0
 40
0.2
 50
180.0
 51
269.99999999999989
  0
LINE
  5
48
  8
1
 10
196.21630897722099
 20
80.0
 30
0.0
 11
196.21630897722099
 21
140.0
 31
0.0
  0
LINE
  5
49
  8
0
 10
251.21630897722099
 20
91.0
 30
0.0
 11
251.21630897722099
 21
112.5
 31
0.0
  0
LINE
  5
4A
  8
0
 10
241.2163089772211
 20
91.000000000000014
 30
0.0
 11
241.2163089772211
 21
112.5
 31
0.0
  0
ARC
  5
4B
  8
0
 10
233.71630897722099
 20
112.5
 30
0.0
 40
17.5
 50
0.0
 51
90.0
  0
ARC
  5
4C
  8
0
 10
233.71630897722099
 20
112.5
 30
0.0
 40
7.5
 50
0.0
 51
90.0
  0
LINE
  5
4D
  8
1
 10
246.21630897722099
 20
85.0
 30
0.0
 11
246.21630897722099
 21
110.0
 31
0.0
  0
LINE
  5
4E
  8
0
 10
253.116308977221
 20
89.0
 30
0.0
 11
239.31630897722101
 21
89.0
 31
0.0
  0
LINE
  5
4F
  8
0
 10
253.116308977221
 20
89.0
 30
0.0
 11
253.116308977221
 21
90.0
 31
0.0
  0
LINE
  5
50
  8
0
 10
253.116308977221
 20
90.0
 30
0.0
 11
252.11630897722111
 21
91.0
 31
0.0
  0
LINE
  5
51
  8
0
 10
253.116308977221
 20
90.0
 30
0.0
 11
239.31630897722101
 21
90.0
 31
0.0
  0
LINE
  5
52
  8
0
 10
239.31630897722101
 20
90.0
 30
0.0
 11
240.31630897722101
 21
91.0
 31
0.0
  0
LINE
  5
53
  8
0
 10
239.31630897722101
 20
89.0
 30
0.0
 11
239.31630897722101
 21
90.0
 31
0.0
  0
LINE
  5
54
  8
0
 10
240.31630897722101
 20
91.0
 30
0.0
 11
252.11630897722111
 21
91.0
 31
0.0
  0
LINE
  5
55
  8
0
 10
140.3163089772209
 20
91.000000000000014
 30
0.0
 11
141.2163089772209
 21
91.0
 31
0.0
  0
LINE
  5
56
  8
0
 10
139.3163089772209
 20
89.000000000000014
 30
0.0
 11
139.3163089772209
 21
90.000000000000014
 31
0.0
  0
LINE
  5
57
  8
0
 10
139.3163089772209
 20
90.000000000000014
 30
0.0
 11
140.3163089772209
 21
91.000000000000014
 31
0.0
  0
LINE
  5
58
  8
0
 10
153.116308977221
 20
90.000000000000014
 30
0.0
 11
152.116308977221
 21
91.000000000000014
 31
0.0
  0
LINE
  5
59
  8
0
 10
153.116308977221
 20
89.000000000000014
 30
0.0
 11
153.116308977221
 21
90.000000000000014
 31
0.0
  0
LINE
  5
5A
  8
0
 10
153.116308977221
 20
89.000000000000014
 30
0.0
 11
139.3163089772209
 21
89.000000000000014
 31
0.0
  0
LINE
  5
5B
  8
0
 10
151.2163089772209
 20
91.0
 30
0.0
 11
152.116308977221
 21
91.000000000000014
 31
0.0
  0
LINE
  5
5C
  8
2
 10
141.11630897722091
 20
90.000000000000014
 30
0.0
 11
141.116308977221
 21
91.000000000000014
 31
0.0
  0
LINE
  5
5D
  8
2
 10
148.81630897722101
 20
89.000000000000014
 30
0.0
 11
148.81630897722101
 21
90.000000000000014
 31
0.0
  0
LINE
  5
5E
  8
2
 10
143.61630897722091
 20
89.000000000000014
 30
0.0
 11
143.61630897722091
 21
90.000000000000014
 31
0.0
  0
LINE
  5
5F
  8
0
 10
80.316308977220999
 20
91.0
 30
0.0
 11
92.116308977221024
 21
91.0
 31
0.0
  0
LINE
  5
60
  8
0
 10
79.316308977221013
 20
89.0
 30
0.0
 11
79.316308977221013
 21
90.0
 31
0.0
  0
LINE
  5
61
  8
0
 10
79.316308977221013
 20
90.0
 30
0.0
 11
80.316308977220999
 21
91.0
 31
0.0
  0
LINE
  5
62
  8
0
 10
93.116308977221024
 20
90.0
 30
0.0
 11
79.316308977221013
 21
90.0
 31
0.0
  0
LINE
  5
63
  8
0
 10
93.116308977221024
 20
90.0
 30
0.0
 11
92.116308977221024
 21
91.0
 31
0.0
  0
LINE
  5
64
  8
0
 10
93.116308977221024
 20
89.0
 30
0.0
 11
93.116308977221024
 21
90.0
 31
0.0
  0
LINE
  5
65
  8
0
 10
93.116308977221024
 20
89.0
 30
0.0
 11
79.316308977221013
 21
89.0
 31
0.0
  0
LINE
  5
66
  8
1
 10
86.216308977221018
 20
78.999999999999986
 30
0.0
 11
86.216308977221018
 21
140.0
 31
0.0
  0
LINE
  5
67
  8
0
 10
81.216308977221018
 20
91.000000000000014
 30
0.0
 11
81.216308977221018
 21
125.0
 31
0.0
  0
LINE
  5
68
  8
0
 10
91.21630897722099
 20
91.0
 30
0.0
 11
91.21630897722099
 21
125.0
 31
0.0
  0
ARC
  5
69
  8
0
 10
86.216308977221018
 20
125.0
 30
0.0
 40
4.9999999999999849
 50
0.0000000000003308
 51
180.0000000000004
  0
ARC
  5
6A
  8
2
 10
86.216308977221018
 20
125.0
 30
0.0
 40
4.9999999999999849
 50
179.9999999999996
 51
359.99999999999972
  0
LINE
  5
6B
  8
0
 10
141.2163089772209
 20
91.0
 30
0.0
 11
151.2163089772209
 21
91.0
 31
0.0
  0
LINE
  5
6C
  8
2
 10
141.2163089772209
 20
91.0
 30
0.0
 11
141.2163089772209
 21
90.200000000000017
 31
0.0
  0
LINE
  5
6D
  8
2
 10
151.21630897722099
 20
91.0
 30
0.0
 11
151.21630897722099
 21
90.200000000000017
 31
0.0
  0
LINE
  5
6E
  8
2
 10
151.31630897722101
 20
90.000000000000014
 30
0.0
 11
151.3163089772209
 21
91.000000000000014
 31
0.0
  0
ARC
  5
6F
  8
2
 10
151.016308977221
 20
90.200000000000017
 30
0.0
 40
0.2
 50
270.00000000000011
 51
360.0
  0
LINE
  5
70
  8
0
 10
139.3163089772209
 20
90.000000000000014
 30
0.0
 11
153.116308977221
 21
90.0
 31
0.0
  0
LINE
  5
71
  8
0
 10
146.21630897722099
 20
186.58333306349559
 30
0.0
 11
246.21630897722099
 21
186.58333306349559
 31
0.0
  0
LINE
  5
72
  8
0
 10
146.21630897722099
 20
196.58333306349559
 30
0.0
 11
246.21630897722099
 21
196.58333306349559
 31
0.0
  0
ARC
  5
73
  8
0
 10
146.21630897722099
 20
191.58333306349559
 30
0.0
 40
5.0
 50
89.999999999999844
 51
270.0
  0
ARC
  5
74
  8
2
 10
146.21630897722099
 20
191.58333306349559
 30
0.0
 40
5.0
 50
270.0
 51
89.999999999999844
  0
ARC
  5
75
  8
0
 10
146.21630897722099
 20
191.58333306349559
 30
0.0
 40
6.9000000000000004
 50
46.438715518925271
 51
313.56128448107728
  0
ARC
  5
76
  8
0
 10
146.21630897722099
 20
191.58333306349559
 30
0.0
 40
5.9000000000000004
 50
57.93621428246594
 51
302.06378571753908
  0
ARC
  5
77
  8
2
 10
306.21630897722099
 20
125.0
 30
0.0
 40
4.9999999999999849
 50
180.0000000000004
 51
0.0000000000003562
  0
ARC
  5
78
  8
0
 10
306.21630897722099
 20
125.0
 30
0.0
 40
4.9999999999999849
 50
359.99999999999972
 51
179.99999999999969
  0
LINE
  5
79
  8
0
 10
301.2163089772211
 20
91.0
 30
0.0
 11
301.2163089772211
 21
125.0
 31
0.0
  0
LINE
  5
7A
  8
0
 10
311.21630897722099
 20
91.000000000000014
 30
0.0
 11
311.21630897722099
 21
125.0
 31
0.0
  0
LINE
  5
7B
  8
1
 10
306.21630897722099
 20
78.999999999999986
 30
0.0
 11
306.21630897722099
 21
140.0
 31
0.0
  0
LINE
  5
7C
  8
0
 10
299.31630897722101
 20
89.0
 30
0.0
 11
313.11630897722102
 21
89.0
 31
0.0
  0
LINE
  5
7D
  8
0
 10
299.31630897722101
 20
89.0
 30
0.0
 11
299.31630897722101
 21
90.0
 31
0.0
  0
LINE
  5
7E
  8
0
 10
299.31630897722101
 20
90.0
 30
0.0
 11
300.31630897722101
 21
91.0
 31
0.0
  0
LINE
  5
7F
  8
0
 10
299.31630897722101
 20
90.0
 30
0.0
 11
313.11630897722102
 21
90.0
 31
0.0
  0
LINE
  5
80
  8
0
 10
313.11630897722102
 20
90.0
 30
0.0
 11
312.11630897722102
 21
91.0
 31
0.0
  0
LINE
  5
81
  8
0
 10
313.11630897722102
 20
89.0
 30
0.0
 11
313.11630897722102
 21
90.0
 31
0.0
  0
LINE
  5
82
  8
0
 10
312.11630897722102
 20
91.0
 30
0.0
 11
300.31630897722101
 21
91.0
 31
0.0
  0
ARC
  5
83
  8
0
 10
246.21630897722099
 20
191.58333306349559
 30
0.0
 40
5.9000000000000004
 50
237.9362142824609
 51
122.063785717534
  0
ARC
  5
84
  8
0
 10
246.21630897722099
 20
191.58333306349559
 30
0.0
 40
6.9000000000000004
 50
226.43871551892269
 51
133.56128448107469
  0
ARC
  5
85
  8
2
 10
246.21630897722099
 20
191.58333306349559
 30
0.0
 40
5.0
 50
90.000000000000185
 51
270.00000000000011
  0
ARC
  5
86
  8
0
 10
246.21630897722099
 20
191.58333306349559
 30
0.0
 40
5.0
 50
270.00000000000011
 51
90.000000000000185
  0
ARC
  5
87
  8
2
 10
241.41630897722109
 20
90.200000000000017
 30
0.0
 40
0.2
 50
180.0
 51
269.99999999999989
  0
LINE
  5
88
  8
2
 10
241.11630897722111
 20
90.000000000000014
 30
0.0
 11
241.11630897722111
 21
91.000000000000014
 31
0.0
  0
LINE
  5
89
  8
2
 10
241.21630897722099
 20
91.0
 30
0.0
 11
241.2163089772211
 21
90.200000000000017
 31
0.0
  0
LINE
  5
8A
  8
2
 10
251.2163089772211
 20
91.0
 30
0.0
 11
251.2163089772211
 21
90.200000000000017
 31
0.0
  0
LINE
  5
8B
  8
2
 10
248.8163089772211
 20
89.000000000000014
 30
0.0
 11
248.8163089772211
 21
90.000000000000014
 31
0.0
  0
LINE
  5
8C
  8
2
 10
243.61630897722111
 20
89.000000000000014
 30
0.0
 11
243.61630897722111
 21
90.000000000000014
 31
0.0
  0
LINE
  5
8D
  8
2
 10
251.3163089772211
 20
90.000000000000014
 30
0.0
 11
251.3163089772211
 21
91.000000000000014
 31
0.0
  0
LINE
  5
8E
  8
0
 10
241.2163089772211
 20
91.0
 30
0.0
 11
240.31630897722101
 21
91.000000000000014
 31
0.0
  0
ARC
  5
8F
  8
2
 10
251.01630897722109
 20
90.200000000000017
 30
0.0
 40
0.2
 50
270.00000000000011
 51
360.0
  0
LINE
  5
90
  8
2
 10
248.28330897722131
 20
90.900000000000034
 30
0.0
 11
249.1833089772212
 21
90.000000000000028
 31
0.0
  0
LINE
  5
91
  8
2
 10
244.14930897722081
 20
90.900000000000034
 30
0.0
 11
243.24930897722081
 21
90.000000000000028
 31
0.0
  0
LINE
  5
92
  8
2
 10
244.14930897722081
 20
90.900000000000006
 30
0.0
 11
248.28330897722131
 21
90.900000000000006
 31
0.0
  0
LINE
  5
93
  8
2
 10
244.1493089772209
 20
102.5
 30
0.0
 11
246.21630897722099
 21
103.6933830064151
 31
0.0
  0
LINE
  5
94
  8
2
 10
248.28330897722131
 20
102.5
 30
0.0
 11
246.21630897722099
 21
103.6933830064151
 31
0.0
  0
LINE
  5
95
  8
2
 10
244.14930897722081
 20
102.5
 30
0.0
 11
248.28330897722131
 21
102.5
 31
0.0
  0
LINE
  5
96
  8
2
 10
248.71630897722099
 20
100.0
 30
0.0
 11
243.71630897722099
 21
100.0
 31
0.0
  0
LINE
  5
97
  8
2
 10
248.71630897722099
 20
90.46700000000024
 30
0.0
 11
248.71630897722099
 21
100.0
 31
0.0
  0
LINE
  5
98
  8
2
 10
248.28330897722131
 20
90.900000000000034
 30
0.0
 11
248.28330897722131
 21
102.5
 31
0.0
  0
LINE
  5
99
  8
2
 10
244.14930897722081
 20
90.900000000000034
 30
0.0
 11
244.14930897722081
 21
102.5
 31
0.0
  0
LINE
  5
9A
  8
2
 10
243.71630897722099
 20
90.46700000000024
 30
0.0
 11
243.71630897722099
 21
100.0
 31
0.0
  0
LINE
  5
9B
  8
1
 10
157.116308977221
 20
191.58333306349559
 30
0.0
 11
135.31630897722101
 21
191.58333306349559
 31
0.0
  0
LINE
  5
9C
  8
1
 10
146.21630897722099
 20
202.48333306349559
 30
0.0
 11
146.21630897722099
 21
180.68333306349561
 31
0.0
  0
LINE
  5
9D
  8
1
 10
256.21630897722099
 20
191.58333306349559
 30
0.0
 11
236.21630897722099
 21
191.58333306349559
 31
0.0
  0
LINE
  5
9E
  8
1
 10
246.21630897722099
 20
201.58333306349559
 30
0.0
 11
246.21630897722099
 21
181.58333306349559
 31
0.0
  0
TEXT
  5
1C4
  8
0
 62
     3
 10
0.0
 20
0.0
 30
0.0
 40
10.0
  1
RD1-100N
  7
STANDARD1
  0
ENDSEC
  0
EOF
