  0
SECTION
  2
HEADER
  9
$ACADVER
  1
AC1009
  9
$INSBASE
 10
0.0
 20
0.0
 30
0.0
  9
$EXTMIN
 10
0.0
 20
-2.960436562073669
 30
0.0
  9
$EXTMAX
 10
316.89999999999998
 20
192.72050638829279
 30
0.0
  9
$LIMMIN
 10
0.0
 20
0.0
  9
$LIMMAX
 10
375.0
 20
270.0
  9
$ORTHOMODE
 70
     1
  9
$REGENMODE
 70
     1
  9
$FILLMODE
 70
     1
  9
$QTEXTMODE
 70
     0
  9
$MIRRTEXT
 70
     0
  9
$DRAGMODE
 70
     2
  9
$LTSCALE
 40
10.0
  9
$OSMODE
 70
    55
  9
$ATTMODE
 70
     1
  9
$TEXTSIZE
 40
0.2
  9
$TRACEWID
 40
0.05
  9
$TEXTSTYLE
  7
STANDARD
  9
$CLAYER
  8
0
  9
$CELTYPE
  6
BYLAYER
  9
$CECOLOR
 62
   256
  9
$DIMSCALE
 40
1.0
  9
$DIMASZ
 40
3.0
  9
$DIMEXO
 40
2.0
  9
$DIMDLI
 40
0.38
  9
$DIMRND
 40
0.0
  9
$DIMDLE
 40
0.0
  9
$DIMEXE
 40
2.0
  9
$DIMTP
 40
0.0
  9
$DIMTM
 40
0.0
  9
$DIMTXT
 40
3.2000000000000002
  9
$DIMCEN
 40
0.0
  9
$DIMTSZ
 40
0.0
  9
$DIMTOL
 70
     0
  9
$DIMLIM
 70
     0
  9
$DIMTIH
 70
     0
  9
$DIMTOH
 70
     0
  9
$DIMSE1
 70
     0
  9
$DIMSE2
 70
     0
  9
$DIMTAD
 70
     1
  9
$DIMZIN
 70
     0
  9
$DIMBLK
  1

  9
$DIMASO
 70
     1
  9
$DIMSHO
 70
     0
  9
$DIMPOST
  1

  9
$DIMAPOST
  1

  9
$DIMALT
 70
     0
  9
$DIMALTD
 70
     2
  9
$DIMALTF
 40
25.399999999999999
  9
$DIMLFAC
 40
1.0
  9
$DIMTOFL
 70
     1
  9
$DIMTVP
 40
1.6000000000000001
  9
$DIMTIX
 70
     1
  9
$DIMSOXD
 70
     0
  9
$DIMSAH
 70
     0
  9
$DIMBLK1
  1

  9
$DIMBLK2
  1

  9
$DIMSTYLE
  2
STANDARD
  9
$DIMCLRD
 70
     0
  9
$DIMCLRE
 70
     0
  9
$DIMCLRT
 70
     0
  9
$DIMTFAC
 40
1.0
  9
$DIMGAP
 40
0.09
  9
$LUNITS
 70
     2
  9
$LUPREC
 70
     4
  9
$SKETCHINC
 40
0.1
  9
$FILLETRAD
 40
0.0
  9
$AUNITS
 70
     0
  9
$AUPREC
 70
     4
  9
$MENU
  1
E:\r13\win\SUPPORT\ACAD
  9
$ELEVATION
 40
0.0
  9
$PELEVATION
 40
0.0
  9
$THICKNESS
 40
0.0
  9
$LIMCHECK
 70
     0
  9
$BLIPMODE
 70
     0
  9
$CHAMFERA
 40
0.0
  9
$CHAMFERB
 40
0.0
  9
$SKPOLY
 70
     0
  9
$TDCREATE
 40
2449840.6307754628
  9
$TDUPDATE
 40
2456598.5867562159
  9
$TDINDWG
 40
0.0001761111
  9
$TDUSRTIMER
 40
0.0001761111
  9
$USRTIMER
 70
     1
  9
$ANGBASE
 50
0.0
  9
$ANGDIR
 70
     0
  9
$PDMODE
 70
     0
  9
$PDSIZE
 40
0.0
  9
$PLINEWID
 40
0.0
  9
$COORDS
 70
     1
  9
$SPLFRAME
 70
     0
  9
$SPLINETYPE
 70
     6
  9
$SPLINESEGS
 70
     8
  9
$ATTDIA
 70
     0
  9
$ATTREQ
 70
     1
  9
$HANDLING
 70
     1
  9
$HANDSEED
  5
259
  9
$SURFTAB1
 70
     6
  9
$SURFTAB2
 70
     6
  9
$SURFTYPE
 70
     6
  9
$SURFU
 70
     6
  9
$SURFV
 70
     6
  9
$UCSNAME
  2

  9
$UCSORG
 10
0.0
 20
0.0
 30
0.0
  9
$UCSXDIR
 10
1.0
 20
0.0
 30
0.0
  9
$UCSYDIR
 10
0.0
 20
1.0
 30
0.0
  9
$PUCSNAME
  2

  9
$PUCSORG
 10
0.0
 20
0.0
 30
0.0
  9
$PUCSXDIR
 10
1.0
 20
0.0
 30
0.0
  9
$PUCSYDIR
 10
0.0
 20
1.0
 30
0.0
  9
$USERI1
 70
     0
  9
$USERI2
 70
     1
  9
$USERI3
 70
     1
  9
$USERI4
 70
     0
  9
$USERI5
 70
     0
  9
$USERR1
 40
0.0
  9
$USERR2
 40
0.0
  9
$USERR3
 40
0.0
  9
$USERR4
 40
0.0
  9
$USERR5
 40
0.0
  9
$WORLDVIEW
 70
     1
  9
$SHADEDGE
 70
     3
  9
$SHADEDIF
 70
    70
  9
$TILEMODE
 70
     1
  9
$MAXACTVP
 70
    16
  9
$PLIMCHECK
 70
     0
  9
$PEXTMIN
 10
1.0000000000000000E+020
 20
1.0000000000000000E+020
 30
1.0000000000000000E+020
  9
$PEXTMAX
 10
-1.0000000000000000E+020
 20
-1.0000000000000000E+020
 30
-1.0000000000000000E+020
  9
$PLIMMIN
 10
0.0
 20
0.0
  9
$PLIMMAX
 10
12.0
 20
9.0
  9
$UNITMODE
 70
     0
  9
$VISRETAIN
 70
     0
  9
$PLINEGEN
 70
     0
  9
$PSLTSCALE
 70
     0
  0
ENDSEC
  0
SECTION
  2
TABLES
  0
TABLE
  2
VPORT
 70
     1
  0
VPORT
  2
*ACTIVE
 70
     0
 10
0.0
 20
0.0
 11
1.0
 21
1.0
 12
187.49427839065231
 22
194.785247995265
 13
0.0
 23
0.0
 14
10.0
 24
10.0
 15
10.0
 25
10.0
 16
0.0
 26
0.0
 36
1.0
 17
0.0
 27
0.0
 37
0.0
 40
399.3463374158577
 41
1.7807262569832401
 42
50.0
 43
0.0
 44
0.0
 50
0.0
 51
0.0
 71
     0
 72
   500
 73
     1
 74
     0
 75
     0
 76
     0
 77
     0
 78
     2
  0
ENDTAB
  0
TABLE
  2
LTYPE
 70
     4
  0
LTYPE
  2
CONTINUOUS
 70
     0
  3
Solid Line
 72
    65
 73
     0
 40
0.0
  0
LTYPE
  2
CENTER
 70
     0
  3
____ _ ____ _ ____ _ ____ _ ____ _ ____ _ ____
 72
    65
 73
     4
 40
2.0
 49
1.25
 49
-0.25
 49
0.25
 49
-0.25
  0
LTYPE
  2
HIDDEN
 70
     0
  3
_ _ _ _ _ _ _ _ _ _ _ _ _ _ _ _ _ _ _ _ _ _ _
 72
    65
 73
     2
 40
0.375
 49
0.25
 49
-0.125
  0
LTYPE
  2
PHANTOM2
 70
     0
  3
___ _ _ ___ _ _ ___ _ _ ___ _ _
 72
    65
 73
     6
 40
1.25
 49
0.625
 49
-0.125
 49
0.125
 49
-0.125
 49
0.125
 49
-0.125
  0
ENDTAB
  0
TABLE
  2
LAYER
 70
     3
  0
LAYER
  2
0
 70
     0
 62
     7
  6
CONTINUOUS
  0
LAYER
  2
1
 70
     0
 62
     1
  6
CENTER
  0
LAYER
  2
2
 70
     0
 62
     2
  6
HIDDEN
  0
ENDTAB
  0
TABLE
  2
STYLE
 70
     2
  0
STYLE
  2
STANDARD
 70
     0
 40
0.0
 41
1.0
 50
0.0
 71
     0
 42
0.2
  3
TXT
  4
BIGFONT
  0
STYLE
  2
STANDARD1
 70
     0
 40
0.0
 41
1.0
 50
0.0
 71
     0
 42
3.0
  3
txt
  4

  0
ENDTAB
  0
TABLE
  2
VIEW
 70
     1
  0
VIEW
  2
ALL
 70
     0
 40
270.0
 10
220.99159663865549
 20
135.0
 41
0.0
 11
0.0
 21
0.0
 31
1.0
 12
0.0
 22
0.0
 32
0.0
 42
0.0
 43
0.0
 44
0.0
 50
0.0
 71
     0
  0
ENDTAB
  0
TABLE
  2
UCS
 70
     0
  0
ENDTAB
  0
TABLE
  2
APPID
 70
     3
  0
APPID
  2
ACAD
 70
     0
  0
APPID
  2
ACAD_MLEADERVER
 70
     0
  0
APPID
  2
ACAD_NAV_VCDISPLAY
 70
     0
  0
ENDTAB
  0
TABLE
  2
DIMSTYLE
 70
     1
  0
DIMSTYLE
  2
STANDARD
 70
     0
  3

  4

  5

  6

  7

 40
1.0
 41
0.18
 42
0.0625
 43
0.38
 44
0.18
 45
0.0
 46
0.0
 47
0.0
 48
0.0
140
0.18
141
0.09
142
0.0
143
25.399999999999999
144
1.0
145
0.0
146
1.0
147
0.09
 71
     0
 72
     0
 73
     1
 74
     1
 75
     0
 76
     0
 77
     0
 78
     0
170
     0
171
     2
172
     0
173
     0
174
     0
175
     0
176
     0
177
     0
178
     0
  0
ENDTAB
  0
ENDSEC
  0
SECTION
  2
BLOCKS
  0
BLOCK
  8
0
  2
$MODEL_SPACE
 70
     0
 10
0.0
 20
0.0
 30
0.0
  3
$MODEL_SPACE
  1

  0
ENDBLK
  5
DA
  8
0
  0
BLOCK
 67
     1
  8
0
  2
$PAPER_SPACE
 70
     0
 10
0.0
 20
0.0
 30
0.0
  3
$PAPER_SPACE
  1

  0
ENDBLK
  5
D8
 67
     1
  8
0
  0
ENDSEC
  0
SECTION
  2
ENTITIES
  0
LINE
  5
35
  8
1
 10
130.0
 20
75.0
 30
0.0
 11
130.0
 21
100.0
 31
0.0
  0
LINE
  5
36
  8
2
 10
132.49999999999989
 20
80.46700000000024
 30
0.0
 11
132.49999999999989
 21
90.000000000000014
 31
0.0
  0
LINE
  5
37
  8
2
 10
132.06700000000021
 20
80.900000000000034
 30
0.0
 11
132.06700000000021
 21
92.500000000000014
 31
0.0
  0
LINE
  5
38
  8
2
 10
127.93299999999969
 20
80.900000000000034
 30
0.0
 11
127.93299999999969
 21
92.500000000000014
 31
0.0
  0
LINE
  5
39
  8
2
 10
127.4999999999999
 20
80.46700000000024
 30
0.0
 11
127.4999999999999
 21
90.000000000000014
 31
0.0
  0
LINE
  5
3A
  8
2
 10
127.4999999999999
 20
90.000000000000014
 30
0.0
 11
132.49999999999989
 21
90.000000000000014
 31
0.0
  0
LINE
  5
3B
  8
2
 10
132.06700000000021
 20
92.500000000000014
 30
0.0
 11
127.93299999999969
 21
92.500000000000014
 31
0.0
  0
LINE
  5
3C
  8
2
 10
127.93299999999969
 20
92.500000000000014
 30
0.0
 11
130.0
 21
93.693383006415075
 31
0.0
  0
LINE
  5
3D
  8
2
 10
132.06700000000009
 20
92.500000000000014
 30
0.0
 11
130.0
 21
93.693383006415075
 31
0.0
  0
LINE
  5
3E
  8
2
 10
132.06700000000021
 20
80.900000000000006
 30
0.0
 11
127.93299999999969
 21
80.900000000000006
 31
0.0
  0
LINE
  5
3F
  8
2
 10
132.06700000000021
 20
80.900000000000034
 30
0.0
 11
132.96700000000021
 21
80.000000000000028
 31
0.0
  0
LINE
  5
40
  8
2
 10
127.93299999999969
 20
80.900000000000034
 30
0.0
 11
127.0329999999997
 21
80.000000000000028
 31
0.0
  0
LINE
  5
41
  8
0
 10
134.99999999999989
 20
81.000000000000014
 30
0.0
 11
134.99999999999989
 21
102.5
 31
0.0
  0
LINE
  5
42
  8
0
 10
124.9999999999999
 20
81.0
 30
0.0
 11
124.9999999999999
 21
102.5
 31
0.0
  0
LINE
  5
43
  8
0
 10
142.49999999999989
 20
120.0
 30
0.0
 11
237.5
 21
119.9999999999999
 31
0.0
  0
LINE
  5
44
  8
0
 10
142.49999999999989
 20
110.0
 30
0.0
 11
237.5
 21
110.0
 31
0.0
  0
ARC
  5
45
  8
0
 10
142.49999999999989
 20
102.5
 30
0.0
 40
17.5
 50
90.0
 51
179.99999999999989
  0
ARC
  5
46
  8
0
 10
142.49999999999989
 20
102.5
 30
0.0
 40
7.5
 50
90.0
 51
179.99999999999989
  0
ARC
  5
47
  8
2
 10
125.1999999999999
 20
80.200000000000017
 30
0.0
 40
0.2
 50
180.0
 51
269.99999999999989
  0
LINE
  5
48
  8
1
 10
190.0
 20
70.0
 30
0.0
 11
190.0
 21
130.0
 31
0.0
  0
LINE
  5
49
  8
0
 10
255.0
 20
81.0
 30
0.0
 11
255.0
 21
102.4999999999999
 31
0.0
  0
LINE
  5
4A
  8
0
 10
245.0
 20
81.000000000000014
 30
0.0
 11
245.0
 21
102.5
 31
0.0
  0
ARC
  5
4B
  8
0
 10
237.5
 20
102.4999999999999
 30
0.0
 40
17.5
 50
0.0
 51
90.0
  0
ARC
  5
4C
  8
0
 10
237.5
 20
102.5
 30
0.0
 40
7.5
 50
0.0
 51
90.0
  0
LINE
  5
4D
  8
1
 10
250.0
 20
75.0
 30
0.0
 11
250.0
 21
100.0
 31
0.0
  0
LINE
  5
4E
  8
0
 10
256.89999999999998
 20
79.0
 30
0.0
 11
243.09999999999999
 21
79.0
 31
0.0
  0
LINE
  5
4F
  8
0
 10
256.89999999999998
 20
79.0
 30
0.0
 11
256.89999999999998
 21
80.0
 31
0.0
  0
LINE
  5
50
  8
0
 10
256.89999999999998
 20
80.0
 30
0.0
 11
255.90000000000009
 21
81.0
 31
0.0
  0
LINE
  5
51
  8
0
 10
256.89999999999998
 20
80.0
 30
0.0
 11
243.09999999999999
 21
80.0
 31
0.0
  0
LINE
  5
52
  8
0
 10
243.09999999999999
 20
80.0
 30
0.0
 11
244.09999999999999
 21
81.0
 31
0.0
  0
LINE
  5
53
  8
0
 10
243.09999999999999
 20
79.0
 30
0.0
 11
243.09999999999999
 21
80.0
 31
0.0
  0
LINE
  5
54
  8
0
 10
244.09999999999999
 20
81.0
 30
0.0
 11
255.90000000000009
 21
81.0
 31
0.0
  0
LINE
  5
55
  8
0
 10
124.09999999999989
 20
81.000000000000014
 30
0.0
 11
124.9999999999999
 21
81.0
 31
0.0
  0
LINE
  5
56
  8
0
 10
123.09999999999989
 20
79.000000000000014
 30
0.0
 11
123.09999999999989
 21
80.000000000000014
 31
0.0
  0
LINE
  5
57
  8
0
 10
123.09999999999989
 20
80.000000000000014
 30
0.0
 11
124.09999999999989
 21
81.000000000000014
 31
0.0
  0
LINE
  5
58
  8
0
 10
136.89999999999989
 20
80.000000000000014
 30
0.0
 11
135.89999999999989
 21
81.000000000000014
 31
0.0
  0
LINE
  5
59
  8
0
 10
136.89999999999989
 20
79.000000000000014
 30
0.0
 11
136.89999999999989
 21
80.000000000000014
 31
0.0
  0
LINE
  5
5A
  8
0
 10
136.89999999999989
 20
79.000000000000014
 30
0.0
 11
123.09999999999989
 21
79.000000000000014
 31
0.0
  0
LINE
  5
5B
  8
0
 10
134.99999999999989
 20
81.0
 30
0.0
 11
135.89999999999989
 21
81.000000000000014
 31
0.0
  0
LINE
  5
5C
  8
2
 10
124.89999999999991
 20
80.000000000000014
 30
0.0
 11
124.90000000000001
 21
81.000000000000014
 31
0.0
  0
LINE
  5
5D
  8
2
 10
132.59999999999991
 20
79.000000000000014
 30
0.0
 11
132.59999999999991
 21
80.000000000000014
 31
0.0
  0
LINE
  5
5E
  8
2
 10
127.39999999999991
 20
79.000000000000014
 30
0.0
 11
127.39999999999991
 21
80.000000000000014
 31
0.0
  0
LINE
  5
5F
  8
0
 10
64.099999999999994
 20
81.0
 30
0.0
 11
75.900000000000006
 21
81.0
 31
0.0
  0
LINE
  5
60
  8
0
 10
63.099999999999987
 20
79.0
 30
0.0
 11
63.099999999999987
 21
80.0
 31
0.0
  0
LINE
  5
61
  8
0
 10
63.099999999999987
 20
80.0
 30
0.0
 11
64.099999999999994
 21
81.0
 31
0.0
  0
LINE
  5
62
  8
0
 10
76.900000000000006
 20
80.0
 30
0.0
 11
63.099999999999987
 21
80.0
 31
0.0
  0
LINE
  5
63
  8
0
 10
76.900000000000006
 20
80.0
 30
0.0
 11
75.900000000000006
 21
81.0
 31
0.0
  0
LINE
  5
64
  8
0
 10
76.900000000000006
 20
79.0
 30
0.0
 11
76.900000000000006
 21
80.0
 31
0.0
  0
LINE
  5
65
  8
0
 10
76.900000000000006
 20
79.0
 30
0.0
 11
63.099999999999987
 21
79.0
 31
0.0
  0
LINE
  5
66
  8
1
 10
70.0
 20
68.999999999999986
 30
0.0
 11
70.0
 21
130.0
 31
0.0
  0
LINE
  5
67
  8
0
 10
65.0
 20
81.000000000000014
 30
0.0
 11
65.0
 21
115.0
 31
0.0
  0
LINE
  5
68
  8
0
 10
74.999999999999972
 20
81.0
 30
0.0
 11
74.999999999999972
 21
115.0
 31
0.0
  0
ARC
  5
69
  8
0
 10
70.0
 20
115.0
 30
0.0
 40
4.9999999999999849
 50
0.0000000000003308
 51
180.0000000000004
  0
ARC
  5
6A
  8
2
 10
70.0
 20
115.0
 30
0.0
 40
4.9999999999999849
 50
179.9999999999996
 51
359.99999999999972
  0
LINE
  5
6B
  8
0
 10
124.9999999999999
 20
81.0
 30
0.0
 11
134.99999999999989
 21
81.0
 31
0.0
  0
LINE
  5
6C
  8
2
 10
124.9999999999999
 20
81.000000000000014
 30
0.0
 11
124.9999999999999
 21
80.200000000000017
 31
0.0
  0
LINE
  5
6D
  8
2
 10
135.0
 20
81.000000000000014
 30
0.0
 11
135.0
 21
80.200000000000017
 31
0.0
  0
LINE
  5
6E
  8
2
 10
135.09999999999999
 20
80.000000000000014
 30
0.0
 11
135.09999999999991
 21
81.000000000000014
 31
0.0
  0
ARC
  5
6F
  8
2
 10
134.80000000000001
 20
80.200000000000017
 30
0.0
 40
0.2
 50
270.00000000000011
 51
360.0
  0
LINE
  5
70
  8
0
 10
123.09999999999989
 20
80.000000000000014
 30
0.0
 11
136.89999999999989
 21
80.0
 31
0.0
  0
ARC
  5
71
  8
2
 10
245.19999999999999
 20
80.200000000000017
 30
0.0
 40
0.2
 50
180.0
 51
269.99999999999989
  0
LINE
  5
72
  8
2
 10
244.90000000000001
 20
80.000000000000014
 30
0.0
 11
244.90000000000001
 21
81.000000000000014
 31
0.0
  0
LINE
  5
73
  8
2
 10
245.0
 20
81.000000000000014
 30
0.0
 11
245.0
 21
80.200000000000017
 31
0.0
  0
LINE
  5
74
  8
2
 10
255.00000000000011
 20
81.000000000000014
 30
0.0
 11
255.00000000000011
 21
80.200000000000017
 31
0.0
  0
LINE
  5
75
  8
0
 10
255.00000000000011
 20
81.0
 30
0.0
 11
245.00000000000011
 21
81.0
 31
0.0
  0
LINE
  5
76
  8
2
 10
252.60000000000011
 20
79.000000000000014
 30
0.0
 11
252.60000000000011
 21
80.000000000000014
 31
0.0
  0
LINE
  5
77
  8
2
 10
247.40000000000001
 20
79.000000000000014
 30
0.0
 11
247.40000000000001
 21
80.000000000000014
 31
0.0
  0
LINE
  5
78
  8
2
 10
255.10000000000011
 20
80.000000000000014
 30
0.0
 11
255.09999999999999
 21
81.000000000000014
 31
0.0
  0
ARC
  5
79
  8
2
 10
254.8000000000001
 20
80.200000000000017
 30
0.0
 40
0.2
 50
270.00000000000011
 51
360.0
  0
LINE
  5
7A
  8
2
 10
252.06700000000029
 20
80.900000000000034
 30
0.0
 11
252.96700000000021
 21
80.000000000000028
 31
0.0
  0
LINE
  5
7B
  8
2
 10
247.93299999999979
 20
80.900000000000034
 30
0.0
 11
247.03299999999979
 21
80.000000000000028
 31
0.0
  0
LINE
  5
7C
  8
2
 10
247.93299999999979
 20
80.900000000000006
 30
0.0
 11
252.06700000000021
 21
80.900000000000006
 31
0.0
  0
LINE
  5
7D
  8
2
 10
247.93299999999991
 20
92.500000000000014
 30
0.0
 11
250.0
 21
93.693383006415075
 31
0.0
  0
LINE
  5
7E
  8
2
 10
252.06700000000021
 20
92.500000000000014
 30
0.0
 11
250.0
 21
93.693383006415075
 31
0.0
  0
LINE
  5
7F
  8
2
 10
247.93299999999979
 20
92.500000000000014
 30
0.0
 11
252.06700000000021
 21
92.500000000000014
 31
0.0
  0
LINE
  5
80
  8
2
 10
252.5
 20
90.000000000000014
 30
0.0
 11
247.5
 21
90.000000000000014
 31
0.0
  0
LINE
  5
81
  8
2
 10
252.5
 20
80.46700000000024
 30
0.0
 11
252.5
 21
90.000000000000014
 31
0.0
  0
LINE
  5
82
  8
2
 10
252.06700000000021
 20
80.900000000000034
 30
0.0
 11
252.06700000000021
 21
92.500000000000014
 31
0.0
  0
LINE
  5
83
  8
2
 10
247.93299999999979
 20
80.900000000000034
 30
0.0
 11
247.93299999999979
 21
92.500000000000014
 31
0.0
  0
LINE
  5
84
  8
2
 10
247.5
 20
80.46700000000024
 30
0.0
 11
247.5
 21
90.000000000000014
 31
0.0
  0
LINE
  5
85
  8
0
 10
130.0
 20
177.72050638829279
 30
0.0
 11
250.0
 21
177.72050638829279
 31
0.0
  0
LINE
  5
86
  8
0
 10
130.0
 20
187.72050638829279
 30
0.0
 11
250.0
 21
187.72050638829279
 31
0.0
  0
ARC
  5
87
  8
0
 10
130.0
 20
182.72050638829279
 30
0.0
 40
5.0
 50
90.0
 51
270.0
  0
ARC
  5
88
  8
2
 10
130.0
 20
182.72050638829279
 30
0.0
 40
5.0
 50
270.0
 51
90.0
  0
ARC
  5
89
  8
0
 10
130.0
 20
182.72050638829279
 30
0.0
 40
6.9000000000000004
 50
46.438715518919892
 51
313.56128448108001
  0
ARC
  5
8A
  8
0
 10
130.0
 20
182.72050638829279
 30
0.0
 40
5.9000000000000004
 50
57.936214282455033
 51
302.06378571754482
  0
ARC
  5
8B
  8
2
 10
310.0
 20
115.0
 30
0.0
 40
4.9999999999999849
 50
180.0000000000004
 51
0.0000000000003562
  0
ARC
  5
8C
  8
0
 10
310.0
 20
115.0
 30
0.0
 40
4.9999999999999849
 50
359.99999999999972
 51
179.99999999999969
  0
LINE
  5
8D
  8
0
 10
305.0
 20
81.0
 30
0.0
 11
305.0
 21
115.0
 31
0.0
  0
LINE
  5
8E
  8
0
 10
315.0
 20
81.000000000000014
 30
0.0
 11
315.0
 21
115.0
 31
0.0
  0
LINE
  5
8F
  8
1
 10
310.0
 20
68.999999999999986
 30
0.0
 11
310.0
 21
130.0
 31
0.0
  0
LINE
  5
90
  8
0
 10
303.10000000000002
 20
79.0
 30
0.0
 11
316.89999999999998
 21
79.0
 31
0.0
  0
LINE
  5
91
  8
0
 10
303.10000000000002
 20
79.0
 30
0.0
 11
303.10000000000002
 21
80.0
 31
0.0
  0
LINE
  5
92
  8
0
 10
303.10000000000002
 20
80.0
 30
0.0
 11
304.10000000000002
 21
81.0
 31
0.0
  0
LINE
  5
93
  8
0
 10
303.10000000000002
 20
80.0
 30
0.0
 11
316.89999999999998
 21
80.0
 31
0.0
  0
LINE
  5
94
  8
0
 10
316.89999999999998
 20
80.0
 30
0.0
 11
315.89999999999998
 21
81.0
 31
0.0
  0
LINE
  5
95
  8
0
 10
316.89999999999998
 20
79.0
 30
0.0
 11
316.89999999999998
 21
80.0
 31
0.0
  0
LINE
  5
96
  8
0
 10
315.89999999999998
 20
81.0
 30
0.0
 11
304.10000000000002
 21
81.0
 31
0.0
  0
ARC
  5
97
  8
0
 10
250.0
 20
182.72050638829279
 30
0.0
 40
5.9000000000000004
 50
237.9362142824553
 51
122.063785717545
  0
ARC
  5
98
  8
0
 10
250.0
 20
182.72050638829279
 30
0.0
 40
6.9000000000000004
 50
226.43871551892011
 51
133.56128448108009
  0
ARC
  5
99
  8
2
 10
250.0
 20
182.72050638829279
 30
0.0
 40
5.0
 50
90.000000000000028
 51
270.00000000000011
  0
ARC
  5
9A
  8
0
 10
250.0
 20
182.72050638829279
 30
0.0
 40
5.0
 50
270.00000000000011
 51
90.000000000000028
  0
LINE
  5
9B
  8
1
 10
139.99999999999989
 20
182.72050638829279
 30
0.0
 11
119.9999999999999
 21
182.72050638829279
 31
0.0
  0
LINE
  5
9C
  8
1
 10
130.0
 20
192.72050638829279
 30
0.0
 11
130.0
 21
172.72050638829279
 31
0.0
  0
LINE
  5
9D
  8
1
 10
260.0
 20
182.72050638829279
 30
0.0
 11
240.0
 21
182.72050638829279
 31
0.0
  0
LINE
  5
9E
  8
1
 10
250.0
 20
192.72050638829279
 30
0.0
 11
250.0
 21
172.72050638829279
 31
0.0
  0
TEXT
  5
1C4
  8
0
 62
     3
 10
0.0
 20
0.0
 30
0.0
 40
10.0
  1
RD1-120B
  7
STANDARD1
  0
ENDSEC
  0
EOF
