  0
SECTION
  2
HEADER
  9
$ACADVER
  1
AC1009
  9
$INSBASE
 10
0.0
 20
0.0
 30
0.0
  9
$EXTMIN
 10
0.0
 20
-2.960436562073669
 30
0.0
  9
$EXTMAX
 10
285.28178298169308
 20
200.14771985131719
 30
0.0
  9
$LIMMIN
 10
0.0
 20
0.0
  9
$LIMMAX
 10
375.0
 20
270.0
  9
$ORTHOMODE
 70
     1
  9
$REGENMODE
 70
     1
  9
$FILLMODE
 70
     1
  9
$QTEXTMODE
 70
     0
  9
$MIRRTEXT
 70
     0
  9
$DRAGMODE
 70
     2
  9
$LTSCALE
 40
6.0
  9
$OSMODE
 70
    55
  9
$ATTMODE
 70
     1
  9
$TEXTSIZE
 40
4.000000000000048
  9
$TRACEWID
 40
0.05
  9
$TEXTSTYLE
  7
STANDARD
  9
$CLAYER
  8
0
  9
$CELTYPE
  6
BYLAYER
  9
$CECOLOR
 62
   256
  9
$DIMSCALE
 40
1.0
  9
$DIMASZ
 40
3.0
  9
$DIMEXO
 40
2.0
  9
$DIMDLI
 40
0.38
  9
$DIMRND
 40
0.0
  9
$DIMDLE
 40
0.0
  9
$DIMEXE
 40
2.0
  9
$DIMTP
 40
0.0
  9
$DIMTM
 40
0.0
  9
$DIMTXT
 40
3.2000000000000002
  9
$DIMCEN
 40
0.0
  9
$DIMTSZ
 40
0.0
  9
$DIMTOL
 70
     0
  9
$DIMLIM
 70
     0
  9
$DIMTIH
 70
     0
  9
$DIMTOH
 70
     0
  9
$DIMSE1
 70
     0
  9
$DIMSE2
 70
     0
  9
$DIMTAD
 70
     1
  9
$DIMZIN
 70
     0
  9
$DIMBLK
  1

  9
$DIMASO
 70
     1
  9
$DIMSHO
 70
     0
  9
$DIMPOST
  1

  9
$DIMAPOST
  1

  9
$DIMALT
 70
     0
  9
$DIMALTD
 70
     2
  9
$DIMALTF
 40
25.399999999999999
  9
$DIMLFAC
 40
1.0
  9
$DIMTOFL
 70
     0
  9
$DIMTVP
 40
1.6000000000000001
  9
$DIMTIX
 70
     1
  9
$DIMSOXD
 70
     0
  9
$DIMSAH
 70
     0
  9
$DIMBLK1
  1

  9
$DIMBLK2
  1

  9
$DIMSTYLE
  2
STANDARD
  9
$DIMCLRD
 70
     4
  9
$DIMCLRE
 70
     4
  9
$DIMCLRT
 70
     4
  9
$DIMTFAC
 40
1.0
  9
$DIMGAP
 40
0.09
  9
$LUNITS
 70
     2
  9
$LUPREC
 70
     1
  9
$SKETCHINC
 40
0.1
  9
$FILLETRAD
 40
0.0
  9
$AUNITS
 70
     0
  9
$AUPREC
 70
     0
  9
$MENU
  1
E:\r13\win\SUPPORT\ACAD
  9
$ELEVATION
 40
0.0
  9
$PELEVATION
 40
0.0
  9
$THICKNESS
 40
0.0
  9
$LIMCHECK
 70
     0
  9
$BLIPMODE
 70
     0
  9
$CHAMFERA
 40
1.1999999999999991
  9
$CHAMFERB
 40
1.1999999999999991
  9
$SKPOLY
 70
     0
  9
$TDCREATE
 40
2449955.5301157408
  9
$TDUPDATE
 40
2456598.5915795602
  9
$TDINDWG
 40
0.0005645718
  9
$TDUSRTIMER
 40
0.0005645718
  9
$USRTIMER
 70
     1
  9
$ANGBASE
 50
0.0
  9
$ANGDIR
 70
     0
  9
$PDMODE
 70
     0
  9
$PDSIZE
 40
0.0
  9
$PLINEWID
 40
0.0
  9
$COORDS
 70
     1
  9
$SPLFRAME
 70
     0
  9
$SPLINETYPE
 70
     6
  9
$SPLINESEGS
 70
     8
  9
$ATTDIA
 70
     0
  9
$ATTREQ
 70
     1
  9
$HANDLING
 70
     1
  9
$HANDSEED
  5
24F
  9
$SURFTAB1
 70
     6
  9
$SURFTAB2
 70
     6
  9
$SURFTYPE
 70
     6
  9
$SURFU
 70
     6
  9
$SURFV
 70
     6
  9
$UCSNAME
  2

  9
$UCSORG
 10
0.0
 20
0.0
 30
0.0
  9
$UCSXDIR
 10
1.0
 20
0.0
 30
0.0
  9
$UCSYDIR
 10
0.0
 20
1.0
 30
0.0
  9
$PUCSNAME
  2

  9
$PUCSORG
 10
0.0
 20
0.0
 30
0.0
  9
$PUCSXDIR
 10
1.0
 20
0.0
 30
0.0
  9
$PUCSYDIR
 10
0.0
 20
1.0
 30
0.0
  9
$USERI1
 70
     0
  9
$USERI2
 70
     1
  9
$USERI3
 70
     1
  9
$USERI4
 70
     0
  9
$USERI5
 70
     0
  9
$USERR1
 40
0.0
  9
$USERR2
 40
0.0
  9
$USERR3
 40
0.0
  9
$USERR4
 40
0.0
  9
$USERR5
 40
0.0
  9
$WORLDVIEW
 70
     1
  9
$SHADEDGE
 70
     3
  9
$SHADEDIF
 70
    70
  9
$TILEMODE
 70
     1
  9
$MAXACTVP
 70
    16
  9
$PLIMCHECK
 70
     0
  9
$PEXTMIN
 10
1.0000000000000000E+020
 20
1.0000000000000000E+020
 30
1.0000000000000000E+020
  9
$PEXTMAX
 10
-1.0000000000000000E+020
 20
-1.0000000000000000E+020
 30
-1.0000000000000000E+020
  9
$PLIMMIN
 10
0.0
 20
0.0
  9
$PLIMMAX
 10
12.0
 20
9.0
  9
$UNITMODE
 70
     0
  9
$VISRETAIN
 70
     0
  9
$PLINEGEN
 70
     0
  9
$PSLTSCALE
 70
     0
  0
ENDSEC
  0
SECTION
  2
TABLES
  0
TABLE
  2
VPORT
 70
     1
  0
VPORT
  2
*ACTIVE
 70
     0
 10
0.0
 20
0.0
 11
1.0
 21
1.0
 12
187.49427839065231
 22
194.785247995265
 13
0.0
 23
0.0
 14
10.0
 24
10.0
 15
10.0
 25
10.0
 16
0.0
 26
0.0
 36
1.0
 17
0.0
 27
0.0
 37
0.0
 40
399.3463374158577
 41
1.7807262569832401
 42
50.0
 43
0.0
 44
0.0
 50
0.0
 51
0.0
 71
     0
 72
   500
 73
     1
 74
     0
 75
     0
 76
     0
 77
     0
 78
     2
  0
ENDTAB
  0
TABLE
  2
LTYPE
 70
     4
  0
LTYPE
  2
CONTINUOUS
 70
     0
  3
Solid Line
 72
    65
 73
     0
 40
0.0
  0
LTYPE
  2
CENTER
 70
     0
  3
____ _ ____ _ ____ _ ____ _ ____ _ ____ _ ____
 72
    65
 73
     4
 40
2.0
 49
1.25
 49
-0.25
 49
0.25
 49
-0.25
  0
LTYPE
  2
HIDDEN
 70
     0
  3
_ _ _ _ _ _ _ _ _ _ _ _ _ _ _ _ _ _ _ _ _ _ _
 72
    65
 73
     2
 40
0.375
 49
0.25
 49
-0.125
  0
LTYPE
  2
PHANTOM2
 70
     0
  3
___ _ _ ___ _ _ ___ _ _ ___ _ _
 72
    65
 73
     6
 40
1.25
 49
0.625
 49
-0.125
 49
0.125
 49
-0.125
 49
0.125
 49
-0.125
  0
ENDTAB
  0
TABLE
  2
LAYER
 70
     3
  0
LAYER
  2
0
 70
     0
 62
     7
  6
CONTINUOUS
  0
LAYER
  2
1
 70
     0
 62
     1
  6
CENTER
  0
LAYER
  2
2
 70
     0
 62
     2
  6
HIDDEN
  0
ENDTAB
  0
TABLE
  2
STYLE
 70
     2
  0
STYLE
  2
STANDARD
 70
     0
 40
0.0
 41
1.0
 50
0.0
 71
     0
 42
4.000000000000048
  3
SIMPLEX
  4
BIGFONT
  0
STYLE
  2
STANDARD1
 70
     0
 40
0.0
 41
1.0
 50
0.0
 71
     0
 42
3.0
  3
txt
  4

  0
ENDTAB
  0
TABLE
  2
VIEW
 70
     1
  0
VIEW
  2
ALL
 70
     0
 40
270.0
 10
220.78595317725751
 20
135.0
 41
441.57190635451502
 11
0.0
 21
0.0
 31
1.0
 12
0.0
 22
0.0
 32
0.0
 42
50.0
 43
0.0
 44
0.0
 50
0.0
 71
     0
  0
ENDTAB
  0
TABLE
  2
UCS
 70
     0
  0
ENDTAB
  0
TABLE
  2
APPID
 70
     3
  0
APPID
  2
ACAD
 70
     0
  0
APPID
  2
ACAD_MLEADERVER
 70
     0
  0
APPID
  2
ACAD_NAV_VCDISPLAY
 70
     0
  0
ENDTAB
  0
TABLE
  2
DIMSTYLE
 70
     1
  0
DIMSTYLE
  2
STANDARD
 70
     0
  3

  4

  5

  6

  7

 40
1.0
 41
0.18
 42
0.0625
 43
0.38
 44
0.18
 45
0.0
 46
0.0
 47
0.0
 48
0.0
140
0.18
141
0.09
142
0.0
143
25.399999999999999
144
1.0
145
0.0
146
1.0
147
0.09
 71
     0
 72
     0
 73
     1
 74
     1
 75
     0
 76
     0
 77
     0
 78
     0
170
     0
171
     2
172
     0
173
     0
174
     0
175
     0
176
     0
177
     0
178
     0
  0
ENDTAB
  0
ENDSEC
  0
SECTION
  2
BLOCKS
  0
BLOCK
  8
0
  2
$MODEL_SPACE
 70
     0
 10
0.0
 20
0.0
 30
0.0
  3
$MODEL_SPACE
  1

  0
ENDBLK
  5
D7
  8
0
  0
BLOCK
 67
     1
  8
0
  2
$PAPER_SPACE
 70
     0
 10
0.0
 20
0.0
 30
0.0
  3
$PAPER_SPACE
  1

  0
ENDBLK
  5
D5
 67
     1
  8
0
  0
ENDSEC
  0
SECTION
  2
ENTITIES
  0
LINE
  5
37
  8
0
 10
170.28178298169311
 20
101.57553591540881
 30
0.0
 11
170.28178298169311
 21
122.57553591540881
 31
0.0
  0
LINE
  5
38
  8
0
 10
187.78178298169311
 20
140.07553591540881
 30
0.0
 11
262.78178298169308
 21
140.07553591540881
 31
0.0
  0
LINE
  5
39
  8
0
 10
280.28178298169308
 20
122.57553591540881
 30
0.0
 11
280.28178298169308
 21
101.57553591540901
 31
0.0
  0
LINE
  5
3A
  8
2
 10
180.28178298169311
 20
100.07553591540881
 30
0.0
 11
170.28178298169311
 21
100.07553591540881
 31
0.0
  0
LINE
  5
3B
  8
0
 10
180.28178298169311
 20
101.57553591540881
 30
0.0
 11
180.28178298169311
 21
122.57553591540881
 31
0.0
  0
LINE
  5
3C
  8
0
 10
187.78178298169311
 20
130.07553591540881
 30
0.0
 11
262.78178298169308
 21
130.07553591540881
 31
0.0
  0
LINE
  5
3D
  8
0
 10
270.2817829816932
 20
122.57553591540881
 30
0.0
 11
270.2817829816932
 21
101.57553591540901
 31
0.0
  0
ARC
  5
3E
  8
0
 10
187.78178298169311
 20
122.57553591540881
 30
0.0
 40
7.5
 50
90.0
 51
180.0
  0
ARC
  5
3F
  8
0
 10
262.78178298169308
 20
122.57553591540881
 30
0.0
 40
7.5
 50
0.0000000000000509
 51
90.0
  0
ARC
  5
40
  8
0
 10
187.78178298169311
 20
122.57553591540881
 30
0.0
 40
17.5
 50
90.0
 51
180.0
  0
ARC
  5
41
  8
0
 10
262.78178298169308
 20
122.57553591540881
 30
0.0
 40
17.5
 50
0.0
 51
90.0
  0
LINE
  5
42
  8
0
 10
182.78178298169311
 20
99.075535915408835
 30
0.0
 11
167.78178298169311
 21
99.075535915408835
 31
0.0
  0
LINE
  5
43
  8
0
 10
167.78178298169311
 20
100.07553591540881
 30
0.0
 11
167.78178298169311
 21
99.075535915408835
 31
0.0
  0
LINE
  5
44
  8
0
 10
182.7817829816932
 20
100.07553591540881
 30
0.0
 11
182.7817829816932
 21
99.075535915408835
 31
0.0
  0
LINE
  5
45
  8
2
 10
177.3487829816934
 20
100.9755359154088
 30
0.0
 11
178.24878298169341
 21
100.07553591540881
 31
0.0
  0
LINE
  5
46
  8
2
 10
173.21478298169291
 20
100.9755359154088
 30
0.0
 11
177.3487829816934
 21
100.9755359154088
 31
0.0
  0
LINE
  5
47
  8
2
 10
172.3147829816929
 20
100.07553591540881
 30
0.0
 11
173.21478298169291
 21
100.9755359154088
 31
0.0
  0
LINE
  5
48
  8
2
 10
172.7817829816934
 20
110.07553591540881
 30
0.0
 11
173.21478298169311
 21
110.82551391508569
 31
0.0
  0
LINE
  5
49
  8
2
 10
177.7817829816932
 20
110.07553591540881
 30
0.0
 11
177.3487829816934
 21
110.82551391508569
 31
0.0
  0
LINE
  5
4A
  8
2
 10
173.21478298169291
 20
113.07553591540881
 30
0.0
 11
177.3487829816934
 21
113.07553591540881
 31
0.0
  0
LINE
  5
4B
  8
2
 10
172.7817829816932
 20
110.07553591540881
 30
0.0
 11
177.7817829816932
 21
110.07553591540881
 31
0.0
  0
LINE
  5
4C
  8
2
 10
177.3487829816934
 20
113.07553591540881
 30
0.0
 11
175.2817829816932
 21
114.3175148149389
 31
0.0
  0
LINE
  5
4D
  8
2
 10
173.21478298169291
 20
113.07553591540891
 30
0.0
 11
175.2817829816932
 21
114.3175148149389
 31
0.0
  0
LINE
  5
4E
  8
2
 10
177.7817829816932
 20
100.542535915409
 30
0.0
 11
177.7817829816932
 21
110.07553591540881
 31
0.0
  0
LINE
  5
4F
  8
2
 10
177.3487829816934
 20
100.9755359154088
 30
0.0
 11
177.3487829816934
 21
113.07553591540881
 31
0.0
  0
LINE
  5
50
  8
2
 10
173.21478298169291
 20
100.9755359154088
 30
0.0
 11
173.21478298169291
 21
113.07553591540881
 31
0.0
  0
LINE
  5
51
  8
2
 10
172.7817829816932
 20
100.542535915409
 30
0.0
 11
172.7817829816932
 21
110.07553591540881
 31
0.0
  0
LINE
  5
52
  8
1
 10
175.28178298169311
 20
95.075535915408835
 30
0.0
 11
175.2817829816932
 21
122.57553591540891
 31
0.0
  0
LINE
  5
53
  8
2
 10
172.7817829816932
 20
99.075535915408835
 30
0.0
 11
172.78178298169311
 21
100.07553591540881
 31
0.0
  0
LINE
  5
54
  8
2
 10
177.78178298169311
 20
99.075535915408778
 30
0.0
 11
177.78178298169311
 21
100.07553591540881
 31
0.0
  0
LINE
  5
55
  8
0
 10
182.03178298169311
 20
101.57553591540881
 30
0.0
 11
168.53178298169311
 21
101.57553591540881
 31
0.0
  0
LINE
  5
56
  8
0
 10
168.53178298169311
 20
101.57553591540881
 30
0.0
 11
167.78178298169311
 21
100.07553591540881
 31
0.0
  0
LINE
  5
57
  8
0
 10
182.03178298169311
 20
101.57553591540881
 30
0.0
 11
182.7817829816932
 21
100.07553591540881
 31
0.0
  0
LINE
  5
58
  8
1
 10
275.28178298169308
 20
95.075535915408835
 30
0.0
 11
275.28178298169303
 21
122.57553591540891
 31
0.0
  0
LINE
  5
59
  8
0
 10
282.03178298169308
 20
101.57553591540901
 30
0.0
 11
282.7817829816932
 21
100.07553591540901
 31
0.0
  0
LINE
  5
5A
  8
0
 10
268.5317829816932
 20
101.57553591540901
 30
0.0
 11
267.78178298169308
 21
100.07553591540901
 31
0.0
  0
LINE
  5
5B
  8
0
 10
282.03178298169308
 20
101.57553591540901
 30
0.0
 11
268.5317829816932
 21
101.57553591540901
 31
0.0
  0
LINE
  5
5C
  8
0
 10
282.7817829816932
 20
100.07553591540901
 30
0.0
 11
282.7817829816932
 21
99.075535915409006
 31
0.0
  0
LINE
  5
5D
  8
0
 10
267.78178298169308
 20
100.07553591540901
 30
0.0
 11
267.78178298169308
 21
99.075535915409006
 31
0.0
  0
LINE
  5
5E
  8
0
 10
282.7817829816932
 20
99.075535915409006
 30
0.0
 11
267.78178298169308
 21
99.075535915409006
 31
0.0
  0
LINE
  5
5F
  8
0
 10
267.78178298169308
 20
100.07553591540901
 30
0.0
 11
282.7817829816932
 21
100.07553591540901
 31
0.0
  0
LINE
  5
60
  8
0
 10
175.28178298169311
 20
185.14771985131719
 30
0.0
 11
275.28178298169308
 21
185.14771985131719
 31
0.0
  0
LINE
  5
61
  8
0
 10
175.28178298169311
 20
195.14771985131719
 30
0.0
 11
275.28178298169308
 21
195.14771985131731
 31
0.0
  0
LINE
  5
62
  8
1
 10
165.28178298169311
 20
190.14771985131719
 30
0.0
 11
285.28178298169308
 21
190.14771985131719
 31
0.0
  0
ARC
  5
63
  8
0
 10
175.28178298169311
 20
190.14771985131719
 30
0.0
 40
5.0
 50
90.0
 51
270.0
  0
ARC
  5
64
  8
2
 10
175.28178298169311
 20
190.14771985131719
 30
0.0
 40
5.0
 50
270.0
 51
90.0
  0
ARC
  5
65
  8
2
 10
275.28178298169308
 20
190.14771985131719
 30
0.0
 40
5.0
 50
90.0
 51
270.0
  0
ARC
  5
66
  8
0
 10
275.28178298169308
 20
190.14771985131719
 30
0.0
 40
5.0
 50
270.0
 51
90.0
  0
LINE
  5
67
  8
1
 10
175.28178298169311
 20
200.14771985131719
 30
0.0
 11
175.28178298169311
 21
180.14771985131719
 31
0.0
  0
LINE
  5
68
  8
1
 10
275.28178298169308
 20
200.14771985131719
 30
0.0
 11
275.28178298169308
 21
180.14771985131719
 31
0.0
  0
ARC
  5
69
  8
0
 10
175.28178298169311
 20
190.14771985131719
 30
0.0
 40
7.5
 50
41.810314895778667
 51
318.18968510422133
  0
ARC
  5
6A
  8
0
 10
175.28178298169311
 20
190.14771985131719
 30
0.0
 40
6.75
 50
47.794553596267811
 51
312.2054464037322
  0
ARC
  5
6B
  8
0
 10
275.28178298169308
 20
190.14771985131719
 30
0.0
 40
7.5
 50
221.8103148957787
 51
138.1896851042213
  0
ARC
  5
6C
  8
0
 10
275.28178298169308
 20
190.14771985131719
 30
0.0
 40
6.75
 50
227.7945535962678
 51
132.2054464037322
  0
ARC
  5
6D
  8
0
 10
106.3310256272968
 20
135.07553591540881
 30
0.0
 40
5.0
 50
0.0
 51
180.0
  0
ARC
  5
6E
  8
2
 10
106.3310256272968
 20
135.07553591540881
 30
0.0
 40
5.0
 50
180.0
 51
0.0
  0
LINE
  5
6F
  8
0
 10
98.831025627296981
 20
100.07553591540901
 30
0.0
 11
113.831025627297
 21
100.07553591540901
 31
0.0
  0
LINE
  5
70
  8
2
 10
111.3310256272969
 20
100.07553591540901
 30
0.0
 11
101.331025627297
 21
100.07553591540901
 31
0.0
  0
LINE
  5
71
  8
0
 10
113.831025627297
 20
99.075535915409006
 30
0.0
 11
98.831025627296981
 21
99.075535915409006
 31
0.0
  0
LINE
  5
72
  8
0
 10
98.831025627296981
 20
100.07553591540901
 30
0.0
 11
98.831025627296981
 21
99.075535915409006
 31
0.0
  0
LINE
  5
73
  8
0
 10
113.831025627297
 20
100.07553591540901
 30
0.0
 11
113.831025627297
 21
99.075535915409006
 31
0.0
  0
LINE
  5
74
  8
0
 10
113.081025627297
 20
101.57553591540901
 30
0.0
 11
99.581025627296995
 21
101.57553591540901
 31
0.0
  0
LINE
  5
75
  8
0
 10
99.581025627296995
 20
101.57553591540901
 30
0.0
 11
98.831025627296981
 21
100.07553591540901
 31
0.0
  0
LINE
  5
76
  8
0
 10
113.081025627297
 20
101.57553591540901
 30
0.0
 11
113.831025627297
 21
100.07553591540901
 31
0.0
  0
LINE
  5
77
  8
0
 10
111.3310256272969
 20
100.07553591540881
 30
0.0
 11
101.331025627297
 21
100.07553591540881
 31
0.0
  0
LINE
  5
78
  8
0
 10
111.3310256272968
 20
101.57553591540901
 30
0.0
 11
111.3310256272968
 21
135.07553591540881
 31
0.0
  0
LINE
  5
79
  8
0
 10
101.3310256272969
 20
135.07553591540881
 30
0.0
 11
101.3310256272969
 21
101.57553591540901
 31
0.0
  0
LINE
  5
7A
  8
1
 10
116.3310256272968
 20
135.07553591540881
 30
0.0
 11
96.331025627296867
 21
135.07553591540881
 31
0.0
  0
LINE
  5
7B
  8
1
 10
106.3310256272968
 20
145.07553591540881
 30
0.0
 11
106.3310256272968
 21
94.075535915409006
 31
0.0
  0
LINE
  5
7C
  8
0
 10
167.78178298169311
 20
100.07553591540881
 30
0.0
 11
182.7817829816932
 21
100.07553591540881
 31
0.0
  0
LINE
  5
7D
  8
2
 10
180.28178298169311
 20
101.57553591540881
 30
0.0
 11
180.28178298169311
 21
100.07553591540881
 31
0.0
  0
LINE
  5
7E
  8
2
 10
170.28178298169311
 20
101.57553591540881
 30
0.0
 11
170.28178298169311
 21
100.07553591540881
 31
0.0
  0
LINE
  5
7F
  8
2
 10
270.2817829816932
 20
101.57553591540911
 30
0.0
 11
270.2817829816932
 21
100.07553591540911
 31
0.0
  0
LINE
  5
80
  8
2
 10
280.28178298169308
 20
101.57553591540911
 30
0.0
 11
280.28178298169308
 21
100.07553591540911
 31
0.0
  0
LINE
  5
81
  8
2
 10
277.78178298169308
 20
99.075535915409048
 30
0.0
 11
277.78178298169308
 21
100.07553591540911
 31
0.0
  0
LINE
  5
82
  8
2
 10
272.7817829816932
 20
99.075535915409105
 30
0.0
 11
272.78178298169308
 21
100.07553591540911
 31
0.0
  0
LINE
  5
83
  8
2
 10
272.7817829816932
 20
100.5425359154092
 30
0.0
 11
272.7817829816932
 21
110.07553591540911
 31
0.0
  0
LINE
  5
84
  8
2
 10
273.21478298169302
 20
100.9755359154091
 30
0.0
 11
273.21478298169302
 21
113.07553591540911
 31
0.0
  0
LINE
  5
85
  8
2
 10
277.34878298169338
 20
100.9755359154091
 30
0.0
 11
277.34878298169338
 21
113.07553591540911
 31
0.0
  0
LINE
  5
86
  8
2
 10
277.7817829816932
 20
100.5425359154092
 30
0.0
 11
277.7817829816932
 21
110.07553591540911
 31
0.0
  0
LINE
  5
87
  8
2
 10
273.21478298169302
 20
113.07553591540911
 30
0.0
 11
275.2817829816932
 21
114.3175148149392
 31
0.0
  0
LINE
  5
88
  8
2
 10
277.34878298169338
 20
113.07553591540911
 30
0.0
 11
275.2817829816932
 21
114.3175148149392
 31
0.0
  0
LINE
  5
89
  8
2
 10
272.7817829816932
 20
110.07553591540911
 30
0.0
 11
277.7817829816932
 21
110.07553591540911
 31
0.0
  0
LINE
  5
8A
  8
2
 10
273.21478298169302
 20
113.07553591540911
 30
0.0
 11
277.34878298169338
 21
113.07553591540911
 31
0.0
  0
LINE
  5
8B
  8
2
 10
277.7817829816932
 20
110.07553591540911
 30
0.0
 11
277.34878298169338
 21
110.82551391508601
 31
0.0
  0
LINE
  5
8C
  8
2
 10
272.78178298169342
 20
110.07553591540911
 30
0.0
 11
273.21478298169308
 21
110.82551391508601
 31
0.0
  0
LINE
  5
8D
  8
2
 10
272.31478298169287
 20
100.07553591540901
 30
0.0
 11
273.21478298169302
 21
100.9755359154091
 31
0.0
  0
LINE
  5
8E
  8
2
 10
273.21478298169302
 20
100.9755359154091
 30
0.0
 11
277.34878298169338
 21
100.9755359154091
 31
0.0
  0
LINE
  5
8F
  8
2
 10
277.34878298169338
 20
100.9755359154091
 30
0.0
 11
278.24878298169341
 21
100.07553591540901
 31
0.0
  0
LINE
  5
90
  8
2
 10
280.28178298169308
 20
100.07553591540911
 30
0.0
 11
270.2817829816932
 21
100.07553591540911
 31
0.0
  0
LINE
  5
91
  8
1
 10
187.78178298169311
 20
135.07553591540881
 30
0.0
 11
262.78178298169308
 21
135.07553591540881
 31
0.0
  0
ARC
  5
92
  8
1
 10
187.78178298169311
 20
122.57553591540881
 30
0.0
 40
12.5
 50
90.0
 51
180.0
  0
ARC
  5
93
  8
1
 10
262.78178298169308
 20
122.57553591540881
 30
0.0
 40
12.5
 50
0.0000000000000509
 51
90.0
  0
LINE
  5
94
  8
2
 10
101.3310256272969
 20
101.57553591540881
 30
0.0
 11
101.3310256272969
 21
100.07553591540881
 31
0.0
  0
LINE
  5
95
  8
2
 10
111.3310256272968
 20
101.57553591540881
 30
0.0
 11
111.3310256272968
 21
100.07553591540881
 31
0.0
  0
LINE
  5
96
  8
2
 10
108.8310256272968
 20
99.075535915408778
 30
0.0
 11
108.8310256272968
 21
100.07553591540881
 31
0.0
  0
LINE
  5
97
  8
2
 10
103.8310256272969
 20
99.075535915408835
 30
0.0
 11
103.8310256272968
 21
100.07553591540881
 31
0.0
  0
LINE
  5
98
  8
2
 10
103.8310256272969
 20
100.542535915409
 30
0.0
 11
103.8310256272969
 21
110.07553591540881
 31
0.0
  0
LINE
  5
99
  8
2
 10
104.2640256272967
 20
100.9755359154088
 30
0.0
 11
104.2640256272967
 21
113.07553591540881
 31
0.0
  0
LINE
  5
9A
  8
2
 10
108.3980256272971
 20
100.9755359154088
 30
0.0
 11
108.3980256272971
 21
113.07553591540881
 31
0.0
  0
LINE
  5
9B
  8
2
 10
108.8310256272969
 20
100.542535915409
 30
0.0
 11
108.8310256272969
 21
110.07553591540881
 31
0.0
  0
LINE
  5
9C
  8
2
 10
104.2640256272967
 20
113.07553591540891
 30
0.0
 11
106.3310256272969
 21
114.3175148149389
 31
0.0
  0
LINE
  5
9D
  8
2
 10
108.3980256272971
 20
113.07553591540881
 30
0.0
 11
106.3310256272969
 21
114.3175148149389
 31
0.0
  0
LINE
  5
9E
  8
2
 10
103.8310256272969
 20
110.07553591540881
 30
0.0
 11
108.8310256272969
 21
110.07553591540881
 31
0.0
  0
LINE
  5
9F
  8
2
 10
104.2640256272967
 20
113.07553591540881
 30
0.0
 11
108.3980256272971
 21
113.07553591540881
 31
0.0
  0
LINE
  5
A0
  8
2
 10
108.8310256272969
 20
110.07553591540881
 30
0.0
 11
108.3980256272971
 21
110.82551391508569
 31
0.0
  0
LINE
  5
A1
  8
2
 10
103.83102562729709
 20
110.07553591540881
 30
0.0
 11
104.2640256272968
 21
110.82551391508569
 31
0.0
  0
LINE
  5
A2
  8
2
 10
103.3640256272966
 20
100.07553591540881
 30
0.0
 11
104.2640256272967
 21
100.9755359154088
 31
0.0
  0
LINE
  5
A3
  8
2
 10
104.2640256272967
 20
100.9755359154088
 30
0.0
 11
108.3980256272971
 21
100.9755359154088
 31
0.0
  0
LINE
  5
A4
  8
2
 10
108.3980256272971
 20
100.9755359154088
 30
0.0
 11
109.29802562729709
 21
100.07553591540881
 31
0.0
  0
LINE
  5
A5
  8
2
 10
111.3310256272968
 20
100.07553591540881
 30
0.0
 11
101.3310256272969
 21
100.07553591540881
 31
0.0
  0
TEXT
  5
1BB
  8
0
 62
     3
 10
0.0
 20
0.0
 30
0.0
 40
10.0
  1
RD5-100S-10
  7
STANDARD1
  0
ENDSEC
  0
EOF
