  0
SECTION
  2
HEADER
  9
$ACADVER
  1
AC1009
  9
$INSBASE
 10
0.0
 20
0.0
 30
0.0
  9
$EXTMIN
 10
0.0
 20
-2.960436562073669
 30
0.0
  9
$EXTMAX
 10
270.83272736224262
 20
208.03073307696829
 30
0.0
  9
$LIMMIN
 10
0.0
 20
0.0
  9
$LIMMAX
 10
375.0
 20
270.0
  9
$ORTHOMODE
 70
     1
  9
$REGENMODE
 70
     1
  9
$FILLMODE
 70
     1
  9
$QTEXTMODE
 70
     0
  9
$MIRRTEXT
 70
     0
  9
$DRAGMODE
 70
     2
  9
$LTSCALE
 40
5.0
  9
$OSMODE
 70
    55
  9
$ATTMODE
 70
     1
  9
$TEXTSIZE
 40
4.0
  9
$TRACEWID
 40
0.05
  9
$TEXTSTYLE
  7
STANDARD
  9
$CLAYER
  8
4
  9
$CELTYPE
  6
BYLAYER
  9
$CECOLOR
 62
   256
  9
$DIMSCALE
 40
1.0
  9
$DIMASZ
 40
3.0
  9
$DIMEXO
 40
2.0
  9
$DIMDLI
 40
0.38
  9
$DIMRND
 40
0.0
  9
$DIMDLE
 40
0.0
  9
$DIMEXE
 40
2.0
  9
$DIMTP
 40
0.0
  9
$DIMTM
 40
0.0
  9
$DIMTXT
 40
3.2000000000000002
  9
$DIMCEN
 40
0.0
  9
$DIMTSZ
 40
0.0
  9
$DIMTOL
 70
     0
  9
$DIMLIM
 70
     0
  9
$DIMTIH
 70
     0
  9
$DIMTOH
 70
     0
  9
$DIMSE1
 70
     0
  9
$DIMSE2
 70
     0
  9
$DIMTAD
 70
     1
  9
$DIMZIN
 70
     0
  9
$DIMBLK
  1

  9
$DIMASO
 70
     1
  9
$DIMSHO
 70
     0
  9
$DIMPOST
  1

  9
$DIMAPOST
  1

  9
$DIMALT
 70
     0
  9
$DIMALTD
 70
     2
  9
$DIMALTF
 40
25.399999999999999
  9
$DIMLFAC
 40
1.0
  9
$DIMTOFL
 70
     0
  9
$DIMTVP
 40
1.6000000000000001
  9
$DIMTIX
 70
     1
  9
$DIMSOXD
 70
     0
  9
$DIMSAH
 70
     0
  9
$DIMBLK1
  1

  9
$DIMBLK2
  1

  9
$DIMSTYLE
  2
STANDARD
  9
$DIMCLRD
 70
     4
  9
$DIMCLRE
 70
     4
  9
$DIMCLRT
 70
     4
  9
$DIMTFAC
 40
1.0
  9
$DIMGAP
 40
0.09
  9
$LUNITS
 70
     2
  9
$LUPREC
 70
     1
  9
$SKETCHINC
 40
0.1
  9
$FILLETRAD
 40
0.0
  9
$AUNITS
 70
     0
  9
$AUPREC
 70
     0
  9
$MENU
  1
E:\r13\win\SUPPORT\ACAD
  9
$ELEVATION
 40
0.0
  9
$PELEVATION
 40
0.0
  9
$THICKNESS
 40
0.0
  9
$LIMCHECK
 70
     0
  9
$BLIPMODE
 70
     0
  9
$CHAMFERA
 40
3.0
  9
$CHAMFERB
 40
3.0
  9
$SKPOLY
 70
     0
  9
$TDCREATE
 40
2449930.6764120371
  9
$TDUPDATE
 40
2456598.5920643518
  9
$TDINDWG
 40
0.0008528241
  9
$TDUSRTIMER
 40
0.0008528241
  9
$USRTIMER
 70
     1
  9
$ANGBASE
 50
0.0
  9
$ANGDIR
 70
     0
  9
$PDMODE
 70
     0
  9
$PDSIZE
 40
0.0
  9
$PLINEWID
 40
0.0
  9
$COORDS
 70
     1
  9
$SPLFRAME
 70
     0
  9
$SPLINETYPE
 70
     6
  9
$SPLINESEGS
 70
     8
  9
$ATTDIA
 70
     0
  9
$ATTREQ
 70
     1
  9
$HANDLING
 70
     1
  9
$HANDSEED
  5
339
  9
$SURFTAB1
 70
     6
  9
$SURFTAB2
 70
     6
  9
$SURFTYPE
 70
     6
  9
$SURFU
 70
     6
  9
$SURFV
 70
     6
  9
$UCSNAME
  2

  9
$UCSORG
 10
0.0
 20
0.0
 30
0.0
  9
$UCSXDIR
 10
1.0
 20
0.0
 30
0.0
  9
$UCSYDIR
 10
0.0
 20
1.0
 30
0.0
  9
$PUCSNAME
  2

  9
$PUCSORG
 10
0.0
 20
0.0
 30
0.0
  9
$PUCSXDIR
 10
1.0
 20
0.0
 30
0.0
  9
$PUCSYDIR
 10
0.0
 20
1.0
 30
0.0
  9
$USERI1
 70
     0
  9
$USERI2
 70
     1
  9
$USERI3
 70
     1
  9
$USERI4
 70
     0
  9
$USERI5
 70
     0
  9
$USERR1
 40
0.0
  9
$USERR2
 40
0.0
  9
$USERR3
 40
0.0
  9
$USERR4
 40
0.0
  9
$USERR5
 40
0.0
  9
$WORLDVIEW
 70
     1
  9
$SHADEDGE
 70
     3
  9
$SHADEDIF
 70
    70
  9
$TILEMODE
 70
     1
  9
$MAXACTVP
 70
    16
  9
$PLIMCHECK
 70
     0
  9
$PEXTMIN
 10
1.0000000000000000E+020
 20
1.0000000000000000E+020
 30
1.0000000000000000E+020
  9
$PEXTMAX
 10
-1.0000000000000000E+020
 20
-1.0000000000000000E+020
 30
-1.0000000000000000E+020
  9
$PLIMMIN
 10
0.0
 20
0.0
  9
$PLIMMAX
 10
12.0
 20
9.0
  9
$UNITMODE
 70
     0
  9
$VISRETAIN
 70
     0
  9
$PLINEGEN
 70
     0
  9
$PSLTSCALE
 70
     0
  0
ENDSEC
  0
SECTION
  2
TABLES
  0
TABLE
  2
VPORT
 70
     1
  0
VPORT
  2
*ACTIVE
 70
     0
 10
0.0
 20
0.0
 11
1.0
 21
1.0
 12
187.49427839065231
 22
194.785247995265
 13
0.0
 23
0.0
 14
10.0
 24
10.0
 15
10.0
 25
10.0
 16
0.0
 26
0.0
 36
1.0
 17
0.0
 27
0.0
 37
0.0
 40
399.3463374158577
 41
1.7807262569832401
 42
50.0
 43
0.0
 44
0.0
 50
0.0
 51
0.0
 71
     0
 72
   500
 73
     1
 74
     0
 75
     0
 76
     0
 77
     0
 78
     2
  0
ENDTAB
  0
TABLE
  2
LTYPE
 70
     4
  0
LTYPE
  2
CONTINUOUS
 70
     0
  3
Solid Line
 72
    65
 73
     0
 40
0.0
  0
LTYPE
  2
CENTER
 70
     0
  3
____ _ ____ _ ____ _ ____ _ ____ _ ____ _ ____
 72
    65
 73
     4
 40
2.0
 49
1.25
 49
-0.25
 49
0.25
 49
-0.25
  0
LTYPE
  2
HIDDEN
 70
     0
  3
_ _ _ _ _ _ _ _ _ _ _ _ _ _ _ _ _ _ _ _ _ _ _
 72
    65
 73
     2
 40
0.375
 49
0.25
 49
-0.125
  0
LTYPE
  2
PHANTOM2
 70
     0
  3
___ _ _ ___ _ _ ___ _ _ ___ _ _
 72
    65
 73
     6
 40
1.25
 49
0.625
 49
-0.125
 49
0.125
 49
-0.125
 49
0.125
 49
-0.125
  0
ENDTAB
  0
TABLE
  2
LAYER
 70
     5
  0
LAYER
  2
0
 70
     0
 62
     7
  6
CONTINUOUS
  0
LAYER
  2
1
 70
     0
 62
     1
  6
CENTER
  0
LAYER
  2
3
 70
     0
 62
     3
  6
CONTINUOUS
  0
LAYER
  2
4
 70
     0
 62
     4
  6
CONTINUOUS
  0
LAYER
  2
2
 70
     0
 62
     2
  6
HIDDEN
  0
ENDTAB
  0
TABLE
  2
STYLE
 70
     2
  0
STYLE
  2
STANDARD
 70
     0
 40
0.0
 41
1.0
 50
0.0
 71
     0
 42
4.0
  3
SIMPLEX
  4
BIGFONT
  0
STYLE
  2
STANDARD1
 70
     0
 40
0.0
 41
1.0
 50
0.0
 71
     0
 42
3.0
  3
txt
  4

  0
ENDTAB
  0
TABLE
  2
VIEW
 70
     1
  0
VIEW
  2
ALL
 70
     0
 40
270.0
 10
220.78595317725751
 20
135.0
 41
441.57190635451502
 11
0.0
 21
0.0
 31
1.0
 12
0.0
 22
0.0
 32
0.0
 42
50.0
 43
0.0
 44
0.0
 50
0.0
 71
     0
  0
ENDTAB
  0
TABLE
  2
UCS
 70
     0
  0
ENDTAB
  0
TABLE
  2
APPID
 70
     3
  0
APPID
  2
ACAD
 70
     0
  0
APPID
  2
ACAD_MLEADERVER
 70
     0
  0
APPID
  2
ACAD_NAV_VCDISPLAY
 70
     0
  0
ENDTAB
  0
TABLE
  2
DIMSTYLE
 70
     1
  0
DIMSTYLE
  2
STANDARD
 70
     0
  3

  4

  5

  6

  7

 40
1.0
 41
0.18
 42
0.0625
 43
0.38
 44
0.18
 45
0.0
 46
0.0
 47
0.0
 48
0.0
140
0.18
141
0.09
142
0.0
143
25.399999999999999
144
1.0
145
0.0
146
1.0
147
0.09
 71
     0
 72
     0
 73
     1
 74
     1
 75
     0
 76
     0
 77
     0
 78
     0
170
     0
171
     2
172
     0
173
     0
174
     0
175
     0
176
     0
177
     0
178
     0
  0
ENDTAB
  0
ENDSEC
  0
SECTION
  2
BLOCKS
  0
BLOCK
  8
0
  2
$MODEL_SPACE
 70
     0
 10
0.0
 20
0.0
 30
0.0
  3
$MODEL_SPACE
  1

  0
ENDBLK
  5
1BD
  8
0
  0
BLOCK
 67
     1
  8
0
  2
$PAPER_SPACE
 70
     0
 10
0.0
 20
0.0
 30
0.0
  3
$PAPER_SPACE
  1

  0
ENDBLK
  5
1BB
 67
     1
  8
0
  0
BLOCK
  8
0
  2
*X0
 70
     1
 10
0.0
 20
0.0
 30
0.0
  3
*X0
  1

  0
LINE
  5
2F
  8
0
 62
     0
 10
158.61342766843629
 20
114.0657004536838
 30
0.0
 11
170.11342766843629
 21
125.5657004536838
 31
0.0
  0
LINE
  5
30
  8
0
 62
     0
 10
157.90632088724971
 20
114.0657004536838
 30
0.0
 11
169.40632088724971
 21
125.5657004536838
 31
0.0
  0
LINE
  5
31
  8
0
 62
     0
 10
157.19921410606321
 20
114.0657004536838
 30
0.0
 11
168.69921410606321
 21
125.5657004536838
 31
0.0
  0
LINE
  5
32
  8
0
 62
     0
 10
156.4921073248766
 20
114.0657004536838
 30
0.0
 11
167.9921073248766
 21
125.5657004536838
 31
0.0
  0
LINE
  5
33
  8
0
 62
     0
 10
155.7850005436901
 20
114.0657004536838
 30
0.0
 11
167.2850005436901
 21
125.5657004536838
 31
0.0
  0
LINE
  5
34
  8
0
 62
     0
 10
155.07789376250349
 20
114.0657004536838
 30
0.0
 11
166.57789376250349
 21
125.5657004536838
 31
0.0
  0
LINE
  5
35
  8
0
 62
     0
 10
154.370786981317
 20
114.0657004536838
 30
0.0
 11
165.870786981317
 21
125.5657004536838
 31
0.0
  0
LINE
  5
36
  8
0
 62
     0
 10
153.66368020013039
 20
114.0657004536838
 30
0.0
 11
165.16368020013039
 21
125.5657004536838
 31
0.0
  0
LINE
  5
37
  8
0
 62
     0
 10
152.95657341894389
 20
114.0657004536838
 30
0.0
 11
164.45657341894389
 21
125.5657004536838
 31
0.0
  0
LINE
  5
38
  8
0
 62
     0
 10
152.24946663775731
 20
114.0657004536838
 30
0.0
 11
163.74946663775731
 21
125.5657004536838
 31
0.0
  0
LINE
  5
39
  8
0
 62
     0
 10
151.54235985657081
 20
114.0657004536838
 30
0.0
 11
163.04235985657081
 21
125.5657004536838
 31
0.0
  0
LINE
  5
3A
  8
0
 62
     0
 10
150.8352530753842
 20
114.0657004536838
 30
0.0
 11
162.3352530753842
 21
125.5657004536838
 31
0.0
  0
LINE
  5
3B
  8
0
 62
     0
 10
150.12814629419771
 20
114.0657004536838
 30
0.0
 11
161.62814629419771
 21
125.5657004536838
 31
0.0
  0
LINE
  5
3C
  8
0
 62
     0
 10
149.42103951301121
 20
114.0657004536838
 30
0.0
 11
160.9210395130111
 21
125.5657004536838
 31
0.0
  0
LINE
  5
3D
  8
0
 62
     0
 10
148.7139327318246
 20
114.0657004536838
 30
0.0
 11
160.2139327318246
 21
125.5657004536838
 31
0.0
  0
LINE
  5
3E
  8
0
 62
     0
 10
148.00682595063799
 20
114.0657004536838
 30
0.0
 11
159.5068259506381
 21
125.5657004536838
 31
0.0
  0
LINE
  5
3F
  8
0
 62
     0
 10
147.29971916945149
 20
114.0657004536838
 30
0.0
 11
158.79971916945149
 21
125.5657004536838
 31
0.0
  0
LINE
  5
40
  8
0
 62
     0
 10
146.59261238826491
 20
114.0657004536838
 30
0.0
 11
158.09261238826491
 21
125.5657004536838
 31
0.0
  0
LINE
  5
41
  8
0
 62
     0
 10
145.88550560707839
 20
114.0657004536838
 30
0.0
 11
157.38550560707839
 21
125.5657004536838
 31
0.0
  0
LINE
  5
42
  8
0
 62
     0
 10
145.17839882589189
 20
114.0657004536838
 30
0.0
 11
156.67839882589189
 21
125.5657004536838
 31
0.0
  0
LINE
  5
43
  8
0
 62
     0
 10
144.47129204470531
 20
114.0657004536838
 30
0.0
 11
155.97129204470531
 21
125.5657004536838
 31
0.0
  0
LINE
  5
44
  8
0
 62
     0
 10
143.76418526351881
 20
114.0657004536838
 30
0.0
 11
155.26418526351881
 21
125.5657004536838
 31
0.0
  0
LINE
  5
45
  8
0
 62
     0
 10
143.0570784823322
 20
114.0657004536838
 30
0.0
 11
154.5570784823322
 21
125.5657004536838
 31
0.0
  0
LINE
  5
46
  8
0
 62
     0
 10
142.34997170114571
 20
114.0657004536838
 30
0.0
 11
153.84997170114559
 21
125.5657004536838
 31
0.0
  0
LINE
  5
47
  8
0
 62
     0
 10
141.6428649199591
 20
114.0657004536838
 30
0.0
 11
153.1428649199591
 21
125.5657004536838
 31
0.0
  0
LINE
  5
48
  8
0
 62
     0
 10
140.9357581387726
 20
114.0657004536838
 30
0.0
 11
152.4357581387726
 21
125.5657004536838
 31
0.0
  0
LINE
  5
49
  8
0
 62
     0
 10
140.22865135758599
 20
114.0657004536838
 30
0.0
 11
151.72865135758599
 21
125.5657004536838
 31
0.0
  0
LINE
  5
4A
  8
0
 62
     0
 10
139.52154457639949
 20
114.0657004536838
 30
0.0
 11
151.02154457639949
 21
125.5657004536838
 31
0.0
  0
LINE
  5
4B
  8
0
 62
     0
 10
138.81443779521291
 20
114.0657004536838
 30
0.0
 11
150.31443779521291
 21
125.5657004536838
 31
0.0
  0
LINE
  5
4C
  8
0
 62
     0
 10
138.10733101402641
 20
114.0657004536838
 30
0.0
 11
149.60733101402641
 21
125.5657004536838
 31
0.0
  0
LINE
  5
4D
  8
0
 62
     0
 10
137.4002242328398
 20
114.0657004536838
 30
0.0
 11
148.9002242328398
 21
125.5657004536838
 31
0.0
  0
LINE
  5
4E
  8
0
 62
     0
 10
136.69311745165331
 20
114.0657004536838
 30
0.0
 11
148.19311745165331
 21
125.5657004536838
 31
0.0
  0
LINE
  5
4F
  8
0
 62
     0
 10
135.9860106704667
 20
114.0657004536838
 30
0.0
 11
147.4860106704667
 21
125.5657004536838
 31
0.0
  0
LINE
  5
50
  8
0
 62
     0
 10
135.2789038892802
 20
114.0657004536838
 30
0.0
 11
146.7789038892802
 21
125.5657004536838
 31
0.0
  0
LINE
  5
51
  8
0
 62
     0
 10
134.5717971080937
 20
114.0657004536838
 30
0.0
 11
146.0717971080937
 21
125.5657004536838
 31
0.0
  0
LINE
  5
52
  8
0
 62
     0
 10
133.86469032690709
 20
114.0657004536838
 30
0.0
 11
145.36469032690709
 21
125.5657004536838
 31
0.0
  0
LINE
  5
53
  8
0
 62
     0
 10
133.1575835457206
 20
114.0657004536838
 30
0.0
 11
144.65758354572051
 21
125.5657004536838
 31
0.0
  0
LINE
  5
54
  8
0
 62
     0
 10
132.45047676453399
 20
114.0657004536838
 30
0.0
 11
143.95047676453399
 21
125.5657004536838
 31
0.0
  0
LINE
  5
55
  8
0
 62
     0
 10
131.74336998334749
 20
114.0657004536838
 30
0.0
 11
143.24336998334741
 21
125.5657004536838
 31
0.0
  0
LINE
  5
56
  8
0
 62
     0
 10
131.03626320216091
 20
114.0657004536838
 30
0.0
 11
142.53626320216091
 21
125.5657004536838
 31
0.0
  0
LINE
  5
57
  8
0
 62
     0
 10
130.32915642097441
 20
114.0657004536838
 30
0.0
 11
141.8291564209743
 21
125.5657004536838
 31
0.0
  0
LINE
  5
58
  8
0
 62
     0
 10
130.05970105652781
 20
114.5033518704238
 30
0.0
 11
141.1220496397878
 21
125.5657004536838
 31
0.0
  0
LINE
  5
59
  8
0
 62
     0
 10
130.05970105652781
 20
115.2104586516103
 30
0.0
 11
140.41494285860131
 21
125.5657004536838
 31
0.0
  0
LINE
  5
5A
  8
0
 62
     0
 10
130.05970105652781
 20
115.91756543279691
 30
0.0
 11
139.7078360774147
 21
125.5657004536838
 31
0.0
  0
LINE
  5
5B
  8
0
 62
     0
 10
130.05970105652781
 20
116.6246722139834
 30
0.0
 11
139.0007292962282
 21
125.5657004536838
 31
0.0
  0
LINE
  5
5C
  8
0
 62
     0
 10
130.05970105652781
 20
117.33177899517
 30
0.0
 11
138.29362251504159
 21
125.5657004536838
 31
0.0
  0
LINE
  5
5D
  8
0
 62
     0
 10
130.05970105652781
 20
118.03888577635649
 30
0.0
 11
137.58651573385509
 21
125.5657004536838
 31
0.0
  0
LINE
  5
5E
  8
0
 62
     0
 10
130.05970105652781
 20
118.7459925575431
 30
0.0
 11
136.87940895266851
 21
125.5657004536838
 31
0.0
  0
LINE
  5
5F
  8
0
 62
     0
 10
130.05970105652781
 20
119.4530993387296
 30
0.0
 11
136.17230217148199
 21
125.5657004536838
 31
0.0
  0
LINE
  5
60
  8
0
 62
     0
 10
130.05970105652781
 20
120.1602061199162
 30
0.0
 11
135.46519539029541
 21
125.5657004536838
 31
0.0
  0
LINE
  5
61
  8
0
 62
     0
 10
130.05970105652781
 20
120.86731290110269
 30
0.0
 11
134.75808860910891
 21
125.5657004536838
 31
0.0
  0
LINE
  5
62
  8
0
 62
     0
 10
130.05970105652781
 20
121.5744196822893
 30
0.0
 11
134.0509818279223
 21
125.5657004536838
 31
0.0
  0
LINE
  5
63
  8
0
 62
     0
 10
130.05970105652781
 20
122.2815264634758
 30
0.0
 11
133.3438750467358
 21
125.5657004536838
 31
0.0
  0
LINE
  5
64
  8
0
 62
     0
 10
130.05970105652781
 20
122.9886332446624
 30
0.0
 11
132.63676826554919
 21
125.5657004536838
 31
0.0
  0
LINE
  5
65
  8
0
 62
     0
 10
130.05970105652781
 20
123.69574002584891
 30
0.0
 11
131.9296614843627
 21
125.5657004536838
 31
0.0
  0
LINE
  5
66
  8
0
 62
     0
 10
130.05970105652781
 20
124.4028468070355
 30
0.0
 11
131.22255470317609
 21
125.5657004536838
 31
0.0
  0
LINE
  5
67
  8
0
 62
     0
 10
130.05970105652781
 20
125.109953588222
 30
0.0
 11
130.51544792198959
 21
125.5657004536838
 31
0.0
  0
LINE
  5
68
  8
0
 62
     0
 10
159.32053444962281
 20
114.0657004536838
 30
0.0
 11
170.82053444962281
 21
125.5657004536838
 31
0.0
  0
LINE
  5
69
  8
0
 62
     0
 10
160.02764123080931
 20
114.0657004536838
 30
0.0
 11
171.52764123080931
 21
125.5657004536838
 31
0.0
  0
LINE
  5
6A
  8
0
 62
     0
 10
160.73474801199589
 20
114.0657004536838
 30
0.0
 11
172.23474801199589
 21
125.5657004536838
 31
0.0
  0
LINE
  5
6B
  8
0
 62
     0
 10
161.44185479318239
 20
114.0657004536838
 30
0.0
 11
172.94185479318239
 21
125.5657004536838
 31
0.0
  0
LINE
  5
6C
  8
0
 62
     0
 10
162.148961574369
 20
114.0657004536838
 30
0.0
 11
173.648961574369
 21
125.5657004536838
 31
0.0
  0
LINE
  5
6D
  8
0
 62
     0
 10
162.85606835555549
 20
114.0657004536838
 30
0.0
 11
174.35606835555549
 21
125.5657004536838
 31
0.0
  0
LINE
  5
6E
  8
0
 62
     0
 10
163.5631751367421
 20
114.0657004536838
 30
0.0
 11
175.0631751367421
 21
125.5657004536838
 31
0.0
  0
LINE
  5
6F
  8
0
 62
     0
 10
164.2702819179286
 20
114.0657004536838
 30
0.0
 11
175.7702819179286
 21
125.5657004536838
 31
0.0
  0
LINE
  5
70
  8
0
 62
     0
 10
164.97738869911521
 20
114.0657004536838
 30
0.0
 11
176.47738869911521
 21
125.5657004536838
 31
0.0
  0
LINE
  5
71
  8
0
 62
     0
 10
165.68449548030171
 20
114.0657004536838
 30
0.0
 11
177.18449548030171
 21
125.5657004536838
 31
0.0
  0
LINE
  5
72
  8
0
 62
     0
 10
166.39160226148829
 20
114.0657004536838
 30
0.0
 11
177.89160226148829
 21
125.5657004536838
 31
0.0
  0
LINE
  5
73
  8
0
 62
     0
 10
167.09870904267481
 20
114.0657004536838
 30
0.0
 11
178.59870904267481
 21
125.5657004536838
 31
0.0
  0
LINE
  5
74
  8
0
 62
     0
 10
167.80581582386139
 20
114.0657004536838
 30
0.0
 11
179.30581582386139
 21
125.5657004536838
 31
0.0
  0
LINE
  5
75
  8
0
 62
     0
 10
168.51292260504789
 20
114.0657004536838
 30
0.0
 11
180.01292260504789
 21
125.5657004536838
 31
0.0
  0
LINE
  5
76
  8
0
 62
     0
 10
169.2200293862345
 20
114.0657004536838
 30
0.0
 11
180.7200293862345
 21
125.5657004536838
 31
0.0
  0
LINE
  5
77
  8
0
 62
     0
 10
169.927136167421
 20
114.0657004536838
 30
0.0
 11
181.427136167421
 21
125.5657004536838
 31
0.0
  0
LINE
  5
78
  8
0
 62
     0
 10
170.63424294860761
 20
114.0657004536838
 30
0.0
 11
182.13424294860761
 21
125.5657004536838
 31
0.0
  0
LINE
  5
79
  8
0
 62
     0
 10
171.3413497297941
 20
114.0657004536838
 30
0.0
 11
182.8413497297941
 21
125.5657004536838
 31
0.0
  0
LINE
  5
7A
  8
0
 62
     0
 10
172.04845651098071
 20
114.0657004536838
 30
0.0
 11
183.54845651098071
 21
125.5657004536838
 31
0.0
  0
LINE
  5
7B
  8
0
 62
     0
 10
172.75556329216721
 20
114.0657004536838
 30
0.0
 11
184.25556329216721
 21
125.5657004536838
 31
0.0
  0
LINE
  5
7C
  8
0
 62
     0
 10
173.46267007335379
 20
114.0657004536838
 30
0.0
 11
184.96267007335371
 21
125.5657004536838
 31
0.0
  0
LINE
  5
7D
  8
0
 62
     0
 10
174.16977685454029
 20
114.0657004536838
 30
0.0
 11
185.66977685454029
 21
125.5657004536838
 31
0.0
  0
LINE
  5
7E
  8
0
 62
     0
 10
174.87688363572681
 20
114.0657004536838
 30
0.0
 11
186.37688363572681
 21
125.5657004536838
 31
0.0
  0
LINE
  5
7F
  8
0
 62
     0
 10
175.58399041691339
 20
114.0657004536838
 30
0.0
 11
187.08399041691339
 21
125.5657004536838
 31
0.0
  0
LINE
  5
80
  8
0
 62
     0
 10
176.2910971981
 20
114.0657004536838
 30
0.0
 11
187.7910971981
 21
125.5657004536838
 31
0.0
  0
LINE
  5
81
  8
0
 62
     0
 10
176.9982039792865
 20
114.0657004536838
 30
0.0
 11
188.4982039792865
 21
125.5657004536838
 31
0.0
  0
LINE
  5
82
  8
0
 62
     0
 10
177.70531076047311
 20
114.0657004536838
 30
0.0
 11
189.205310760473
 21
125.5657004536838
 31
0.0
  0
LINE
  5
83
  8
0
 62
     0
 10
178.41241754165961
 20
114.0657004536838
 30
0.0
 11
189.91241754165961
 21
125.5657004536838
 31
0.0
  0
LINE
  5
84
  8
0
 62
     0
 10
179.1195243228461
 20
114.0657004536838
 30
0.0
 11
190.6195243228461
 21
125.5657004536838
 31
0.0
  0
LINE
  5
85
  8
0
 62
     0
 10
179.82663110403271
 20
114.0657004536838
 30
0.0
 11
191.32663110403271
 21
125.5657004536838
 31
0.0
  0
LINE
  5
86
  8
0
 62
     0
 10
180.53373788521921
 20
114.0657004536838
 30
0.0
 11
192.03373788521921
 21
125.5657004536838
 31
0.0
  0
LINE
  5
87
  8
0
 62
     0
 10
181.24084466640579
 20
114.0657004536838
 30
0.0
 11
192.74084466640579
 21
125.5657004536838
 31
0.0
  0
LINE
  5
88
  8
0
 62
     0
 10
181.94795144759229
 20
114.0657004536838
 30
0.0
 11
193.44795144759229
 21
125.5657004536838
 31
0.0
  0
LINE
  5
89
  8
0
 62
     0
 10
182.6550582287789
 20
114.0657004536838
 30
0.0
 11
194.1550582287789
 21
125.5657004536838
 31
0.0
  0
LINE
  5
8A
  8
0
 62
     0
 10
183.36216500996539
 20
114.0657004536838
 30
0.0
 11
194.86216500996539
 21
125.5657004536838
 31
0.0
  0
LINE
  5
8B
  8
0
 62
     0
 10
184.069271791152
 20
114.0657004536838
 30
0.0
 11
195.56927179115189
 21
125.5657004536838
 31
0.0
  0
LINE
  5
8C
  8
0
 62
     0
 10
184.7763785723385
 20
114.0657004536838
 30
0.0
 11
196.2763785723385
 21
125.5657004536838
 31
0.0
  0
LINE
  5
8D
  8
0
 62
     0
 10
185.483485353525
 20
114.0657004536838
 30
0.0
 11
196.98348535352511
 21
125.5657004536838
 31
0.0
  0
LINE
  5
8E
  8
0
 62
     0
 10
186.19059213471161
 20
114.0657004536838
 30
0.0
 11
197.69059213471161
 21
125.5657004536838
 31
0.0
  0
LINE
  5
8F
  8
0
 62
     0
 10
186.89769891589819
 20
114.0657004536838
 30
0.0
 11
198.39769891589819
 21
125.5657004536838
 31
0.0
  0
LINE
  5
90
  8
0
 62
     0
 10
187.60480569708469
 20
114.0657004536838
 30
0.0
 11
199.10480569708469
 21
125.5657004536838
 31
0.0
  0
LINE
  5
91
  8
0
 62
     0
 10
188.3119124782713
 20
114.0657004536838
 30
0.0
 11
199.8119124782713
 21
125.5657004536838
 31
0.0
  0
LINE
  5
92
  8
0
 62
     0
 10
189.01901925945779
 20
114.0657004536838
 30
0.0
 11
200.0597010565279
 21
125.1063822507539
 31
0.0
  0
LINE
  5
93
  8
0
 62
     0
 10
189.7261260406444
 20
114.0657004536838
 30
0.0
 11
200.0597010565279
 21
124.3992754695673
 31
0.0
  0
LINE
  5
94
  8
0
 62
     0
 10
190.4332328218309
 20
114.0657004536838
 30
0.0
 11
200.0597010565279
 21
123.6921686883807
 31
0.0
  0
LINE
  5
95
  8
0
 62
     0
 10
191.14033960301751
 20
114.0657004536838
 30
0.0
 11
200.0597010565279
 21
122.98506190719419
 31
0.0
  0
LINE
  5
96
  8
0
 62
     0
 10
191.84744638420401
 20
114.0657004536838
 30
0.0
 11
200.0597010565279
 21
122.2779551260076
 31
0.0
  0
LINE
  5
97
  8
0
 62
     0
 10
192.5545531653905
 20
114.0657004536838
 30
0.0
 11
200.0597010565279
 21
121.5708483448211
 31
0.0
  0
LINE
  5
98
  8
0
 62
     0
 10
193.26165994657711
 20
114.0657004536838
 30
0.0
 11
200.0597010565279
 21
120.8637415636346
 31
0.0
  0
LINE
  5
99
  8
0
 62
     0
 10
193.96876672776361
 20
114.0657004536838
 30
0.0
 11
200.0597010565279
 21
120.15663478244799
 31
0.0
  0
LINE
  5
9A
  8
0
 62
     0
 10
194.67587350895019
 20
114.0657004536838
 30
0.0
 11
200.0597010565279
 21
119.4495280012615
 31
0.0
  0
LINE
  5
9B
  8
0
 62
     0
 10
195.38298029013669
 20
114.0657004536838
 30
0.0
 11
200.0597010565279
 21
118.7424212200749
 31
0.0
  0
LINE
  5
9C
  8
0
 62
     0
 10
196.0900870713233
 20
114.0657004536838
 30
0.0
 11
200.0597010565279
 21
118.03531443888841
 31
0.0
  0
LINE
  5
9D
  8
0
 62
     0
 10
196.79719385250979
 20
114.0657004536838
 30
0.0
 11
200.0597010565279
 21
117.3282076577018
 31
0.0
  0
LINE
  5
9E
  8
0
 62
     0
 10
197.5043006336964
 20
114.0657004536838
 30
0.0
 11
200.0597010565279
 21
116.6211008765153
 31
0.0
  0
LINE
  5
9F
  8
0
 62
     0
 10
198.2114074148829
 20
114.0657004536838
 30
0.0
 11
200.0597010565279
 21
115.9139940953287
 31
0.0
  0
LINE
  5
A0
  8
0
 62
     0
 10
198.91851419606951
 20
114.0657004536838
 30
0.0
 11
200.0597010565279
 21
115.20688731414219
 31
0.0
  0
LINE
  5
A1
  8
0
 62
     0
 10
199.62562097725601
 20
114.0657004536838
 30
0.0
 11
200.0597010565279
 21
114.4997805329556
 31
0.0
  0
LINE
  5
A2
  8
0
 62
     0
 10
170.1912255833083
 20
114.0657004536838
 30
0.0
 11
158.6912255833083
 21
125.5657004536838
 31
0.0
  0
LINE
  5
A3
  8
0
 62
     0
 10
169.48411880212171
 20
114.0657004536838
 30
0.0
 11
157.98411880212171
 21
125.5657004536838
 31
0.0
  0
LINE
  5
A4
  8
0
 62
     0
 10
168.77701202093519
 20
114.0657004536838
 30
0.0
 11
157.27701202093519
 21
125.5657004536838
 31
0.0
  0
LINE
  5
A5
  8
0
 62
     0
 10
168.06990523974861
 20
114.0657004536838
 30
0.0
 11
156.56990523974861
 21
125.5657004536838
 31
0.0
  0
LINE
  5
A6
  8
0
 62
     0
 10
167.362798458562
 20
114.0657004536838
 30
0.0
 11
155.86279845856211
 21
125.5657004536838
 31
0.0
  0
LINE
  5
A7
  8
0
 62
     0
 10
166.6556916773755
 20
114.0657004536838
 30
0.0
 11
155.1556916773755
 21
125.5657004536838
 31
0.0
  0
LINE
  5
A8
  8
0
 62
     0
 10
165.948584896189
 20
114.0657004536838
 30
0.0
 11
154.448584896189
 21
125.5657004536838
 31
0.0
  0
LINE
  5
A9
  8
0
 62
     0
 10
165.24147811500239
 20
114.0657004536838
 30
0.0
 11
153.74147811500239
 21
125.5657004536838
 31
0.0
  0
LINE
  5
AA
  8
0
 62
     0
 10
164.5343713338159
 20
114.0657004536838
 30
0.0
 11
153.0343713338159
 21
125.5657004536838
 31
0.0
  0
LINE
  5
AB
  8
0
 62
     0
 10
163.82726455262929
 20
114.0657004536838
 30
0.0
 11
152.32726455262929
 21
125.5657004536838
 31
0.0
  0
LINE
  5
AC
  8
0
 62
     0
 10
163.12015777144279
 20
114.0657004536838
 30
0.0
 11
151.62015777144279
 21
125.5657004536838
 31
0.0
  0
LINE
  5
AD
  8
0
 62
     0
 10
162.41305099025621
 20
114.0657004536838
 30
0.0
 11
150.91305099025621
 21
125.5657004536838
 31
0.0
  0
LINE
  5
AE
  8
0
 62
     0
 10
161.70594420906971
 20
114.0657004536838
 30
0.0
 11
150.20594420906971
 21
125.5657004536838
 31
0.0
  0
LINE
  5
AF
  8
0
 62
     0
 10
160.9988374278831
 20
114.0657004536838
 30
0.0
 11
149.49883742788319
 21
125.5657004536838
 31
0.0
  0
LINE
  5
B0
  8
0
 62
     0
 10
160.29173064669661
 20
114.0657004536838
 30
0.0
 11
148.79173064669661
 21
125.5657004536838
 31
0.0
  0
LINE
  5
B1
  8
0
 62
     0
 10
159.58462386551011
 20
114.0657004536838
 30
0.0
 11
148.08462386551011
 21
125.5657004536838
 31
0.0
  0
LINE
  5
B2
  8
0
 62
     0
 10
158.8775170843235
 20
114.0657004536838
 30
0.0
 11
147.3775170843235
 21
125.5657004536838
 31
0.0
  0
LINE
  5
B3
  8
0
 62
     0
 10
158.170410303137
 20
114.0657004536838
 30
0.0
 11
146.670410303137
 21
125.5657004536838
 31
0.0
  0
LINE
  5
B4
  8
0
 62
     0
 10
157.46330352195039
 20
114.0657004536838
 30
0.0
 11
145.96330352195039
 21
125.5657004536838
 31
0.0
  0
LINE
  5
B5
  8
0
 62
     0
 10
156.75619674076381
 20
114.0657004536838
 30
0.0
 11
145.2561967407639
 21
125.5657004536838
 31
0.0
  0
LINE
  5
B6
  8
0
 62
     0
 10
156.04908995957729
 20
114.0657004536838
 30
0.0
 11
144.54908995957729
 21
125.5657004536838
 31
0.0
  0
LINE
  5
B7
  8
0
 62
     0
 10
155.34198317839079
 20
114.0657004536838
 30
0.0
 11
143.84198317839079
 21
125.5657004536838
 31
0.0
  0
LINE
  5
B8
  8
0
 62
     0
 10
154.63487639720421
 20
114.0657004536838
 30
0.0
 11
143.13487639720421
 21
125.5657004536838
 31
0.0
  0
LINE
  5
B9
  8
0
 62
     0
 10
153.92776961601771
 20
114.0657004536838
 30
0.0
 11
142.42776961601771
 21
125.5657004536838
 31
0.0
  0
LINE
  5
BA
  8
0
 62
     0
 10
153.2206628348311
 20
114.0657004536838
 30
0.0
 11
141.7206628348311
 21
125.5657004536838
 31
0.0
  0
LINE
  5
BB
  8
0
 62
     0
 10
152.51355605364461
 20
114.0657004536838
 30
0.0
 11
141.01355605364461
 21
125.5657004536838
 31
0.0
  0
LINE
  5
BC
  8
0
 62
     0
 10
151.806449272458
 20
114.0657004536838
 30
0.0
 11
140.306449272458
 21
125.5657004536838
 31
0.0
  0
LINE
  5
BD
  8
0
 62
     0
 10
151.0993424912715
 20
114.0657004536838
 30
0.0
 11
139.5993424912715
 21
125.5657004536838
 31
0.0
  0
LINE
  5
BE
  8
0
 62
     0
 10
150.39223571008489
 20
114.0657004536838
 30
0.0
 11
138.892235710085
 21
125.5657004536838
 31
0.0
  0
LINE
  5
BF
  8
0
 62
     0
 10
149.68512892889839
 20
114.0657004536838
 30
0.0
 11
138.18512892889839
 21
125.5657004536838
 31
0.0
  0
LINE
  5
C0
  8
0
 62
     0
 10
148.97802214771181
 20
114.0657004536838
 30
0.0
 11
137.47802214771181
 21
125.5657004536838
 31
0.0
  0
LINE
  5
C1
  8
0
 62
     0
 10
148.27091536652529
 20
114.0657004536838
 30
0.0
 11
136.77091536652529
 21
125.5657004536838
 31
0.0
  0
LINE
  5
C2
  8
0
 62
     0
 10
147.56380858533871
 20
114.0657004536838
 30
0.0
 11
136.06380858533871
 21
125.5657004536838
 31
0.0
  0
LINE
  5
C3
  8
0
 62
     0
 10
146.85670180415221
 20
114.0657004536838
 30
0.0
 11
135.35670180415221
 21
125.5657004536838
 31
0.0
  0
LINE
  5
C4
  8
0
 62
     0
 10
146.1495950229656
 20
114.0657004536838
 30
0.0
 11
134.64959502296571
 21
125.5657004536838
 31
0.0
  0
LINE
  5
C5
  8
0
 62
     0
 10
145.4424882417791
 20
114.0657004536838
 30
0.0
 11
133.9424882417791
 21
125.5657004536838
 31
0.0
  0
LINE
  5
C6
  8
0
 62
     0
 10
144.73538146059249
 20
114.0657004536838
 30
0.0
 11
133.23538146059249
 21
125.5657004536838
 31
0.0
  0
LINE
  5
C7
  8
0
 62
     0
 10
144.028274679406
 20
114.0657004536838
 30
0.0
 11
132.528274679406
 21
125.5657004536838
 31
0.0
  0
LINE
  5
C8
  8
0
 62
     0
 10
143.32116789821939
 20
114.0657004536838
 30
0.0
 11
131.82116789821939
 21
125.5657004536838
 31
0.0
  0
LINE
  5
C9
  8
0
 62
     0
 10
142.61406111703289
 20
114.0657004536838
 30
0.0
 11
131.11406111703289
 21
125.5657004536838
 31
0.0
  0
LINE
  5
CA
  8
0
 62
     0
 10
141.90695433584639
 20
114.0657004536838
 30
0.0
 11
130.40695433584639
 21
125.5657004536838
 31
0.0
  0
LINE
  5
CB
  8
0
 62
     0
 10
141.19984755465981
 20
114.0657004536838
 30
0.0
 11
130.05970105652781
 21
125.2058469518157
 31
0.0
  0
LINE
  5
CC
  8
0
 62
     0
 10
140.49274077347329
 20
114.0657004536838
 30
0.0
 11
130.05970105652781
 21
124.4987401706292
 31
0.0
  0
LINE
  5
CD
  8
0
 62
     0
 10
139.78563399228671
 20
114.0657004536838
 30
0.0
 11
130.05970105652781
 21
123.79163338944259
 31
0.0
  0
LINE
  5
CE
  8
0
 62
     0
 10
139.07852721110021
 20
114.0657004536838
 30
0.0
 11
130.05970105652781
 21
123.0845266082561
 31
0.0
  0
LINE
  5
CF
  8
0
 62
     0
 10
138.3714204299136
 20
114.0657004536838
 30
0.0
 11
130.05970105652781
 21
122.3774198270695
 31
0.0
  0
LINE
  5
D0
  8
0
 62
     0
 10
137.6643136487271
 20
114.0657004536838
 30
0.0
 11
130.05970105652781
 21
121.67031304588301
 31
0.0
  0
LINE
  5
D1
  8
0
 62
     0
 10
136.95720686754049
 20
114.0657004536838
 30
0.0
 11
130.05970105652781
 21
120.9632062646964
 31
0.0
  0
LINE
  5
D2
  8
0
 62
     0
 10
136.250100086354
 20
114.0657004536838
 30
0.0
 11
130.05970105652781
 21
120.2560994835099
 31
0.0
  0
LINE
  5
D3
  8
0
 62
     0
 10
135.54299330516741
 20
114.0657004536838
 30
0.0
 11
130.05970105652781
 21
119.5489927023233
 31
0.0
  0
LINE
  5
D4
  8
0
 62
     0
 10
134.83588652398089
 20
114.0657004536838
 30
0.0
 11
130.05970105652781
 21
118.84188592113679
 31
0.0
  0
LINE
  5
D5
  8
0
 62
     0
 10
134.12877974279431
 20
114.0657004536838
 30
0.0
 11
130.05970105652781
 21
118.1347791399502
 31
0.0
  0
LINE
  5
D6
  8
0
 62
     0
 10
133.42167296160781
 20
114.0657004536838
 30
0.0
 11
130.05970105652781
 21
117.4276723587637
 31
0.0
  0
LINE
  5
D7
  8
0
 62
     0
 10
132.7145661804212
 20
114.0657004536838
 30
0.0
 11
130.05970105652781
 21
116.7205655775771
 31
0.0
  0
LINE
  5
D8
  8
0
 62
     0
 10
132.0074593992347
 20
114.0657004536838
 30
0.0
 11
130.05970105652781
 21
116.01345879639059
 31
0.0
  0
LINE
  5
D9
  8
0
 62
     0
 10
131.30035261804809
 20
114.0657004536838
 30
0.0
 11
130.05970105652781
 21
115.3063520152041
 31
0.0
  0
LINE
  5
DA
  8
0
 62
     0
 10
130.5932458368616
 20
114.0657004536838
 30
0.0
 11
130.05970105652781
 21
114.5992452340175
 31
0.0
  0
LINE
  5
DB
  8
0
 62
     0
 10
170.89833236449479
 20
114.0657004536838
 30
0.0
 11
159.39833236449479
 21
125.5657004536838
 31
0.0
  0
LINE
  5
DC
  8
0
 62
     0
 10
171.6054391456814
 20
114.0657004536838
 30
0.0
 11
160.1054391456814
 21
125.5657004536838
 31
0.0
  0
LINE
  5
DD
  8
0
 62
     0
 10
172.3125459268679
 20
114.0657004536838
 30
0.0
 11
160.8125459268679
 21
125.5657004536838
 31
0.0
  0
LINE
  5
DE
  8
0
 62
     0
 10
173.01965270805451
 20
114.0657004536838
 30
0.0
 11
161.51965270805451
 21
125.5657004536838
 31
0.0
  0
LINE
  5
DF
  8
0
 62
     0
 10
173.726759489241
 20
114.0657004536838
 30
0.0
 11
162.226759489241
 21
125.5657004536838
 31
0.0
  0
LINE
  5
E0
  8
0
 62
     0
 10
174.4338662704275
 20
114.0657004536838
 30
0.0
 11
162.93386627042759
 21
125.5657004536838
 31
0.0
  0
LINE
  5
E1
  8
0
 62
     0
 10
175.14097305161411
 20
114.0657004536838
 30
0.0
 11
163.64097305161411
 21
125.5657004536838
 31
0.0
  0
LINE
  5
E2
  8
0
 62
     0
 10
175.84807983280061
 20
114.0657004536838
 30
0.0
 11
164.34807983280061
 21
125.5657004536838
 31
0.0
  0
LINE
  5
E3
  8
0
 62
     0
 10
176.55518661398719
 20
114.0657004536838
 30
0.0
 11
165.05518661398719
 21
125.5657004536838
 31
0.0
  0
LINE
  5
E4
  8
0
 62
     0
 10
177.26229339517371
 20
114.0657004536838
 30
0.0
 11
165.76229339517371
 21
125.5657004536838
 31
0.0
  0
LINE
  5
E5
  8
0
 62
     0
 10
177.9694001763603
 20
114.0657004536838
 30
0.0
 11
166.4694001763603
 21
125.5657004536838
 31
0.0
  0
LINE
  5
E6
  8
0
 62
     0
 10
178.67650695754679
 20
114.0657004536838
 30
0.0
 11
167.17650695754691
 21
125.5657004536838
 31
0.0
  0
LINE
  5
E7
  8
0
 62
     0
 10
179.3836137387334
 20
114.0657004536838
 30
0.0
 11
167.8836137387334
 21
125.5657004536838
 31
0.0
  0
LINE
  5
E8
  8
0
 62
     0
 10
180.0907205199199
 20
114.0657004536838
 30
0.0
 11
168.5907205199199
 21
125.5657004536838
 31
0.0
  0
LINE
  5
E9
  8
0
 62
     0
 10
180.79782730110651
 20
114.0657004536838
 30
0.0
 11
169.29782730110651
 21
125.5657004536838
 31
0.0
  0
LINE
  5
EA
  8
0
 62
     0
 10
181.504934082293
 20
114.0657004536838
 30
0.0
 11
170.004934082293
 21
125.5657004536838
 31
0.0
  0
LINE
  5
EB
  8
0
 62
     0
 10
182.21204086347959
 20
114.0657004536838
 30
0.0
 11
170.71204086347959
 21
125.5657004536838
 31
0.0
  0
LINE
  5
EC
  8
0
 62
     0
 10
182.91914764466611
 20
114.0657004536838
 30
0.0
 11
171.41914764466611
 21
125.5657004536838
 31
0.0
  0
LINE
  5
ED
  8
0
 62
     0
 10
183.62625442585269
 20
114.0657004536838
 30
0.0
 11
172.12625442585269
 21
125.5657004536838
 31
0.0
  0
LINE
  5
EE
  8
0
 62
     0
 10
184.33336120703919
 20
114.0657004536838
 30
0.0
 11
172.83336120703919
 21
125.5657004536838
 31
0.0
  0
LINE
  5
EF
  8
0
 62
     0
 10
185.0404679882258
 20
114.0657004536838
 30
0.0
 11
173.5404679882258
 21
125.5657004536838
 31
0.0
  0
LINE
  5
F0
  8
0
 62
     0
 10
185.7475747694123
 20
114.0657004536838
 30
0.0
 11
174.2475747694123
 21
125.5657004536838
 31
0.0
  0
LINE
  5
F1
  8
0
 62
     0
 10
186.45468155059879
 20
114.0657004536838
 30
0.0
 11
174.95468155059891
 21
125.5657004536838
 31
0.0
  0
LINE
  5
F2
  8
0
 62
     0
 10
187.1617883317854
 20
114.0657004536838
 30
0.0
 11
175.6617883317854
 21
125.5657004536838
 31
0.0
  0
LINE
  5
F3
  8
0
 62
     0
 10
187.86889511297201
 20
114.0657004536838
 30
0.0
 11
176.36889511297201
 21
125.5657004536838
 31
0.0
  0
LINE
  5
F4
  8
0
 62
     0
 10
188.57600189415851
 20
114.0657004536838
 30
0.0
 11
177.07600189415851
 21
125.5657004536838
 31
0.0
  0
LINE
  5
F5
  8
0
 62
     0
 10
189.28310867534501
 20
114.0657004536838
 30
0.0
 11
177.78310867534509
 21
125.5657004536838
 31
0.0
  0
LINE
  5
F6
  8
0
 62
     0
 10
189.99021545653159
 20
114.0657004536838
 30
0.0
 11
178.49021545653159
 21
125.5657004536838
 31
0.0
  0
LINE
  5
F7
  8
0
 62
     0
 10
190.6973222377182
 20
114.0657004536838
 30
0.0
 11
179.1973222377182
 21
125.5657004536838
 31
0.0
  0
LINE
  5
F8
  8
0
 62
     0
 10
191.40442901890469
 20
114.0657004536838
 30
0.0
 11
179.90442901890469
 21
125.5657004536838
 31
0.0
  0
LINE
  5
F9
  8
0
 62
     0
 10
192.11153580009119
 20
114.0657004536838
 30
0.0
 11
180.61153580009119
 21
125.5657004536838
 31
0.0
  0
LINE
  5
FA
  8
0
 62
     0
 10
192.8186425812778
 20
114.0657004536838
 30
0.0
 11
181.3186425812778
 21
125.5657004536838
 31
0.0
  0
LINE
  5
FB
  8
0
 62
     0
 10
193.5257493624643
 20
114.0657004536838
 30
0.0
 11
182.0257493624643
 21
125.5657004536838
 31
0.0
  0
LINE
  5
FC
  8
0
 62
     0
 10
194.23285614365091
 20
114.0657004536838
 30
0.0
 11
182.73285614365091
 21
125.5657004536838
 31
0.0
  0
LINE
  5
FD
  8
0
 62
     0
 10
194.9399629248374
 20
114.0657004536838
 30
0.0
 11
183.4399629248374
 21
125.5657004536838
 31
0.0
  0
LINE
  5
FE
  8
0
 62
     0
 10
195.64706970602401
 20
114.0657004536838
 30
0.0
 11
184.14706970602401
 21
125.5657004536838
 31
0.0
  0
LINE
  5
FF
  8
0
 62
     0
 10
196.35417648721051
 20
114.0657004536838
 30
0.0
 11
184.85417648721051
 21
125.5657004536838
 31
0.0
  0
LINE
  5
100
  8
0
 62
     0
 10
197.06128326839709
 20
114.0657004536838
 30
0.0
 11
185.56128326839709
 21
125.5657004536838
 31
0.0
  0
LINE
  5
101
  8
0
 62
     0
 10
197.76839004958359
 20
114.0657004536838
 30
0.0
 11
186.26839004958359
 21
125.5657004536838
 31
0.0
  0
LINE
  5
102
  8
0
 62
     0
 10
198.4754968307702
 20
114.0657004536838
 30
0.0
 11
186.9754968307702
 21
125.5657004536838
 31
0.0
  0
LINE
  5
103
  8
0
 62
     0
 10
199.18260361195669
 20
114.0657004536838
 30
0.0
 11
187.68260361195669
 21
125.5657004536838
 31
0.0
  0
LINE
  5
104
  8
0
 62
     0
 10
199.88971039314319
 20
114.0657004536838
 30
0.0
 11
188.3897103931433
 21
125.5657004536838
 31
0.0
  0
LINE
  5
105
  8
0
 62
     0
 10
200.0597010565279
 20
114.6028165714857
 30
0.0
 11
189.0968171743298
 21
125.5657004536838
 31
0.0
  0
LINE
  5
106
  8
0
 62
     0
 10
200.0597010565279
 20
115.3099233526722
 30
0.0
 11
189.80392395551641
 21
125.5657004536838
 31
0.0
  0
LINE
  5
107
  8
0
 62
     0
 10
200.0597010565279
 20
116.0170301338588
 30
0.0
 11
190.51103073670291
 21
125.5657004536838
 31
0.0
  0
LINE
  5
108
  8
0
 62
     0
 10
200.0597010565279
 20
116.72413691504531
 30
0.0
 11
191.21813751788949
 21
125.5657004536838
 31
0.0
  0
LINE
  5
109
  8
0
 62
     0
 10
200.0597010565279
 20
117.4312436962319
 30
0.0
 11
191.92524429907601
 21
125.5657004536838
 31
0.0
  0
LINE
  5
10A
  8
0
 62
     0
 10
200.0597010565279
 20
118.1383504774184
 30
0.0
 11
192.63235108026251
 21
125.5657004536838
 31
0.0
  0
LINE
  5
10B
  8
0
 62
     0
 10
200.0597010565279
 20
118.84545725860499
 30
0.0
 11
193.33945786144909
 21
125.5657004536838
 31
0.0
  0
LINE
  5
10C
  8
0
 62
     0
 10
200.0597010565279
 20
119.55256403979151
 30
0.0
 11
194.0465646426357
 21
125.5657004536838
 31
0.0
  0
LINE
  5
10D
  8
0
 62
     0
 10
200.0597010565279
 20
120.2596708209781
 30
0.0
 11
194.7536714238222
 21
125.5657004536838
 31
0.0
  0
LINE
  5
10E
  8
0
 62
     0
 10
200.0597010565279
 20
120.9667776021646
 30
0.0
 11
195.46077820500881
 21
125.5657004536838
 31
0.0
  0
LINE
  5
10F
  8
0
 62
     0
 10
200.0597010565279
 20
121.67388438335119
 30
0.0
 11
196.1678849861953
 21
125.5657004536838
 31
0.0
  0
LINE
  5
110
  8
0
 62
     0
 10
200.0597010565279
 20
122.3809911645377
 30
0.0
 11
196.8749917673818
 21
125.5657004536838
 31
0.0
  0
LINE
  5
111
  8
0
 62
     0
 10
200.0597010565279
 20
123.0880979457243
 30
0.0
 11
197.58209854856841
 21
125.5657004536838
 31
0.0
  0
LINE
  5
112
  8
0
 62
     0
 10
200.0597010565279
 20
123.7952047269108
 30
0.0
 11
198.28920532975491
 21
125.5657004536838
 31
0.0
  0
LINE
  5
113
  8
0
 62
     0
 10
200.0597010565279
 20
124.50231150809741
 30
0.0
 11
198.99631211094149
 21
125.5657004536838
 31
0.0
  0
LINE
  5
114
  8
0
 62
     0
 10
200.0597010565279
 20
125.2094182892839
 30
0.0
 11
199.70341889212801
 21
125.5657004536838
 31
0.0
  0
ENDBLK
  5
115
  8
0
  0
ENDSEC
  0
SECTION
  2
ENTITIES
  0
LINE
  5
124
  8
0
 10
155.83272736224259
 20
118.1106403303834
 30
0.0
 11
155.83272736224259
 21
133.61064033038329
 31
0.0
  0
LINE
  5
125
  8
0
 10
173.33272736224259
 20
151.11064033038329
 30
0.0
 11
175.83272736224251
 21
151.11064033038329
 31
0.0
  0
LINE
  5
126
  8
0
 10
265.83272736224262
 20
133.61064033038329
 30
0.0
 11
265.83272736224262
 21
118.1106403303834
 31
0.0
  0
LINE
  5
127
  8
0
 10
255.83272736224259
 20
133.61064033038329
 30
0.0
 11
255.83272736224259
 21
118.1106403303834
 31
0.0
  0
LINE
  5
128
  8
0
 10
165.83272736224259
 20
118.1106403303834
 30
0.0
 11
165.83272736224259
 21
133.61064033038329
 31
0.0
  0
LINE
  5
129
  8
0
 10
173.33272736224259
 20
141.11064033038329
 30
0.0
 11
175.83272736224251
 21
141.11064033038329
 31
0.0
  0
ARC
  5
12A
  8
0
 10
248.33272736224259
 20
133.61064033038329
 30
0.0
 40
7.5
 50
0.0
 51
90.0
  0
ARC
  5
12B
  8
0
 10
173.33272736224259
 20
133.61064033038329
 30
0.0
 40
7.5
 50
90.0
 51
180.0
  0
ARC
  5
12C
  8
0
 10
248.33272736224259
 20
133.61064033038329
 30
0.0
 40
17.5
 50
0.0
 51
90.0
  0
ARC
  5
12D
  8
0
 10
173.33272736224259
 20
133.61064033038329
 30
0.0
 40
17.5
 50
90.0
 51
180.0
  0
ARC
  5
12E
  8
0
 10
265.83272736224251
 20
116.1106403303833
 30
0.0
 40
2.0
 50
0.0000000000004071
 51
90.0
  0
ARC
  5
12F
  8
0
 10
255.83272736224259
 20
116.1106403303833
 30
0.0
 40
2.0
 50
90.0
 51
179.9999999999996
  0
LINE
  5
130
  8
0
 10
267.83272736224251
 20
110.1106403303833
 30
0.0
 11
267.83272736224262
 21
116.1106403303833
 31
0.0
  0
LINE
  5
131
  8
0
 10
253.83272736224259
 20
110.1106403303833
 30
0.0
 11
253.83272736224259
 21
116.1106403303833
 31
0.0
  0
LINE
  5
132
  8
0
 10
267.83272736224251
 20
110.1106403303833
 30
0.0
 11
253.83272736224259
 21
110.1106403303833
 31
0.0
  0
LINE
  5
133
  8
0
 10
255.83272736224259
 20
118.1106403303834
 30
0.0
 11
265.83272736224262
 21
118.1106403303834
 31
0.0
  0
LINE
  5
134
  8
0
 10
175.83272736224251
 20
151.86064033038329
 30
0.0
 11
175.83272736224251
 21
140.36064033038329
 31
0.0
  0
LINE
  5
135
  8
0
 10
245.83272736224259
 20
151.86064033038329
 30
0.0
 11
245.83272736224259
 21
140.36064033038329
 31
0.0
  0
LINE
  5
136
  8
0
 10
175.83272736224251
 20
151.86064033038329
 30
0.0
 11
245.83272736224259
 21
151.86064033038329
 31
0.0
  0
LINE
  5
137
  8
0
 10
175.83272736224251
 20
140.36064033038329
 30
0.0
 11
245.83272736224259
 21
140.36064033038329
 31
0.0
  0
LINE
  5
138
  8
0
 10
245.83272736224259
 20
151.11064033038329
 30
0.0
 11
248.33272736224259
 21
151.11064033038329
 31
0.0
  0
LINE
  5
139
  8
0
 10
245.83272736224259
 20
141.11064033038329
 30
0.0
 11
248.33272736224259
 21
141.11064033038329
 31
0.0
  0
LINE
  5
13A
  8
0
 10
160.83272736224259
 20
193.0307330769684
 30
0.0
 11
175.83272736224251
 21
193.0307330769684
 31
0.0
  0
LINE
  5
13B
  8
0
 10
160.83272736224259
 20
203.03073307696829
 30
0.0
 11
175.83272736224251
 21
203.03073307696829
 31
0.0
  0
LINE
  5
13C
  8
1
 10
150.83272736224259
 20
198.03073307696829
 30
0.0
 11
270.83272736224262
 21
198.03073307696829
 31
0.0
  0
ARC
  5
13D
  8
0
 10
160.83272736224259
 20
198.03073307696829
 30
0.0
 40
5.0
 50
90.0
 51
270.0
  0
ARC
  5
13E
  8
2
 10
160.83272736224251
 20
198.03073307696829
 30
0.0
 40
5.0
 50
270.0
 51
90.0
  0
ARC
  5
13F
  8
0
 10
260.83272736224251
 20
198.03073307696829
 30
0.0
 40
5.0
 50
270.0
 51
90.0
  0
ARC
  5
140
  8
2
 10
260.83272736224262
 20
198.03073307696829
 30
0.0
 40
5.0
 50
90.0
 51
270.0
  0
LINE
  5
141
  8
1
 10
160.83272736224259
 20
208.03073307696829
 30
0.0
 11
160.83272736224259
 21
188.03073307696829
 31
0.0
  0
LINE
  5
142
  8
1
 10
260.83272736224251
 20
208.03073307696829
 30
0.0
 11
260.83272736224251
 21
188.03073307696829
 31
0.0
  0
ARC
  5
143
  8
0
 10
160.83272736224259
 20
198.03073307696829
 30
0.0
 40
7.0
 50
45.584691402806932
 51
314.41530859719308
  0
ARC
  5
144
  8
0
 10
260.83272736224251
 20
198.03073307696829
 30
0.0
 40
7.0
 50
225.5846914028069
 51
134.4153085971931
  0
LINE
  5
145
  8
0
 10
245.83272736224271
 20
192.2807330769684
 30
0.0
 11
245.83272736224271
 21
203.78073307696829
 31
0.0
  0
LINE
  5
146
  8
0
 10
175.83272736224251
 20
192.2807330769684
 30
0.0
 11
175.83272736224251
 21
203.78073307696829
 31
0.0
  0
LINE
  5
147
  8
0
 10
175.83272736224251
 20
203.78073307696829
 30
0.0
 11
245.83272736224271
 21
203.78073307696829
 31
0.0
  0
LINE
  5
148
  8
0
 10
175.83272736224251
 20
192.2807330769684
 30
0.0
 11
245.83272736224271
 21
192.2807330769684
 31
0.0
  0
LINE
  5
149
  8
0
 10
245.83272736224259
 20
203.03073307696829
 30
0.0
 11
260.83272736224251
 21
203.03073307696829
 31
0.0
  0
LINE
  5
14A
  8
0
 10
245.83272736224259
 20
193.0307330769684
 30
0.0
 11
260.83272736224251
 21
193.0307330769684
 31
0.0
  0
LINE
  5
14B
  8
0
 10
84.174891094586314
 20
146.11064033038329
 30
0.0
 11
84.174891094586314
 21
118.1106403303834
 31
0.0
  0
LINE
  5
14C
  8
0
 10
94.174891094586314
 20
146.11064033038329
 30
0.0
 11
94.174891094586314
 21
118.1106403303834
 31
0.0
  0
LINE
  5
14D
  8
1
 10
89.174891094586258
 20
156.11064033038329
 30
0.0
 11
89.174891094586258
 21
105.1106403303833
 31
0.0
  0
ARC
  5
14E
  8
0
 10
89.174891094586258
 20
146.11064033038329
 30
0.0
 40
5.0
 50
0.0
 51
180.0
  0
ARC
  5
14F
  8
2
 10
89.174891094586258
 20
146.11064033038329
 30
0.0
 40
5.0
 50
180.0
 51
0.0
  0
LINE
  5
150
  8
0
 10
84.174891094586258
 20
118.1106403303834
 30
0.0
 11
94.174891094586258
 21
118.1106403303834
 31
0.0
  0
LINE
  5
151
  8
0
 10
96.174891094586201
 20
110.1106403303833
 30
0.0
 11
82.174891094586243
 21
110.1106403303833
 31
0.0
  0
LINE
  5
152
  8
0
 10
82.174891094586201
 20
110.1106403303833
 30
0.0
 11
82.174891094586243
 21
116.1106403303833
 31
0.0
  0
LINE
  5
153
  8
0
 10
96.174891094586201
 20
110.1106403303833
 30
0.0
 11
96.174891094586258
 21
116.1106403303833
 31
0.0
  0
ARC
  5
154
  8
0
 10
84.174891094586258
 20
116.1106403303833
 30
0.0
 40
2.0
 50
90.0
 51
179.9999999999996
  0
ARC
  5
155
  8
0
 10
94.174891094586187
 20
116.1106403303833
 30
0.0
 40
2.0
 50
0.0000000000004071
 51
90.0
  0
LINE
  5
156
  8
1
 10
260.83272736224262
 20
133.61064033038329
 30
0.0
 11
260.83272736224262
 21
105.1106403303833
 31
0.0
  0
ARC
  5
157
  8
1
 10
248.33272736224259
 20
133.61064033038329
 30
0.0
 40
12.5
 50
0.0
 51
90.0
  0
LINE
  5
158
  8
1
 10
173.33272736224259
 20
146.11064033038329
 30
0.0
 11
248.33272736224259
 21
146.11064033038329
 31
0.0
  0
ARC
  5
159
  8
1
 10
173.33272736224259
 20
133.61064033038329
 30
0.0
 40
12.5
 50
90.0
 51
180.0
  0
LINE
  5
15A
  8
1
 10
160.83272736224259
 20
105.1106403303833
 30
0.0
 11
160.83272736224259
 21
133.61064033038329
 31
0.0
  0
INSERT
  5
15B
  8
3
  2
*X0
 10
45.773026305714687
 20
26.294939876699502
 30
0.0
  0
INSERT
  5
15C
  8
3
  2
*X0
 10
45.773026305714701
 20
78.215032623284529
 30
0.0
  0
LINE
  5
15D
  8
0
 10
165.83272736224251
 20
118.1106403303834
 30
0.0
 11
155.83272736224251
 21
118.1106403303834
 31
0.0
  0
LINE
  5
15E
  8
0
 10
153.83272736224259
 20
110.1106403303833
 30
0.0
 11
167.83272736224251
 21
110.1106403303833
 31
0.0
  0
LINE
  5
15F
  8
0
 10
167.83272736224259
 20
110.1106403303833
 30
0.0
 11
167.83272736224251
 21
116.1106403303833
 31
0.0
  0
LINE
  5
160
  8
0
 10
153.83272736224259
 20
110.1106403303833
 30
0.0
 11
153.83272736224251
 21
116.1106403303833
 31
0.0
  0
ARC
  5
161
  8
0
 10
165.83272736224251
 20
116.1106403303833
 30
0.0
 40
2.0
 50
0.0000000000004071
 51
90.0
  0
ARC
  5
162
  8
0
 10
155.83272736224259
 20
116.1106403303833
 30
0.0
 40
2.0
 50
90.0
 51
179.9999999999996
  0
LINE
  5
163
  8
2
 10
155.83272736224259
 20
118.1106403303833
 30
0.0
 11
155.83272736224259
 21
111.1106403303833
 31
0.0
  0
LINE
  5
164
  8
2
 10
165.83272736224251
 20
118.1106403303833
 30
0.0
 11
165.83272736224251
 21
111.1106403303833
 31
0.0
  0
LINE
  5
165
  8
2
 10
158.33272736224259
 20
110.1106403303833
 30
0.0
 11
158.33272736224259
 21
111.1106403303833
 31
0.0
  0
LINE
  5
166
  8
2
 10
163.33272736224259
 20
110.1106403303833
 30
0.0
 11
163.33272736224259
 21
111.1106403303833
 31
0.0
  0
LINE
  5
167
  8
2
 10
165.83272736224251
 20
111.1106403303833
 30
0.0
 11
155.83272736224251
 21
111.1106403303833
 31
0.0
  0
LINE
  5
168
  8
2
 10
158.76572736224239
 20
112.0106403303834
 30
0.0
 11
157.8657273622423
 21
111.1106403303833
 31
0.0
  0
LINE
  5
169
  8
2
 10
162.89972736224269
 20
112.0106403303832
 30
0.0
 11
158.76572736224239
 21
112.0106403303834
 31
0.0
  0
LINE
  5
16A
  8
2
 10
163.79972736224281
 20
111.1106403303833
 30
0.0
 11
162.89972736224269
 21
112.0106403303832
 31
0.0
  0
LINE
  5
16B
  8
2
 10
163.33272736224239
 20
121.1106403303833
 30
0.0
 11
162.8997273622426
 21
121.86061833006021
 31
0.0
  0
LINE
  5
16C
  8
2
 10
158.33272736224251
 20
121.1106403303833
 30
0.0
 11
158.76572736224239
 21
121.86061833006021
 31
0.0
  0
LINE
  5
16D
  8
2
 10
162.89972736224269
 20
124.1106403303833
 30
0.0
 11
158.76572736224239
 21
124.1106403303833
 31
0.0
  0
LINE
  5
16E
  8
2
 10
163.33272736224251
 20
121.1106403303833
 30
0.0
 11
158.33272736224251
 21
121.1106403303833
 31
0.0
  0
LINE
  5
16F
  8
2
 10
158.76572736224239
 20
124.1106403303833
 30
0.0
 11
160.83272736224251
 21
125.3526192299134
 31
0.0
  0
LINE
  5
170
  8
2
 10
162.89972736224269
 20
124.1106403303834
 30
0.0
 11
160.83272736224251
 21
125.3526192299134
 31
0.0
  0
LINE
  5
171
  8
2
 10
158.33272736224251
 20
111.5776403303835
 30
0.0
 11
158.33272736224251
 21
121.1106403303833
 31
0.0
  0
LINE
  5
172
  8
2
 10
158.76572736224239
 20
112.0106403303832
 30
0.0
 11
158.76572736224239
 21
124.1106403303833
 31
0.0
  0
LINE
  5
173
  8
2
 10
162.89972736224269
 20
112.0106403303832
 30
0.0
 11
162.89972736224269
 21
124.1106403303833
 31
0.0
  0
LINE
  5
174
  8
2
 10
163.33272736224251
 20
111.5776403303835
 30
0.0
 11
163.33272736224251
 21
121.1106403303833
 31
0.0
  0
LINE
  5
175
  8
2
 10
255.83272736224259
 20
118.1106403303833
 30
0.0
 11
255.83272736224259
 21
111.1106403303833
 31
0.0
  0
LINE
  5
176
  8
2
 10
265.83272736224251
 20
118.1106403303833
 30
0.0
 11
265.83272736224251
 21
111.1106403303833
 31
0.0
  0
LINE
  5
177
  8
2
 10
258.33272736224262
 20
110.1106403303833
 30
0.0
 11
258.33272736224262
 21
111.1106403303833
 31
0.0
  0
LINE
  5
178
  8
2
 10
263.33272736224262
 20
110.1106403303833
 30
0.0
 11
263.33272736224262
 21
111.1106403303833
 31
0.0
  0
LINE
  5
179
  8
2
 10
265.83272736224251
 20
111.1106403303833
 30
0.0
 11
255.83272736224259
 21
111.1106403303833
 31
0.0
  0
LINE
  5
17A
  8
2
 10
258.76572736224239
 20
112.0106403303834
 30
0.0
 11
257.8657273622423
 21
111.1106403303833
 31
0.0
  0
LINE
  5
17B
  8
2
 10
262.89972736224269
 20
112.0106403303832
 30
0.0
 11
258.76572736224239
 21
112.0106403303834
 31
0.0
  0
LINE
  5
17C
  8
2
 10
263.79972736224278
 20
111.1106403303833
 30
0.0
 11
262.89972736224269
 21
112.0106403303832
 31
0.0
  0
LINE
  5
17D
  8
2
 10
263.33272736224239
 20
121.1106403303833
 30
0.0
 11
262.89972736224257
 21
121.86061833006021
 31
0.0
  0
LINE
  5
17E
  8
2
 10
258.33272736224251
 20
121.1106403303833
 30
0.0
 11
258.76572736224239
 21
121.86061833006021
 31
0.0
  0
LINE
  5
17F
  8
2
 10
262.89972736224269
 20
124.1106403303833
 30
0.0
 11
258.76572736224239
 21
124.1106403303833
 31
0.0
  0
LINE
  5
180
  8
2
 10
263.33272736224251
 20
121.1106403303833
 30
0.0
 11
258.33272736224251
 21
121.1106403303833
 31
0.0
  0
LINE
  5
181
  8
2
 10
258.76572736224239
 20
124.1106403303833
 30
0.0
 11
260.83272736224251
 21
125.3526192299134
 31
0.0
  0
LINE
  5
182
  8
2
 10
262.89972736224269
 20
124.1106403303834
 30
0.0
 11
260.83272736224251
 21
125.3526192299134
 31
0.0
  0
LINE
  5
183
  8
2
 10
258.33272736224251
 20
111.5776403303835
 30
0.0
 11
258.33272736224251
 21
121.1106403303833
 31
0.0
  0
LINE
  5
184
  8
2
 10
258.76572736224239
 20
112.0106403303832
 30
0.0
 11
258.76572736224239
 21
124.1106403303833
 31
0.0
  0
LINE
  5
185
  8
2
 10
262.89972736224269
 20
112.0106403303832
 30
0.0
 11
262.89972736224269
 21
124.1106403303833
 31
0.0
  0
LINE
  5
186
  8
2
 10
263.33272736224251
 20
111.5776403303835
 30
0.0
 11
263.33272736224251
 21
121.1106403303833
 31
0.0
  0
TEXT
  5
2A1
  8
0
 62
     3
 10
0.0
 20
0.0
 30
0.0
 40
10.0
  1
RD6-100SP
  7
STANDARD1
  0
ENDSEC
  0
EOF
