  0
SECTION
  2
HEADER
  9
$ACADVER
  1
AC1009
  9
$INSBASE
 10
0.0
 20
0.0
 30
0.0
  9
$EXTMIN
 10
0.0
 20
-2.960436562073669
 30
0.0
  9
$EXTMAX
 10
281.2774527760771
 20
194.05527070743869
 30
0.0
  9
$LIMMIN
 10
0.0
 20
0.0
  9
$LIMMAX
 10
375.0
 20
270.0
  9
$ORTHOMODE
 70
     1
  9
$REGENMODE
 70
     1
  9
$FILLMODE
 70
     1
  9
$QTEXTMODE
 70
     0
  9
$MIRRTEXT
 70
     0
  9
$DRAGMODE
 70
     2
  9
$LTSCALE
 40
5.0
  9
$OSMODE
 70
    55
  9
$ATTMODE
 70
     1
  9
$TEXTSIZE
 40
4.0
  9
$TRACEWID
 40
0.05
  9
$TEXTSTYLE
  7
STANDARD
  9
$CLAYER
  8
4
  9
$CELTYPE
  6
BYLAYER
  9
$CECOLOR
 62
   256
  9
$DIMSCALE
 40
1.0
  9
$DIMASZ
 40
3.0
  9
$DIMEXO
 40
2.0
  9
$DIMDLI
 40
0.38
  9
$DIMRND
 40
0.0
  9
$DIMDLE
 40
0.0
  9
$DIMEXE
 40
2.0
  9
$DIMTP
 40
0.0
  9
$DIMTM
 40
0.0
  9
$DIMTXT
 40
3.2000000000000002
  9
$DIMCEN
 40
0.0
  9
$DIMTSZ
 40
0.0
  9
$DIMTOL
 70
     0
  9
$DIMLIM
 70
     0
  9
$DIMTIH
 70
     0
  9
$DIMTOH
 70
     0
  9
$DIMSE1
 70
     0
  9
$DIMSE2
 70
     0
  9
$DIMTAD
 70
     1
  9
$DIMZIN
 70
     0
  9
$DIMBLK
  1

  9
$DIMASO
 70
     1
  9
$DIMSHO
 70
     0
  9
$DIMPOST
  1

  9
$DIMAPOST
  1

  9
$DIMALT
 70
     0
  9
$DIMALTD
 70
     2
  9
$DIMALTF
 40
25.399999999999999
  9
$DIMLFAC
 40
1.0
  9
$DIMTOFL
 70
     0
  9
$DIMTVP
 40
1.6000000000000001
  9
$DIMTIX
 70
     1
  9
$DIMSOXD
 70
     0
  9
$DIMSAH
 70
     0
  9
$DIMBLK1
  1

  9
$DIMBLK2
  1

  9
$DIMSTYLE
  2
STANDARD
  9
$DIMCLRD
 70
     4
  9
$DIMCLRE
 70
     4
  9
$DIMCLRT
 70
     4
  9
$DIMTFAC
 40
1.0
  9
$DIMGAP
 40
0.09
  9
$LUNITS
 70
     2
  9
$LUPREC
 70
     1
  9
$SKETCHINC
 40
0.1
  9
$FILLETRAD
 40
0.0
  9
$AUNITS
 70
     0
  9
$AUPREC
 70
     0
  9
$MENU
  1
E:\r13\win\SUPPORT\ACAD
  9
$ELEVATION
 40
0.0
  9
$PELEVATION
 40
0.0
  9
$THICKNESS
 40
0.0
  9
$LIMCHECK
 70
     0
  9
$BLIPMODE
 70
     0
  9
$CHAMFERA
 40
3.0
  9
$CHAMFERB
 40
3.0
  9
$SKPOLY
 70
     0
  9
$TDCREATE
 40
2449930.6781134261
  9
$TDUPDATE
 40
2456598.5920946882
  9
$TDINDWG
 40
0.0008578935
  9
$TDUSRTIMER
 40
0.0008578935
  9
$USRTIMER
 70
     1
  9
$ANGBASE
 50
0.0
  9
$ANGDIR
 70
     0
  9
$PDMODE
 70
     0
  9
$PDSIZE
 40
0.0
  9
$PLINEWID
 40
0.0
  9
$COORDS
 70
     1
  9
$SPLFRAME
 70
     0
  9
$SPLINETYPE
 70
     6
  9
$SPLINESEGS
 70
     8
  9
$ATTDIA
 70
     0
  9
$ATTREQ
 70
     1
  9
$HANDLING
 70
     1
  9
$HANDSEED
  5
372
  9
$SURFTAB1
 70
     6
  9
$SURFTAB2
 70
     6
  9
$SURFTYPE
 70
     6
  9
$SURFU
 70
     6
  9
$SURFV
 70
     6
  9
$UCSNAME
  2

  9
$UCSORG
 10
0.0
 20
0.0
 30
0.0
  9
$UCSXDIR
 10
1.0
 20
0.0
 30
0.0
  9
$UCSYDIR
 10
0.0
 20
1.0
 30
0.0
  9
$PUCSNAME
  2

  9
$PUCSORG
 10
0.0
 20
0.0
 30
0.0
  9
$PUCSXDIR
 10
1.0
 20
0.0
 30
0.0
  9
$PUCSYDIR
 10
0.0
 20
1.0
 30
0.0
  9
$USERI1
 70
     0
  9
$USERI2
 70
     1
  9
$USERI3
 70
     1
  9
$USERI4
 70
     0
  9
$USERI5
 70
     0
  9
$USERR1
 40
0.0
  9
$USERR2
 40
0.0
  9
$USERR3
 40
0.0
  9
$USERR4
 40
0.0
  9
$USERR5
 40
0.0
  9
$WORLDVIEW
 70
     1
  9
$SHADEDGE
 70
     3
  9
$SHADEDIF
 70
    70
  9
$TILEMODE
 70
     1
  9
$MAXACTVP
 70
    16
  9
$PLIMCHECK
 70
     0
  9
$PEXTMIN
 10
1.0000000000000000E+020
 20
1.0000000000000000E+020
 30
1.0000000000000000E+020
  9
$PEXTMAX
 10
-1.0000000000000000E+020
 20
-1.0000000000000000E+020
 30
-1.0000000000000000E+020
  9
$PLIMMIN
 10
0.0
 20
0.0
  9
$PLIMMAX
 10
12.0
 20
9.0
  9
$UNITMODE
 70
     0
  9
$VISRETAIN
 70
     0
  9
$PLINEGEN
 70
     0
  9
$PSLTSCALE
 70
     0
  0
ENDSEC
  0
SECTION
  2
TABLES
  0
TABLE
  2
VPORT
 70
     1
  0
VPORT
  2
*ACTIVE
 70
     0
 10
0.0
 20
0.0
 11
1.0
 21
1.0
 12
187.49427839065231
 22
194.785247995265
 13
0.0
 23
0.0
 14
10.0
 24
10.0
 15
10.0
 25
10.0
 16
0.0
 26
0.0
 36
1.0
 17
0.0
 27
0.0
 37
0.0
 40
399.3463374158577
 41
1.7807262569832401
 42
50.0
 43
0.0
 44
0.0
 50
0.0
 51
0.0
 71
     0
 72
   500
 73
     1
 74
     0
 75
     0
 76
     0
 77
     0
 78
     2
  0
ENDTAB
  0
TABLE
  2
LTYPE
 70
     4
  0
LTYPE
  2
CONTINUOUS
 70
     0
  3
Solid Line
 72
    65
 73
     0
 40
0.0
  0
LTYPE
  2
CENTER
 70
     0
  3
____ _ ____ _ ____ _ ____ _ ____ _ ____ _ ____
 72
    65
 73
     4
 40
2.0
 49
1.25
 49
-0.25
 49
0.25
 49
-0.25
  0
LTYPE
  2
HIDDEN
 70
     0
  3
_ _ _ _ _ _ _ _ _ _ _ _ _ _ _ _ _ _ _ _ _ _ _
 72
    65
 73
     2
 40
0.375
 49
0.25
 49
-0.125
  0
LTYPE
  2
PHANTOM2
 70
     0
  3
___ _ _ ___ _ _ ___ _ _ ___ _ _
 72
    65
 73
     6
 40
1.25
 49
0.625
 49
-0.125
 49
0.125
 49
-0.125
 49
0.125
 49
-0.125
  0
ENDTAB
  0
TABLE
  2
LAYER
 70
     5
  0
LAYER
  2
0
 70
     0
 62
     7
  6
CONTINUOUS
  0
LAYER
  2
1
 70
     0
 62
     1
  6
CENTER
  0
LAYER
  2
3
 70
     0
 62
     3
  6
CONTINUOUS
  0
LAYER
  2
4
 70
     0
 62
     4
  6
CONTINUOUS
  0
LAYER
  2
2
 70
     0
 62
     2
  6
HIDDEN
  0
ENDTAB
  0
TABLE
  2
STYLE
 70
     2
  0
STYLE
  2
STANDARD
 70
     0
 40
0.0
 41
1.0
 50
0.0
 71
     0
 42
4.0
  3
SIMPLEX
  4
BIGFONT
  0
STYLE
  2
STANDARD1
 70
     0
 40
0.0
 41
1.0
 50
0.0
 71
     0
 42
3.0
  3
txt
  4

  0
ENDTAB
  0
TABLE
  2
VIEW
 70
     1
  0
VIEW
  2
ALL
 70
     0
 40
270.0
 10
220.78595317725751
 20
135.0
 41
441.57190635451502
 11
0.0
 21
0.0
 31
1.0
 12
0.0
 22
0.0
 32
0.0
 42
50.0
 43
0.0
 44
0.0
 50
0.0
 71
     0
  0
ENDTAB
  0
TABLE
  2
UCS
 70
     0
  0
ENDTAB
  0
TABLE
  2
APPID
 70
     3
  0
APPID
  2
ACAD
 70
     0
  0
APPID
  2
ACAD_MLEADERVER
 70
     0
  0
APPID
  2
ACAD_NAV_VCDISPLAY
 70
     0
  0
ENDTAB
  0
TABLE
  2
DIMSTYLE
 70
     1
  0
DIMSTYLE
  2
STANDARD
 70
     0
  3

  4

  5

  6

  7

 40
1.0
 41
0.18
 42
0.0625
 43
0.38
 44
0.18
 45
0.0
 46
0.0
 47
0.0
 48
0.0
140
0.18
141
0.09
142
0.0
143
25.399999999999999
144
1.0
145
0.0
146
1.0
147
0.09
 71
     0
 72
     0
 73
     1
 74
     1
 75
     0
 76
     0
 77
     0
 78
     0
170
     0
171
     2
172
     0
173
     0
174
     0
175
     0
176
     0
177
     0
178
     0
  0
ENDTAB
  0
ENDSEC
  0
SECTION
  2
BLOCKS
  0
BLOCK
  8
0
  2
$MODEL_SPACE
 70
     0
 10
0.0
 20
0.0
 30
0.0
  3
$MODEL_SPACE
  1

  0
ENDBLK
  5
1F6
  8
0
  0
BLOCK
 67
     1
  8
0
  2
$PAPER_SPACE
 70
     0
 10
0.0
 20
0.0
 30
0.0
  3
$PAPER_SPACE
  1

  0
ENDBLK
  5
1F4
 67
     1
  8
0
  0
BLOCK
  8
0
  2
*X0
 70
     1
 10
0.0
 20
0.0
 30
0.0
  3
*X0
  1

  0
LINE
  5
2F
  8
0
 62
     0
 10
168.75962119029569
 20
110.77686513299879
 30
0.0
 11
180.25962119029569
 21
122.27686513299879
 31
0.0
  0
LINE
  5
30
  8
0
 62
     0
 10
168.05251440910911
 20
110.77686513299879
 30
0.0
 11
179.55251440910911
 21
122.27686513299879
 31
0.0
  0
LINE
  5
31
  8
0
 62
     0
 10
167.34540762792261
 20
110.77686513299879
 30
0.0
 11
178.84540762792261
 21
122.27686513299879
 31
0.0
  0
LINE
  5
32
  8
0
 62
     0
 10
166.638300846736
 20
110.77686513299879
 30
0.0
 11
178.138300846736
 21
122.27686513299879
 31
0.0
  0
LINE
  5
33
  8
0
 62
     0
 10
165.93119406554951
 20
110.77686513299879
 30
0.0
 11
177.43119406554951
 21
122.27686513299879
 31
0.0
  0
LINE
  5
34
  8
0
 62
     0
 10
165.22408728436289
 20
110.77686513299879
 30
0.0
 11
176.72408728436289
 21
122.27686513299879
 31
0.0
  0
LINE
  5
35
  8
0
 62
     0
 10
164.5169805031764
 20
110.77686513299879
 30
0.0
 11
176.0169805031764
 21
122.27686513299879
 31
0.0
  0
LINE
  5
36
  8
0
 62
     0
 10
163.80987372198979
 20
110.77686513299879
 30
0.0
 11
175.30987372198979
 21
122.27686513299879
 31
0.0
  0
LINE
  5
37
  8
0
 62
     0
 10
163.10276694080329
 20
110.77686513299879
 30
0.0
 11
174.60276694080329
 21
122.27686513299879
 31
0.0
  0
LINE
  5
38
  8
0
 62
     0
 10
162.39566015961671
 20
110.77686513299879
 30
0.0
 11
173.89566015961671
 21
122.27686513299879
 31
0.0
  0
LINE
  5
39
  8
0
 62
     0
 10
161.68855337843021
 20
110.77686513299879
 30
0.0
 11
173.18855337843021
 21
122.27686513299879
 31
0.0
  0
LINE
  5
3A
  8
0
 62
     0
 10
160.9814465972436
 20
110.77686513299879
 30
0.0
 11
172.4814465972436
 21
122.27686513299879
 31
0.0
  0
LINE
  5
3B
  8
0
 62
     0
 10
160.27433981605711
 20
110.77686513299879
 30
0.0
 11
171.77433981605711
 21
122.27686513299879
 31
0.0
  0
LINE
  5
3C
  8
0
 62
     0
 10
159.56723303487061
 20
110.77686513299879
 30
0.0
 11
171.06723303487061
 21
122.27686513299879
 31
0.0
  0
LINE
  5
3D
  8
0
 62
     0
 10
158.860126253684
 20
110.77686513299879
 30
0.0
 11
170.360126253684
 21
122.27686513299879
 31
0.0
  0
LINE
  5
3E
  8
0
 62
     0
 10
158.15301947249739
 20
110.77686513299879
 30
0.0
 11
169.6530194724975
 21
122.27686513299879
 31
0.0
  0
LINE
  5
3F
  8
0
 62
     0
 10
157.44591269131089
 20
110.77686513299879
 30
0.0
 11
168.94591269131089
 21
122.27686513299879
 31
0.0
  0
LINE
  5
40
  8
0
 62
     0
 10
156.7388059101244
 20
110.77686513299879
 30
0.0
 11
168.23880591012431
 21
122.27686513299879
 31
0.0
  0
LINE
  5
41
  8
0
 62
     0
 10
156.03169912893779
 20
110.77686513299879
 30
0.0
 11
167.53169912893779
 21
122.27686513299879
 31
0.0
  0
LINE
  5
42
  8
0
 62
     0
 10
155.32459234775129
 20
110.77686513299879
 30
0.0
 11
166.82459234775129
 21
122.27686513299879
 31
0.0
  0
LINE
  5
43
  8
0
 62
     0
 10
154.61748556656471
 20
110.77686513299879
 30
0.0
 11
166.11748556656471
 21
122.27686513299879
 31
0.0
  0
LINE
  5
44
  8
0
 62
     0
 10
153.91037878537821
 20
110.77686513299879
 30
0.0
 11
165.41037878537821
 21
122.27686513299879
 31
0.0
  0
LINE
  5
45
  8
0
 62
     0
 10
153.2032720041916
 20
110.77686513299879
 30
0.0
 11
164.7032720041916
 21
122.27686513299879
 31
0.0
  0
LINE
  5
46
  8
0
 62
     0
 10
152.49616522300511
 20
110.77686513299879
 30
0.0
 11
163.99616522300511
 21
122.27686513299879
 31
0.0
  0
LINE
  5
47
  8
0
 62
     0
 10
151.7890584418185
 20
110.77686513299879
 30
0.0
 11
163.2890584418185
 21
122.27686513299879
 31
0.0
  0
LINE
  5
48
  8
0
 62
     0
 10
151.081951660632
 20
110.77686513299879
 30
0.0
 11
162.581951660632
 21
122.27686513299879
 31
0.0
  0
LINE
  5
49
  8
0
 62
     0
 10
150.37484487944539
 20
110.77686513299879
 30
0.0
 11
161.87484487944539
 21
122.27686513299879
 31
0.0
  0
LINE
  5
4A
  8
0
 62
     0
 10
149.66773809825889
 20
110.77686513299879
 30
0.0
 11
161.16773809825889
 21
122.27686513299879
 31
0.0
  0
LINE
  5
4B
  8
0
 62
     0
 10
148.9606313170724
 20
110.77686513299879
 30
0.0
 11
160.46063131707231
 21
122.27686513299879
 31
0.0
  0
LINE
  5
4C
  8
0
 62
     0
 10
148.25352453588579
 20
110.77686513299879
 30
0.0
 11
159.75352453588579
 21
122.27686513299879
 31
0.0
  0
LINE
  5
4D
  8
0
 62
     0
 10
147.54641775469921
 20
110.77686513299879
 30
0.0
 11
159.04641775469921
 21
122.27686513299879
 31
0.0
  0
LINE
  5
4E
  8
0
 62
     0
 10
146.83931097351271
 20
110.77686513299879
 30
0.0
 11
158.33931097351271
 21
122.27686513299879
 31
0.0
  0
LINE
  5
4F
  8
0
 62
     0
 10
146.13220419232621
 20
110.77686513299879
 30
0.0
 11
157.63220419232621
 21
122.27686513299879
 31
0.0
  0
LINE
  5
50
  8
0
 62
     0
 10
145.4250974111396
 20
110.77686513299879
 30
0.0
 11
156.9250974111396
 21
122.27686513299879
 31
0.0
  0
LINE
  5
51
  8
0
 62
     0
 10
144.71799062995299
 20
110.77686513299879
 30
0.0
 11
156.21799062995299
 21
122.27686513299879
 31
0.0
  0
LINE
  5
52
  8
0
 62
     0
 10
144.0108838487665
 20
110.77686513299879
 30
0.0
 11
155.5108838487665
 21
122.27686513299879
 31
0.0
  0
LINE
  5
53
  8
0
 62
     0
 10
143.30377706758
 20
110.77686513299879
 30
0.0
 11
154.80377706757989
 21
122.27686513299879
 31
0.0
  0
LINE
  5
54
  8
0
 62
     0
 10
142.59667028639339
 20
110.77686513299879
 30
0.0
 11
154.09667028639339
 21
122.27686513299879
 31
0.0
  0
LINE
  5
55
  8
0
 62
     0
 10
141.88956350520689
 20
110.77686513299879
 30
0.0
 11
153.38956350520689
 21
122.27686513299879
 31
0.0
  0
LINE
  5
56
  8
0
 62
     0
 10
141.18245672402031
 20
110.77686513299879
 30
0.0
 11
152.68245672402031
 21
122.27686513299879
 31
0.0
  0
LINE
  5
57
  8
0
 62
     0
 10
140.47534994283379
 20
110.77686513299879
 30
0.0
 11
151.97534994283379
 21
122.27686513299879
 31
0.0
  0
LINE
  5
58
  8
0
 62
     0
 10
139.76824316164721
 20
110.77686513299879
 30
0.0
 11
151.26824316164721
 21
122.27686513299879
 31
0.0
  0
LINE
  5
59
  8
0
 62
     0
 10
139.06113638046071
 20
110.77686513299879
 30
0.0
 11
150.56113638046071
 21
122.27686513299879
 31
0.0
  0
LINE
  5
5A
  8
0
 62
     0
 10
138.3540295992741
 20
110.77686513299879
 30
0.0
 11
149.8540295992741
 21
122.27686513299879
 31
0.0
  0
LINE
  5
5B
  8
0
 62
     0
 10
137.6469228180876
 20
110.77686513299879
 30
0.0
 11
149.1469228180876
 21
122.27686513299879
 31
0.0
  0
LINE
  5
5C
  8
0
 62
     0
 10
136.93981603690099
 20
110.77686513299879
 30
0.0
 11
148.43981603690099
 21
122.27686513299879
 31
0.0
  0
LINE
  5
5D
  8
0
 62
     0
 10
136.2327092557145
 20
110.77686513299879
 30
0.0
 11
147.7327092557145
 21
122.27686513299879
 31
0.0
  0
LINE
  5
5E
  8
0
 62
     0
 10
135.525602474528
 20
110.77686513299879
 30
0.0
 11
147.025602474528
 21
122.27686513299879
 31
0.0
  0
LINE
  5
5F
  8
0
 62
     0
 10
134.81849569334139
 20
110.77686513299879
 30
0.0
 11
146.31849569334139
 21
122.27686513299879
 31
0.0
  0
LINE
  5
60
  8
0
 62
     0
 10
134.11138891215481
 20
110.77686513299879
 30
0.0
 11
145.61138891215481
 21
122.27686513299879
 31
0.0
  0
LINE
  5
61
  8
0
 62
     0
 10
133.40428213096831
 20
110.77686513299879
 30
0.0
 11
144.90428213096831
 21
122.27686513299879
 31
0.0
  0
LINE
  5
62
  8
0
 62
     0
 10
132.69717534978179
 20
110.77686513299879
 30
0.0
 11
144.1971753497817
 21
122.27686513299879
 31
0.0
  0
LINE
  5
63
  8
0
 62
     0
 10
131.99006856859521
 20
110.77686513299879
 30
0.0
 11
143.49006856859521
 21
122.27686513299879
 31
0.0
  0
LINE
  5
64
  8
0
 62
     0
 10
131.28296178740871
 20
110.77686513299879
 30
0.0
 11
142.78296178740871
 21
122.27686513299879
 31
0.0
  0
LINE
  5
65
  8
0
 62
     0
 10
130.5758550062221
 20
110.77686513299879
 30
0.0
 11
142.0758550062221
 21
122.27686513299879
 31
0.0
  0
LINE
  5
66
  8
0
 62
     0
 10
130.05970105652781
 20
110.9678179644911
 30
0.0
 11
141.3687482250356
 21
122.27686513299879
 31
0.0
  0
LINE
  5
67
  8
0
 62
     0
 10
130.05970105652781
 20
111.6749247456776
 30
0.0
 11
140.66164144384899
 21
122.27686513299879
 31
0.0
  0
LINE
  5
68
  8
0
 62
     0
 10
130.05970105652781
 20
112.3820315268642
 30
0.0
 11
139.9545346626625
 21
122.27686513299879
 31
0.0
  0
LINE
  5
69
  8
0
 62
     0
 10
130.05970105652781
 20
113.08913830805071
 30
0.0
 11
139.24742788147589
 21
122.27686513299879
 31
0.0
  0
LINE
  5
6A
  8
0
 62
     0
 10
130.05970105652781
 20
113.7962450892372
 30
0.0
 11
138.54032110028939
 21
122.27686513299879
 31
0.0
  0
LINE
  5
6B
  8
0
 62
     0
 10
130.05970105652781
 20
114.5033518704238
 30
0.0
 11
137.83321431910281
 21
122.27686513299879
 31
0.0
  0
LINE
  5
6C
  8
0
 62
     0
 10
130.05970105652781
 20
115.2104586516103
 30
0.0
 11
137.1261075379162
 21
122.27686513299879
 31
0.0
  0
LINE
  5
6D
  8
0
 62
     0
 10
130.05970105652781
 20
115.91756543279691
 30
0.0
 11
136.4190007567297
 21
122.27686513299879
 31
0.0
  0
LINE
  5
6E
  8
0
 62
     0
 10
130.05970105652781
 20
116.6246722139834
 30
0.0
 11
135.71189397554321
 21
122.27686513299879
 31
0.0
  0
LINE
  5
6F
  8
0
 62
     0
 10
130.05970105652781
 20
117.33177899517
 30
0.0
 11
135.0047871943566
 21
122.27686513299879
 31
0.0
  0
LINE
  5
70
  8
0
 62
     0
 10
130.05970105652781
 20
118.03888577635649
 30
0.0
 11
134.2976804131701
 21
122.27686513299879
 31
0.0
  0
LINE
  5
71
  8
0
 62
     0
 10
130.05970105652781
 20
118.7459925575431
 30
0.0
 11
133.59057363198349
 21
122.27686513299879
 31
0.0
  0
LINE
  5
72
  8
0
 62
     0
 10
130.05970105652781
 20
119.4530993387296
 30
0.0
 11
132.88346685079699
 21
122.27686513299879
 31
0.0
  0
LINE
  5
73
  8
0
 62
     0
 10
130.05970105652781
 20
120.1602061199162
 30
0.0
 11
132.17636006961041
 21
122.27686513299879
 31
0.0
  0
LINE
  5
74
  8
0
 62
     0
 10
130.05970105652781
 20
120.86731290110269
 30
0.0
 11
131.46925328842389
 21
122.27686513299879
 31
0.0
  0
LINE
  5
75
  8
0
 62
     0
 10
130.05970105652781
 20
121.5744196822893
 30
0.0
 11
130.7621465072373
 21
122.27686513299879
 31
0.0
  0
LINE
  5
76
  8
0
 62
     0
 10
169.46672797148219
 20
110.77686513299879
 30
0.0
 11
180.96672797148219
 21
122.27686513299879
 31
0.0
  0
LINE
  5
77
  8
0
 62
     0
 10
170.1738347526688
 20
110.77686513299879
 30
0.0
 11
181.6738347526688
 21
122.27686513299879
 31
0.0
  0
LINE
  5
78
  8
0
 62
     0
 10
170.88094153385529
 20
110.77686513299879
 30
0.0
 11
182.38094153385529
 21
122.27686513299879
 31
0.0
  0
LINE
  5
79
  8
0
 62
     0
 10
171.5880483150419
 20
110.77686513299879
 30
0.0
 11
183.0880483150419
 21
122.27686513299879
 31
0.0
  0
LINE
  5
7A
  8
0
 62
     0
 10
172.2951550962284
 20
110.77686513299879
 30
0.0
 11
183.7951550962284
 21
122.27686513299879
 31
0.0
  0
LINE
  5
7B
  8
0
 62
     0
 10
173.00226187741501
 20
110.77686513299879
 30
0.0
 11
184.50226187741501
 21
122.27686513299879
 31
0.0
  0
LINE
  5
7C
  8
0
 62
     0
 10
173.70936865860151
 20
110.77686513299879
 30
0.0
 11
185.20936865860151
 21
122.27686513299879
 31
0.0
  0
LINE
  5
7D
  8
0
 62
     0
 10
174.41647543978809
 20
110.77686513299879
 30
0.0
 11
185.916475439788
 21
122.27686513299879
 31
0.0
  0
LINE
  5
7E
  8
0
 62
     0
 10
175.12358222097461
 20
110.77686513299879
 30
0.0
 11
186.62358222097461
 21
122.27686513299879
 31
0.0
  0
LINE
  5
7F
  8
0
 62
     0
 10
175.83068900216111
 20
110.77686513299879
 30
0.0
 11
187.33068900216111
 21
122.27686513299879
 31
0.0
  0
LINE
  5
80
  8
0
 62
     0
 10
176.53779578334769
 20
110.77686513299879
 30
0.0
 11
188.03779578334769
 21
122.27686513299879
 31
0.0
  0
LINE
  5
81
  8
0
 62
     0
 10
177.24490256453419
 20
110.77686513299879
 30
0.0
 11
188.74490256453419
 21
122.27686513299879
 31
0.0
  0
LINE
  5
82
  8
0
 62
     0
 10
177.9520093457208
 20
110.77686513299879
 30
0.0
 11
189.4520093457208
 21
122.27686513299879
 31
0.0
  0
LINE
  5
83
  8
0
 62
     0
 10
178.65911612690729
 20
110.77686513299879
 30
0.0
 11
190.15911612690729
 21
122.27686513299879
 31
0.0
  0
LINE
  5
84
  8
0
 62
     0
 10
179.3662229080939
 20
110.77686513299879
 30
0.0
 11
190.8662229080939
 21
122.27686513299879
 31
0.0
  0
LINE
  5
85
  8
0
 62
     0
 10
180.0733296892804
 20
110.77686513299879
 30
0.0
 11
191.5733296892804
 21
122.27686513299879
 31
0.0
  0
LINE
  5
86
  8
0
 62
     0
 10
180.78043647046701
 20
110.77686513299879
 30
0.0
 11
192.28043647046701
 21
122.27686513299879
 31
0.0
  0
LINE
  5
87
  8
0
 62
     0
 10
181.48754325165351
 20
110.77686513299879
 30
0.0
 11
192.98754325165351
 21
122.27686513299879
 31
0.0
  0
LINE
  5
88
  8
0
 62
     0
 10
182.19465003284009
 20
110.77686513299879
 30
0.0
 11
193.69465003284009
 21
122.27686513299879
 31
0.0
  0
LINE
  5
89
  8
0
 62
     0
 10
182.90175681402661
 20
110.77686513299879
 30
0.0
 11
194.40175681402661
 21
122.27686513299879
 31
0.0
  0
LINE
  5
8A
  8
0
 62
     0
 10
183.60886359521319
 20
110.77686513299879
 30
0.0
 11
195.10886359521319
 21
122.27686513299879
 31
0.0
  0
LINE
  5
8B
  8
0
 62
     0
 10
184.31597037639969
 20
110.77686513299879
 30
0.0
 11
195.81597037639969
 21
122.27686513299879
 31
0.0
  0
LINE
  5
8C
  8
0
 62
     0
 10
185.0230771575863
 20
110.77686513299879
 30
0.0
 11
196.52307715758619
 21
122.27686513299879
 31
0.0
  0
LINE
  5
8D
  8
0
 62
     0
 10
185.7301839387728
 20
110.77686513299879
 30
0.0
 11
197.2301839387728
 21
122.27686513299879
 31
0.0
  0
LINE
  5
8E
  8
0
 62
     0
 10
186.43729071995941
 20
110.77686513299879
 30
0.0
 11
197.93729071995941
 21
122.27686513299879
 31
0.0
  0
LINE
  5
8F
  8
0
 62
     0
 10
187.1443975011459
 20
110.77686513299879
 30
0.0
 11
198.6443975011459
 21
122.27686513299879
 31
0.0
  0
LINE
  5
90
  8
0
 62
     0
 10
187.85150428233251
 20
110.77686513299879
 30
0.0
 11
199.3515042823324
 21
122.27686513299879
 31
0.0
  0
LINE
  5
91
  8
0
 62
     0
 10
188.55861106351901
 20
110.77686513299879
 30
0.0
 11
200.05861106351901
 21
122.27686513299879
 31
0.0
  0
LINE
  5
92
  8
0
 62
     0
 10
189.26571784470551
 20
110.77686513299879
 30
0.0
 11
200.76571784470559
 21
122.27686513299879
 31
0.0
  0
LINE
  5
93
  8
0
 62
     0
 10
189.97282462589209
 20
110.77686513299879
 30
0.0
 11
201.47282462589209
 21
122.27686513299879
 31
0.0
  0
LINE
  5
94
  8
0
 62
     0
 10
190.67993140707861
 20
110.77686513299879
 30
0.0
 11
202.1799314070787
 21
122.27686513299879
 31
0.0
  0
LINE
  5
95
  8
0
 62
     0
 10
191.38703818826519
 20
110.77686513299879
 30
0.0
 11
202.88703818826519
 21
122.27686513299879
 31
0.0
  0
LINE
  5
96
  8
0
 62
     0
 10
192.0941449694518
 20
110.77686513299879
 30
0.0
 11
203.59414496945169
 21
122.27686513299879
 31
0.0
  0
LINE
  5
97
  8
0
 62
     0
 10
192.8012517506383
 20
110.77686513299879
 30
0.0
 11
204.3012517506383
 21
122.27686513299879
 31
0.0
  0
LINE
  5
98
  8
0
 62
     0
 10
193.5083585318248
 20
110.77686513299879
 30
0.0
 11
205.0083585318248
 21
122.27686513299879
 31
0.0
  0
LINE
  5
99
  8
0
 62
     0
 10
194.21546531301141
 20
110.77686513299879
 30
0.0
 11
205.71546531301141
 21
122.27686513299879
 31
0.0
  0
LINE
  5
9A
  8
0
 62
     0
 10
194.9225720941979
 20
110.77686513299879
 30
0.0
 11
206.4225720941979
 21
122.27686513299879
 31
0.0
  0
LINE
  5
9B
  8
0
 62
     0
 10
195.62967887538451
 20
110.77686513299879
 30
0.0
 11
207.12967887538451
 21
122.27686513299879
 31
0.0
  0
LINE
  5
9C
  8
0
 62
     0
 10
196.33678565657101
 20
110.77686513299879
 30
0.0
 11
207.83678565657101
 21
122.27686513299879
 31
0.0
  0
LINE
  5
9D
  8
0
 62
     0
 10
197.04389243775759
 20
110.77686513299879
 30
0.0
 11
208.54389243775759
 21
122.27686513299879
 31
0.0
  0
LINE
  5
9E
  8
0
 62
     0
 10
197.75099921894409
 20
110.77686513299879
 30
0.0
 11
209.25099921894409
 21
122.27686513299879
 31
0.0
  0
LINE
  5
9F
  8
0
 62
     0
 10
198.4581060001307
 20
110.77686513299879
 30
0.0
 11
209.9581060001307
 21
122.27686513299879
 31
0.0
  0
LINE
  5
A0
  8
0
 62
     0
 10
199.16521278131719
 20
110.77686513299879
 30
0.0
 11
210.66521278131719
 21
122.27686513299879
 31
0.0
  0
LINE
  5
A1
  8
0
 62
     0
 10
199.87231956250369
 20
110.77686513299879
 30
0.0
 11
211.3723195625038
 21
122.27686513299879
 31
0.0
  0
LINE
  5
A2
  8
0
 62
     0
 10
200.5794263436903
 20
110.77686513299879
 30
0.0
 11
212.0794263436903
 21
122.27686513299879
 31
0.0
  0
LINE
  5
A3
  8
0
 62
     0
 10
201.28653312487691
 20
110.77686513299879
 30
0.0
 11
212.78653312487691
 21
122.27686513299879
 31
0.0
  0
LINE
  5
A4
  8
0
 62
     0
 10
201.99363990606341
 20
110.77686513299879
 30
0.0
 11
213.49363990606341
 21
122.27686513299879
 31
0.0
  0
LINE
  5
A5
  8
0
 62
     0
 10
202.7007466872499
 20
110.77686513299879
 30
0.0
 11
214.20074668724999
 21
122.27686513299879
 31
0.0
  0
LINE
  5
A6
  8
0
 62
     0
 10
203.40785346843651
 20
110.77686513299879
 30
0.0
 11
214.90785346843651
 21
122.27686513299879
 31
0.0
  0
LINE
  5
A7
  8
0
 62
     0
 10
204.1149602496231
 20
110.77686513299879
 30
0.0
 11
215.6149602496231
 21
122.27686513299879
 31
0.0
  0
LINE
  5
A8
  8
0
 62
     0
 10
204.82206703080959
 20
110.77686513299879
 30
0.0
 11
216.32206703080959
 21
122.27686513299879
 31
0.0
  0
LINE
  5
A9
  8
0
 62
     0
 10
205.5291738119962
 20
110.77686513299879
 30
0.0
 11
217.02917381199609
 21
122.27686513299879
 31
0.0
  0
LINE
  5
AA
  8
0
 62
     0
 10
206.2362805931827
 20
110.77686513299879
 30
0.0
 11
217.7362805931827
 21
122.27686513299879
 31
0.0
  0
LINE
  5
AB
  8
0
 62
     0
 10
206.94338737436931
 20
110.77686513299879
 30
0.0
 11
218.44338737436919
 21
122.27686513299879
 31
0.0
  0
LINE
  5
AC
  8
0
 62
     0
 10
207.6504941555558
 20
110.77686513299879
 30
0.0
 11
219.1504941555558
 21
122.27686513299879
 31
0.0
  0
LINE
  5
AD
  8
0
 62
     0
 10
208.35760093674239
 20
110.77686513299879
 30
0.0
 11
219.8576009367423
 21
122.27686513299879
 31
0.0
  0
LINE
  5
AE
  8
0
 62
     0
 10
209.06470771792891
 20
110.77686513299879
 30
0.0
 11
220.0597010565279
 21
121.7718584715978
 31
0.0
  0
LINE
  5
AF
  8
0
 62
     0
 10
209.77181449911549
 20
110.77686513299879
 30
0.0
 11
220.0597010565279
 21
121.0647516904112
 31
0.0
  0
LINE
  5
B0
  8
0
 62
     0
 10
210.47892128030199
 20
110.77686513299879
 30
0.0
 11
220.0597010565279
 21
120.3576449092247
 31
0.0
  0
LINE
  5
B1
  8
0
 62
     0
 10
211.1860280614886
 20
110.77686513299879
 30
0.0
 11
220.0597010565279
 21
119.65053812803809
 31
0.0
  0
LINE
  5
B2
  8
0
 62
     0
 10
211.8931348426751
 20
110.77686513299879
 30
0.0
 11
220.0597010565279
 21
118.9434313468516
 31
0.0
  0
LINE
  5
B3
  8
0
 62
     0
 10
212.60024162386171
 20
110.77686513299879
 30
0.0
 11
220.0597010565279
 21
118.2363245656651
 31
0.0
  0
LINE
  5
B4
  8
0
 62
     0
 10
213.3073484050482
 20
110.77686513299879
 30
0.0
 11
220.0597010565279
 21
117.5292177844785
 31
0.0
  0
LINE
  5
B5
  8
0
 62
     0
 10
214.0144551862347
 20
110.77686513299879
 30
0.0
 11
220.0597010565279
 21
116.82211100329199
 31
0.0
  0
LINE
  5
B6
  8
0
 62
     0
 10
214.72156196742131
 20
110.77686513299879
 30
0.0
 11
220.0597010565279
 21
116.1150042221054
 31
0.0
  0
LINE
  5
B7
  8
0
 62
     0
 10
215.42866874860781
 20
110.77686513299879
 30
0.0
 11
220.0597010565279
 21
115.4078974409189
 31
0.0
  0
LINE
  5
B8
  8
0
 62
     0
 10
216.13577552979439
 20
110.77686513299879
 30
0.0
 11
220.0597010565279
 21
114.70079065973231
 31
0.0
  0
LINE
  5
B9
  8
0
 62
     0
 10
216.84288231098091
 20
110.77686513299879
 30
0.0
 11
220.0597010565279
 21
113.9936838785458
 31
0.0
  0
LINE
  5
BA
  8
0
 62
     0
 10
217.54998909216741
 20
110.77686513299879
 30
0.0
 11
220.0597010565279
 21
113.2865770973592
 31
0.0
  0
LINE
  5
BB
  8
0
 62
     0
 10
218.25709587335399
 20
110.77686513299879
 30
0.0
 11
220.0597010565279
 21
112.5794703161727
 31
0.0
  0
LINE
  5
BC
  8
0
 62
     0
 10
218.9642026545406
 20
110.77686513299879
 30
0.0
 11
220.0597010565279
 21
111.87236353498611
 31
0.0
  0
LINE
  5
BD
  8
0
 62
     0
 10
219.6713094357271
 20
110.77686513299879
 30
0.0
 11
220.0597010565279
 21
111.1652567537996
 31
0.0
  0
LINE
  5
BE
  8
0
 62
     0
 10
180.55112871585871
 20
110.77686513299879
 30
0.0
 11
169.05112871585871
 21
122.27686513299879
 31
0.0
  0
LINE
  5
BF
  8
0
 62
     0
 10
179.84402193467221
 20
110.77686513299879
 30
0.0
 11
168.34402193467221
 21
122.27686513299879
 31
0.0
  0
LINE
  5
C0
  8
0
 62
     0
 10
179.1369151534856
 20
110.77686513299879
 30
0.0
 11
167.6369151534856
 21
122.27686513299879
 31
0.0
  0
LINE
  5
C1
  8
0
 62
     0
 10
178.42980837229911
 20
110.77686513299879
 30
0.0
 11
166.92980837229911
 21
122.27686513299879
 31
0.0
  0
LINE
  5
C2
  8
0
 62
     0
 10
177.7227015911125
 20
110.77686513299879
 30
0.0
 11
166.2227015911125
 21
122.27686513299879
 31
0.0
  0
LINE
  5
C3
  8
0
 62
     0
 10
177.015594809926
 20
110.77686513299879
 30
0.0
 11
165.515594809926
 21
122.27686513299879
 31
0.0
  0
LINE
  5
C4
  8
0
 62
     0
 10
176.30848802873939
 20
110.77686513299879
 30
0.0
 11
164.8084880287395
 21
122.27686513299879
 31
0.0
  0
LINE
  5
C5
  8
0
 62
     0
 10
175.60138124755289
 20
110.77686513299879
 30
0.0
 11
164.10138124755289
 21
122.27686513299879
 31
0.0
  0
LINE
  5
C6
  8
0
 62
     0
 10
174.89427446636631
 20
110.77686513299879
 30
0.0
 11
163.39427446636631
 21
122.27686513299879
 31
0.0
  0
LINE
  5
C7
  8
0
 62
     0
 10
174.18716768517979
 20
110.77686513299879
 30
0.0
 11
162.68716768517979
 21
122.27686513299879
 31
0.0
  0
LINE
  5
C8
  8
0
 62
     0
 10
173.48006090399321
 20
110.77686513299879
 30
0.0
 11
161.98006090399321
 21
122.27686513299879
 31
0.0
  0
LINE
  5
C9
  8
0
 62
     0
 10
172.77295412280671
 20
110.77686513299879
 30
0.0
 11
161.27295412280671
 21
122.27686513299879
 31
0.0
  0
LINE
  5
CA
  8
0
 62
     0
 10
172.06584734162021
 20
110.77686513299879
 30
0.0
 11
160.56584734162021
 21
122.27686513299879
 31
0.0
  0
LINE
  5
CB
  8
0
 62
     0
 10
171.3587405604336
 20
110.77686513299879
 30
0.0
 11
159.8587405604336
 21
122.27686513299879
 31
0.0
  0
LINE
  5
CC
  8
0
 62
     0
 10
170.65163377924711
 20
110.77686513299879
 30
0.0
 11
159.15163377924699
 21
122.27686513299879
 31
0.0
  0
LINE
  5
CD
  8
0
 62
     0
 10
169.9445269980605
 20
110.77686513299879
 30
0.0
 11
158.4445269980605
 21
122.27686513299879
 31
0.0
  0
LINE
  5
CE
  8
0
 62
     0
 10
169.237420216874
 20
110.77686513299879
 30
0.0
 11
157.737420216874
 21
122.27686513299879
 31
0.0
  0
LINE
  5
CF
  8
0
 62
     0
 10
168.53031343568739
 20
110.77686513299879
 30
0.0
 11
157.03031343568739
 21
122.27686513299879
 31
0.0
  0
LINE
  5
D0
  8
0
 62
     0
 10
167.82320665450089
 20
110.77686513299879
 30
0.0
 11
156.32320665450089
 21
122.27686513299879
 31
0.0
  0
LINE
  5
D1
  8
0
 62
     0
 10
167.11609987331431
 20
110.77686513299879
 30
0.0
 11
155.61609987331431
 21
122.27686513299879
 31
0.0
  0
LINE
  5
D2
  8
0
 62
     0
 10
166.40899309212779
 20
110.77686513299879
 30
0.0
 11
154.90899309212779
 21
122.27686513299879
 31
0.0
  0
LINE
  5
D3
  8
0
 62
     0
 10
165.70188631094121
 20
110.77686513299879
 30
0.0
 11
154.20188631094121
 21
122.27686513299879
 31
0.0
  0
LINE
  5
D4
  8
0
 62
     0
 10
164.99477952975471
 20
110.77686513299879
 30
0.0
 11
153.49477952975471
 21
122.27686513299879
 31
0.0
  0
LINE
  5
D5
  8
0
 62
     0
 10
164.2876727485681
 20
110.77686513299879
 30
0.0
 11
152.7876727485681
 21
122.27686513299879
 31
0.0
  0
LINE
  5
D6
  8
0
 62
     0
 10
163.5805659673816
 20
110.77686513299879
 30
0.0
 11
152.0805659673816
 21
122.27686513299879
 31
0.0
  0
LINE
  5
D7
  8
0
 62
     0
 10
162.87345918619499
 20
110.77686513299879
 30
0.0
 11
151.37345918619499
 21
122.27686513299879
 31
0.0
  0
LINE
  5
D8
  8
0
 62
     0
 10
162.1663524050085
 20
110.77686513299879
 30
0.0
 11
150.6663524050085
 21
122.27686513299879
 31
0.0
  0
LINE
  5
D9
  8
0
 62
     0
 10
161.45924562382189
 20
110.77686513299879
 30
0.0
 11
149.95924562382189
 21
122.27686513299879
 31
0.0
  0
LINE
  5
DA
  8
0
 62
     0
 10
160.75213884263539
 20
110.77686513299879
 30
0.0
 11
149.25213884263539
 21
122.27686513299879
 31
0.0
  0
LINE
  5
DB
  8
0
 62
     0
 10
160.04503206144881
 20
110.77686513299879
 30
0.0
 11
148.54503206144881
 21
122.27686513299879
 31
0.0
  0
LINE
  5
DC
  8
0
 62
     0
 10
159.33792528026231
 20
110.77686513299879
 30
0.0
 11
147.83792528026231
 21
122.27686513299879
 31
0.0
  0
LINE
  5
DD
  8
0
 62
     0
 10
158.6308184990757
 20
110.77686513299879
 30
0.0
 11
147.13081849907579
 21
122.27686513299879
 31
0.0
  0
LINE
  5
DE
  8
0
 62
     0
 10
157.9237117178892
 20
110.77686513299879
 30
0.0
 11
146.4237117178892
 21
122.27686513299879
 31
0.0
  0
LINE
  5
DF
  8
0
 62
     0
 10
157.21660493670271
 20
110.77686513299879
 30
0.0
 11
145.71660493670271
 21
122.27686513299879
 31
0.0
  0
LINE
  5
E0
  8
0
 62
     0
 10
156.5094981555161
 20
110.77686513299879
 30
0.0
 11
145.0094981555161
 21
122.27686513299879
 31
0.0
  0
LINE
  5
E1
  8
0
 62
     0
 10
155.8023913743296
 20
110.77686513299879
 30
0.0
 11
144.3023913743296
 21
122.27686513299879
 31
0.0
  0
LINE
  5
E2
  8
0
 62
     0
 10
155.09528459314299
 20
110.77686513299879
 30
0.0
 11
143.59528459314299
 21
122.27686513299879
 31
0.0
  0
LINE
  5
E3
  8
0
 62
     0
 10
154.3881778119565
 20
110.77686513299879
 30
0.0
 11
142.8881778119565
 21
122.27686513299879
 31
0.0
  0
LINE
  5
E4
  8
0
 62
     0
 10
153.68107103076991
 20
110.77686513299879
 30
0.0
 11
142.18107103076991
 21
122.27686513299879
 31
0.0
  0
LINE
  5
E5
  8
0
 62
     0
 10
152.97396424958339
 20
110.77686513299879
 30
0.0
 11
141.47396424958339
 21
122.27686513299879
 31
0.0
  0
LINE
  5
E6
  8
0
 62
     0
 10
152.26685746839681
 20
110.77686513299879
 30
0.0
 11
140.76685746839681
 21
122.27686513299879
 31
0.0
  0
LINE
  5
E7
  8
0
 62
     0
 10
151.55975068721031
 20
110.77686513299879
 30
0.0
 11
140.05975068721031
 21
122.27686513299879
 31
0.0
  0
LINE
  5
E8
  8
0
 62
     0
 10
150.8526439060237
 20
110.77686513299879
 30
0.0
 11
139.3526439060237
 21
122.27686513299879
 31
0.0
  0
LINE
  5
E9
  8
0
 62
     0
 10
150.1455371248372
 20
110.77686513299879
 30
0.0
 11
138.6455371248372
 21
122.27686513299879
 31
0.0
  0
LINE
  5
EA
  8
0
 62
     0
 10
149.43843034365059
 20
110.77686513299879
 30
0.0
 11
137.93843034365059
 21
122.27686513299879
 31
0.0
  0
LINE
  5
EB
  8
0
 62
     0
 10
148.7313235624641
 20
110.77686513299879
 30
0.0
 11
137.2313235624641
 21
122.27686513299879
 31
0.0
  0
LINE
  5
EC
  8
0
 62
     0
 10
148.02421678127749
 20
110.77686513299879
 30
0.0
 11
136.52421678127749
 21
122.27686513299879
 31
0.0
  0
LINE
  5
ED
  8
0
 62
     0
 10
147.31711000009099
 20
110.77686513299879
 30
0.0
 11
135.81711000009099
 21
122.27686513299879
 31
0.0
  0
LINE
  5
EE
  8
0
 62
     0
 10
146.61000321890441
 20
110.77686513299879
 30
0.0
 11
135.11000321890441
 21
122.27686513299879
 31
0.0
  0
LINE
  5
EF
  8
0
 62
     0
 10
145.90289643771791
 20
110.77686513299879
 30
0.0
 11
134.40289643771791
 21
122.27686513299879
 31
0.0
  0
LINE
  5
F0
  8
0
 62
     0
 10
145.1957896565313
 20
110.77686513299879
 30
0.0
 11
133.6957896565313
 21
122.27686513299879
 31
0.0
  0
LINE
  5
F1
  8
0
 62
     0
 10
144.48868287534481
 20
110.77686513299879
 30
0.0
 11
132.98868287534481
 21
122.27686513299879
 31
0.0
  0
LINE
  5
F2
  8
0
 62
     0
 10
143.78157609415831
 20
110.77686513299879
 30
0.0
 11
132.28157609415831
 21
122.27686513299879
 31
0.0
  0
LINE
  5
F3
  8
0
 62
     0
 10
143.0744693129717
 20
110.77686513299879
 30
0.0
 11
131.5744693129717
 21
122.27686513299879
 31
0.0
  0
LINE
  5
F4
  8
0
 62
     0
 10
142.36736253178509
 20
110.77686513299879
 30
0.0
 11
130.86736253178509
 21
122.27686513299879
 31
0.0
  0
LINE
  5
F5
  8
0
 62
     0
 10
141.66025575059859
 20
110.77686513299879
 30
0.0
 11
130.16025575059859
 21
122.27686513299879
 31
0.0
  0
LINE
  5
F6
  8
0
 62
     0
 10
140.95314896941201
 20
110.77686513299879
 30
0.0
 11
130.05970105652781
 21
121.67031304588301
 31
0.0
  0
LINE
  5
F7
  8
0
 62
     0
 10
140.24604218822549
 20
110.77686513299879
 30
0.0
 11
130.05970105652781
 21
120.9632062646964
 31
0.0
  0
LINE
  5
F8
  8
0
 62
     0
 10
139.53893540703899
 20
110.77686513299879
 30
0.0
 11
130.05970105652781
 21
120.2560994835099
 31
0.0
  0
LINE
  5
F9
  8
0
 62
     0
 10
138.83182862585241
 20
110.77686513299879
 30
0.0
 11
130.05970105652781
 21
119.5489927023233
 31
0.0
  0
LINE
  5
FA
  8
0
 62
     0
 10
138.12472184466591
 20
110.77686513299879
 30
0.0
 11
130.05970105652781
 21
118.84188592113679
 31
0.0
  0
LINE
  5
FB
  8
0
 62
     0
 10
137.4176150634793
 20
110.77686513299879
 30
0.0
 11
130.05970105652781
 21
118.1347791399502
 31
0.0
  0
LINE
  5
FC
  8
0
 62
     0
 10
136.71050828229281
 20
110.77686513299879
 30
0.0
 11
130.05970105652781
 21
117.4276723587637
 31
0.0
  0
LINE
  5
FD
  8
0
 62
     0
 10
136.0034015011062
 20
110.77686513299879
 30
0.0
 11
130.05970105652781
 21
116.7205655775771
 31
0.0
  0
LINE
  5
FE
  8
0
 62
     0
 10
135.2962947199197
 20
110.77686513299879
 30
0.0
 11
130.05970105652781
 21
116.01345879639059
 31
0.0
  0
LINE
  5
FF
  8
0
 62
     0
 10
134.58918793873309
 20
110.77686513299879
 30
0.0
 11
130.05970105652781
 21
115.3063520152041
 31
0.0
  0
LINE
  5
100
  8
0
 62
     0
 10
133.88208115754659
 20
110.77686513299879
 30
0.0
 11
130.05970105652781
 21
114.5992452340175
 31
0.0
  0
LINE
  5
101
  8
0
 62
     0
 10
133.1749743763601
 20
110.77686513299879
 30
0.0
 11
130.05970105652781
 21
113.89213845283101
 31
0.0
  0
LINE
  5
102
  8
0
 62
     0
 10
132.46786759517349
 20
110.77686513299879
 30
0.0
 11
130.05970105652781
 21
113.1850316716444
 31
0.0
  0
LINE
  5
103
  8
0
 62
     0
 10
131.76076081398691
 20
110.77686513299879
 30
0.0
 11
130.05970105652781
 21
112.4779248904579
 31
0.0
  0
LINE
  5
104
  8
0
 62
     0
 10
131.05365403280041
 20
110.77686513299879
 30
0.0
 11
130.05970105652781
 21
111.7708181092713
 31
0.0
  0
LINE
  5
105
  8
0
 62
     0
 10
130.3465472516138
 20
110.77686513299879
 30
0.0
 11
130.05970105652781
 21
111.06371132808481
 31
0.0
  0
LINE
  5
106
  8
0
 62
     0
 10
181.25823549704529
 20
110.77686513299879
 30
0.0
 11
169.75823549704529
 21
122.27686513299879
 31
0.0
  0
LINE
  5
107
  8
0
 62
     0
 10
181.96534227823179
 20
110.77686513299879
 30
0.0
 11
170.46534227823179
 21
122.27686513299879
 31
0.0
  0
LINE
  5
108
  8
0
 62
     0
 10
182.6724490594184
 20
110.77686513299879
 30
0.0
 11
171.1724490594184
 21
122.27686513299879
 31
0.0
  0
LINE
  5
109
  8
0
 62
     0
 10
183.37955584060489
 20
110.77686513299879
 30
0.0
 11
171.87955584060489
 21
122.27686513299879
 31
0.0
  0
LINE
  5
10A
  8
0
 62
     0
 10
184.08666262179139
 20
110.77686513299879
 30
0.0
 11
172.58666262179139
 21
122.27686513299879
 31
0.0
  0
LINE
  5
10B
  8
0
 62
     0
 10
184.793769402978
 20
110.77686513299879
 30
0.0
 11
173.293769402978
 21
122.27686513299879
 31
0.0
  0
LINE
  5
10C
  8
0
 62
     0
 10
185.5008761841645
 20
110.77686513299879
 30
0.0
 11
174.00087618416461
 21
122.27686513299879
 31
0.0
  0
LINE
  5
10D
  8
0
 62
     0
 10
186.20798296535111
 20
110.77686513299879
 30
0.0
 11
174.70798296535111
 21
122.27686513299879
 31
0.0
  0
LINE
  5
10E
  8
0
 62
     0
 10
186.9150897465376
 20
110.77686513299879
 30
0.0
 11
175.41508974653769
 21
122.27686513299879
 31
0.0
  0
LINE
  5
10F
  8
0
 62
     0
 10
187.62219652772421
 20
110.77686513299879
 30
0.0
 11
176.12219652772421
 21
122.27686513299879
 31
0.0
  0
LINE
  5
110
  8
0
 62
     0
 10
188.3293033089108
 20
110.77686513299879
 30
0.0
 11
176.8293033089108
 21
122.27686513299879
 31
0.0
  0
LINE
  5
111
  8
0
 62
     0
 10
189.03641009009729
 20
110.77686513299879
 30
0.0
 11
177.53641009009729
 21
122.27686513299879
 31
0.0
  0
LINE
  5
112
  8
0
 62
     0
 10
189.7435168712839
 20
110.77686513299879
 30
0.0
 11
178.24351687128379
 21
122.27686513299879
 31
0.0
  0
LINE
  5
113
  8
0
 62
     0
 10
190.4506236524704
 20
110.77686513299879
 30
0.0
 11
178.9506236524704
 21
122.27686513299879
 31
0.0
  0
LINE
  5
114
  8
0
 62
     0
 10
191.15773043365689
 20
110.77686513299879
 30
0.0
 11
179.65773043365689
 21
122.27686513299879
 31
0.0
  0
LINE
  5
115
  8
0
 62
     0
 10
191.8648372148435
 20
110.77686513299879
 30
0.0
 11
180.3648372148435
 21
122.27686513299879
 31
0.0
  0
LINE
  5
116
  8
0
 62
     0
 10
192.57194399603
 20
110.77686513299879
 30
0.0
 11
181.07194399603
 21
122.27686513299879
 31
0.0
  0
LINE
  5
117
  8
0
 62
     0
 10
193.27905077721661
 20
110.77686513299879
 30
0.0
 11
181.77905077721661
 21
122.27686513299879
 31
0.0
  0
LINE
  5
118
  8
0
 62
     0
 10
193.98615755840311
 20
110.77686513299879
 30
0.0
 11
182.48615755840311
 21
122.27686513299879
 31
0.0
  0
LINE
  5
119
  8
0
 62
     0
 10
194.69326433958969
 20
110.77686513299879
 30
0.0
 11
183.19326433958969
 21
122.27686513299879
 31
0.0
  0
LINE
  5
11A
  8
0
 62
     0
 10
195.40037112077621
 20
110.77686513299879
 30
0.0
 11
183.90037112077621
 21
122.27686513299879
 31
0.0
  0
LINE
  5
11B
  8
0
 62
     0
 10
196.1074779019628
 20
110.77686513299879
 30
0.0
 11
184.6074779019628
 21
122.27686513299879
 31
0.0
  0
LINE
  5
11C
  8
0
 62
     0
 10
196.81458468314929
 20
110.77686513299879
 30
0.0
 11
185.31458468314929
 21
122.27686513299879
 31
0.0
  0
LINE
  5
11D
  8
0
 62
     0
 10
197.52169146433579
 20
110.77686513299879
 30
0.0
 11
186.0216914643359
 21
122.27686513299879
 31
0.0
  0
LINE
  5
11E
  8
0
 62
     0
 10
198.2287982455224
 20
110.77686513299879
 30
0.0
 11
186.7287982455224
 21
122.27686513299879
 31
0.0
  0
LINE
  5
11F
  8
0
 62
     0
 10
198.93590502670901
 20
110.77686513299879
 30
0.0
 11
187.43590502670901
 21
122.27686513299879
 31
0.0
  0
LINE
  5
120
  8
0
 62
     0
 10
199.6430118078955
 20
110.77686513299879
 30
0.0
 11
188.1430118078955
 21
122.27686513299879
 31
0.0
  0
LINE
  5
121
  8
0
 62
     0
 10
200.35011858908209
 20
110.77686513299879
 30
0.0
 11
188.85011858908209
 21
122.27686513299879
 31
0.0
  0
LINE
  5
122
  8
0
 62
     0
 10
201.05722537026861
 20
110.77686513299879
 30
0.0
 11
189.55722537026861
 21
122.27686513299879
 31
0.0
  0
LINE
  5
123
  8
0
 62
     0
 10
201.76433215145511
 20
110.77686513299879
 30
0.0
 11
190.26433215145511
 21
122.27686513299879
 31
0.0
  0
LINE
  5
124
  8
0
 62
     0
 10
202.47143893264169
 20
110.77686513299879
 30
0.0
 11
190.97143893264169
 21
122.27686513299879
 31
0.0
  0
LINE
  5
125
  8
0
 62
     0
 10
203.1785457138283
 20
110.77686513299879
 30
0.0
 11
191.67854571382821
 21
122.27686513299879
 31
0.0
  0
LINE
  5
126
  8
0
 62
     0
 10
203.8856524950148
 20
110.77686513299879
 30
0.0
 11
192.3856524950148
 21
122.27686513299879
 31
0.0
  0
LINE
  5
127
  8
0
 62
     0
 10
204.59275927620129
 20
110.77686513299879
 30
0.0
 11
193.09275927620141
 21
122.27686513299879
 31
0.0
  0
LINE
  5
128
  8
0
 62
     0
 10
205.2998660573879
 20
110.77686513299879
 30
0.0
 11
193.7998660573879
 21
122.27686513299879
 31
0.0
  0
LINE
  5
129
  8
0
 62
     0
 10
206.0069728385744
 20
110.77686513299879
 30
0.0
 11
194.5069728385744
 21
122.27686513299879
 31
0.0
  0
LINE
  5
12A
  8
0
 62
     0
 10
206.71407961976101
 20
110.77686513299879
 30
0.0
 11
195.21407961976101
 21
122.27686513299879
 31
0.0
  0
LINE
  5
12B
  8
0
 62
     0
 10
207.42118640094751
 20
110.77686513299879
 30
0.0
 11
195.92118640094751
 21
122.27686513299879
 31
0.0
  0
LINE
  5
12C
  8
0
 62
     0
 10
208.12829318213409
 20
110.77686513299879
 30
0.0
 11
196.62829318213409
 21
122.27686513299879
 31
0.0
  0
LINE
  5
12D
  8
0
 62
     0
 10
208.8353999633207
 20
110.77686513299879
 30
0.0
 11
197.33539996332061
 21
122.27686513299879
 31
0.0
  0
LINE
  5
12E
  8
0
 62
     0
 10
209.54250674450719
 20
110.77686513299879
 30
0.0
 11
198.04250674450719
 21
122.27686513299879
 31
0.0
  0
LINE
  5
12F
  8
0
 62
     0
 10
210.2496135256938
 20
110.77686513299879
 30
0.0
 11
198.74961352569369
 21
122.27686513299879
 31
0.0
  0
LINE
  5
130
  8
0
 62
     0
 10
210.9567203068803
 20
110.77686513299879
 30
0.0
 11
199.4567203068803
 21
122.27686513299879
 31
0.0
  0
LINE
  5
131
  8
0
 62
     0
 10
211.6638270880668
 20
110.77686513299879
 30
0.0
 11
200.1638270880668
 21
122.27686513299879
 31
0.0
  0
LINE
  5
132
  8
0
 62
     0
 10
212.37093386925341
 20
110.77686513299879
 30
0.0
 11
200.87093386925341
 21
122.27686513299879
 31
0.0
  0
LINE
  5
133
  8
0
 62
     0
 10
213.0780406504399
 20
110.77686513299879
 30
0.0
 11
201.5780406504399
 21
122.27686513299879
 31
0.0
  0
LINE
  5
134
  8
0
 62
     0
 10
213.78514743162651
 20
110.77686513299879
 30
0.0
 11
202.28514743162651
 21
122.27686513299879
 31
0.0
  0
LINE
  5
135
  8
0
 62
     0
 10
214.49225421281309
 20
110.77686513299879
 30
0.0
 11
202.99225421281301
 21
122.27686513299879
 31
0.0
  0
LINE
  5
136
  8
0
 62
     0
 10
215.19936099399959
 20
110.77686513299879
 30
0.0
 11
203.69936099399959
 21
122.27686513299879
 31
0.0
  0
LINE
  5
137
  8
0
 62
     0
 10
215.90646777518609
 20
110.77686513299879
 30
0.0
 11
204.40646777518609
 21
122.27686513299879
 31
0.0
  0
LINE
  5
138
  8
0
 62
     0
 10
216.6135745563727
 20
110.77686513299879
 30
0.0
 11
205.1135745563727
 21
122.27686513299879
 31
0.0
  0
LINE
  5
139
  8
0
 62
     0
 10
217.32068133755919
 20
110.77686513299879
 30
0.0
 11
205.82068133755919
 21
122.27686513299879
 31
0.0
  0
LINE
  5
13A
  8
0
 62
     0
 10
218.0277881187458
 20
110.77686513299879
 30
0.0
 11
206.5277881187458
 21
122.27686513299879
 31
0.0
  0
LINE
  5
13B
  8
0
 62
     0
 10
218.7348948999323
 20
110.77686513299879
 30
0.0
 11
207.2348948999323
 21
122.27686513299879
 31
0.0
  0
LINE
  5
13C
  8
0
 62
     0
 10
219.4420016811188
 20
110.77686513299879
 30
0.0
 11
207.94200168111891
 21
122.27686513299879
 31
0.0
  0
LINE
  5
13D
  8
0
 62
     0
 10
220.0597010565279
 20
110.8662725387763
 30
0.0
 11
208.64910846230541
 21
122.27686513299879
 31
0.0
  0
LINE
  5
13E
  8
0
 62
     0
 10
220.0597010565279
 20
111.5733793199628
 30
0.0
 11
209.35621524349199
 21
122.27686513299879
 31
0.0
  0
LINE
  5
13F
  8
0
 62
     0
 10
220.0597010565279
 20
112.28048610114941
 30
0.0
 11
210.06332202467851
 21
122.27686513299879
 31
0.0
  0
LINE
  5
140
  8
0
 62
     0
 10
220.0597010565279
 20
112.9875928823359
 30
0.0
 11
210.77042880586509
 21
122.27686513299879
 31
0.0
  0
LINE
  5
141
  8
0
 62
     0
 10
220.0597010565279
 20
113.6946996635225
 30
0.0
 11
211.47753558705159
 21
122.27686513299879
 31
0.0
  0
LINE
  5
142
  8
0
 62
     0
 10
220.0597010565279
 20
114.401806444709
 30
0.0
 11
212.18464236823809
 21
122.27686513299879
 31
0.0
  0
LINE
  5
143
  8
0
 62
     0
 10
220.0597010565279
 20
115.10891322589561
 30
0.0
 11
212.8917491494247
 21
122.27686513299879
 31
0.0
  0
LINE
  5
144
  8
0
 62
     0
 10
220.0597010565279
 20
115.8160200070821
 30
0.0
 11
213.59885593061131
 21
122.27686513299879
 31
0.0
  0
LINE
  5
145
  8
0
 62
     0
 10
220.0597010565279
 20
116.5231267882687
 30
0.0
 11
214.3059627117978
 21
122.27686513299879
 31
0.0
  0
LINE
  5
146
  8
0
 62
     0
 10
220.0597010565279
 20
117.23023356945519
 30
0.0
 11
215.0130694929843
 21
122.27686513299879
 31
0.0
  0
LINE
  5
147
  8
0
 62
     0
 10
220.0597010565279
 20
117.9373403506418
 30
0.0
 11
215.72017627417091
 21
122.27686513299879
 31
0.0
  0
LINE
  5
148
  8
0
 62
     0
 10
220.0597010565279
 20
118.6444471318283
 30
0.0
 11
216.42728305535741
 21
122.27686513299879
 31
0.0
  0
LINE
  5
149
  8
0
 62
     0
 10
220.0597010565279
 20
119.3515539130149
 30
0.0
 11
217.13438983654399
 21
122.27686513299879
 31
0.0
  0
LINE
  5
14A
  8
0
 62
     0
 10
220.0597010565279
 20
120.05866069420139
 30
0.0
 11
217.84149661773051
 21
122.27686513299879
 31
0.0
  0
LINE
  5
14B
  8
0
 62
     0
 10
220.0597010565279
 20
120.7657674753879
 30
0.0
 11
218.54860339891709
 21
122.27686513299879
 31
0.0
  0
LINE
  5
14C
  8
0
 62
     0
 10
220.0597010565279
 20
121.4728742565744
 30
0.0
 11
219.25571018010359
 21
122.27686513299879
 31
0.0
  0
LINE
  5
14D
  8
0
 62
     0
 10
220.0597010565279
 20
122.179981037761
 30
0.0
 11
219.9628169612902
 21
122.27686513299879
 31
0.0
  0
ENDBLK
  5
14E
  8
0
  0
ENDSEC
  0
SECTION
  2
ENTITIES
  0
LINE
  5
15D
  8
0
 10
163.77745277607701
 20
129.4717463549205
 30
0.0
 11
166.27745277607701
 21
129.4717463549205
 31
0.0
  0
LINE
  5
15E
  8
0
 10
276.2774527760771
 20
111.9717463549205
 30
0.0
 11
276.2774527760771
 21
96.471746354920626
 31
0.0
  0
LINE
  5
15F
  8
0
 10
266.2774527760771
 20
111.9717463549205
 30
0.0
 11
266.2774527760771
 21
96.471746354920626
 31
0.0
  0
LINE
  5
160
  8
0
 10
163.77745277607701
 20
119.4717463549205
 30
0.0
 11
166.27745277607701
 21
119.4717463549205
 31
0.0
  0
ARC
  5
161
  8
0
 10
258.7774527760771
 20
111.9717463549205
 30
0.0
 40
7.5
 50
0.0
 51
90.0
  0
ARC
  5
162
  8
0
 10
163.77745277607701
 20
111.9717463549205
 30
0.0
 40
7.5
 50
90.0
 51
180.0
  0
ARC
  5
163
  8
0
 10
258.7774527760771
 20
111.9717463549205
 30
0.0
 40
17.5
 50
0.0
 51
90.0
  0
ARC
  5
164
  8
0
 10
163.77745277607701
 20
111.9717463549205
 30
0.0
 40
17.5
 50
90.0
 51
180.0
  0
ARC
  5
165
  8
0
 10
276.27745277607698
 20
94.471746354920612
 30
0.0
 40
2.0
 50
0.0000000000004071
 51
90.0
  0
ARC
  5
166
  8
0
 10
266.2774527760771
 20
94.471746354920612
 30
0.0
 40
2.0
 50
90.0
 51
179.9999999999996
  0
LINE
  5
167
  8
0
 10
278.27745277607698
 20
88.471746354920555
 30
0.0
 11
278.2774527760771
 21
94.471746354920612
 31
0.0
  0
LINE
  5
168
  8
0
 10
264.27745277607698
 20
88.471746354920555
 30
0.0
 11
264.2774527760771
 21
94.471746354920612
 31
0.0
  0
LINE
  5
169
  8
0
 10
278.27745277607698
 20
88.471746354920555
 30
0.0
 11
264.2774527760771
 21
88.471746354920555
 31
0.0
  0
LINE
  5
16A
  8
0
 10
266.2774527760771
 20
96.471746354920626
 30
0.0
 11
276.2774527760771
 21
96.471746354920626
 31
0.0
  0
LINE
  5
16B
  8
0
 10
166.27745277607701
 20
130.2217463549205
 30
0.0
 11
166.27745277607701
 21
118.7217463549205
 31
0.0
  0
LINE
  5
16C
  8
0
 10
256.2774527760771
 20
130.2217463549205
 30
0.0
 11
256.2774527760771
 21
118.7217463549205
 31
0.0
  0
LINE
  5
16D
  8
0
 10
166.27745277607701
 20
130.2217463549205
 30
0.0
 11
256.2774527760771
 21
130.2217463549205
 31
0.0
  0
LINE
  5
16E
  8
0
 10
166.27745277607701
 20
118.7217463549205
 30
0.0
 11
256.2774527760771
 21
118.7217463549205
 31
0.0
  0
LINE
  5
16F
  8
0
 10
256.2774527760771
 20
129.4717463549205
 30
0.0
 11
258.7774527760771
 21
129.4717463549205
 31
0.0
  0
LINE
  5
170
  8
0
 10
256.2774527760771
 20
119.4717463549205
 30
0.0
 11
258.7774527760771
 21
119.4717463549205
 31
0.0
  0
LINE
  5
171
  8
0
 10
151.27745277607701
 20
179.05527070743869
 30
0.0
 11
166.2774527760769
 21
179.05527070743869
 31
0.0
  0
LINE
  5
172
  8
0
 10
151.27745277607701
 20
189.05527070743869
 30
0.0
 11
166.2774527760769
 21
189.05527070743869
 31
0.0
  0
LINE
  5
173
  8
1
 10
141.27745277607701
 20
184.05527070743869
 30
0.0
 11
281.2774527760771
 21
184.05527070743869
 31
0.0
  0
ARC
  5
174
  8
0
 10
151.27745277607701
 20
184.05527070743869
 30
0.0
 40
5.0
 50
90.0
 51
270.0
  0
ARC
  5
175
  8
2
 10
151.27745277607701
 20
184.05527070743869
 30
0.0
 40
5.0
 50
270.0
 51
90.0
  0
ARC
  5
176
  8
0
 10
271.27745277607698
 20
184.05527070743869
 30
0.0
 40
5.0
 50
270.0
 51
90.0
  0
ARC
  5
177
  8
2
 10
271.27745277607698
 20
184.05527070743869
 30
0.0
 40
5.0
 50
90.0
 51
270.0
  0
LINE
  5
178
  8
1
 10
151.27745277607701
 20
194.05527070743869
 30
0.0
 11
151.27745277607701
 21
174.05527070743869
 31
0.0
  0
LINE
  5
179
  8
1
 10
271.27745277607698
 20
194.05527070743869
 30
0.0
 11
271.27745277607698
 21
174.05527070743869
 31
0.0
  0
ARC
  5
17A
  8
0
 10
151.27745277607701
 20
184.05527070743869
 30
0.0
 40
7.0
 50
45.584691402806932
 51
314.41530859719308
  0
ARC
  5
17B
  8
0
 10
271.27745277607698
 20
184.05527070743869
 30
0.0
 40
7.0
 50
225.5846914028069
 51
134.4153085971931
  0
LINE
  5
17C
  8
0
 10
256.2774527760771
 20
178.30527070743869
 30
0.0
 11
256.2774527760771
 21
189.80527070743869
 31
0.0
  0
LINE
  5
17D
  8
0
 10
166.27745277607701
 20
178.30527070743869
 30
0.0
 11
166.27745277607701
 21
189.80527070743869
 31
0.0
  0
LINE
  5
17E
  8
0
 10
166.2774527760769
 20
189.80527070743869
 30
0.0
 11
256.2774527760771
 21
189.80527070743869
 31
0.0
  0
LINE
  5
17F
  8
0
 10
166.2774527760769
 20
178.30527070743869
 30
0.0
 11
256.2774527760771
 21
178.30527070743869
 31
0.0
  0
LINE
  5
180
  8
0
 10
256.2774527760771
 20
189.05527070743869
 30
0.0
 11
271.27745277607698
 21
189.05527070743869
 31
0.0
  0
LINE
  5
181
  8
0
 10
256.2774527760771
 20
179.05527070743869
 30
0.0
 11
271.27745277607698
 21
179.05527070743869
 31
0.0
  0
LINE
  5
182
  8
0
 10
84.619616508420748
 20
124.4717463549205
 30
0.0
 11
84.619616508420748
 21
96.471746354920626
 31
0.0
  0
LINE
  5
183
  8
0
 10
94.619616508420748
 20
124.4717463549205
 30
0.0
 11
94.619616508420748
 21
96.471746354920626
 31
0.0
  0
LINE
  5
184
  8
1
 10
89.619616508420705
 20
134.4717463549205
 30
0.0
 11
89.619616508420705
 21
83.471746354920555
 31
0.0
  0
ARC
  5
185
  8
0
 10
89.619616508420705
 20
124.4717463549205
 30
0.0
 40
5.0
 50
0.0
 51
180.0
  0
ARC
  5
186
  8
2
 10
89.619616508420705
 20
124.4717463549205
 30
0.0
 40
5.0
 50
180.0
 51
0.0
  0
LINE
  5
187
  8
0
 10
84.619616508420705
 20
96.471746354920626
 30
0.0
 11
94.619616508420705
 21
96.471746354920626
 31
0.0
  0
LINE
  5
188
  8
0
 10
96.619616508420663
 20
88.471746354920555
 30
0.0
 11
82.619616508420705
 21
88.471746354920555
 31
0.0
  0
LINE
  5
189
  8
0
 10
82.619616508420648
 20
88.471746354920555
 30
0.0
 11
82.619616508420705
 21
94.471746354920612
 31
0.0
  0
LINE
  5
18A
  8
0
 10
96.619616508420663
 20
88.471746354920555
 30
0.0
 11
96.619616508420705
 21
94.471746354920612
 31
0.0
  0
ARC
  5
18B
  8
0
 10
84.619616508420705
 20
94.471746354920612
 30
0.0
 40
2.0
 50
90.0
 51
179.9999999999996
  0
ARC
  5
18C
  8
0
 10
94.619616508420648
 20
94.471746354920612
 30
0.0
 40
2.0
 50
0.0000000000004071
 51
90.0
  0
LINE
  5
18D
  8
1
 10
271.2774527760771
 20
111.9717463549205
 30
0.0
 11
271.2774527760771
 21
83.471746354920555
 31
0.0
  0
ARC
  5
18E
  8
1
 10
258.7774527760771
 20
111.9717463549205
 30
0.0
 40
12.5
 50
0.0
 51
90.0
  0
LINE
  5
18F
  8
1
 10
163.77745277607701
 20
124.4717463549205
 30
0.0
 11
258.7774527760771
 21
124.4717463549205
 31
0.0
  0
ARC
  5
190
  8
1
 10
163.77745277607701
 20
111.9717463549205
 30
0.0
 40
12.5
 50
90.0
 51
180.0
  0
LINE
  5
191
  8
1
 10
151.27745277607701
 20
83.471746354920555
 30
0.0
 11
151.27745277607701
 21
111.9717463549205
 31
0.0
  0
INSERT
  5
192
  8
3
  2
*X0
 10
36.217751719549142
 20
7.9448812219217473
 30
0.0
  0
INSERT
  5
193
  8
3
  2
*X0
 10
36.217751719549078
 20
67.528405574439887
 30
0.0
  0
LINE
  5
194
  8
0
 10
156.27745277607701
 20
96.471746354920626
 30
0.0
 11
146.27745277607701
 21
96.471746354920626
 31
0.0
  0
LINE
  5
195
  8
0
 10
144.2774527760771
 20
88.471746354920555
 30
0.0
 11
158.27745277607701
 21
88.471746354920555
 31
0.0
  0
LINE
  5
196
  8
0
 10
158.2774527760771
 20
88.471746354920555
 30
0.0
 11
158.27745277607701
 21
94.471746354920612
 31
0.0
  0
LINE
  5
197
  8
0
 10
144.2774527760771
 20
88.471746354920555
 30
0.0
 11
144.27745277607701
 21
94.471746354920612
 31
0.0
  0
ARC
  5
198
  8
0
 10
156.27745277607701
 20
94.471746354920612
 30
0.0
 40
2.0
 50
0.0000000000004071
 51
90.0
  0
ARC
  5
199
  8
0
 10
146.2774527760771
 20
94.471746354920612
 30
0.0
 40
2.0
 50
90.0
 51
179.9999999999996
  0
LINE
  5
19A
  8
0
 10
156.27745277607701
 20
111.9717463549205
 30
0.0
 11
156.27745277607701
 21
96.471746354920626
 31
0.0
  0
LINE
  5
19B
  8
0
 10
146.27745277607701
 20
111.9717463549205
 30
0.0
 11
146.27745277607701
 21
96.471746354920626
 31
0.0
  0
LINE
  5
19C
  8
2
 10
146.27745277607701
 20
96.471746354920555
 30
0.0
 11
146.27745277607701
 21
89.471746354920541
 31
0.0
  0
LINE
  5
19D
  8
2
 10
156.27745277607701
 20
96.471746354920555
 30
0.0
 11
156.27745277607701
 21
89.471746354920541
 31
0.0
  0
LINE
  5
19E
  8
2
 10
148.7774527760771
 20
88.471746354920541
 30
0.0
 11
148.7774527760771
 21
89.471746354920541
 31
0.0
  0
LINE
  5
19F
  8
2
 10
153.7774527760771
 20
88.471746354920541
 30
0.0
 11
153.7774527760771
 21
89.471746354920541
 31
0.0
  0
LINE
  5
1A0
  8
2
 10
156.27745277607701
 20
89.471746354920541
 30
0.0
 11
146.27745277607701
 21
89.471746354920541
 31
0.0
  0
LINE
  5
1A1
  8
2
 10
149.21045277607681
 20
90.371746354920617
 30
0.0
 11
148.31045277607669
 21
89.471746354920541
 31
0.0
  0
LINE
  5
1A2
  8
2
 10
153.34445277607719
 20
90.371746354920518
 30
0.0
 11
149.21045277607681
 21
90.371746354920617
 31
0.0
  0
LINE
  5
1A3
  8
2
 10
154.24445277607731
 20
89.471746354920541
 30
0.0
 11
153.34445277607719
 21
90.371746354920518
 31
0.0
  0
LINE
  5
1A4
  8
2
 10
153.77745277607681
 20
99.471746354920541
 30
0.0
 11
153.34445277607711
 21
100.2217243545975
 31
0.0
  0
LINE
  5
1A5
  8
2
 10
148.7774527760769
 20
99.471746354920541
 30
0.0
 11
149.21045277607681
 21
100.2217243545975
 31
0.0
  0
LINE
  5
1A6
  8
2
 10
153.34445277607719
 20
102.4717463549205
 30
0.0
 11
149.21045277607681
 21
102.4717463549205
 31
0.0
  0
LINE
  5
1A7
  8
2
 10
153.7774527760769
 20
99.471746354920541
 30
0.0
 11
148.7774527760769
 21
99.471746354920541
 31
0.0
  0
LINE
  5
1A8
  8
2
 10
149.21045277607681
 20
102.4717463549205
 30
0.0
 11
151.2774527760769
 21
103.71372525445069
 31
0.0
  0
LINE
  5
1A9
  8
2
 10
153.34445277607719
 20
102.4717463549206
 30
0.0
 11
151.2774527760769
 21
103.71372525445069
 31
0.0
  0
LINE
  5
1AA
  8
2
 10
148.7774527760769
 20
89.938746354920738
 30
0.0
 11
148.7774527760769
 21
99.471746354920541
 31
0.0
  0
LINE
  5
1AB
  8
2
 10
149.21045277607681
 20
90.371746354920518
 30
0.0
 11
149.21045277607681
 21
102.4717463549205
 31
0.0
  0
LINE
  5
1AC
  8
2
 10
153.34445277607719
 20
90.371746354920518
 30
0.0
 11
153.34445277607719
 21
102.4717463549205
 31
0.0
  0
LINE
  5
1AD
  8
2
 10
153.7774527760769
 20
89.938746354920738
 30
0.0
 11
153.7774527760769
 21
99.471746354920541
 31
0.0
  0
LINE
  5
1AE
  8
2
 10
266.2774527760771
 20
96.471746354920555
 30
0.0
 11
266.2774527760771
 21
89.471746354920541
 31
0.0
  0
LINE
  5
1AF
  8
2
 10
276.27745277607698
 20
96.471746354920555
 30
0.0
 11
276.27745277607698
 21
89.471746354920541
 31
0.0
  0
LINE
  5
1B0
  8
2
 10
268.7774527760771
 20
88.471746354920541
 30
0.0
 11
268.7774527760771
 21
89.471746354920541
 31
0.0
  0
LINE
  5
1B1
  8
2
 10
273.7774527760771
 20
88.471746354920541
 30
0.0
 11
273.7774527760771
 21
89.471746354920541
 31
0.0
  0
LINE
  5
1B2
  8
2
 10
276.27745277607698
 20
89.471746354920541
 30
0.0
 11
266.27745277607698
 21
89.471746354920541
 31
0.0
  0
LINE
  5
1B3
  8
2
 10
269.21045277607681
 20
90.371746354920617
 30
0.0
 11
268.31045277607677
 21
89.471746354920541
 31
0.0
  0
LINE
  5
1B4
  8
2
 10
273.34445277607722
 20
90.371746354920518
 30
0.0
 11
269.21045277607681
 21
90.371746354920617
 31
0.0
  0
LINE
  5
1B5
  8
2
 10
274.24445277607731
 20
89.471746354920541
 30
0.0
 11
273.34445277607722
 21
90.371746354920518
 31
0.0
  0
LINE
  5
1B6
  8
2
 10
273.77745277607693
 20
99.471746354920541
 30
0.0
 11
273.34445277607711
 21
100.2217243545975
 31
0.0
  0
LINE
  5
1B7
  8
2
 10
268.77745277607698
 20
99.471746354920541
 30
0.0
 11
269.21045277607681
 21
100.2217243545975
 31
0.0
  0
LINE
  5
1B8
  8
2
 10
273.34445277607722
 20
102.4717463549205
 30
0.0
 11
269.21045277607681
 21
102.4717463549205
 31
0.0
  0
LINE
  5
1B9
  8
2
 10
273.77745277607698
 20
99.471746354920541
 30
0.0
 11
268.77745277607698
 21
99.471746354920541
 31
0.0
  0
LINE
  5
1BA
  8
2
 10
269.21045277607681
 20
102.4717463549205
 30
0.0
 11
271.27745277607698
 21
103.71372525445069
 31
0.0
  0
LINE
  5
1BB
  8
2
 10
273.34445277607722
 20
102.4717463549206
 30
0.0
 11
271.27745277607698
 21
103.71372525445069
 31
0.0
  0
LINE
  5
1BC
  8
2
 10
268.77745277607698
 20
89.938746354920738
 30
0.0
 11
268.77745277607698
 21
99.471746354920541
 31
0.0
  0
LINE
  5
1BD
  8
2
 10
269.21045277607681
 20
90.371746354920518
 30
0.0
 11
269.21045277607681
 21
102.4717463549205
 31
0.0
  0
LINE
  5
1BE
  8
2
 10
273.34445277607722
 20
90.371746354920518
 30
0.0
 11
273.34445277607722
 21
102.4717463549205
 31
0.0
  0
LINE
  5
1BF
  8
2
 10
273.77745277607698
 20
89.938746354920738
 30
0.0
 11
273.77745277607698
 21
99.471746354920541
 31
0.0
  0
TEXT
  5
2DA
  8
0
 62
     3
 10
0.0
 20
0.0
 30
0.0
 40
10.0
  1
RD6-120SP
  7
STANDARD1
  0
ENDSEC
  0
EOF
