  0
SECTION
  2
HEADER
  9
$ACADVER
  1
AC1009
  9
$INSBASE
 10
0.0
 20
0.0
 30
0.0
  9
$EXTMIN
 10
0.0
 20
-2.960436562073669
 30
0.0
  9
$EXTMAX
 10
315.55076141213959
 20
215.23271073673769
 30
0.0
  9
$LIMMIN
 10
0.0
 20
0.0
  9
$LIMMAX
 10
375.0
 20
270.0
  9
$ORTHOMODE
 70
     1
  9
$REGENMODE
 70
     1
  9
$FILLMODE
 70
     1
  9
$QTEXTMODE
 70
     0
  9
$MIRRTEXT
 70
     0
  9
$DRAGMODE
 70
     2
  9
$LTSCALE
 40
5.0
  9
$OSMODE
 70
    55
  9
$ATTMODE
 70
     1
  9
$TEXTSIZE
 40
4.0
  9
$TRACEWID
 40
0.05
  9
$TEXTSTYLE
  7
STANDARD
  9
$CLAYER
  8
4
  9
$CELTYPE
  6
BYLAYER
  9
$CECOLOR
 62
   256
  9
$DIMSCALE
 40
1.0
  9
$DIMASZ
 40
3.0
  9
$DIMEXO
 40
2.0
  9
$DIMDLI
 40
0.38
  9
$DIMRND
 40
0.0
  9
$DIMDLE
 40
0.0
  9
$DIMEXE
 40
2.0
  9
$DIMTP
 40
0.0
  9
$DIMTM
 40
0.0
  9
$DIMTXT
 40
3.2000000000000002
  9
$DIMCEN
 40
0.0
  9
$DIMTSZ
 40
0.0
  9
$DIMTOL
 70
     0
  9
$DIMLIM
 70
     0
  9
$DIMTIH
 70
     0
  9
$DIMTOH
 70
     0
  9
$DIMSE1
 70
     0
  9
$DIMSE2
 70
     0
  9
$DIMTAD
 70
     1
  9
$DIMZIN
 70
     0
  9
$DIMBLK
  1

  9
$DIMASO
 70
     1
  9
$DIMSHO
 70
     0
  9
$DIMPOST
  1

  9
$DIMAPOST
  1

  9
$DIMALT
 70
     0
  9
$DIMALTD
 70
     2
  9
$DIMALTF
 40
25.399999999999999
  9
$DIMLFAC
 40
1.0
  9
$DIMTOFL
 70
     0
  9
$DIMTVP
 40
1.6000000000000001
  9
$DIMTIX
 70
     1
  9
$DIMSOXD
 70
     0
  9
$DIMSAH
 70
     0
  9
$DIMBLK1
  1

  9
$DIMBLK2
  1

  9
$DIMSTYLE
  2
STANDARD
  9
$DIMCLRD
 70
     4
  9
$DIMCLRE
 70
     4
  9
$DIMCLRT
 70
     4
  9
$DIMTFAC
 40
1.0
  9
$DIMGAP
 40
0.09
  9
$LUNITS
 70
     2
  9
$LUPREC
 70
     1
  9
$SKETCHINC
 40
0.1
  9
$FILLETRAD
 40
0.0
  9
$AUNITS
 70
     0
  9
$AUPREC
 70
     0
  9
$MENU
  1
E:\r13\win\SUPPORT\ACAD
  9
$ELEVATION
 40
0.0
  9
$PELEVATION
 40
0.0
  9
$THICKNESS
 40
0.0
  9
$LIMCHECK
 70
     0
  9
$BLIPMODE
 70
     0
  9
$CHAMFERA
 40
3.0
  9
$CHAMFERB
 40
3.0
  9
$SKPOLY
 70
     0
  9
$TDCREATE
 40
2449930.679756945
  9
$TDUPDATE
 40
2456598.5921367481
  9
$TDINDWG
 40
0.0009459259
  9
$TDUSRTIMER
 40
0.0009459259
  9
$USRTIMER
 70
     1
  9
$ANGBASE
 50
0.0
  9
$ANGDIR
 70
     0
  9
$PDMODE
 70
     0
  9
$PDSIZE
 40
0.0
  9
$PLINEWID
 40
0.0
  9
$COORDS
 70
     1
  9
$SPLFRAME
 70
     0
  9
$SPLINETYPE
 70
     6
  9
$SPLINESEGS
 70
     8
  9
$ATTDIA
 70
     0
  9
$ATTREQ
 70
     1
  9
$HANDLING
 70
     1
  9
$HANDSEED
  5
3D0
  9
$SURFTAB1
 70
     6
  9
$SURFTAB2
 70
     6
  9
$SURFTYPE
 70
     6
  9
$SURFU
 70
     6
  9
$SURFV
 70
     6
  9
$UCSNAME
  2

  9
$UCSORG
 10
0.0
 20
0.0
 30
0.0
  9
$UCSXDIR
 10
1.0
 20
0.0
 30
0.0
  9
$UCSYDIR
 10
0.0
 20
1.0
 30
0.0
  9
$PUCSNAME
  2

  9
$PUCSORG
 10
0.0
 20
0.0
 30
0.0
  9
$PUCSXDIR
 10
1.0
 20
0.0
 30
0.0
  9
$PUCSYDIR
 10
0.0
 20
1.0
 30
0.0
  9
$USERI1
 70
     0
  9
$USERI2
 70
     1
  9
$USERI3
 70
     1
  9
$USERI4
 70
     0
  9
$USERI5
 70
     0
  9
$USERR1
 40
0.0
  9
$USERR2
 40
0.0
  9
$USERR3
 40
0.0
  9
$USERR4
 40
0.0
  9
$USERR5
 40
0.0
  9
$WORLDVIEW
 70
     1
  9
$SHADEDGE
 70
     3
  9
$SHADEDIF
 70
    70
  9
$TILEMODE
 70
     1
  9
$MAXACTVP
 70
    16
  9
$PLIMCHECK
 70
     0
  9
$PEXTMIN
 10
1.0000000000000000E+020
 20
1.0000000000000000E+020
 30
1.0000000000000000E+020
  9
$PEXTMAX
 10
-1.0000000000000000E+020
 20
-1.0000000000000000E+020
 30
-1.0000000000000000E+020
  9
$PLIMMIN
 10
0.0
 20
0.0
  9
$PLIMMAX
 10
12.0
 20
9.0
  9
$UNITMODE
 70
     0
  9
$VISRETAIN
 70
     0
  9
$PLINEGEN
 70
     0
  9
$PSLTSCALE
 70
     0
  0
ENDSEC
  0
SECTION
  2
TABLES
  0
TABLE
  2
VPORT
 70
     1
  0
VPORT
  2
*ACTIVE
 70
     0
 10
0.0
 20
0.0
 11
1.0
 21
1.0
 12
187.49427839065231
 22
194.785247995265
 13
0.0
 23
0.0
 14
10.0
 24
10.0
 15
10.0
 25
10.0
 16
0.0
 26
0.0
 36
1.0
 17
0.0
 27
0.0
 37
0.0
 40
399.3463374158577
 41
1.7807262569832401
 42
50.0
 43
0.0
 44
0.0
 50
0.0
 51
0.0
 71
     0
 72
   500
 73
     1
 74
     0
 75
     0
 76
     0
 77
     0
 78
     2
  0
ENDTAB
  0
TABLE
  2
LTYPE
 70
     4
  0
LTYPE
  2
CONTINUOUS
 70
     0
  3
Solid Line
 72
    65
 73
     0
 40
0.0
  0
LTYPE
  2
CENTER
 70
     0
  3
____ _ ____ _ ____ _ ____ _ ____ _ ____ _ ____
 72
    65
 73
     4
 40
2.0
 49
1.25
 49
-0.25
 49
0.25
 49
-0.25
  0
LTYPE
  2
HIDDEN
 70
     0
  3
_ _ _ _ _ _ _ _ _ _ _ _ _ _ _ _ _ _ _ _ _ _ _
 72
    65
 73
     2
 40
0.375
 49
0.25
 49
-0.125
  0
LTYPE
  2
PHANTOM2
 70
     0
  3
___ _ _ ___ _ _ ___ _ _ ___ _ _
 72
    65
 73
     6
 40
1.25
 49
0.625
 49
-0.125
 49
0.125
 49
-0.125
 49
0.125
 49
-0.125
  0
ENDTAB
  0
TABLE
  2
LAYER
 70
     5
  0
LAYER
  2
0
 70
     0
 62
     7
  6
CONTINUOUS
  0
LAYER
  2
1
 70
     0
 62
     1
  6
CENTER
  0
LAYER
  2
3
 70
     0
 62
     3
  6
CONTINUOUS
  0
LAYER
  2
4
 70
     0
 62
     4
  6
CONTINUOUS
  0
LAYER
  2
2
 70
     0
 62
     2
  6
HIDDEN
  0
ENDTAB
  0
TABLE
  2
STYLE
 70
     2
  0
STYLE
  2
STANDARD
 70
     0
 40
0.0
 41
1.0
 50
0.0
 71
     0
 42
4.0
  3
SIMPLEX
  4
BIGFONT
  0
STYLE
  2
STANDARD1
 70
     0
 40
0.0
 41
1.0
 50
0.0
 71
     0
 42
3.0
  3
txt
  4

  0
ENDTAB
  0
TABLE
  2
VIEW
 70
     1
  0
VIEW
  2
ALL
 70
     0
 40
270.0
 10
220.78595317725751
 20
135.0
 41
441.57190635451502
 11
0.0
 21
0.0
 31
1.0
 12
0.0
 22
0.0
 32
0.0
 42
50.0
 43
0.0
 44
0.0
 50
0.0
 71
     0
  0
ENDTAB
  0
TABLE
  2
UCS
 70
     0
  0
ENDTAB
  0
TABLE
  2
APPID
 70
     3
  0
APPID
  2
ACAD
 70
     0
  0
APPID
  2
ACAD_MLEADERVER
 70
     0
  0
APPID
  2
ACAD_NAV_VCDISPLAY
 70
     0
  0
ENDTAB
  0
TABLE
  2
DIMSTYLE
 70
     1
  0
DIMSTYLE
  2
STANDARD
 70
     0
  3

  4

  5

  6

  7

 40
1.0
 41
0.18
 42
0.0625
 43
0.38
 44
0.18
 45
0.0
 46
0.0
 47
0.0
 48
0.0
140
0.18
141
0.09
142
0.0
143
25.399999999999999
144
1.0
145
0.0
146
1.0
147
0.09
 71
     0
 72
     0
 73
     1
 74
     1
 75
     0
 76
     0
 77
     0
 78
     0
170
     0
171
     2
172
     0
173
     0
174
     0
175
     0
176
     0
177
     0
178
     0
  0
ENDTAB
  0
ENDSEC
  0
SECTION
  2
BLOCKS
  0
BLOCK
  8
0
  2
$MODEL_SPACE
 70
     0
 10
0.0
 20
0.0
 30
0.0
  3
$MODEL_SPACE
  1

  0
ENDBLK
  5
254
  8
0
  0
BLOCK
 67
     1
  8
0
  2
$PAPER_SPACE
 70
     0
 10
0.0
 20
0.0
 30
0.0
  3
$PAPER_SPACE
  1

  0
ENDBLK
  5
252
 67
     1
  8
0
  0
BLOCK
  8
0
  2
*X0
 70
     1
 10
0.0
 20
0.0
 30
0.0
  3
*X0
  1

  0
LINE
  5
2F
  8
0
 62
     0
 10
227.81825545624579
 20
162.4815888746088
 30
0.0
 11
239.31825545624579
 21
173.9815888746088
 31
0.0
  0
LINE
  5
30
  8
0
 62
     0
 10
226.9697273188219
 20
162.4815888746088
 30
0.0
 11
238.4697273188219
 21
173.9815888746088
 31
0.0
  0
LINE
  5
31
  8
0
 62
     0
 10
226.12119918139811
 20
162.4815888746088
 30
0.0
 11
237.62119918139811
 21
173.9815888746088
 31
0.0
  0
LINE
  5
32
  8
0
 62
     0
 10
225.27267104397421
 20
162.4815888746088
 30
0.0
 11
236.77267104397421
 21
173.9815888746088
 31
0.0
  0
LINE
  5
33
  8
0
 62
     0
 10
224.42414290655029
 20
162.4815888746088
 30
0.0
 11
235.92414290655029
 21
173.9815888746088
 31
0.0
  0
LINE
  5
34
  8
0
 62
     0
 10
223.5756147691265
 20
162.4815888746088
 30
0.0
 11
235.0756147691265
 21
173.9815888746088
 31
0.0
  0
LINE
  5
35
  8
0
 62
     0
 10
222.7270866317026
 20
162.4815888746088
 30
0.0
 11
234.2270866317026
 21
173.9815888746088
 31
0.0
  0
LINE
  5
36
  8
0
 62
     0
 10
221.87855849427879
 20
162.4815888746088
 30
0.0
 11
233.37855849427879
 21
173.9815888746088
 31
0.0
  0
LINE
  5
37
  8
0
 62
     0
 10
221.03003035685489
 20
162.4815888746088
 30
0.0
 11
232.53003035685489
 21
173.9815888746088
 31
0.0
  0
LINE
  5
38
  8
0
 62
     0
 10
220.18150221943111
 20
162.4815888746088
 30
0.0
 11
231.681502219431
 21
173.9815888746088
 31
0.0
  0
LINE
  5
39
  8
0
 62
     0
 10
219.33297408200721
 20
162.4815888746088
 30
0.0
 11
230.83297408200721
 21
173.9815888746088
 31
0.0
  0
LINE
  5
3A
  8
0
 62
     0
 10
218.4844459445834
 20
162.4815888746088
 30
0.0
 11
229.9844459445834
 21
173.9815888746088
 31
0.0
  0
LINE
  5
3B
  8
0
 62
     0
 10
217.6359178071595
 20
162.4815888746088
 30
0.0
 11
229.1359178071595
 21
173.9815888746088
 31
0.0
  0
LINE
  5
3C
  8
0
 62
     0
 10
216.7873896697356
 20
162.4815888746088
 30
0.0
 11
228.2873896697356
 21
173.9815888746088
 31
0.0
  0
LINE
  5
3D
  8
0
 62
     0
 10
215.93886153231179
 20
162.4815888746088
 30
0.0
 11
227.43886153231179
 21
173.9815888746088
 31
0.0
  0
LINE
  5
3E
  8
0
 62
     0
 10
215.09033339488789
 20
162.4815888746088
 30
0.0
 11
226.59033339488789
 21
173.9815888746088
 31
0.0
  0
LINE
  5
3F
  8
0
 62
     0
 10
214.24180525746411
 20
162.4815888746088
 30
0.0
 11
225.74180525746411
 21
173.9815888746088
 31
0.0
  0
LINE
  5
40
  8
0
 62
     0
 10
213.39327712004021
 20
162.4815888746088
 30
0.0
 11
224.89327712004021
 21
173.9815888746088
 31
0.0
  0
LINE
  5
41
  8
0
 62
     0
 10
212.5447489826164
 20
162.4815888746088
 30
0.0
 11
224.04474898261631
 21
173.9815888746088
 31
0.0
  0
LINE
  5
42
  8
0
 62
     0
 10
211.6962208451925
 20
162.4815888746088
 30
0.0
 11
223.1962208451925
 21
173.9815888746088
 31
0.0
  0
LINE
  5
43
  8
0
 62
     0
 10
210.8476927077686
 20
162.4815888746088
 30
0.0
 11
222.3476927077686
 21
173.9815888746088
 31
0.0
  0
LINE
  5
44
  8
0
 62
     0
 10
209.99916457034479
 20
162.4815888746088
 30
0.0
 11
221.49916457034479
 21
173.9815888746088
 31
0.0
  0
LINE
  5
45
  8
0
 62
     0
 10
209.15063643292089
 20
162.4815888746088
 30
0.0
 11
220.65063643292089
 21
173.9815888746088
 31
0.0
  0
LINE
  5
46
  8
0
 62
     0
 10
208.30210829549711
 20
162.4815888746088
 30
0.0
 11
219.80210829549711
 21
173.9815888746088
 31
0.0
  0
LINE
  5
47
  8
0
 62
     0
 10
207.45358015807321
 20
162.4815888746088
 30
0.0
 11
218.95358015807321
 21
173.9815888746088
 31
0.0
  0
LINE
  5
48
  8
0
 62
     0
 10
206.6050520206494
 20
162.4815888746088
 30
0.0
 11
218.10505202064931
 21
173.9815888746088
 31
0.0
  0
LINE
  5
49
  8
0
 62
     0
 10
205.7565238832255
 20
162.4815888746088
 30
0.0
 11
217.2565238832255
 21
173.9815888746088
 31
0.0
  0
LINE
  5
4A
  8
0
 62
     0
 10
204.90799574580171
 20
162.4815888746088
 30
0.0
 11
216.4079957458016
 21
173.9815888746088
 31
0.0
  0
LINE
  5
4B
  8
0
 62
     0
 10
204.05946760837779
 20
162.4815888746088
 30
0.0
 11
215.55946760837779
 21
173.9815888746088
 31
0.0
  0
LINE
  5
4C
  8
0
 62
     0
 10
203.21093947095389
 20
162.4815888746088
 30
0.0
 11
214.71093947095389
 21
173.9815888746088
 31
0.0
  0
LINE
  5
4D
  8
0
 62
     0
 10
202.3624113335301
 20
162.4815888746088
 30
0.0
 11
213.8624113335301
 21
173.9815888746088
 31
0.0
  0
LINE
  5
4E
  8
0
 62
     0
 10
201.51388319610629
 20
162.4815888746088
 30
0.0
 11
213.01388319610621
 21
173.9815888746088
 31
0.0
  0
LINE
  5
4F
  8
0
 62
     0
 10
200.66535505868239
 20
162.4815888746088
 30
0.0
 11
212.16535505868231
 21
173.9815888746088
 31
0.0
  0
LINE
  5
50
  8
0
 62
     0
 10
199.8168269212585
 20
162.4815888746088
 30
0.0
 11
211.3168269212585
 21
173.9815888746088
 31
0.0
  0
LINE
  5
51
  8
0
 62
     0
 10
198.9682987838346
 20
162.4815888746088
 30
0.0
 11
210.4682987838346
 21
173.9815888746088
 31
0.0
  0
LINE
  5
52
  8
0
 62
     0
 10
198.11977064641081
 20
162.4815888746088
 30
0.0
 11
209.61977064641081
 21
173.9815888746088
 31
0.0
  0
LINE
  5
53
  8
0
 62
     0
 10
197.27124250898689
 20
162.4815888746088
 30
0.0
 11
208.77124250898689
 21
173.9815888746088
 31
0.0
  0
LINE
  5
54
  8
0
 62
     0
 10
196.4227143715631
 20
162.4815888746088
 30
0.0
 11
207.9227143715631
 21
173.9815888746088
 31
0.0
  0
LINE
  5
55
  8
0
 62
     0
 10
195.5741862341392
 20
162.4815888746088
 30
0.0
 11
207.0741862341392
 21
173.9815888746088
 31
0.0
  0
LINE
  5
56
  8
0
 62
     0
 10
194.72565809671531
 20
162.4815888746088
 30
0.0
 11
206.22565809671539
 21
173.9815888746088
 31
0.0
  0
LINE
  5
57
  8
0
 62
     0
 10
193.87712995929149
 20
162.4815888746088
 30
0.0
 11
205.37712995929149
 21
173.9815888746088
 31
0.0
  0
LINE
  5
58
  8
0
 62
     0
 10
193.0286018218676
 20
162.4815888746088
 30
0.0
 11
204.52860182186771
 21
173.9815888746088
 31
0.0
  0
LINE
  5
59
  8
0
 62
     0
 10
192.18007368444381
 20
162.4815888746088
 30
0.0
 11
203.68007368444381
 21
173.9815888746088
 31
0.0
  0
LINE
  5
5A
  8
0
 62
     0
 10
191.33154554701991
 20
162.4815888746088
 30
0.0
 11
202.83154554701991
 21
173.9815888746088
 31
0.0
  0
LINE
  5
5B
  8
0
 62
     0
 10
190.4830174095961
 20
162.4815888746088
 30
0.0
 11
201.98301740959599
 21
173.9815888746088
 31
0.0
  0
LINE
  5
5C
  8
0
 62
     0
 10
189.6344892721722
 20
162.4815888746088
 30
0.0
 11
201.1344892721722
 21
173.9815888746088
 31
0.0
  0
LINE
  5
5D
  8
0
 62
     0
 10
188.78596113474831
 20
162.4815888746088
 30
0.0
 11
200.28596113474839
 21
173.9815888746088
 31
0.0
  0
LINE
  5
5E
  8
0
 62
     0
 10
187.93743299732449
 20
162.4815888746088
 30
0.0
 11
199.43743299732449
 21
173.9815888746088
 31
0.0
  0
LINE
  5
5F
  8
0
 62
     0
 10
187.08890485990059
 20
162.4815888746088
 30
0.0
 11
198.58890485990059
 21
173.9815888746088
 31
0.0
  0
LINE
  5
60
  8
0
 62
     0
 10
186.24037672247681
 20
162.4815888746088
 30
0.0
 11
197.74037672247681
 21
173.9815888746088
 31
0.0
  0
LINE
  5
61
  8
0
 62
     0
 10
185.39184858505291
 20
162.4815888746088
 30
0.0
 11
196.89184858505291
 21
173.9815888746088
 31
0.0
  0
LINE
  5
62
  8
0
 62
     0
 10
184.54332044762899
 20
162.4815888746088
 30
0.0
 11
196.04332044762899
 21
173.9815888746088
 31
0.0
  0
LINE
  5
63
  8
0
 62
     0
 10
183.6947923102052
 20
162.4815888746088
 30
0.0
 11
195.1947923102052
 21
173.9815888746088
 31
0.0
  0
LINE
  5
64
  8
0
 62
     0
 10
182.8462641727813
 20
162.4815888746088
 30
0.0
 11
194.3462641727813
 21
173.9815888746088
 31
0.0
  0
LINE
  5
65
  8
0
 62
     0
 10
181.99773603535749
 20
162.4815888746088
 30
0.0
 11
193.49773603535749
 21
173.9815888746088
 31
0.0
  0
LINE
  5
66
  8
0
 62
     0
 10
181.14920789793359
 20
162.4815888746088
 30
0.0
 11
192.64920789793359
 21
173.9815888746088
 31
0.0
  0
LINE
  5
67
  8
0
 62
     0
 10
180.30067976050981
 20
162.4815888746088
 30
0.0
 11
191.80067976050981
 21
173.9815888746088
 31
0.0
  0
LINE
  5
68
  8
0
 62
     0
 10
179.45215162308591
 20
162.4815888746088
 30
0.0
 11
190.95215162308591
 21
173.9815888746088
 31
0.0
  0
LINE
  5
69
  8
0
 62
     0
 10
178.6036234856621
 20
162.4815888746088
 30
0.0
 11
190.10362348566201
 21
173.9815888746088
 31
0.0
  0
LINE
  5
6A
  8
0
 62
     0
 10
177.7550953482382
 20
162.4815888746088
 30
0.0
 11
189.2550953482382
 21
173.9815888746088
 31
0.0
  0
LINE
  5
6B
  8
0
 62
     0
 10
176.9065672108143
 20
162.4815888746088
 30
0.0
 11
188.4065672108143
 21
173.9815888746088
 31
0.0
  0
LINE
  5
6C
  8
0
 62
     0
 10
176.05803907339049
 20
162.4815888746088
 30
0.0
 11
187.55803907339049
 21
173.9815888746088
 31
0.0
  0
LINE
  5
6D
  8
0
 62
     0
 10
175.20951093596659
 20
162.4815888746088
 30
0.0
 11
186.70951093596659
 21
173.9815888746088
 31
0.0
  0
LINE
  5
6E
  8
0
 62
     0
 10
174.36098279854281
 20
162.4815888746088
 30
0.0
 11
185.86098279854269
 21
173.9815888746088
 31
0.0
  0
LINE
  5
6F
  8
0
 62
     0
 10
173.51245466111891
 20
162.4815888746088
 30
0.0
 11
185.01245466111891
 21
173.9815888746088
 31
0.0
  0
LINE
  5
70
  8
0
 62
     0
 10
172.6639265236951
 20
162.4815888746088
 30
0.0
 11
184.16392652369501
 21
173.9815888746088
 31
0.0
  0
LINE
  5
71
  8
0
 62
     0
 10
171.8153983862712
 20
162.4815888746088
 30
0.0
 11
183.3153983862712
 21
173.9815888746088
 31
0.0
  0
LINE
  5
72
  8
0
 62
     0
 10
170.96687024884741
 20
162.4815888746088
 30
0.0
 11
182.4668702488473
 21
173.9815888746088
 31
0.0
  0
LINE
  5
73
  8
0
 62
     0
 10
170.11834211142349
 20
162.4815888746088
 30
0.0
 11
181.61834211142349
 21
173.9815888746088
 31
0.0
  0
LINE
  5
74
  8
0
 62
     0
 10
169.26981397399959
 20
162.4815888746088
 30
0.0
 11
180.76981397399959
 21
173.9815888746088
 31
0.0
  0
LINE
  5
75
  8
0
 62
     0
 10
168.42128583657581
 20
162.4815888746088
 30
0.0
 11
179.92128583657581
 21
173.9815888746088
 31
0.0
  0
LINE
  5
76
  8
0
 62
     0
 10
167.57275769915191
 20
162.4815888746088
 30
0.0
 11
179.07275769915191
 21
173.9815888746088
 31
0.0
  0
LINE
  5
77
  8
0
 62
     0
 10
166.72422956172809
 20
162.4815888746088
 30
0.0
 11
178.22422956172801
 21
173.9815888746088
 31
0.0
  0
LINE
  5
78
  8
0
 62
     0
 10
165.8757014243042
 20
162.4815888746088
 30
0.0
 11
177.3757014243042
 21
173.9815888746088
 31
0.0
  0
LINE
  5
79
  8
0
 62
     0
 10
165.02717328688041
 20
162.4815888746088
 30
0.0
 11
176.5271732868803
 21
173.9815888746088
 31
0.0
  0
LINE
  5
7A
  8
0
 62
     0
 10
164.17864514945649
 20
162.4815888746088
 30
0.0
 11
175.67864514945649
 21
173.9815888746088
 31
0.0
  0
LINE
  5
7B
  8
0
 62
     0
 10
163.3301170120327
 20
162.4815888746088
 30
0.0
 11
174.83011701203259
 21
173.9815888746088
 31
0.0
  0
LINE
  5
7C
  8
0
 62
     0
 10
162.4815888746088
 20
162.4815888746088
 30
0.0
 11
173.9815888746088
 21
173.9815888746088
 31
0.0
  0
LINE
  5
7D
  8
0
 62
     0
 10
161.63306073718491
 20
162.4815888746088
 30
0.0
 11
173.13306073718491
 21
173.9815888746088
 31
0.0
  0
LINE
  5
7E
  8
0
 62
     0
 10
160.78453259976109
 20
162.4815888746088
 30
0.0
 11
172.28453259976109
 21
173.9815888746088
 31
0.0
  0
LINE
  5
7F
  8
0
 62
     0
 10
159.93600446233719
 20
162.4815888746088
 30
0.0
 11
171.43600446233719
 21
173.9815888746088
 31
0.0
  0
LINE
  5
80
  8
0
 62
     0
 10
159.08747632491341
 20
162.4815888746088
 30
0.0
 11
170.5874763249133
 21
173.9815888746088
 31
0.0
  0
LINE
  5
81
  8
0
 62
     0
 10
158.83167122627549
 20
163.07431191339481
 30
0.0
 11
169.73894818748951
 21
173.9815888746088
 31
0.0
  0
LINE
  5
82
  8
0
 62
     0
 10
158.83167122627549
 20
163.92284005081871
 30
0.0
 11
168.89042005006559
 21
173.9815888746088
 31
0.0
  0
LINE
  5
83
  8
0
 62
     0
 10
158.83167122627549
 20
164.7713681882426
 30
0.0
 11
168.0418919126418
 21
173.9815888746088
 31
0.0
  0
LINE
  5
84
  8
0
 62
     0
 10
158.83167122627549
 20
165.61989632566639
 30
0.0
 11
167.1933637752179
 21
173.9815888746088
 31
0.0
  0
LINE
  5
85
  8
0
 62
     0
 10
158.83167122627549
 20
166.46842446309029
 30
0.0
 11
166.34483563779409
 21
173.9815888746088
 31
0.0
  0
LINE
  5
86
  8
0
 62
     0
 10
158.83167122627549
 20
167.3169526005141
 30
0.0
 11
165.49630750037019
 21
173.9815888746088
 31
0.0
  0
LINE
  5
87
  8
0
 62
     0
 10
158.83167122627549
 20
168.165480737938
 30
0.0
 11
164.64777936294641
 21
173.9815888746088
 31
0.0
  0
LINE
  5
88
  8
0
 62
     0
 10
158.83167122627549
 20
169.01400887536181
 30
0.0
 11
163.79925122552251
 21
173.9815888746088
 31
0.0
  0
LINE
  5
89
  8
0
 62
     0
 10
158.83167122627549
 20
169.86253701278571
 30
0.0
 11
162.9507230880987
 21
173.9815888746088
 31
0.0
  0
LINE
  5
8A
  8
0
 62
     0
 10
158.83167122627549
 20
170.71106515020949
 30
0.0
 11
162.1021949506748
 21
173.9815888746088
 31
0.0
  0
LINE
  5
8B
  8
0
 62
     0
 10
158.83167122627549
 20
171.55959328763339
 30
0.0
 11
161.2536668132509
 21
173.9815888746088
 31
0.0
  0
LINE
  5
8C
  8
0
 62
     0
 10
158.83167122627549
 20
172.4081214250572
 30
0.0
 11
160.40513867582709
 21
173.9815888746088
 31
0.0
  0
LINE
  5
8D
  8
0
 62
     0
 10
158.83167122627549
 20
173.2566495624811
 30
0.0
 11
159.55661053840319
 21
173.9815888746088
 31
0.0
  0
LINE
  5
8E
  8
0
 62
     0
 10
228.66678359366961
 20
162.4815888746088
 30
0.0
 11
240.16678359366961
 21
173.9815888746088
 31
0.0
  0
LINE
  5
8F
  8
0
 62
     0
 10
229.5153117310935
 20
162.4815888746088
 30
0.0
 11
241.0153117310935
 21
173.9815888746088
 31
0.0
  0
LINE
  5
90
  8
0
 62
     0
 10
230.3638398685174
 20
162.4815888746088
 30
0.0
 11
241.86383986851729
 21
173.9815888746088
 31
0.0
  0
LINE
  5
91
  8
0
 62
     0
 10
231.21236800594119
 20
162.4815888746088
 30
0.0
 11
242.71236800594119
 21
173.9815888746088
 31
0.0
  0
LINE
  5
92
  8
0
 62
     0
 10
232.060896143365
 20
162.4815888746088
 30
0.0
 11
243.56089614336511
 21
173.9815888746088
 31
0.0
  0
LINE
  5
93
  8
0
 62
     0
 10
232.9094242807889
 20
162.4815888746088
 30
0.0
 11
244.4094242807889
 21
173.9815888746088
 31
0.0
  0
LINE
  5
94
  8
0
 62
     0
 10
233.7579524182128
 20
162.4815888746088
 30
0.0
 11
245.25795241821271
 21
173.9815888746088
 31
0.0
  0
LINE
  5
95
  8
0
 62
     0
 10
234.60648055563661
 20
162.4815888746088
 30
0.0
 11
246.10648055563661
 21
173.9815888746088
 31
0.0
  0
LINE
  5
96
  8
0
 62
     0
 10
235.45500869306051
 20
162.4815888746088
 30
0.0
 11
246.95500869306051
 21
173.9815888746088
 31
0.0
  0
LINE
  5
97
  8
0
 62
     0
 10
236.30353683048429
 20
162.4815888746088
 30
0.0
 11
247.8035368304844
 21
173.9815888746088
 31
0.0
  0
LINE
  5
98
  8
0
 62
     0
 10
237.15206496790819
 20
162.4815888746088
 30
0.0
 11
248.65206496790819
 21
173.9815888746088
 31
0.0
  0
LINE
  5
99
  8
0
 62
     0
 10
238.00059310533209
 20
162.4815888746088
 30
0.0
 11
249.50059310533209
 21
173.9815888746088
 31
0.0
  0
LINE
  5
9A
  8
0
 62
     0
 10
238.8491212427559
 20
162.4815888746088
 30
0.0
 11
250.3491212427559
 21
173.9815888746088
 31
0.0
  0
LINE
  5
9B
  8
0
 62
     0
 10
239.6976493801798
 20
162.4815888746088
 30
0.0
 11
251.1976493801798
 21
173.9815888746088
 31
0.0
  0
LINE
  5
9C
  8
0
 62
     0
 10
240.54617751760361
 20
162.4815888746088
 30
0.0
 11
252.04617751760361
 21
173.9815888746088
 31
0.0
  0
LINE
  5
9D
  8
0
 62
     0
 10
241.39470565502751
 20
162.4815888746088
 30
0.0
 11
252.89470565502751
 21
173.9815888746088
 31
0.0
  0
LINE
  5
9E
  8
0
 62
     0
 10
242.24323379245129
 20
162.4815888746088
 30
0.0
 11
253.74323379245141
 21
173.9815888746088
 31
0.0
  0
LINE
  5
9F
  8
0
 62
     0
 10
243.09176192987519
 20
162.4815888746088
 30
0.0
 11
254.59176192987519
 21
173.9815888746088
 31
0.0
  0
LINE
  5
A0
  8
0
 62
     0
 10
243.94029006729909
 20
162.4815888746088
 30
0.0
 11
255.440290067299
 21
173.9815888746088
 31
0.0
  0
LINE
  5
A1
  8
0
 62
     0
 10
244.7888182047229
 20
162.4815888746088
 30
0.0
 11
256.28881820472287
 21
173.9815888746088
 31
0.0
  0
LINE
  5
A2
  8
0
 62
     0
 10
245.6373463421468
 20
162.4815888746088
 30
0.0
 11
257.13734634214683
 21
173.9815888746088
 31
0.0
  0
LINE
  5
A3
  8
0
 62
     0
 10
246.48587447957061
 20
162.4815888746088
 30
0.0
 11
257.98587447957061
 21
173.9815888746088
 31
0.0
  0
LINE
  5
A4
  8
0
 62
     0
 10
247.33440261699451
 20
162.4815888746088
 30
0.0
 11
258.83440261699451
 21
173.9815888746088
 31
0.0
  0
LINE
  5
A5
  8
0
 62
     0
 10
248.18293075441841
 20
162.4815888746088
 30
0.0
 11
259.68293075441829
 21
173.9815888746088
 31
0.0
  0
LINE
  5
A6
  8
0
 62
     0
 10
249.03145889184219
 20
162.4815888746088
 30
0.0
 11
260.53145889184219
 21
173.9815888746088
 31
0.0
  0
LINE
  5
A7
  8
0
 62
     0
 10
249.87998702926609
 20
162.4815888746088
 30
0.0
 11
261.37998702926598
 21
173.9815888746088
 31
0.0
  0
LINE
  5
A8
  8
0
 62
     0
 10
250.7285151666899
 20
162.4815888746088
 30
0.0
 11
262.22851516668987
 21
173.9815888746088
 31
0.0
  0
LINE
  5
A9
  8
0
 62
     0
 10
251.5770433041138
 20
162.4815888746088
 30
0.0
 11
263.07704330411377
 21
173.9815888746088
 31
0.0
  0
LINE
  5
AA
  8
0
 62
     0
 10
252.42557144153761
 20
162.4815888746088
 30
0.0
 11
263.92557144153761
 21
173.9815888746088
 31
0.0
  0
LINE
  5
AB
  8
0
 62
     0
 10
253.27409957896151
 20
162.4815888746088
 30
0.0
 11
264.77409957896151
 21
173.9815888746088
 31
0.0
  0
LINE
  5
AC
  8
0
 62
     0
 10
254.12262771638541
 20
162.4815888746088
 30
0.0
 11
265.6226277163853
 21
173.9815888746088
 31
0.0
  0
LINE
  5
AD
  8
0
 62
     0
 10
254.97115585380919
 20
162.4815888746088
 30
0.0
 11
266.47115585380919
 21
173.9815888746088
 31
0.0
  0
LINE
  5
AE
  8
0
 62
     0
 10
255.81968399123301
 20
162.4815888746088
 30
0.0
 11
267.31968399123298
 21
173.9815888746088
 31
0.0
  0
LINE
  5
AF
  8
0
 62
     0
 10
256.66821212865688
 20
162.4815888746088
 30
0.0
 11
268.16821212865688
 21
173.9815888746088
 31
0.0
  0
LINE
  5
B0
  8
0
 62
     0
 10
257.51674026608077
 20
162.4815888746088
 30
0.0
 11
269.01674026608077
 21
173.9815888746088
 31
0.0
  0
LINE
  5
B1
  8
0
 62
     0
 10
258.36526840350461
 20
162.4815888746088
 30
0.0
 11
269.86526840350461
 21
173.9815888746088
 31
0.0
  0
LINE
  5
B2
  8
0
 62
     0
 10
259.21379654092851
 20
162.4815888746088
 30
0.0
 11
270.7137965409284
 21
173.9815888746088
 31
0.0
  0
LINE
  5
B3
  8
0
 62
     0
 10
260.0623246783523
 20
162.4815888746088
 30
0.0
 11
271.56232467835241
 21
173.9815888746088
 31
0.0
  0
LINE
  5
B4
  8
0
 62
     0
 10
260.9108528157762
 20
162.4815888746088
 30
0.0
 11
272.4108528157762
 21
173.9815888746088
 31
0.0
  0
LINE
  5
B5
  8
0
 62
     0
 10
261.75938095320009
 20
162.4815888746088
 30
0.0
 11
273.25938095320009
 21
173.9815888746088
 31
0.0
  0
LINE
  5
B6
  8
0
 62
     0
 10
262.60790909062388
 20
162.4815888746088
 30
0.0
 11
274.10790909062388
 21
173.9815888746088
 31
0.0
  0
LINE
  5
B7
  8
0
 62
     0
 10
263.45643722804778
 20
162.4815888746088
 30
0.0
 11
274.95643722804778
 21
173.9815888746088
 31
0.0
  0
LINE
  5
B8
  8
0
 62
     0
 10
264.30496536547162
 20
162.4815888746088
 30
0.0
 11
275.80496536547162
 21
173.9815888746088
 31
0.0
  0
LINE
  5
B9
  8
0
 62
     0
 10
265.1534935028954
 20
162.4815888746088
 30
0.0
 11
276.65349350289551
 21
173.9815888746088
 31
0.0
  0
LINE
  5
BA
  8
0
 62
     0
 10
266.0020216403193
 20
162.4815888746088
 30
0.0
 11
277.50202164031941
 21
173.9815888746088
 31
0.0
  0
LINE
  5
BB
  8
0
 62
     0
 10
266.8505497777432
 20
162.4815888746088
 30
0.0
 11
278.3505497777432
 21
173.9815888746088
 31
0.0
  0
LINE
  5
BC
  8
0
 62
     0
 10
267.69907791516698
 20
162.4815888746088
 30
0.0
 11
279.19907791516698
 21
173.9815888746088
 31
0.0
  0
LINE
  5
BD
  8
0
 62
     0
 10
268.54760605259099
 20
162.4815888746088
 30
0.0
 11
280.04760605259088
 21
173.9815888746088
 31
0.0
  0
LINE
  5
BE
  8
0
 62
     0
 10
269.39613419001478
 20
162.4815888746088
 30
0.0
 11
280.89613419001478
 21
173.9815888746088
 31
0.0
  0
LINE
  5
BF
  8
0
 62
     0
 10
270.24466232743862
 20
162.4815888746088
 30
0.0
 11
281.74466232743862
 21
173.9815888746088
 31
0.0
  0
LINE
  5
C0
  8
0
 62
     0
 10
271.0931904648624
 20
162.4815888746088
 30
0.0
 11
282.59319046486252
 21
173.9815888746088
 31
0.0
  0
LINE
  5
C1
  8
0
 62
     0
 10
271.94171860228641
 20
162.4815888746088
 30
0.0
 11
283.4417186022863
 21
173.9815888746088
 31
0.0
  0
LINE
  5
C2
  8
0
 62
     0
 10
272.7902467397102
 20
162.4815888746088
 30
0.0
 11
284.2902467397102
 21
173.9815888746088
 31
0.0
  0
LINE
  5
C3
  8
0
 62
     0
 10
273.6387748771341
 20
162.4815888746088
 30
0.0
 11
285.13877487713398
 21
173.9815888746088
 31
0.0
  0
LINE
  5
C4
  8
0
 62
     0
 10
274.48730301455788
 20
162.4815888746088
 30
0.0
 11
285.98730301455788
 21
173.9815888746088
 31
0.0
  0
LINE
  5
C5
  8
0
 62
     0
 10
275.33583115198178
 20
162.4815888746088
 30
0.0
 11
286.83583115198178
 21
173.9815888746088
 31
0.0
  0
LINE
  5
C6
  8
0
 62
     0
 10
276.18435928940562
 20
162.4815888746088
 30
0.0
 11
287.68435928940562
 21
173.9815888746088
 31
0.0
  0
LINE
  5
C7
  8
0
 62
     0
 10
277.03288742682952
 20
162.4815888746088
 30
0.0
 11
288.5328874268294
 21
173.9815888746088
 31
0.0
  0
LINE
  5
C8
  8
0
 62
     0
 10
277.88141556425342
 20
162.4815888746088
 30
0.0
 11
289.3814155642533
 21
173.9815888746088
 31
0.0
  0
LINE
  5
C9
  8
0
 62
     0
 10
278.7299437016772
 20
162.4815888746088
 30
0.0
 11
290.2299437016772
 21
173.9815888746088
 31
0.0
  0
LINE
  5
CA
  8
0
 62
     0
 10
279.57847183910098
 20
162.4815888746088
 30
0.0
 11
291.07847183910098
 21
173.9815888746088
 31
0.0
  0
LINE
  5
CB
  8
0
 62
     0
 10
280.42699997652488
 20
162.4815888746088
 30
0.0
 11
291.92699997652488
 21
173.9815888746088
 31
0.0
  0
LINE
  5
CC
  8
0
 62
     0
 10
281.27552811394878
 20
162.4815888746088
 30
0.0
 11
292.77552811394878
 21
173.9815888746088
 31
0.0
  0
LINE
  5
CD
  8
0
 62
     0
 10
282.12405625137262
 20
162.4815888746088
 30
0.0
 11
293.62405625137262
 21
173.9815888746088
 31
0.0
  0
LINE
  5
CE
  8
0
 62
     0
 10
282.97258438879652
 20
162.4815888746088
 30
0.0
 11
294.47258438879652
 21
173.9815888746088
 31
0.0
  0
LINE
  5
CF
  8
0
 62
     0
 10
283.8211125262203
 20
162.4815888746088
 30
0.0
 11
295.3211125262203
 21
173.9815888746088
 31
0.0
  0
LINE
  5
D0
  8
0
 62
     0
 10
284.6696406636442
 20
162.4815888746088
 30
0.0
 11
296.1696406636442
 21
173.9815888746088
 31
0.0
  0
LINE
  5
D1
  8
0
 62
     0
 10
285.51816880106799
 20
162.4815888746088
 30
0.0
 11
297.0181688010681
 21
173.9815888746088
 31
0.0
  0
LINE
  5
D2
  8
0
 62
     0
 10
286.36669693849188
 20
162.4815888746088
 30
0.0
 11
297.86669693849188
 21
173.9815888746088
 31
0.0
  0
LINE
  5
D3
  8
0
 62
     0
 10
287.21522507591578
 20
162.4815888746088
 30
0.0
 11
298.71522507591573
 21
173.9815888746088
 31
0.0
  0
LINE
  5
D4
  8
0
 62
     0
 10
288.06375321333962
 20
162.4815888746088
 30
0.0
 11
299.56375321333962
 21
173.9815888746088
 31
0.0
  0
LINE
  5
D5
  8
0
 62
     0
 10
288.91228135076352
 20
162.4815888746088
 30
0.0
 11
300.41228135076352
 21
173.9815888746088
 31
0.0
  0
LINE
  5
D6
  8
0
 62
     0
 10
289.76080948818742
 20
162.4815888746088
 30
0.0
 11
301.26080948818742
 21
173.9815888746088
 31
0.0
  0
LINE
  5
D7
  8
0
 62
     0
 10
290.6093376256112
 20
162.4815888746088
 30
0.0
 11
302.1093376256112
 21
173.9815888746088
 31
0.0
  0
LINE
  5
D8
  8
0
 62
     0
 10
291.45786576303499
 20
162.4815888746088
 30
0.0
 11
302.95786576303499
 21
173.9815888746088
 31
0.0
  0
LINE
  5
D9
  8
0
 62
     0
 10
292.30639390045889
 20
162.4815888746088
 30
0.0
 11
303.80639390045889
 21
173.9815888746088
 31
0.0
  0
LINE
  5
DA
  8
0
 62
     0
 10
293.15492203788278
 20
162.4815888746088
 30
0.0
 11
304.65492203788273
 21
173.9815888746088
 31
0.0
  0
LINE
  5
DB
  8
0
 62
     0
 10
294.00345017530663
 20
162.4815888746088
 30
0.0
 11
305.50345017530663
 21
173.9815888746088
 31
0.0
  0
LINE
  5
DC
  8
0
 62
     0
 10
294.85197831273052
 20
162.4815888746088
 30
0.0
 11
306.35197831273052
 21
173.9815888746088
 31
0.0
  0
LINE
  5
DD
  8
0
 62
     0
 10
295.70050645015431
 20
162.4815888746088
 30
0.0
 11
307.20050645015431
 21
173.9815888746088
 31
0.0
  0
LINE
  5
DE
  8
0
 62
     0
 10
296.54903458757821
 20
162.4815888746088
 30
0.0
 11
308.04903458757821
 21
173.9815888746088
 31
0.0
  0
LINE
  5
DF
  8
0
 62
     0
 10
297.3975627250021
 20
162.4815888746088
 30
0.0
 11
308.83167122627572
 21
173.91569737588239
 31
0.0
  0
LINE
  5
E0
  8
0
 62
     0
 10
298.24609086242589
 20
162.4815888746088
 30
0.0
 11
308.83167122627572
 21
173.0671692384586
 31
0.0
  0
LINE
  5
E1
  8
0
 62
     0
 10
299.09461899984979
 20
162.4815888746088
 30
0.0
 11
308.83167122627572
 21
172.21864110103471
 31
0.0
  0
LINE
  5
E2
  8
0
 62
     0
 10
299.94314713727363
 20
162.4815888746088
 30
0.0
 11
308.83167122627572
 21
171.37011296361089
 31
0.0
  0
LINE
  5
E3
  8
0
 62
     0
 10
300.79167527469752
 20
162.4815888746088
 30
0.0
 11
308.83167122627572
 21
170.521584826187
 31
0.0
  0
LINE
  5
E4
  8
0
 62
     0
 10
301.64020341212131
 20
162.4815888746088
 30
0.0
 11
308.83167122627572
 21
169.6730566887631
 31
0.0
  0
LINE
  5
E5
  8
0
 62
     0
 10
302.48873154954521
 20
162.4815888746088
 30
0.0
 11
308.83167122627572
 21
168.82452855133931
 31
0.0
  0
LINE
  5
E6
  8
0
 62
     0
 10
303.33725968696899
 20
162.4815888746088
 30
0.0
 11
308.83167122627572
 21
167.97600041391539
 31
0.0
  0
LINE
  5
E7
  8
0
 62
     0
 10
304.18578782439289
 20
162.4815888746088
 30
0.0
 11
308.83167122627572
 21
167.1274722764916
 31
0.0
  0
LINE
  5
E8
  8
0
 62
     0
 10
305.03431596181679
 20
162.4815888746088
 30
0.0
 11
308.83167122627572
 21
166.2789441390677
 31
0.0
  0
LINE
  5
E9
  8
0
 62
     0
 10
305.88284409924057
 20
162.4815888746088
 30
0.0
 11
308.83167122627572
 21
165.43041600164389
 31
0.0
  0
LINE
  5
EA
  8
0
 62
     0
 10
306.73137223666453
 20
162.4815888746088
 30
0.0
 11
308.83167122627572
 21
164.58188786421999
 31
0.0
  0
LINE
  5
EB
  8
0
 62
     0
 10
307.57990037408831
 20
162.4815888746088
 30
0.0
 11
308.83167122627572
 21
163.7333597267961
 31
0.0
  0
LINE
  5
EC
  8
0
 62
     0
 10
308.42842851151221
 20
162.4815888746088
 30
0.0
 11
308.83167122627572
 21
162.88483158937231
 31
0.0
  0
LINE
  5
ED
  8
0
 62
     0
 10
238.8722201268755
 20
162.4815888746088
 30
0.0
 11
227.3722201268755
 21
173.9815888746088
 31
0.0
  0
LINE
  5
EE
  8
0
 62
     0
 10
238.02369198945169
 20
162.4815888746088
 30
0.0
 11
226.52369198945161
 21
173.9815888746088
 31
0.0
  0
LINE
  5
EF
  8
0
 62
     0
 10
237.17516385202771
 20
162.4815888746088
 30
0.0
 11
225.67516385202771
 21
173.9815888746088
 31
0.0
  0
LINE
  5
F0
  8
0
 62
     0
 10
236.32663571460401
 20
162.4815888746088
 30
0.0
 11
224.8266357146039
 21
173.9815888746088
 31
0.0
  0
LINE
  5
F1
  8
0
 62
     0
 10
235.47810757718
 20
162.4815888746088
 30
0.0
 11
223.97810757718011
 21
173.9815888746088
 31
0.0
  0
LINE
  5
F2
  8
0
 62
     0
 10
234.62957943975621
 20
162.4815888746088
 30
0.0
 11
223.1295794397563
 21
173.9815888746088
 31
0.0
  0
LINE
  5
F3
  8
0
 62
     0
 10
233.78105130233229
 20
162.4815888746088
 30
0.0
 11
222.2810513023324
 21
173.9815888746088
 31
0.0
  0
LINE
  5
F4
  8
0
 62
     0
 10
232.9325231649085
 20
162.4815888746088
 30
0.0
 11
221.4325231649085
 21
173.9815888746088
 31
0.0
  0
LINE
  5
F5
  8
0
 62
     0
 10
232.08399502748469
 20
162.4815888746088
 30
0.0
 11
220.5839950274846
 21
173.9815888746088
 31
0.0
  0
LINE
  5
F6
  8
0
 62
     0
 10
231.23546689006079
 20
162.4815888746088
 30
0.0
 11
219.73546689006079
 21
173.9815888746088
 31
0.0
  0
LINE
  5
F7
  8
0
 62
     0
 10
230.38693875263689
 20
162.4815888746088
 30
0.0
 11
218.88693875263701
 21
173.9815888746088
 31
0.0
  0
LINE
  5
F8
  8
0
 62
     0
 10
229.53841061521311
 20
162.4815888746088
 30
0.0
 11
218.03841061521311
 21
173.9815888746088
 31
0.0
  0
LINE
  5
F9
  8
0
 62
     0
 10
228.68988247778921
 20
162.4815888746088
 30
0.0
 11
217.18988247778921
 21
173.9815888746088
 31
0.0
  0
LINE
  5
FA
  8
0
 62
     0
 10
227.8413543403654
 20
162.4815888746088
 30
0.0
 11
216.3413543403654
 21
173.9815888746088
 31
0.0
  0
LINE
  5
FB
  8
0
 62
     0
 10
226.9928262029415
 20
162.4815888746088
 30
0.0
 11
215.4928262029415
 21
173.9815888746088
 31
0.0
  0
LINE
  5
FC
  8
0
 62
     0
 10
226.14429806551769
 20
162.4815888746088
 30
0.0
 11
214.64429806551769
 21
173.9815888746088
 31
0.0
  0
LINE
  5
FD
  8
0
 62
     0
 10
225.29576992809379
 20
162.4815888746088
 30
0.0
 11
213.79576992809379
 21
173.9815888746088
 31
0.0
  0
LINE
  5
FE
  8
0
 62
     0
 10
224.44724179066989
 20
162.4815888746088
 30
0.0
 11
212.94724179066989
 21
173.9815888746088
 31
0.0
  0
LINE
  5
FF
  8
0
 62
     0
 10
223.59871365324611
 20
162.4815888746088
 30
0.0
 11
212.09871365324611
 21
173.9815888746088
 31
0.0
  0
LINE
  5
100
  8
0
 62
     0
 10
222.75018551582221
 20
162.4815888746088
 30
0.0
 11
211.25018551582221
 21
173.9815888746088
 31
0.0
  0
LINE
  5
101
  8
0
 62
     0
 10
221.9016573783984
 20
162.4815888746088
 30
0.0
 11
210.4016573783984
 21
173.9815888746088
 31
0.0
  0
LINE
  5
102
  8
0
 62
     0
 10
221.0531292409745
 20
162.4815888746088
 30
0.0
 11
209.5531292409745
 21
173.9815888746088
 31
0.0
  0
LINE
  5
103
  8
0
 62
     0
 10
220.20460110355069
 20
162.4815888746088
 30
0.0
 11
208.70460110355069
 21
173.9815888746088
 31
0.0
  0
LINE
  5
104
  8
0
 62
     0
 10
219.35607296612679
 20
162.4815888746088
 30
0.0
 11
207.85607296612679
 21
173.9815888746088
 31
0.0
  0
LINE
  5
105
  8
0
 62
     0
 10
218.50754482870289
 20
162.4815888746088
 30
0.0
 11
207.00754482870289
 21
173.9815888746088
 31
0.0
  0
LINE
  5
106
  8
0
 62
     0
 10
217.65901669127911
 20
162.4815888746088
 30
0.0
 11
206.15901669127911
 21
173.9815888746088
 31
0.0
  0
LINE
  5
107
  8
0
 62
     0
 10
216.81048855385521
 20
162.4815888746088
 30
0.0
 11
205.31048855385521
 21
173.9815888746088
 31
0.0
  0
LINE
  5
108
  8
0
 62
     0
 10
215.9619604164314
 20
162.4815888746088
 30
0.0
 11
204.4619604164314
 21
173.9815888746088
 31
0.0
  0
LINE
  5
109
  8
0
 62
     0
 10
215.1134322790075
 20
162.4815888746088
 30
0.0
 11
203.6134322790075
 21
173.9815888746088
 31
0.0
  0
LINE
  5
10A
  8
0
 62
     0
 10
214.2649041415836
 20
162.4815888746088
 30
0.0
 11
202.7649041415836
 21
173.9815888746088
 31
0.0
  0
LINE
  5
10B
  8
0
 62
     0
 10
213.41637600415979
 20
162.4815888746088
 30
0.0
 11
201.91637600415979
 21
173.9815888746088
 31
0.0
  0
LINE
  5
10C
  8
0
 62
     0
 10
212.56784786673589
 20
162.4815888746088
 30
0.0
 11
201.06784786673589
 21
173.9815888746088
 31
0.0
  0
LINE
  5
10D
  8
0
 62
     0
 10
211.7193197293121
 20
162.4815888746088
 30
0.0
 11
200.2193197293121
 21
173.9815888746088
 31
0.0
  0
LINE
  5
10E
  8
0
 62
     0
 10
210.87079159188821
 20
162.4815888746088
 30
0.0
 11
199.37079159188821
 21
173.9815888746088
 31
0.0
  0
LINE
  5
10F
  8
0
 62
     0
 10
210.02226345446431
 20
162.4815888746088
 30
0.0
 11
198.52226345446431
 21
173.9815888746088
 31
0.0
  0
LINE
  5
110
  8
0
 62
     0
 10
209.1737353170405
 20
162.4815888746088
 30
0.0
 11
197.6737353170405
 21
173.9815888746088
 31
0.0
  0
LINE
  5
111
  8
0
 62
     0
 10
208.3252071796166
 20
162.4815888746088
 30
0.0
 11
196.8252071796166
 21
173.9815888746088
 31
0.0
  0
LINE
  5
112
  8
0
 62
     0
 10
207.47667904219281
 20
162.4815888746088
 30
0.0
 11
195.97667904219281
 21
173.9815888746088
 31
0.0
  0
LINE
  5
113
  8
0
 62
     0
 10
206.62815090476889
 20
162.4815888746088
 30
0.0
 11
195.12815090476889
 21
173.9815888746088
 31
0.0
  0
LINE
  5
114
  8
0
 62
     0
 10
205.77962276734499
 20
162.4815888746088
 30
0.0
 11
194.27962276734499
 21
173.9815888746088
 31
0.0
  0
LINE
  5
115
  8
0
 62
     0
 10
204.9310946299212
 20
162.4815888746088
 30
0.0
 11
193.43109462992129
 21
173.9815888746088
 31
0.0
  0
LINE
  5
116
  8
0
 62
     0
 10
204.08256649249739
 20
162.4815888746088
 30
0.0
 11
192.58256649249731
 21
173.9815888746088
 31
0.0
  0
LINE
  5
117
  8
0
 62
     0
 10
203.23403835507361
 20
162.4815888746088
 30
0.0
 11
191.73403835507349
 21
173.9815888746088
 31
0.0
  0
LINE
  5
118
  8
0
 62
     0
 10
202.38551021764971
 20
162.4815888746088
 30
0.0
 11
190.8855102176496
 21
173.9815888746088
 31
0.0
  0
LINE
  5
119
  8
0
 62
     0
 10
201.5369820802257
 20
162.4815888746088
 30
0.0
 11
190.03698208022581
 21
173.9815888746088
 31
0.0
  0
LINE
  5
11A
  8
0
 62
     0
 10
200.688453942802
 20
162.4815888746088
 30
0.0
 11
189.18845394280191
 21
173.9815888746088
 31
0.0
  0
LINE
  5
11B
  8
0
 62
     0
 10
199.8399258053781
 20
162.4815888746088
 30
0.0
 11
188.3399258053781
 21
173.9815888746088
 31
0.0
  0
LINE
  5
11C
  8
0
 62
     0
 10
198.9913976679542
 20
162.4815888746088
 30
0.0
 11
187.4913976679542
 21
173.9815888746088
 31
0.0
  0
LINE
  5
11D
  8
0
 62
     0
 10
198.14286953053039
 20
162.4815888746088
 30
0.0
 11
186.64286953053039
 21
173.9815888746088
 31
0.0
  0
LINE
  5
11E
  8
0
 62
     0
 10
197.29434139310649
 20
162.4815888746088
 30
0.0
 11
185.79434139310649
 21
173.9815888746088
 31
0.0
  0
LINE
  5
11F
  8
0
 62
     0
 10
196.44581325568271
 20
162.4815888746088
 30
0.0
 11
184.94581325568271
 21
173.9815888746088
 31
0.0
  0
LINE
  5
120
  8
0
 62
     0
 10
195.59728511825881
 20
162.4815888746088
 30
0.0
 11
184.09728511825881
 21
173.9815888746088
 31
0.0
  0
LINE
  5
121
  8
0
 62
     0
 10
194.74875698083491
 20
162.4815888746088
 30
0.0
 11
183.24875698083491
 21
173.9815888746088
 31
0.0
  0
LINE
  5
122
  8
0
 62
     0
 10
193.9002288434111
 20
162.4815888746088
 30
0.0
 11
182.4002288434111
 21
173.9815888746088
 31
0.0
  0
LINE
  5
123
  8
0
 62
     0
 10
193.0517007059872
 20
162.4815888746088
 30
0.0
 11
181.5517007059872
 21
173.9815888746088
 31
0.0
  0
LINE
  5
124
  8
0
 62
     0
 10
192.20317256856339
 20
162.4815888746088
 30
0.0
 11
180.70317256856339
 21
173.9815888746088
 31
0.0
  0
LINE
  5
125
  8
0
 62
     0
 10
191.35464443113949
 20
162.4815888746088
 30
0.0
 11
179.85464443113949
 21
173.9815888746088
 31
0.0
  0
LINE
  5
126
  8
0
 62
     0
 10
190.50611629371559
 20
162.4815888746088
 30
0.0
 11
179.00611629371559
 21
173.9815888746088
 31
0.0
  0
LINE
  5
127
  8
0
 62
     0
 10
189.65758815629181
 20
162.4815888746088
 30
0.0
 11
178.15758815629181
 21
173.9815888746088
 31
0.0
  0
LINE
  5
128
  8
0
 62
     0
 10
188.80906001886791
 20
162.4815888746088
 30
0.0
 11
177.30906001886791
 21
173.9815888746088
 31
0.0
  0
LINE
  5
129
  8
0
 62
     0
 10
187.9605318814441
 20
162.4815888746088
 30
0.0
 11
176.4605318814441
 21
173.9815888746088
 31
0.0
  0
LINE
  5
12A
  8
0
 62
     0
 10
187.1120037440202
 20
162.4815888746088
 30
0.0
 11
175.6120037440202
 21
173.9815888746088
 31
0.0
  0
LINE
  5
12B
  8
0
 62
     0
 10
186.2634756065963
 20
162.4815888746088
 30
0.0
 11
174.76347560659639
 21
173.9815888746088
 31
0.0
  0
LINE
  5
12C
  8
0
 62
     0
 10
185.41494746917249
 20
162.4815888746088
 30
0.0
 11
173.91494746917249
 21
173.9815888746088
 31
0.0
  0
LINE
  5
12D
  8
0
 62
     0
 10
184.5664193317487
 20
162.4815888746088
 30
0.0
 11
173.0664193317487
 21
173.9815888746088
 31
0.0
  0
LINE
  5
12E
  8
0
 62
     0
 10
183.71789119432481
 20
162.4815888746088
 30
0.0
 11
172.21789119432481
 21
173.9815888746088
 31
0.0
  0
LINE
  5
12F
  8
0
 62
     0
 10
182.86936305690091
 20
162.4815888746088
 30
0.0
 11
171.36936305690091
 21
173.9815888746088
 31
0.0
  0
LINE
  5
130
  8
0
 62
     0
 10
182.02083491947701
 20
162.4815888746088
 30
0.0
 11
170.5208349194771
 21
173.9815888746088
 31
0.0
  0
LINE
  5
131
  8
0
 62
     0
 10
181.1723067820532
 20
162.4815888746088
 30
0.0
 11
169.6723067820532
 21
173.9815888746088
 31
0.0
  0
LINE
  5
132
  8
0
 62
     0
 10
180.32377864462941
 20
162.4815888746088
 30
0.0
 11
168.82377864462941
 21
173.9815888746088
 31
0.0
  0
LINE
  5
133
  8
0
 62
     0
 10
179.47525050720549
 20
162.4815888746088
 30
0.0
 11
167.97525050720549
 21
173.9815888746088
 31
0.0
  0
LINE
  5
134
  8
0
 62
     0
 10
178.62672236978159
 20
162.4815888746088
 30
0.0
 11
167.12672236978159
 21
173.9815888746088
 31
0.0
  0
LINE
  5
135
  8
0
 62
     0
 10
177.77819423235781
 20
162.4815888746088
 30
0.0
 11
166.27819423235781
 21
173.9815888746088
 31
0.0
  0
LINE
  5
136
  8
0
 62
     0
 10
176.92966609493391
 20
162.4815888746088
 30
0.0
 11
165.42966609493391
 21
173.9815888746088
 31
0.0
  0
LINE
  5
137
  8
0
 62
     0
 10
176.08113795751009
 20
162.4815888746088
 30
0.0
 11
164.58113795751009
 21
173.9815888746088
 31
0.0
  0
LINE
  5
138
  8
0
 62
     0
 10
175.2326098200862
 20
162.4815888746088
 30
0.0
 11
163.7326098200862
 21
173.9815888746088
 31
0.0
  0
LINE
  5
139
  8
0
 62
     0
 10
174.3840816826623
 20
162.4815888746088
 30
0.0
 11
162.8840816826623
 21
173.9815888746088
 31
0.0
  0
LINE
  5
13A
  8
0
 62
     0
 10
173.53555354523851
 20
162.4815888746088
 30
0.0
 11
162.03555354523851
 21
173.9815888746088
 31
0.0
  0
LINE
  5
13B
  8
0
 62
     0
 10
172.6870254078147
 20
162.4815888746088
 30
0.0
 11
161.18702540781459
 21
173.9815888746088
 31
0.0
  0
LINE
  5
13C
  8
0
 62
     0
 10
171.8384972703908
 20
162.4815888746088
 30
0.0
 11
160.3384972703908
 21
173.9815888746088
 31
0.0
  0
LINE
  5
13D
  8
0
 62
     0
 10
170.98996913296691
 20
162.4815888746088
 30
0.0
 11
159.48996913296691
 21
173.9815888746088
 31
0.0
  0
LINE
  5
13E
  8
0
 62
     0
 10
170.14144099554301
 20
162.4815888746088
 30
0.0
 11
158.83167122627549
 21
173.79135864387629
 31
0.0
  0
LINE
  5
13F
  8
0
 62
     0
 10
169.29291285811919
 20
162.4815888746088
 30
0.0
 11
158.83167122627549
 21
172.9428305064524
 31
0.0
  0
LINE
  5
140
  8
0
 62
     0
 10
168.44438472069541
 20
162.4815888746088
 30
0.0
 11
158.83167122627549
 21
172.09430236902861
 31
0.0
  0
LINE
  5
141
  8
0
 62
     0
 10
167.59585658327151
 20
162.4815888746088
 30
0.0
 11
158.83167122627549
 21
171.24577423160471
 31
0.0
  0
LINE
  5
142
  8
0
 62
     0
 10
166.74732844584759
 20
162.4815888746088
 30
0.0
 11
158.83167122627549
 21
170.39724609418079
 31
0.0
  0
LINE
  5
143
  8
0
 62
     0
 10
165.8988003084238
 20
162.4815888746088
 30
0.0
 11
158.83167122627549
 21
169.548717956757
 31
0.0
  0
LINE
  5
144
  8
0
 62
     0
 10
165.0502721709999
 20
162.4815888746088
 30
0.0
 11
158.83167122627549
 21
168.7001898193331
 31
0.0
  0
LINE
  5
145
  8
0
 62
     0
 10
164.20174403357609
 20
162.4815888746088
 30
0.0
 11
158.83167122627549
 21
167.85166168190929
 31
0.0
  0
LINE
  5
146
  8
0
 62
     0
 10
163.35321589615219
 20
162.4815888746088
 30
0.0
 11
158.83167122627549
 21
167.00313354448539
 31
0.0
  0
LINE
  5
147
  8
0
 62
     0
 10
162.50468775872841
 20
162.4815888746088
 30
0.0
 11
158.83167122627549
 21
166.15460540706161
 31
0.0
  0
LINE
  5
148
  8
0
 62
     0
 10
161.65615962130451
 20
162.4815888746088
 30
0.0
 11
158.83167122627549
 21
165.30607726963771
 31
0.0
  0
LINE
  5
149
  8
0
 62
     0
 10
160.80763148388061
 20
162.4815888746088
 30
0.0
 11
158.83167122627549
 21
164.45754913221381
 31
0.0
  0
LINE
  5
14A
  8
0
 62
     0
 10
159.9591033464568
 20
162.4815888746088
 30
0.0
 11
158.83167122627549
 21
163.60902099479
 31
0.0
  0
LINE
  5
14B
  8
0
 62
     0
 10
159.1105752090329
 20
162.4815888746088
 30
0.0
 11
158.83167122627549
 21
162.7604928573661
 31
0.0
  0
LINE
  5
14C
  8
0
 62
     0
 10
239.72074826429929
 20
162.4815888746088
 30
0.0
 11
228.2207482642994
 21
173.9815888746088
 31
0.0
  0
LINE
  5
14D
  8
0
 62
     0
 10
240.56927640172319
 20
162.4815888746088
 30
0.0
 11
229.06927640172319
 21
173.9815888746088
 31
0.0
  0
LINE
  5
14E
  8
0
 62
     0
 10
241.417804539147
 20
162.4815888746088
 30
0.0
 11
229.917804539147
 21
173.9815888746088
 31
0.0
  0
LINE
  5
14F
  8
0
 62
     0
 10
242.2663326765709
 20
162.4815888746088
 30
0.0
 11
230.7663326765709
 21
173.9815888746088
 31
0.0
  0
LINE
  5
150
  8
0
 62
     0
 10
243.1148608139948
 20
162.4815888746088
 30
0.0
 11
231.6148608139948
 21
173.9815888746088
 31
0.0
  0
LINE
  5
151
  8
0
 62
     0
 10
243.96338895141861
 20
162.4815888746088
 30
0.0
 11
232.46338895141861
 21
173.9815888746088
 31
0.0
  0
LINE
  5
152
  8
0
 62
     0
 10
244.81191708884251
 20
162.4815888746088
 30
0.0
 11
233.31191708884251
 21
173.9815888746088
 31
0.0
  0
LINE
  5
153
  8
0
 62
     0
 10
245.66044522626629
 20
162.4815888746088
 30
0.0
 11
234.16044522626629
 21
173.9815888746088
 31
0.0
  0
LINE
  5
154
  8
0
 62
     0
 10
246.50897336369019
 20
162.4815888746088
 30
0.0
 11
235.00897336369019
 21
173.9815888746088
 31
0.0
  0
LINE
  5
155
  8
0
 62
     0
 10
247.35750150111409
 20
162.4815888746088
 30
0.0
 11
235.85750150111409
 21
173.9815888746088
 31
0.0
  0
LINE
  5
156
  8
0
 62
     0
 10
248.2060296385379
 20
162.4815888746088
 30
0.0
 11
236.7060296385379
 21
173.9815888746088
 31
0.0
  0
LINE
  5
157
  8
0
 62
     0
 10
249.0545577759618
 20
162.4815888746088
 30
0.0
 11
237.5545577759618
 21
173.9815888746088
 31
0.0
  0
LINE
  5
158
  8
0
 62
     0
 10
249.90308591338561
 20
162.4815888746088
 30
0.0
 11
238.40308591338561
 21
173.9815888746088
 31
0.0
  0
LINE
  5
159
  8
0
 62
     0
 10
250.75161405080951
 20
162.4815888746088
 30
0.0
 11
239.25161405080951
 21
173.9815888746088
 31
0.0
  0
LINE
  5
15A
  8
0
 62
     0
 10
251.60014218823341
 20
162.4815888746088
 30
0.0
 11
240.10014218823341
 21
173.9815888746088
 31
0.0
  0
LINE
  5
15B
  8
0
 62
     0
 10
252.44867032565719
 20
162.4815888746088
 30
0.0
 11
240.94867032565719
 21
173.9815888746088
 31
0.0
  0
LINE
  5
15C
  8
0
 62
     0
 10
253.29719846308109
 20
162.4815888746088
 30
0.0
 11
241.79719846308109
 21
173.9815888746088
 31
0.0
  0
LINE
  5
15D
  8
0
 62
     0
 10
254.1457266005049
 20
162.4815888746088
 30
0.0
 11
242.6457266005049
 21
173.9815888746088
 31
0.0
  0
LINE
  5
15E
  8
0
 62
     0
 10
254.9942547379288
 20
162.4815888746088
 30
0.0
 11
243.4942547379288
 21
173.9815888746088
 31
0.0
  0
LINE
  5
15F
  8
0
 62
     0
 10
255.8427828753527
 20
162.4815888746088
 30
0.0
 11
244.3427828753527
 21
173.9815888746088
 31
0.0
  0
LINE
  5
160
  8
0
 62
     0
 10
256.69131101277651
 20
162.4815888746088
 30
0.0
 11
245.19131101277651
 21
173.9815888746088
 31
0.0
  0
LINE
  5
161
  8
0
 62
     0
 10
257.53983915020041
 20
162.4815888746088
 30
0.0
 11
246.03983915020041
 21
173.9815888746088
 31
0.0
  0
LINE
  5
162
  8
0
 62
     0
 10
258.38836728762419
 20
162.4815888746088
 30
0.0
 11
246.88836728762419
 21
173.9815888746088
 31
0.0
  0
LINE
  5
163
  8
0
 62
     0
 10
259.23689542504809
 20
162.4815888746088
 30
0.0
 11
247.73689542504809
 21
173.9815888746088
 31
0.0
  0
LINE
  5
164
  8
0
 62
     0
 10
260.08542356247187
 20
162.4815888746088
 30
0.0
 11
248.5854235624719
 21
173.9815888746088
 31
0.0
  0
LINE
  5
165
  8
0
 62
     0
 10
260.93395169989577
 20
162.4815888746088
 30
0.0
 11
249.4339516998958
 21
173.9815888746088
 31
0.0
  0
LINE
  5
166
  8
0
 62
     0
 10
261.78247983731973
 20
162.4815888746088
 30
0.0
 11
250.2824798373197
 21
173.9815888746088
 31
0.0
  0
LINE
  5
167
  8
0
 62
     0
 10
262.63100797474351
 20
162.4815888746088
 30
0.0
 11
251.13100797474351
 21
173.9815888746088
 31
0.0
  0
LINE
  5
168
  8
0
 62
     0
 10
263.4795361121673
 20
162.4815888746088
 30
0.0
 11
251.97953611216741
 21
173.9815888746088
 31
0.0
  0
LINE
  5
169
  8
0
 62
     0
 10
264.32806424959131
 20
162.4815888746088
 30
0.0
 11
252.82806424959119
 21
173.9815888746088
 31
0.0
  0
LINE
  5
16A
  8
0
 62
     0
 10
265.17659238701498
 20
162.4815888746088
 30
0.0
 11
253.67659238701501
 21
173.9815888746088
 31
0.0
  0
LINE
  5
16B
  8
0
 62
     0
 10
266.02512052443888
 20
162.4815888746088
 30
0.0
 11
254.5251205244389
 21
173.9815888746088
 31
0.0
  0
LINE
  5
16C
  8
0
 62
     0
 10
266.87364866186277
 20
162.4815888746088
 30
0.0
 11
255.37364866186269
 21
173.9815888746088
 31
0.0
  0
LINE
  5
16D
  8
0
 62
     0
 10
267.72217679928661
 20
162.4815888746088
 30
0.0
 11
256.22217679928667
 21
173.9815888746088
 31
0.0
  0
LINE
  5
16E
  8
0
 62
     0
 10
268.57070493671051
 20
162.4815888746088
 30
0.0
 11
257.07070493671051
 21
173.9815888746088
 31
0.0
  0
LINE
  5
16F
  8
0
 62
     0
 10
269.41923307413441
 20
162.4815888746088
 30
0.0
 11
257.91923307413441
 21
173.9815888746088
 31
0.0
  0
LINE
  5
170
  8
0
 62
     0
 10
270.2677612115582
 20
162.4815888746088
 30
0.0
 11
258.7677612115582
 21
173.9815888746088
 31
0.0
  0
LINE
  5
171
  8
0
 62
     0
 10
271.11628934898198
 20
162.4815888746088
 30
0.0
 11
259.61628934898198
 21
173.9815888746088
 31
0.0
  0
LINE
  5
172
  8
0
 62
     0
 10
271.96481748640588
 20
162.4815888746088
 30
0.0
 11
260.46481748640588
 21
173.9815888746088
 31
0.0
  0
LINE
  5
173
  8
0
 62
     0
 10
272.81334562382978
 20
162.4815888746088
 30
0.0
 11
261.31334562382978
 21
173.9815888746088
 31
0.0
  0
LINE
  5
174
  8
0
 62
     0
 10
273.66187376125362
 20
162.4815888746088
 30
0.0
 11
262.16187376125362
 21
173.9815888746088
 31
0.0
  0
LINE
  5
175
  8
0
 62
     0
 10
274.51040189867751
 20
162.4815888746088
 30
0.0
 11
263.01040189867751
 21
173.9815888746088
 31
0.0
  0
LINE
  5
176
  8
0
 62
     0
 10
275.3589300361013
 20
162.4815888746088
 30
0.0
 11
263.8589300361013
 21
173.9815888746088
 31
0.0
  0
LINE
  5
177
  8
0
 62
     0
 10
276.2074581735252
 20
162.4815888746088
 30
0.0
 11
264.7074581735252
 21
173.9815888746088
 31
0.0
  0
LINE
  5
178
  8
0
 62
     0
 10
277.05598631094909
 20
162.4815888746088
 30
0.0
 11
265.55598631094909
 21
173.9815888746088
 31
0.0
  0
LINE
  5
179
  8
0
 62
     0
 10
277.90451444837288
 20
162.4815888746088
 30
0.0
 11
266.40451444837288
 21
173.9815888746088
 31
0.0
  0
LINE
  5
17A
  8
0
 62
     0
 10
278.75304258579678
 20
162.4815888746088
 30
0.0
 11
267.25304258579678
 21
173.9815888746088
 31
0.0
  0
LINE
  5
17B
  8
0
 62
     0
 10
279.60157072322062
 20
162.4815888746088
 30
0.0
 11
268.10157072322062
 21
173.9815888746088
 31
0.0
  0
LINE
  5
17C
  8
0
 62
     0
 10
280.45009886064452
 20
162.4815888746088
 30
0.0
 11
268.95009886064452
 21
173.9815888746088
 31
0.0
  0
LINE
  5
17D
  8
0
 62
     0
 10
281.2986269980683
 20
162.4815888746088
 30
0.0
 11
269.79862699806841
 21
173.9815888746088
 31
0.0
  0
LINE
  5
17E
  8
0
 62
     0
 10
282.1471551354922
 20
162.4815888746088
 30
0.0
 11
270.6471551354922
 21
173.9815888746088
 31
0.0
  0
LINE
  5
17F
  8
0
 62
     0
 10
282.9956832729161
 20
162.4815888746088
 30
0.0
 11
271.4956832729161
 21
173.9815888746088
 31
0.0
  0
LINE
  5
180
  8
0
 62
     0
 10
283.84421141033988
 20
162.4815888746088
 30
0.0
 11
272.34421141033988
 21
173.9815888746088
 31
0.0
  0
LINE
  5
181
  8
0
 62
     0
 10
284.69273954776378
 20
162.4815888746088
 30
0.0
 11
273.19273954776378
 21
173.9815888746088
 31
0.0
  0
LINE
  5
182
  8
0
 62
     0
 10
285.54126768518768
 20
162.4815888746088
 30
0.0
 11
274.04126768518768
 21
173.9815888746088
 31
0.0
  0
LINE
  5
183
  8
0
 62
     0
 10
286.38979582261152
 20
162.4815888746088
 30
0.0
 11
274.88979582261152
 21
173.9815888746088
 31
0.0
  0
LINE
  5
184
  8
0
 62
     0
 10
287.2383239600353
 20
162.4815888746088
 30
0.0
 11
275.73832396003542
 21
173.9815888746088
 31
0.0
  0
LINE
  5
185
  8
0
 62
     0
 10
288.0868520974592
 20
162.4815888746088
 30
0.0
 11
276.5868520974592
 21
173.9815888746088
 31
0.0
  0
LINE
  5
186
  8
0
 62
     0
 10
288.93538023488298
 20
162.4815888746088
 30
0.0
 11
277.4353802348831
 21
173.9815888746088
 31
0.0
  0
LINE
  5
187
  8
0
 62
     0
 10
289.783908372307
 20
162.4815888746088
 30
0.0
 11
278.28390837230688
 21
173.9815888746088
 31
0.0
  0
LINE
  5
188
  8
0
 62
     0
 10
290.63243650973078
 20
162.4815888746088
 30
0.0
 11
279.13243650973078
 21
173.9815888746088
 31
0.0
  0
LINE
  5
189
  8
0
 62
     0
 10
291.48096464715462
 20
162.4815888746088
 30
0.0
 11
279.98096464715468
 21
173.9815888746088
 31
0.0
  0
LINE
  5
18A
  8
0
 62
     0
 10
292.32949278457841
 20
162.4815888746088
 30
0.0
 11
280.82949278457852
 21
173.9815888746088
 31
0.0
  0
LINE
  5
18B
  8
0
 62
     0
 10
293.17802092200242
 20
162.4815888746088
 30
0.0
 11
281.67802092200242
 21
173.9815888746088
 31
0.0
  0
LINE
  5
18C
  8
0
 62
     0
 10
294.02654905942609
 20
162.4815888746088
 30
0.0
 11
282.5265490594262
 21
173.9815888746088
 31
0.0
  0
LINE
  5
18D
  8
0
 62
     0
 10
294.8750771968501
 20
162.4815888746088
 30
0.0
 11
283.37507719684999
 21
173.9815888746088
 31
0.0
  0
LINE
  5
18E
  8
0
 62
     0
 10
295.72360533427388
 20
162.4815888746088
 30
0.0
 11
284.22360533427388
 21
173.9815888746088
 31
0.0
  0
LINE
  5
18F
  8
0
 62
     0
 10
296.57213347169773
 20
162.4815888746088
 30
0.0
 11
285.07213347169773
 21
173.9815888746088
 31
0.0
  0
LINE
  5
190
  8
0
 62
     0
 10
297.42066160912162
 20
162.4815888746088
 30
0.0
 11
285.92066160912162
 21
173.9815888746088
 31
0.0
  0
LINE
  5
191
  8
0
 62
     0
 10
298.26918974654552
 20
162.4815888746088
 30
0.0
 11
286.76918974654552
 21
173.9815888746088
 31
0.0
  0
LINE
  5
192
  8
0
 62
     0
 10
299.11771788396931
 20
162.4815888746088
 30
0.0
 11
287.61771788396931
 21
173.9815888746088
 31
0.0
  0
LINE
  5
193
  8
0
 62
     0
 10
299.9662460213932
 20
162.4815888746088
 30
0.0
 11
288.4662460213932
 21
173.9815888746088
 31
0.0
  0
LINE
  5
194
  8
0
 62
     0
 10
300.81477415881699
 20
162.4815888746088
 30
0.0
 11
289.31477415881699
 21
173.9815888746088
 31
0.0
  0
LINE
  5
195
  8
0
 62
     0
 10
301.66330229624089
 20
162.4815888746088
 30
0.0
 11
290.163302296241
 21
173.9815888746088
 31
0.0
  0
LINE
  5
196
  8
0
 62
     0
 10
302.51183043366473
 20
162.4815888746088
 30
0.0
 11
291.01183043366473
 21
173.9815888746088
 31
0.0
  0
LINE
  5
197
  8
0
 62
     0
 10
303.36035857108863
 20
162.4815888746088
 30
0.0
 11
291.86035857108863
 21
173.9815888746088
 31
0.0
  0
LINE
  5
198
  8
0
 62
     0
 10
304.20888670851252
 20
162.4815888746088
 30
0.0
 11
292.70888670851252
 21
173.9815888746088
 31
0.0
  0
LINE
  5
199
  8
0
 62
     0
 10
305.05741484593631
 20
162.4815888746088
 30
0.0
 11
293.55741484593631
 21
173.9815888746088
 31
0.0
  0
LINE
  5
19A
  8
0
 62
     0
 10
305.90594298336021
 20
162.4815888746088
 30
0.0
 11
294.40594298336021
 21
173.9815888746088
 31
0.0
  0
LINE
  5
19B
  8
0
 62
     0
 10
306.75447112078399
 20
162.4815888746088
 30
0.0
 11
295.2544711207841
 21
173.9815888746088
 31
0.0
  0
LINE
  5
19C
  8
0
 62
     0
 10
307.60299925820789
 20
162.4815888746088
 30
0.0
 11
296.10299925820789
 21
173.9815888746088
 31
0.0
  0
LINE
  5
19D
  8
0
 62
     0
 10
308.45152739563179
 20
162.4815888746088
 30
0.0
 11
296.95152739563179
 21
173.9815888746088
 31
0.0
  0
LINE
  5
19E
  8
0
 62
     0
 10
308.83167122627572
 20
162.94997318138871
 30
0.0
 11
297.80005553305563
 21
173.9815888746088
 31
0.0
  0
LINE
  5
19F
  8
0
 62
     0
 10
308.83167122627572
 20
163.79850131881261
 30
0.0
 11
298.64858367047952
 21
173.9815888746088
 31
0.0
  0
LINE
  5
1A0
  8
0
 62
     0
 10
308.83167122627572
 20
164.6470294562364
 30
0.0
 11
299.49711180790331
 21
173.9815888746088
 31
0.0
  0
LINE
  5
1A1
  8
0
 62
     0
 10
308.83167122627572
 20
165.49555759366029
 30
0.0
 11
300.34563994532721
 21
173.9815888746088
 31
0.0
  0
LINE
  5
1A2
  8
0
 62
     0
 10
308.83167122627572
 20
166.34408573108411
 30
0.0
 11
301.1941680827511
 21
173.9815888746088
 31
0.0
  0
LINE
  5
1A3
  8
0
 62
     0
 10
308.83167122627572
 20
167.192613868508
 30
0.0
 11
302.04269622017489
 21
173.9815888746088
 31
0.0
  0
LINE
  5
1A4
  8
0
 62
     0
 10
308.83167122627572
 20
168.0411420059319
 30
0.0
 11
302.89122435759879
 21
173.9815888746088
 31
0.0
  0
LINE
  5
1A5
  8
0
 62
     0
 10
308.83167122627572
 20
168.88967014335569
 30
0.0
 11
303.73975249502263
 21
173.9815888746088
 31
0.0
  0
LINE
  5
1A6
  8
0
 62
     0
 10
308.83167122627572
 20
169.7381982807795
 30
0.0
 11
304.58828063244653
 21
173.9815888746088
 31
0.0
  0
LINE
  5
1A7
  8
0
 62
     0
 10
308.83167122627572
 20
170.5867264182034
 30
0.0
 11
305.43680876987042
 21
173.9815888746088
 31
0.0
  0
LINE
  5
1A8
  8
0
 62
     0
 10
308.83167122627572
 20
171.43525455562721
 30
0.0
 11
306.28533690729421
 21
173.9815888746088
 31
0.0
  0
LINE
  5
1A9
  8
0
 62
     0
 10
308.83167122627572
 20
172.28378269305111
 30
0.0
 11
307.13386504471799
 21
173.9815888746088
 31
0.0
  0
LINE
  5
1AA
  8
0
 62
     0
 10
308.83167122627572
 20
173.13231083047489
 30
0.0
 11
307.98239318214189
 21
173.9815888746088
 31
0.0
  0
LINE
  5
1AB
  8
0
 62
     0
 10
308.83167122627572
 20
173.98083896789879
 30
0.0
 11
308.83092131956579
 21
173.9815888746088
 31
0.0
  0
ENDBLK
  5
1AC
  8
0
  0
ENDSEC
  0
SECTION
  2
ENTITIES
  0
LINE
  5
1BB
  8
0
 10
138.05076141213951
 20
148.8528120937965
 30
0.0
 11
140.55076141213939
 21
148.8528120937965
 31
0.0
  0
LINE
  5
1BC
  8
0
 10
310.55076141213948
 20
131.3528120937965
 30
0.0
 11
310.55076141213948
 21
115.8528120937966
 31
0.0
  0
LINE
  5
1BD
  8
0
 10
300.55076141213948
 20
131.3528120937965
 30
0.0
 11
300.55076141213948
 21
115.8528120937966
 31
0.0
  0
LINE
  5
1BE
  8
0
 10
138.05076141213951
 20
138.8528120937965
 30
0.0
 11
140.55076141213939
 21
138.8528120937965
 31
0.0
  0
ARC
  5
1BF
  8
0
 10
293.05076141213948
 20
131.3528120937965
 30
0.0
 40
7.5
 50
0.0
 51
90.0
  0
ARC
  5
1C0
  8
0
 10
138.05076141213951
 20
131.3528120937965
 30
0.0
 40
7.5
 50
90.0
 51
180.0
  0
ARC
  5
1C1
  8
0
 10
293.05076141213948
 20
131.3528120937965
 30
0.0
 40
17.5
 50
0.0
 51
90.0
  0
ARC
  5
1C2
  8
0
 10
138.05076141213951
 20
131.3528120937965
 30
0.0
 40
17.5
 50
90.0
 51
180.0
  0
ARC
  5
1C3
  8
0
 10
310.55076141213942
 20
113.8528120937966
 30
0.0
 40
2.0
 50
0.0000000000004071
 51
90.0
  0
ARC
  5
1C4
  8
0
 10
300.55076141213948
 20
113.8528120937966
 30
0.0
 40
2.0
 50
90.0
 51
179.9999999999996
  0
LINE
  5
1C5
  8
0
 10
312.55076141213942
 20
107.8528120937965
 30
0.0
 11
312.55076141213948
 21
113.8528120937966
 31
0.0
  0
LINE
  5
1C6
  8
0
 10
298.55076141213942
 20
107.8528120937965
 30
0.0
 11
298.55076141213948
 21
113.8528120937966
 31
0.0
  0
LINE
  5
1C7
  8
0
 10
312.55076141213942
 20
107.8528120937965
 30
0.0
 11
298.55076141213948
 21
107.8528120937965
 31
0.0
  0
LINE
  5
1C8
  8
0
 10
300.55076141213948
 20
115.8528120937966
 30
0.0
 11
310.55076141213948
 21
115.8528120937966
 31
0.0
  0
LINE
  5
1C9
  8
0
 10
140.55076141213939
 20
149.6028120937965
 30
0.0
 11
140.55076141213939
 21
138.1028120937965
 31
0.0
  0
LINE
  5
1CA
  8
0
 10
290.55076141213948
 20
149.6028120937965
 30
0.0
 11
290.55076141213948
 21
138.1028120937965
 31
0.0
  0
LINE
  5
1CB
  8
0
 10
140.55076141213939
 20
149.6028120937965
 30
0.0
 11
290.55076141213948
 21
149.6028120937965
 31
0.0
  0
LINE
  5
1CC
  8
0
 10
140.55076141213939
 20
138.1028120937965
 30
0.0
 11
290.55076141213948
 21
138.1028120937965
 31
0.0
  0
LINE
  5
1CD
  8
0
 10
290.55076141213948
 20
148.8528120937965
 30
0.0
 11
293.05076141213948
 21
148.8528120937965
 31
0.0
  0
LINE
  5
1CE
  8
0
 10
290.55076141213948
 20
138.8528120937965
 30
0.0
 11
293.05076141213948
 21
138.8528120937965
 31
0.0
  0
LINE
  5
1CF
  8
0
 10
125.55076141213939
 20
200.23271073673769
 30
0.0
 11
140.55076141213931
 21
200.23271073673769
 31
0.0
  0
LINE
  5
1D0
  8
0
 10
125.55076141213939
 20
210.23271073673769
 30
0.0
 11
140.55076141213931
 21
210.23271073673769
 31
0.0
  0
LINE
  5
1D1
  8
1
 10
115.55076141213949
 20
205.2327107367378
 30
0.0
 11
315.55076141213959
 21
205.2327107367378
 31
0.0
  0
ARC
  5
1D2
  8
0
 10
125.55076141213939
 20
205.2327107367378
 30
0.0
 40
5.0
 50
90.0
 51
270.0
  0
ARC
  5
1D3
  8
2
 10
125.55076141213939
 20
205.2327107367378
 30
0.0
 40
5.0
 50
270.0
 51
90.0
  0
ARC
  5
1D4
  8
0
 10
305.55076141213942
 20
205.2327107367378
 30
0.0
 40
5.0
 50
270.0
 51
90.0
  0
ARC
  5
1D5
  8
2
 10
305.55076141213942
 20
205.2327107367378
 30
0.0
 40
5.0
 50
90.0
 51
270.0
  0
LINE
  5
1D6
  8
1
 10
125.55076141213939
 20
215.23271073673769
 30
0.0
 11
125.55076141213939
 21
195.23271073673769
 31
0.0
  0
LINE
  5
1D7
  8
1
 10
305.55076141213942
 20
215.23271073673769
 30
0.0
 11
305.55076141213942
 21
195.23271073673769
 31
0.0
  0
ARC
  5
1D8
  8
0
 10
125.55076141213939
 20
205.2327107367378
 30
0.0
 40
7.0
 50
45.584691402806932
 51
314.41530859719308
  0
ARC
  5
1D9
  8
0
 10
305.55076141213942
 20
205.2327107367378
 30
0.0
 40
7.0
 50
225.5846914028069
 51
134.4153085971931
  0
LINE
  5
1DA
  8
0
 10
290.55076141213948
 20
199.48271073673769
 30
0.0
 11
290.55076141213948
 21
210.98271073673769
 31
0.0
  0
LINE
  5
1DB
  8
0
 10
140.55076141213939
 20
199.48271073673769
 30
0.0
 11
140.55076141213939
 21
210.98271073673769
 31
0.0
  0
LINE
  5
1DC
  8
0
 10
140.55076141213931
 20
210.98271073673769
 30
0.0
 11
290.55076141213948
 21
210.98271073673769
 31
0.0
  0
LINE
  5
1DD
  8
0
 10
140.55076141213931
 20
199.48271073673769
 30
0.0
 11
290.55076141213948
 21
199.48271073673769
 31
0.0
  0
LINE
  5
1DE
  8
0
 10
290.55076141213948
 20
210.23271073673769
 30
0.0
 11
305.55076141213942
 21
210.23271073673769
 31
0.0
  0
LINE
  5
1DF
  8
0
 10
290.55076141213948
 20
200.23271073673769
 30
0.0
 11
305.55076141213942
 21
200.23271073673769
 31
0.0
  0
LINE
  5
1E0
  8
0
 10
70.617504236481963
 20
143.8528120937965
 30
0.0
 11
70.617504236481963
 21
115.8528120937966
 31
0.0
  0
LINE
  5
1E1
  8
0
 10
80.617504236481963
 20
143.8528120937965
 30
0.0
 11
80.617504236481963
 21
115.8528120937966
 31
0.0
  0
LINE
  5
1E2
  8
1
 10
75.617504236481906
 20
153.8528120937965
 30
0.0
 11
75.617504236481906
 21
102.8528120937965
 31
0.0
  0
ARC
  5
1E3
  8
0
 10
75.617504236481906
 20
143.8528120937965
 30
0.0
 40
5.0
 50
0.0
 51
180.0
  0
ARC
  5
1E4
  8
2
 10
75.617504236481906
 20
143.8528120937965
 30
0.0
 40
5.0
 50
180.0
 51
0.0
  0
LINE
  5
1E5
  8
0
 10
70.617504236481906
 20
115.8528120937966
 30
0.0
 11
80.617504236481906
 21
115.8528120937966
 31
0.0
  0
LINE
  5
1E6
  8
0
 10
82.617504236481864
 20
107.8528120937965
 30
0.0
 11
68.617504236481906
 21
107.8528120937965
 31
0.0
  0
LINE
  5
1E7
  8
0
 10
68.617504236481849
 20
107.8528120937965
 30
0.0
 11
68.617504236481906
 21
113.8528120937966
 31
0.0
  0
LINE
  5
1E8
  8
0
 10
82.617504236481864
 20
107.8528120937965
 30
0.0
 11
82.617504236481906
 21
113.8528120937966
 31
0.0
  0
ARC
  5
1E9
  8
0
 10
70.617504236481906
 20
113.8528120937966
 30
0.0
 40
2.0
 50
90.0
 51
179.9999999999996
  0
ARC
  5
1EA
  8
0
 10
80.617504236481835
 20
113.8528120937966
 30
0.0
 40
2.0
 50
0.0000000000004071
 51
90.0
  0
LINE
  5
1EB
  8
1
 10
305.55076141213948
 20
131.3528120937965
 30
0.0
 11
305.55076141213948
 21
102.8528120937965
 31
0.0
  0
ARC
  5
1EC
  8
1
 10
293.05076141213948
 20
131.3528120937965
 30
0.0
 40
12.5
 50
0.0
 51
90.0
  0
LINE
  5
1ED
  8
1
 10
138.05076141213951
 20
143.8528120937965
 30
0.0
 11
293.05076141213948
 21
143.8528120937965
 31
0.0
  0
ARC
  5
1EE
  8
1
 10
138.05076141213951
 20
131.3528120937965
 30
0.0
 40
12.5
 50
90.0
 51
180.0
  0
LINE
  5
1EF
  8
1
 10
125.55076141213939
 20
102.8528120937965
 30
0.0
 11
125.55076141213939
 21
131.3528120937965
 31
0.0
  0
INSERT
  5
1F0
  8
3
  2
*X0
 10
-18.280909814136152
 20
-24.378776780812249
 30
0.0
  0
INSERT
  5
1F1
  8
3
  2
*X0
 10
-18.280909814136152
 20
37.001121862128883
 30
0.0
  0
LINE
  5
1F2
  8
0
 10
130.55076141213951
 20
115.8528120937966
 30
0.0
 11
120.55076141213939
 21
115.8528120937966
 31
0.0
  0
LINE
  5
1F3
  8
0
 10
118.55076141213959
 20
107.8528120937965
 30
0.0
 11
132.55076141213951
 21
107.8528120937965
 31
0.0
  0
LINE
  5
1F4
  8
0
 10
132.55076141213959
 20
107.8528120937965
 30
0.0
 11
132.55076141213951
 21
113.8528120937966
 31
0.0
  0
LINE
  5
1F5
  8
0
 10
118.55076141213959
 20
107.8528120937965
 30
0.0
 11
118.55076141213939
 21
113.8528120937966
 31
0.0
  0
ARC
  5
1F6
  8
0
 10
130.55076141213951
 20
113.8528120937966
 30
0.0
 40
2.0
 50
0.0000000000004071
 51
90.0
  0
ARC
  5
1F7
  8
0
 10
120.55076141213959
 20
113.8528120937966
 30
0.0
 40
2.0
 50
90.0
 51
179.9999999999996
  0
LINE
  5
1F8
  8
0
 10
130.55076141213951
 20
131.3528120937965
 30
0.0
 11
130.55076141213951
 21
115.8528120937966
 31
0.0
  0
LINE
  5
1F9
  8
0
 10
120.55076141213939
 20
131.3528120937965
 30
0.0
 11
120.55076141213939
 21
115.8528120937966
 31
0.0
  0
LINE
  5
1FA
  8
2
 10
120.55076141213939
 20
115.8528120937965
 30
0.0
 11
120.55076141213939
 21
108.8528120937965
 31
0.0
  0
LINE
  5
1FB
  8
2
 10
130.55076141213939
 20
115.8528120937965
 30
0.0
 11
130.55076141213939
 21
108.8528120937965
 31
0.0
  0
LINE
  5
1FC
  8
2
 10
123.05076141213949
 20
107.8528120937965
 30
0.0
 11
123.05076141213949
 21
108.8528120937965
 31
0.0
  0
LINE
  5
1FD
  8
2
 10
128.05076141213951
 20
107.8528120937965
 30
0.0
 11
128.05076141213951
 21
108.8528120937965
 31
0.0
  0
LINE
  5
1FE
  8
2
 10
130.55076141213939
 20
108.8528120937965
 30
0.0
 11
120.55076141213939
 21
108.8528120937965
 31
0.0
  0
LINE
  5
1FF
  8
2
 10
123.4837614121392
 20
109.75281209379661
 30
0.0
 11
122.5837614121391
 21
108.8528120937965
 31
0.0
  0
LINE
  5
200
  8
2
 10
127.6177614121396
 20
109.75281209379651
 30
0.0
 11
123.4837614121392
 21
109.75281209379661
 31
0.0
  0
LINE
  5
201
  8
2
 10
128.51776141213969
 20
108.8528120937965
 30
0.0
 11
127.6177614121396
 21
109.75281209379651
 31
0.0
  0
LINE
  5
202
  8
2
 10
128.0507614121392
 20
118.8528120937965
 30
0.0
 11
127.6177614121395
 21
119.6027900934735
 31
0.0
  0
LINE
  5
203
  8
2
 10
123.05076141213929
 20
118.8528120937965
 30
0.0
 11
123.4837614121392
 21
119.6027900934735
 31
0.0
  0
LINE
  5
204
  8
2
 10
127.6177614121396
 20
121.8528120937965
 30
0.0
 11
123.4837614121392
 21
121.8528120937965
 31
0.0
  0
LINE
  5
205
  8
2
 10
128.05076141213931
 20
118.8528120937965
 30
0.0
 11
123.05076141213929
 21
118.8528120937965
 31
0.0
  0
LINE
  5
206
  8
2
 10
123.4837614121392
 20
121.8528120937965
 30
0.0
 11
125.55076141213929
 21
123.0947909933267
 31
0.0
  0
LINE
  5
207
  8
2
 10
127.6177614121396
 20
121.8528120937966
 30
0.0
 11
125.55076141213929
 21
123.0947909933267
 31
0.0
  0
LINE
  5
208
  8
2
 10
123.05076141213929
 20
109.3198120937967
 30
0.0
 11
123.05076141213929
 21
118.8528120937965
 31
0.0
  0
LINE
  5
209
  8
2
 10
123.4837614121392
 20
109.75281209379651
 30
0.0
 11
123.4837614121392
 21
121.8528120937965
 31
0.0
  0
LINE
  5
20A
  8
2
 10
127.6177614121396
 20
109.75281209379651
 30
0.0
 11
127.6177614121396
 21
121.8528120937965
 31
0.0
  0
LINE
  5
20B
  8
2
 10
128.05076141213931
 20
109.3198120937967
 30
0.0
 11
128.05076141213931
 21
118.8528120937965
 31
0.0
  0
LINE
  5
20C
  8
2
 10
300.55076141213948
 20
115.8528120937965
 30
0.0
 11
300.55076141213948
 21
108.8528120937965
 31
0.0
  0
LINE
  5
20D
  8
2
 10
310.55076141213948
 20
115.8528120937965
 30
0.0
 11
310.55076141213948
 21
108.8528120937965
 31
0.0
  0
LINE
  5
20E
  8
2
 10
303.05076141213959
 20
107.8528120937965
 30
0.0
 11
303.05076141213959
 21
108.8528120937965
 31
0.0
  0
LINE
  5
20F
  8
2
 10
308.05076141213948
 20
107.8528120937965
 30
0.0
 11
308.05076141213948
 21
108.8528120937965
 31
0.0
  0
LINE
  5
210
  8
2
 10
310.55076141213948
 20
108.8528120937965
 30
0.0
 11
300.55076141213948
 21
108.8528120937965
 31
0.0
  0
LINE
  5
211
  8
2
 10
303.4837614121393
 20
109.75281209379661
 30
0.0
 11
302.58376141213921
 21
108.8528120937965
 31
0.0
  0
LINE
  5
212
  8
2
 10
307.61776141213971
 20
109.75281209379651
 30
0.0
 11
303.4837614121393
 21
109.75281209379661
 31
0.0
  0
LINE
  5
213
  8
2
 10
308.51776141213981
 20
108.8528120937965
 30
0.0
 11
307.61776141213971
 21
109.75281209379651
 31
0.0
  0
LINE
  5
214
  8
2
 10
308.05076141213931
 20
118.8528120937965
 30
0.0
 11
307.61776141213949
 21
119.6027900934735
 31
0.0
  0
LINE
  5
215
  8
2
 10
303.05076141213942
 20
118.8528120937965
 30
0.0
 11
303.4837614121393
 21
119.6027900934735
 31
0.0
  0
LINE
  5
216
  8
2
 10
307.61776141213971
 20
121.8528120937965
 30
0.0
 11
303.4837614121393
 21
121.8528120937965
 31
0.0
  0
LINE
  5
217
  8
2
 10
308.05076141213942
 20
118.8528120937965
 30
0.0
 11
303.05076141213942
 21
118.8528120937965
 31
0.0
  0
LINE
  5
218
  8
2
 10
303.4837614121393
 20
121.8528120937965
 30
0.0
 11
305.55076141213942
 21
123.0947909933267
 31
0.0
  0
LINE
  5
219
  8
2
 10
307.61776141213971
 20
121.8528120937966
 30
0.0
 11
305.55076141213942
 21
123.0947909933267
 31
0.0
  0
LINE
  5
21A
  8
2
 10
303.05076141213942
 20
109.3198120937967
 30
0.0
 11
303.05076141213942
 21
118.8528120937965
 31
0.0
  0
LINE
  5
21B
  8
2
 10
303.4837614121393
 20
109.75281209379651
 30
0.0
 11
303.4837614121393
 21
121.8528120937965
 31
0.0
  0
LINE
  5
21C
  8
2
 10
307.61776141213971
 20
109.75281209379651
 30
0.0
 11
307.61776141213971
 21
121.8528120937965
 31
0.0
  0
LINE
  5
21D
  8
2
 10
308.05076141213942
 20
109.3198120937967
 30
0.0
 11
308.05076141213942
 21
118.8528120937965
 31
0.0
  0
TEXT
  5
338
  8
0
 62
     3
 10
0.0
 20
0.0
 30
0.0
 40
10.0
  1
RD6-180SP
  7
STANDARD1
  0
ENDSEC
  0
EOF
