  0
SECTION
  2
HEADER
  9
$ACADVER
  1
AC1009
  9
$INSBASE
 10
0.0
 20
0.0
 30
0.0
  9
$EXTMIN
 10
0.0
 20
-2.960436562073669
 30
0.0
  9
$EXTMAX
 10
235.54256556429689
 20
205.5462979918214
 30
0.0
  9
$LIMMIN
 10
0.0
 20
0.0
  9
$LIMMAX
 10
375.0
 20
270.0
  9
$ORTHOMODE
 70
     1
  9
$REGENMODE
 70
     1
  9
$FILLMODE
 70
     1
  9
$QTEXTMODE
 70
     0
  9
$MIRRTEXT
 70
     0
  9
$DRAGMODE
 70
     2
  9
$LTSCALE
 40
5.0
  9
$OSMODE
 70
    55
  9
$ATTMODE
 70
     1
  9
$TEXTSIZE
 40
4.0
  9
$TRACEWID
 40
0.05
  9
$TEXTSTYLE
  7
STANDARD
  9
$CLAYER
  8
4
  9
$CELTYPE
  6
BYLAYER
  9
$CECOLOR
 62
   256
  9
$DIMSCALE
 40
1.0
  9
$DIMASZ
 40
3.0
  9
$DIMEXO
 40
2.0
  9
$DIMDLI
 40
0.38
  9
$DIMRND
 40
0.0
  9
$DIMDLE
 40
0.0
  9
$DIMEXE
 40
2.0
  9
$DIMTP
 40
0.0
  9
$DIMTM
 40
0.0
  9
$DIMTXT
 40
3.2000000000000002
  9
$DIMCEN
 40
0.0
  9
$DIMTSZ
 40
0.0
  9
$DIMTOL
 70
     0
  9
$DIMLIM
 70
     0
  9
$DIMTIH
 70
     0
  9
$DIMTOH
 70
     0
  9
$DIMSE1
 70
     0
  9
$DIMSE2
 70
     0
  9
$DIMTAD
 70
     1
  9
$DIMZIN
 70
     0
  9
$DIMBLK
  1

  9
$DIMASO
 70
     1
  9
$DIMSHO
 70
     0
  9
$DIMPOST
  1

  9
$DIMAPOST
  1

  9
$DIMALT
 70
     0
  9
$DIMALTD
 70
     2
  9
$DIMALTF
 40
25.399999999999999
  9
$DIMLFAC
 40
1.0
  9
$DIMTOFL
 70
     0
  9
$DIMTVP
 40
1.6000000000000001
  9
$DIMTIX
 70
     1
  9
$DIMSOXD
 70
     0
  9
$DIMSAH
 70
     0
  9
$DIMBLK1
  1

  9
$DIMBLK2
  1

  9
$DIMSTYLE
  2
STANDARD
  9
$DIMCLRD
 70
     4
  9
$DIMCLRE
 70
     4
  9
$DIMCLRT
 70
     4
  9
$DIMTFAC
 40
1.0
  9
$DIMGAP
 40
0.09
  9
$LUNITS
 70
     2
  9
$LUPREC
 70
     1
  9
$SKETCHINC
 40
0.1
  9
$FILLETRAD
 40
0.0
  9
$AUNITS
 70
     0
  9
$AUPREC
 70
     0
  9
$MENU
  1
E:\r13\win\SUPPORT\ACAD
  9
$ELEVATION
 40
0.0
  9
$PELEVATION
 40
0.0
  9
$THICKNESS
 40
0.0
  9
$LIMCHECK
 70
     0
  9
$BLIPMODE
 70
     0
  9
$CHAMFERA
 40
3.0
  9
$CHAMFERB
 40
3.0
  9
$SKPOLY
 70
     0
  9
$TDCREATE
 40
2449930.6720023151
  9
$TDUPDATE
 40
2456598.5922588082
  9
$TDINDWG
 40
0.0017407755
  9
$TDUSRTIMER
 40
0.0017407755
  9
$USRTIMER
 70
     1
  9
$ANGBASE
 50
0.0
  9
$ANGDIR
 70
     0
  9
$PDMODE
 70
     0
  9
$PDSIZE
 40
0.0
  9
$PLINEWID
 40
0.0
  9
$COORDS
 70
     1
  9
$SPLFRAME
 70
     0
  9
$SPLINETYPE
 70
     6
  9
$SPLINESEGS
 70
     8
  9
$ATTDIA
 70
     0
  9
$ATTREQ
 70
     1
  9
$HANDLING
 70
     1
  9
$HANDSEED
  5
2BC
  9
$SURFTAB1
 70
     6
  9
$SURFTAB2
 70
     6
  9
$SURFTYPE
 70
     6
  9
$SURFU
 70
     6
  9
$SURFV
 70
     6
  9
$UCSNAME
  2

  9
$UCSORG
 10
0.0
 20
0.0
 30
0.0
  9
$UCSXDIR
 10
1.0
 20
0.0
 30
0.0
  9
$UCSYDIR
 10
0.0
 20
1.0
 30
0.0
  9
$PUCSNAME
  2

  9
$PUCSORG
 10
0.0
 20
0.0
 30
0.0
  9
$PUCSXDIR
 10
1.0
 20
0.0
 30
0.0
  9
$PUCSYDIR
 10
0.0
 20
1.0
 30
0.0
  9
$USERI1
 70
     0
  9
$USERI2
 70
     1
  9
$USERI3
 70
     1
  9
$USERI4
 70
     0
  9
$USERI5
 70
     0
  9
$USERR1
 40
0.0
  9
$USERR2
 40
0.0
  9
$USERR3
 40
0.0
  9
$USERR4
 40
0.0
  9
$USERR5
 40
0.0
  9
$WORLDVIEW
 70
     1
  9
$SHADEDGE
 70
     3
  9
$SHADEDIF
 70
    70
  9
$TILEMODE
 70
     1
  9
$MAXACTVP
 70
    16
  9
$PLIMCHECK
 70
     0
  9
$PEXTMIN
 10
1.0000000000000000E+020
 20
1.0000000000000000E+020
 30
1.0000000000000000E+020
  9
$PEXTMAX
 10
-1.0000000000000000E+020
 20
-1.0000000000000000E+020
 30
-1.0000000000000000E+020
  9
$PLIMMIN
 10
0.0
 20
0.0
  9
$PLIMMAX
 10
12.0
 20
9.0
  9
$UNITMODE
 70
     0
  9
$VISRETAIN
 70
     0
  9
$PLINEGEN
 70
     0
  9
$PSLTSCALE
 70
     0
  0
ENDSEC
  0
SECTION
  2
TABLES
  0
TABLE
  2
VPORT
 70
     1
  0
VPORT
  2
*ACTIVE
 70
     0
 10
0.0
 20
0.0
 11
1.0
 21
1.0
 12
187.49427839065231
 22
194.785247995265
 13
0.0
 23
0.0
 14
10.0
 24
10.0
 15
10.0
 25
10.0
 16
0.0
 26
0.0
 36
1.0
 17
0.0
 27
0.0
 37
0.0
 40
399.3463374158577
 41
1.7807262569832401
 42
50.0
 43
0.0
 44
0.0
 50
0.0
 51
0.0
 71
     0
 72
   500
 73
     1
 74
     0
 75
     0
 76
     0
 77
     0
 78
     2
  0
ENDTAB
  0
TABLE
  2
LTYPE
 70
     4
  0
LTYPE
  2
CONTINUOUS
 70
     0
  3
Solid Line
 72
    65
 73
     0
 40
0.0
  0
LTYPE
  2
CENTER
 70
     0
  3
____ _ ____ _ ____ _ ____ _ ____ _ ____ _ ____
 72
    65
 73
     4
 40
2.0
 49
1.25
 49
-0.25
 49
0.25
 49
-0.25
  0
LTYPE
  2
HIDDEN
 70
     0
  3
_ _ _ _ _ _ _ _ _ _ _ _ _ _ _ _ _ _ _ _ _ _ _
 72
    65
 73
     2
 40
0.375
 49
0.25
 49
-0.125
  0
LTYPE
  2
PHANTOM2
 70
     0
  3
___ _ _ ___ _ _ ___ _ _ ___ _ _
 72
    65
 73
     6
 40
1.25
 49
0.625
 49
-0.125
 49
0.125
 49
-0.125
 49
0.125
 49
-0.125
  0
ENDTAB
  0
TABLE
  2
LAYER
 70
     5
  0
LAYER
  2
0
 70
     0
 62
     7
  6
CONTINUOUS
  0
LAYER
  2
1
 70
     0
 62
     1
  6
CENTER
  0
LAYER
  2
3
 70
     0
 62
     3
  6
CONTINUOUS
  0
LAYER
  2
4
 70
     0
 62
     4
  6
CONTINUOUS
  0
LAYER
  2
2
 70
     0
 62
     2
  6
HIDDEN
  0
ENDTAB
  0
TABLE
  2
STYLE
 70
     2
  0
STYLE
  2
STANDARD
 70
     0
 40
0.0
 41
1.0
 50
0.0
 71
     0
 42
4.0
  3
SIMPLEX
  4
BIGFONT
  0
STYLE
  2
STANDARD1
 70
     0
 40
0.0
 41
1.0
 50
0.0
 71
     0
 42
3.0
  3
txt
  4

  0
ENDTAB
  0
TABLE
  2
VIEW
 70
     1
  0
VIEW
  2
ALL
 70
     0
 40
270.0
 10
220.78595317725751
 20
135.0
 41
441.57190635451502
 11
0.0
 21
0.0
 31
1.0
 12
0.0
 22
0.0
 32
0.0
 42
50.0
 43
0.0
 44
0.0
 50
0.0
 71
     0
  0
ENDTAB
  0
TABLE
  2
UCS
 70
     0
  0
ENDTAB
  0
TABLE
  2
APPID
 70
     3
  0
APPID
  2
ACAD
 70
     0
  0
APPID
  2
ACAD_MLEADERVER
 70
     0
  0
APPID
  2
ACAD_NAV_VCDISPLAY
 70
     0
  0
ENDTAB
  0
TABLE
  2
DIMSTYLE
 70
     1
  0
DIMSTYLE
  2
STANDARD
 70
     0
  3

  4

  5

  6

  7

 40
1.0
 41
0.18
 42
0.0625
 43
0.38
 44
0.18
 45
0.0
 46
0.0
 47
0.0
 48
0.0
140
0.18
141
0.09
142
0.0
143
25.399999999999999
144
1.0
145
0.0
146
1.0
147
0.09
 71
     0
 72
     0
 73
     1
 74
     1
 75
     0
 76
     0
 77
     0
 78
     0
170
     0
171
     2
172
     0
173
     0
174
     0
175
     0
176
     0
177
     0
178
     0
  0
ENDTAB
  0
ENDSEC
  0
SECTION
  2
BLOCKS
  0
BLOCK
  8
0
  2
$MODEL_SPACE
 70
     0
 10
0.0
 20
0.0
 30
0.0
  3
$MODEL_SPACE
  1

  0
ENDBLK
  5
140
  8
0
  0
BLOCK
 67
     1
  8
0
  2
$PAPER_SPACE
 70
     0
 10
0.0
 20
0.0
 30
0.0
  3
$PAPER_SPACE
  1

  0
ENDBLK
  5
13E
 67
     1
  8
0
  0
BLOCK
  8
0
  2
*X0
 70
     1
 10
0.0
 20
0.0
 30
0.0
  3
*X0
  1

  0
LINE
  5
30
  8
0
 62
     0
 10
136.5796896773295
 20
109.00252521105411
 30
0.0
 11
148.0796896773295
 21
120.50252521105411
 31
0.0
  0
LINE
  5
31
  8
0
 62
     0
 10
135.87258289614289
 20
109.00252521105411
 30
0.0
 11
147.37258289614289
 21
120.50252521105411
 31
0.0
  0
LINE
  5
32
  8
0
 62
     0
 10
135.16547611495639
 20
109.00252521105411
 30
0.0
 11
146.66547611495639
 21
120.50252521105411
 31
0.0
  0
LINE
  5
33
  8
0
 62
     0
 10
134.45836933376981
 20
109.00252521105411
 30
0.0
 11
145.95836933376981
 21
120.50252521105411
 31
0.0
  0
LINE
  5
34
  8
0
 62
     0
 10
133.75126255258331
 20
109.00252521105411
 30
0.0
 11
145.25126255258331
 21
120.50252521105411
 31
0.0
  0
LINE
  5
35
  8
0
 62
     0
 10
133.0441557713967
 20
109.00252521105411
 30
0.0
 11
144.5441557713967
 21
120.50252521105411
 31
0.0
  0
LINE
  5
36
  8
0
 62
     0
 10
132.33704899021021
 20
109.00252521105411
 30
0.0
 11
143.83704899021021
 21
120.50252521105411
 31
0.0
  0
LINE
  5
37
  8
0
 62
     0
 10
131.62994220902371
 20
109.00252521105411
 30
0.0
 11
143.12994220902371
 21
120.50252521105411
 31
0.0
  0
LINE
  5
38
  8
0
 62
     0
 10
130.9228354278371
 20
109.00252521105411
 30
0.0
 11
142.4228354278371
 21
120.50252521105411
 31
0.0
  0
LINE
  5
39
  8
0
 62
     0
 10
130.2157286466506
 20
109.00252521105411
 30
0.0
 11
141.7157286466506
 21
120.50252521105411
 31
0.0
  0
LINE
  5
3A
  8
0
 62
     0
 10
130.05970105652781
 20
109.553604402118
 30
0.0
 11
141.00862186546399
 21
120.50252521105411
 31
0.0
  0
LINE
  5
3B
  8
0
 62
     0
 10
130.05970105652781
 20
110.26071118330449
 30
0.0
 11
140.30151508427741
 21
120.50252521105411
 31
0.0
  0
LINE
  5
3C
  8
0
 62
     0
 10
130.05970105652781
 20
110.9678179644911
 30
0.0
 11
139.59440830309089
 21
120.50252521105411
 31
0.0
  0
LINE
  5
3D
  8
0
 62
     0
 10
130.05970105652781
 20
111.6749247456776
 30
0.0
 11
138.88730152190439
 21
120.50252521105411
 31
0.0
  0
LINE
  5
3E
  8
0
 62
     0
 10
130.05970105652781
 20
112.3820315268642
 30
0.0
 11
138.18019474071781
 21
120.50252521105411
 31
0.0
  0
LINE
  5
3F
  8
0
 62
     0
 10
130.05970105652781
 20
113.08913830805071
 30
0.0
 11
137.47308795953131
 21
120.50252521105411
 31
0.0
  0
LINE
  5
40
  8
0
 62
     0
 10
130.05970105652781
 20
113.7962450892372
 30
0.0
 11
136.7659811783447
 21
120.50252521105411
 31
0.0
  0
LINE
  5
41
  8
0
 62
     0
 10
130.05970105652781
 20
114.5033518704238
 30
0.0
 11
136.05887439715821
 21
120.50252521105411
 31
0.0
  0
LINE
  5
42
  8
0
 62
     0
 10
130.05970105652781
 20
115.2104586516103
 30
0.0
 11
135.3517676159716
 21
120.50252521105411
 31
0.0
  0
LINE
  5
43
  8
0
 62
     0
 10
130.05970105652781
 20
115.91756543279691
 30
0.0
 11
134.6446608347851
 21
120.50252521105411
 31
0.0
  0
LINE
  5
44
  8
0
 62
     0
 10
130.05970105652781
 20
116.6246722139834
 30
0.0
 11
133.93755405359849
 21
120.50252521105411
 31
0.0
  0
LINE
  5
45
  8
0
 62
     0
 10
130.05970105652781
 20
117.33177899517
 30
0.0
 11
133.23044727241199
 21
120.50252521105411
 31
0.0
  0
LINE
  5
46
  8
0
 62
     0
 10
130.05970105652781
 20
118.03888577635649
 30
0.0
 11
132.52334049122541
 21
120.50252521105411
 31
0.0
  0
LINE
  5
47
  8
0
 62
     0
 10
130.05970105652781
 20
118.7459925575431
 30
0.0
 11
131.81623371003889
 21
120.50252521105411
 31
0.0
  0
LINE
  5
48
  8
0
 62
     0
 10
130.05970105652781
 20
119.4530993387296
 30
0.0
 11
131.10912692885231
 21
120.50252521105411
 31
0.0
  0
LINE
  5
49
  8
0
 62
     0
 10
130.05970105652781
 20
120.1602061199162
 30
0.0
 11
130.40202014766581
 21
120.50252521105411
 31
0.0
  0
LINE
  5
4A
  8
0
 62
     0
 10
137.28679645851599
 20
109.00252521105411
 30
0.0
 11
148.78679645851599
 21
120.50252521105411
 31
0.0
  0
LINE
  5
4B
  8
0
 62
     0
 10
137.9939032397026
 20
109.00252521105411
 30
0.0
 11
149.4939032397026
 21
120.50252521105411
 31
0.0
  0
LINE
  5
4C
  8
0
 62
     0
 10
138.7010100208891
 20
109.00252521105411
 30
0.0
 11
150.2010100208891
 21
120.50252521105411
 31
0.0
  0
LINE
  5
4D
  8
0
 62
     0
 10
139.40811680207571
 20
109.00252521105411
 30
0.0
 11
150.9081168020756
 21
120.50252521105411
 31
0.0
  0
LINE
  5
4E
  8
0
 62
     0
 10
140.11522358326221
 20
109.00252521105411
 30
0.0
 11
151.61522358326221
 21
120.50252521105411
 31
0.0
  0
LINE
  5
4F
  8
0
 62
     0
 10
140.82233036444879
 20
109.00252521105411
 30
0.0
 11
152.32233036444879
 21
120.50252521105411
 31
0.0
  0
LINE
  5
50
  8
0
 62
     0
 10
141.52943714563531
 20
109.00252521105411
 30
0.0
 11
153.02943714563531
 21
120.50252521105411
 31
0.0
  0
LINE
  5
51
  8
0
 62
     0
 10
142.23654392682189
 20
109.00252521105411
 30
0.0
 11
153.73654392682189
 21
120.50252521105411
 31
0.0
  0
LINE
  5
52
  8
0
 62
     0
 10
142.94365070800839
 20
109.00252521105411
 30
0.0
 11
154.44365070800839
 21
120.50252521105411
 31
0.0
  0
LINE
  5
53
  8
0
 62
     0
 10
143.65075748919489
 20
109.00252521105411
 30
0.0
 11
155.0597010565279
 21
120.4114687783871
 31
0.0
  0
LINE
  5
54
  8
0
 62
     0
 10
144.3578642703815
 20
109.00252521105411
 30
0.0
 11
155.0597010565279
 21
119.70436199720049
 31
0.0
  0
LINE
  5
55
  8
0
 62
     0
 10
145.06497105156811
 20
109.00252521105411
 30
0.0
 11
155.0597010565279
 21
118.997255216014
 31
0.0
  0
LINE
  5
56
  8
0
 62
     0
 10
145.7720778327546
 20
109.00252521105411
 30
0.0
 11
155.0597010565279
 21
118.2901484348274
 31
0.0
  0
LINE
  5
57
  8
0
 62
     0
 10
146.47918461394119
 20
109.00252521105411
 30
0.0
 11
155.0597010565279
 21
117.5830416536409
 31
0.0
  0
LINE
  5
58
  8
0
 62
     0
 10
147.18629139512771
 20
109.00252521105411
 30
0.0
 11
155.0597010565279
 21
116.87593487245439
 31
0.0
  0
LINE
  5
59
  8
0
 62
     0
 10
147.89339817631421
 20
109.00252521105411
 30
0.0
 11
155.0597010565279
 21
116.1688280912678
 31
0.0
  0
LINE
  5
5A
  8
0
 62
     0
 10
148.60050495750079
 20
109.00252521105411
 30
0.0
 11
155.0597010565279
 21
115.4617213100813
 31
0.0
  0
LINE
  5
5B
  8
0
 62
     0
 10
149.30761173868731
 20
109.00252521105411
 30
0.0
 11
155.0597010565279
 21
114.75461452889471
 31
0.0
  0
LINE
  5
5C
  8
0
 62
     0
 10
150.0147185198739
 20
109.00252521105411
 30
0.0
 11
155.0597010565279
 21
114.0475077477081
 31
0.0
  0
LINE
  5
5D
  8
0
 62
     0
 10
150.72182530106039
 20
109.00252521105411
 30
0.0
 11
155.0597010565279
 21
113.3404009665216
 31
0.0
  0
LINE
  5
5E
  8
0
 62
     0
 10
151.428932082247
 20
109.00252521105411
 30
0.0
 11
155.0597010565279
 21
112.633294185335
 31
0.0
  0
LINE
  5
5F
  8
0
 62
     0
 10
152.1360388634335
 20
109.00252521105411
 30
0.0
 11
155.0597010565279
 21
111.92618740414849
 31
0.0
  0
LINE
  5
60
  8
0
 62
     0
 10
152.84314564462011
 20
109.00252521105411
 30
0.0
 11
155.0597010565279
 21
111.2190806229619
 31
0.0
  0
LINE
  5
61
  8
0
 62
     0
 10
153.5502524258066
 20
109.00252521105411
 30
0.0
 11
155.0597010565279
 21
110.5119738417754
 31
0.0
  0
LINE
  5
62
  8
0
 62
     0
 10
154.25735920699319
 20
109.00252521105411
 30
0.0
 11
155.0597010565279
 21
109.8048670605889
 31
0.0
  0
LINE
  5
63
  8
0
 62
     0
 10
154.96446598817971
 20
109.00252521105411
 30
0.0
 11
155.0597010565279
 21
109.09776027940229
 31
0.0
  0
LINE
  5
64
  8
0
 62
     0
 10
147.67723635966249
 20
109.00252521105411
 30
0.0
 11
136.17723635966249
 21
120.50252521105411
 31
0.0
  0
LINE
  5
65
  8
0
 62
     0
 10
146.97012957847599
 20
109.00252521105411
 30
0.0
 11
135.47012957847599
 21
120.50252521105411
 31
0.0
  0
LINE
  5
66
  8
0
 62
     0
 10
146.26302279728941
 20
109.00252521105411
 30
0.0
 11
134.76302279728941
 21
120.50252521105411
 31
0.0
  0
LINE
  5
67
  8
0
 62
     0
 10
145.55591601610291
 20
109.00252521105411
 30
0.0
 11
134.05591601610291
 21
120.50252521105411
 31
0.0
  0
LINE
  5
68
  8
0
 62
     0
 10
144.8488092349163
 20
109.00252521105411
 30
0.0
 11
133.34880923491639
 21
120.50252521105411
 31
0.0
  0
LINE
  5
69
  8
0
 62
     0
 10
144.14170245372981
 20
109.00252521105411
 30
0.0
 11
132.64170245372981
 21
120.50252521105411
 31
0.0
  0
LINE
  5
6A
  8
0
 62
     0
 10
143.43459567254331
 20
109.00252521105411
 30
0.0
 11
131.93459567254331
 21
120.50252521105411
 31
0.0
  0
LINE
  5
6B
  8
0
 62
     0
 10
142.7274888913567
 20
109.00252521105411
 30
0.0
 11
131.2274888913567
 21
120.50252521105411
 31
0.0
  0
LINE
  5
6C
  8
0
 62
     0
 10
142.0203821101702
 20
109.00252521105411
 30
0.0
 11
130.5203821101702
 21
120.50252521105411
 31
0.0
  0
LINE
  5
6D
  8
0
 62
     0
 10
141.31327532898359
 20
109.00252521105411
 30
0.0
 11
130.05970105652781
 21
120.2560994835099
 31
0.0
  0
LINE
  5
6E
  8
0
 62
     0
 10
140.60616854779701
 20
109.00252521105411
 30
0.0
 11
130.05970105652781
 21
119.5489927023233
 31
0.0
  0
LINE
  5
6F
  8
0
 62
     0
 10
139.89906176661049
 20
109.00252521105411
 30
0.0
 11
130.05970105652781
 21
118.84188592113679
 31
0.0
  0
LINE
  5
70
  8
0
 62
     0
 10
139.19195498542399
 20
109.00252521105411
 30
0.0
 11
130.05970105652781
 21
118.1347791399502
 31
0.0
  0
LINE
  5
71
  8
0
 62
     0
 10
138.48484820423741
 20
109.00252521105411
 30
0.0
 11
130.05970105652781
 21
117.4276723587637
 31
0.0
  0
LINE
  5
72
  8
0
 62
     0
 10
137.77774142305091
 20
109.00252521105411
 30
0.0
 11
130.05970105652781
 21
116.7205655775771
 31
0.0
  0
LINE
  5
73
  8
0
 62
     0
 10
137.0706346418643
 20
109.00252521105411
 30
0.0
 11
130.05970105652781
 21
116.01345879639059
 31
0.0
  0
LINE
  5
74
  8
0
 62
     0
 10
136.36352786067781
 20
109.00252521105411
 30
0.0
 11
130.05970105652781
 21
115.3063520152041
 31
0.0
  0
LINE
  5
75
  8
0
 62
     0
 10
135.6564210794912
 20
109.00252521105411
 30
0.0
 11
130.05970105652781
 21
114.5992452340175
 31
0.0
  0
LINE
  5
76
  8
0
 62
     0
 10
134.9493142983047
 20
109.00252521105411
 30
0.0
 11
130.05970105652781
 21
113.89213845283101
 31
0.0
  0
LINE
  5
77
  8
0
 62
     0
 10
134.24220751711809
 20
109.00252521105411
 30
0.0
 11
130.05970105652781
 21
113.1850316716444
 31
0.0
  0
LINE
  5
78
  8
0
 62
     0
 10
133.53510073593159
 20
109.00252521105411
 30
0.0
 11
130.05970105652781
 21
112.4779248904579
 31
0.0
  0
LINE
  5
79
  8
0
 62
     0
 10
132.82799395474501
 20
109.00252521105411
 30
0.0
 11
130.05970105652781
 21
111.7708181092713
 31
0.0
  0
LINE
  5
7A
  8
0
 62
     0
 10
132.12088717355849
 20
109.00252521105411
 30
0.0
 11
130.05970105652781
 21
111.06371132808481
 31
0.0
  0
LINE
  5
7B
  8
0
 62
     0
 10
131.4137803923719
 20
109.00252521105411
 30
0.0
 11
130.05970105652781
 21
110.3566045468982
 31
0.0
  0
LINE
  5
7C
  8
0
 62
     0
 10
130.70667361118541
 20
109.00252521105411
 30
0.0
 11
130.05970105652781
 21
109.6494977657117
 31
0.0
  0
LINE
  5
7D
  8
0
 62
     0
 10
148.3843431408491
 20
109.00252521105411
 30
0.0
 11
136.8843431408491
 21
120.50252521105411
 31
0.0
  0
LINE
  5
7E
  8
0
 62
     0
 10
149.09144992203559
 20
109.00252521105411
 30
0.0
 11
137.59144992203559
 21
120.50252521105411
 31
0.0
  0
LINE
  5
7F
  8
0
 62
     0
 10
149.7985567032222
 20
109.00252521105411
 30
0.0
 11
138.2985567032222
 21
120.50252521105411
 31
0.0
  0
LINE
  5
80
  8
0
 62
     0
 10
150.5056634844087
 20
109.00252521105411
 30
0.0
 11
139.0056634844087
 21
120.50252521105411
 31
0.0
  0
LINE
  5
81
  8
0
 62
     0
 10
151.2127702655952
 20
109.00252521105411
 30
0.0
 11
139.71277026559531
 21
120.50252521105411
 31
0.0
  0
LINE
  5
82
  8
0
 62
     0
 10
151.91987704678181
 20
109.00252521105411
 30
0.0
 11
140.41987704678181
 21
120.50252521105411
 31
0.0
  0
LINE
  5
83
  8
0
 62
     0
 10
152.62698382796839
 20
109.00252521105411
 30
0.0
 11
141.12698382796839
 21
120.50252521105411
 31
0.0
  0
LINE
  5
84
  8
0
 62
     0
 10
153.33409060915491
 20
109.00252521105411
 30
0.0
 11
141.83409060915491
 21
120.50252521105411
 31
0.0
  0
LINE
  5
85
  8
0
 62
     0
 10
154.04119739034149
 20
109.00252521105411
 30
0.0
 11
142.54119739034149
 21
120.50252521105411
 31
0.0
  0
LINE
  5
86
  8
0
 62
     0
 10
154.74830417152799
 20
109.00252521105411
 30
0.0
 11
143.24830417152799
 21
120.50252521105411
 31
0.0
  0
LINE
  5
87
  8
0
 62
     0
 10
155.0597010565279
 20
109.39823510724079
 30
0.0
 11
143.9554109527146
 21
120.50252521105411
 31
0.0
  0
LINE
  5
88
  8
0
 62
     0
 10
155.0597010565279
 20
110.1053418884273
 30
0.0
 11
144.6625177339011
 21
120.50252521105411
 31
0.0
  0
LINE
  5
89
  8
0
 62
     0
 10
155.0597010565279
 20
110.8124486696139
 30
0.0
 11
145.36962451508771
 21
120.50252521105411
 31
0.0
  0
LINE
  5
8A
  8
0
 62
     0
 10
155.0597010565279
 20
111.5195554508004
 30
0.0
 11
146.0767312962742
 21
120.50252521105411
 31
0.0
  0
LINE
  5
8B
  8
0
 62
     0
 10
155.0597010565279
 20
112.22666223198701
 30
0.0
 11
146.7838380774607
 21
120.50252521105411
 31
0.0
  0
LINE
  5
8C
  8
0
 62
     0
 10
155.0597010565279
 20
112.9337690131735
 30
0.0
 11
147.49094485864731
 21
120.50252521105411
 31
0.0
  0
LINE
  5
8D
  8
0
 62
     0
 10
155.0597010565279
 20
113.6408757943601
 30
0.0
 11
148.19805163983381
 21
120.50252521105411
 31
0.0
  0
LINE
  5
8E
  8
0
 62
     0
 10
155.0597010565279
 20
114.3479825755466
 30
0.0
 11
148.90515842102039
 21
120.50252521105411
 31
0.0
  0
LINE
  5
8F
  8
0
 62
     0
 10
155.0597010565279
 20
115.05508935673321
 30
0.0
 11
149.612265202207
 21
120.50252521105411
 31
0.0
  0
LINE
  5
90
  8
0
 62
     0
 10
155.0597010565279
 20
115.7621961379197
 30
0.0
 11
150.31937198339349
 21
120.50252521105411
 31
0.0
  0
LINE
  5
91
  8
0
 62
     0
 10
155.0597010565279
 20
116.4693029191063
 30
0.0
 11
151.02647876458011
 21
120.50252521105411
 31
0.0
  0
LINE
  5
92
  8
0
 62
     0
 10
155.0597010565279
 20
117.17640970029279
 30
0.0
 11
151.7335855457666
 21
120.50252521105411
 31
0.0
  0
LINE
  5
93
  8
0
 62
     0
 10
155.0597010565279
 20
117.8835164814794
 30
0.0
 11
152.4406923269531
 21
120.50252521105411
 31
0.0
  0
LINE
  5
94
  8
0
 62
     0
 10
155.0597010565279
 20
118.5906232626659
 30
0.0
 11
153.14779910813971
 21
120.50252521105411
 31
0.0
  0
LINE
  5
95
  8
0
 62
     0
 10
155.0597010565279
 20
119.2977300438525
 30
0.0
 11
153.8549058893262
 21
120.50252521105411
 31
0.0
  0
LINE
  5
96
  8
0
 62
     0
 10
155.0597010565279
 20
120.00483682503901
 30
0.0
 11
154.56201267051279
 21
120.50252521105411
 31
0.0
  0
ENDBLK
  5
97
  8
0
  0
ENDSEC
  0
SECTION
  2
ENTITIES
  0
LINE
  5
98
  8
0
 10
165.54256556429689
 20
105.2682122036688
 30
0.0
 11
165.54256556429689
 21
120.7682122036688
 31
0.0
  0
LINE
  5
99
  8
0
 10
183.04256556429689
 20
138.26821220366881
 30
0.0
 11
185.54256556429681
 21
138.26821220366881
 31
0.0
  0
LINE
  5
9A
  8
0
 10
230.54256556429689
 20
120.7682122036688
 30
0.0
 11
230.54256556429689
 21
105.2682122036688
 31
0.0
  0
LINE
  5
9B
  8
0
 10
220.54256556429689
 20
120.7682122036688
 30
0.0
 11
220.54256556429689
 21
105.2682122036688
 31
0.0
  0
LINE
  5
9C
  8
0
 10
175.54256556429689
 20
105.2682122036688
 30
0.0
 11
175.54256556429689
 21
120.7682122036688
 31
0.0
  0
LINE
  5
9D
  8
0
 10
183.04256556429689
 20
128.2682122036687
 30
0.0
 11
185.54256556429681
 21
128.2682122036687
 31
0.0
  0
LINE
  5
9E
  8
0
 10
177.54256556429681
 20
97.268212203668796
 30
0.0
 11
163.54256556429689
 21
97.268212203668796
 31
0.0
  0
ARC
  5
9F
  8
0
 10
213.04256556429689
 20
120.7682122036688
 30
0.0
 40
7.5
 50
0.0
 51
90.0
  0
ARC
  5
A0
  8
0
 10
183.04256556429689
 20
120.7682122036688
 30
0.0
 40
7.5
 50
90.0
 51
180.0
  0
ARC
  5
A1
  8
0
 10
213.04256556429689
 20
120.7682122036688
 30
0.0
 40
17.5
 50
0.0
 51
90.0
  0
ARC
  5
A2
  8
0
 10
183.04256556429689
 20
120.7682122036688
 30
0.0
 40
17.5
 50
90.0
 51
180.0
  0
LINE
  5
A3
  8
2
 10
168.04256556429689
 20
98.735212203668993
 30
0.0
 11
168.04256556429689
 21
108.2682122036688
 31
0.0
  0
LINE
  5
A4
  8
2
 10
168.47556556429669
 20
99.168212203668773
 30
0.0
 11
168.47556556429669
 21
111.2682122036688
 31
0.0
  0
LINE
  5
A5
  8
2
 10
172.60956556429699
 20
99.168212203668773
 30
0.0
 11
172.60956556429699
 21
111.2682122036688
 31
0.0
  0
LINE
  5
A6
  8
2
 10
173.04256556429689
 20
98.735212203668993
 30
0.0
 11
173.04256556429689
 21
108.2682122036688
 31
0.0
  0
LINE
  5
A7
  8
2
 10
168.47556556429669
 20
111.2682122036689
 30
0.0
 11
170.54256556429689
 21
112.51019110319891
 31
0.0
  0
LINE
  5
A8
  8
2
 10
172.60956556429699
 20
111.2682122036688
 30
0.0
 11
170.54256556429689
 21
112.51019110319891
 31
0.0
  0
LINE
  5
A9
  8
2
 10
168.04256556429689
 20
108.2682122036688
 30
0.0
 11
173.04256556429689
 21
108.2682122036688
 31
0.0
  0
LINE
  5
AA
  8
2
 10
168.47556556429669
 20
111.2682122036688
 30
0.0
 11
172.60956556429699
 21
111.2682122036688
 31
0.0
  0
LINE
  5
AB
  8
2
 10
173.04256556429689
 20
108.2682122036688
 30
0.0
 11
172.60956556429699
 21
109.0181902033457
 31
0.0
  0
LINE
  5
AC
  8
2
 10
168.04256556429701
 20
108.2682122036688
 30
0.0
 11
168.4755655642968
 21
109.0181902033457
 31
0.0
  0
LINE
  5
AD
  8
2
 10
167.5755655642966
 20
98.268212203668796
 30
0.0
 11
168.47556556429669
 21
99.168212203668773
 31
0.0
  0
LINE
  5
AE
  8
2
 10
168.47556556429669
 20
99.168212203668773
 30
0.0
 11
172.60956556429699
 21
99.168212203668872
 31
0.0
  0
LINE
  5
AF
  8
2
 10
172.60956556429699
 20
99.168212203668872
 30
0.0
 11
173.50956556429719
 21
98.268212203668796
 31
0.0
  0
LINE
  5
B0
  8
0
 10
163.54256556429681
 20
97.268212203668796
 30
0.0
 11
163.54256556429689
 21
103.2682122036688
 31
0.0
  0
LINE
  5
B1
  8
0
 10
177.54256556429681
 20
97.268212203668796
 30
0.0
 11
177.54256556429689
 21
103.2682122036688
 31
0.0
  0
LINE
  5
B2
  8
2
 10
165.54256556429689
 20
98.268212203668796
 30
0.0
 11
175.54256556429689
 21
98.268212203668796
 31
0.0
  0
ARC
  5
B3
  8
0
 10
165.54256556429689
 20
103.2682122036688
 30
0.0
 40
2.0
 50
90.0
 51
179.9999999999996
  0
ARC
  5
B4
  8
0
 10
175.54256556429681
 20
103.2682122036688
 30
0.0
 40
2.0
 50
0.0000000000004071
 51
90.0
  0
LINE
  5
B5
  8
2
 10
168.04256556429681
 20
97.268212203668796
 30
0.0
 11
168.04256556429681
 21
98.268212203668796
 31
0.0
  0
LINE
  5
B6
  8
2
 10
173.04256556429681
 20
97.268212203668796
 30
0.0
 11
173.04256556429681
 21
98.268212203668796
 31
0.0
  0
ARC
  5
B7
  8
0
 10
230.54256556429681
 20
103.2682122036688
 30
0.0
 40
2.0
 50
0.0000000000004071
 51
90.0
  0
ARC
  5
B8
  8
0
 10
220.54256556429689
 20
103.2682122036688
 30
0.0
 40
2.0
 50
90.0
 51
179.9999999999996
  0
LINE
  5
B9
  8
0
 10
232.54256556429681
 20
97.268212203668796
 30
0.0
 11
232.54256556429689
 21
103.2682122036688
 31
0.0
  0
LINE
  5
BA
  8
0
 10
218.54256556429681
 20
97.268212203668796
 30
0.0
 11
218.54256556429689
 21
103.2682122036688
 31
0.0
  0
LINE
  5
BB
  8
0
 10
232.54256556429681
 20
97.268212203668796
 30
0.0
 11
218.54256556429689
 21
97.268212203668796
 31
0.0
  0
LINE
  5
BC
  8
0
 10
220.54256556429689
 20
105.2682122036688
 30
0.0
 11
230.54256556429689
 21
105.2682122036688
 31
0.0
  0
LINE
  5
BD
  8
0
 10
185.54256556429681
 20
139.01821220366881
 30
0.0
 11
185.54256556429681
 21
127.5182122036688
 31
0.0
  0
LINE
  5
BE
  8
0
 10
210.54256556429689
 20
139.01821220366881
 30
0.0
 11
210.54256556429689
 21
127.5182122036688
 31
0.0
  0
LINE
  5
BF
  8
0
 10
185.54256556429681
 20
139.01821220366881
 30
0.0
 11
210.54256556429689
 21
139.01821220366881
 31
0.0
  0
LINE
  5
C0
  8
0
 10
185.54256556429681
 20
127.5182122036688
 30
0.0
 11
210.54256556429689
 21
127.5182122036688
 31
0.0
  0
LINE
  5
C1
  8
0
 10
210.54256556429689
 20
138.26821220366881
 30
0.0
 11
213.04256556429689
 21
138.26821220366881
 31
0.0
  0
LINE
  5
C2
  8
0
 10
210.54256556429689
 20
128.2682122036687
 30
0.0
 11
213.04256556429689
 21
128.2682122036687
 31
0.0
  0
LINE
  5
C3
  8
0
 10
170.54256556429689
 20
190.54629799182149
 30
0.0
 11
185.54256556429669
 21
190.54629799182149
 31
0.0
  0
LINE
  5
C4
  8
0
 10
170.54256556429689
 20
200.54629799182149
 30
0.0
 11
185.54256556429669
 21
200.54629799182149
 31
0.0
  0
LINE
  5
C5
  8
1
 10
160.54256556429689
 20
195.54629799182149
 30
0.0
 11
235.54256556429689
 21
195.54629799182149
 31
0.0
  0
ARC
  5
C6
  8
0
 10
170.54256556429689
 20
195.54629799182149
 30
0.0
 40
5.0
 50
90.0
 51
270.0
  0
ARC
  5
C7
  8
2
 10
170.54256556429681
 20
195.54629799182149
 30
0.0
 40
5.0
 50
270.0
 51
90.0
  0
ARC
  5
C8
  8
0
 10
225.54256556429681
 20
195.54629799182149
 30
0.0
 40
5.0
 50
270.0
 51
90.0
  0
ARC
  5
C9
  8
2
 10
225.54256556429689
 20
195.54629799182149
 30
0.0
 40
5.0
 50
90.0
 51
270.0
  0
LINE
  5
CA
  8
1
 10
170.54256556429689
 20
205.5462979918214
 30
0.0
 11
170.54256556429689
 21
185.54629799182149
 31
0.0
  0
LINE
  5
CB
  8
1
 10
225.54256556429681
 20
205.5462979918214
 30
0.0
 11
225.54256556429681
 21
185.54629799182149
 31
0.0
  0
ARC
  5
CC
  8
0
 10
170.54256556429689
 20
195.54629799182149
 30
0.0
 40
7.0
 50
45.584691402806932
 51
314.41530859719308
  0
ARC
  5
CD
  8
0
 10
225.54256556429681
 20
195.54629799182149
 30
0.0
 40
7.0
 50
225.5846914028069
 51
134.4153085971931
  0
LINE
  5
CE
  8
0
 10
210.54256556429701
 20
189.79629799182149
 30
0.0
 11
210.54256556429701
 21
201.2962979918214
 31
0.0
  0
LINE
  5
CF
  8
0
 10
185.54256556429681
 20
189.79629799182149
 30
0.0
 11
185.54256556429681
 21
201.2962979918214
 31
0.0
  0
LINE
  5
D0
  8
0
 10
185.54256556429669
 20
201.2962979918214
 30
0.0
 11
210.54256556429701
 21
201.2962979918214
 31
0.0
  0
LINE
  5
D1
  8
0
 10
185.54256556429669
 20
189.79629799182149
 30
0.0
 11
210.54256556429701
 21
189.79629799182149
 31
0.0
  0
LINE
  5
D2
  8
0
 10
210.54256556429689
 20
200.54629799182149
 30
0.0
 11
225.54256556429681
 21
200.54629799182149
 31
0.0
  0
LINE
  5
D3
  8
0
 10
210.54256556429689
 20
190.54629799182149
 30
0.0
 11
225.54256556429681
 21
190.54629799182149
 31
0.0
  0
LINE
  5
D4
  8
0
 10
93.884729296640586
 20
133.26821220366881
 30
0.0
 11
93.884729296640586
 21
105.2682122036688
 31
0.0
  0
LINE
  5
D5
  8
0
 10
103.8847292966406
 20
133.26821220366881
 30
0.0
 11
103.8847292966406
 21
105.2682122036688
 31
0.0
  0
LINE
  5
D6
  8
1
 10
98.884729296640543
 20
143.26821220366881
 30
0.0
 11
98.884729296640543
 21
92.268212203668767
 31
0.0
  0
ARC
  5
D7
  8
0
 10
98.884729296640543
 20
133.26821220366881
 30
0.0
 40
5.0
 50
0.0
 51
180.0
  0
ARC
  5
D8
  8
2
 10
98.884729296640543
 20
133.26821220366881
 30
0.0
 40
5.0
 50
180.0
 51
0.0
  0
LINE
  5
D9
  8
0
 10
93.884729296640515
 20
105.2682122036688
 30
0.0
 11
103.8847292966405
 21
105.2682122036688
 31
0.0
  0
LINE
  5
DA
  8
0
 10
105.8847292966405
 20
97.268212203668796
 30
0.0
 11
91.884729296640529
 21
97.268212203668796
 31
0.0
  0
LINE
  5
DB
  8
0
 10
91.884729296640472
 20
97.268212203668796
 30
0.0
 11
91.884729296640529
 21
103.2682122036688
 31
0.0
  0
LINE
  5
DC
  8
0
 10
105.8847292966405
 20
97.268212203668796
 30
0.0
 11
105.8847292966405
 21
103.2682122036688
 31
0.0
  0
ARC
  5
DD
  8
0
 10
93.884729296640515
 20
103.2682122036688
 30
0.0
 40
2.0
 50
90.0
 51
179.9999999999996
  0
ARC
  5
DE
  8
0
 10
103.8847292966404
 20
103.2682122036688
 30
0.0
 40
2.0
 50
0.0000000000004071
 51
90.0
  0
LINE
  5
DF
  8
1
 10
225.54256556429689
 20
120.7682122036688
 30
0.0
 11
225.54256556429689
 21
92.268212203668767
 31
0.0
  0
ARC
  5
E0
  8
1
 10
213.04256556429689
 20
120.7682122036688
 30
0.0
 40
12.5
 50
0.0
 51
90.0
  0
LINE
  5
E1
  8
1
 10
183.04256556429689
 20
133.26821220366881
 30
0.0
 11
213.04256556429689
 21
133.26821220366881
 31
0.0
  0
ARC
  5
E2
  8
1
 10
183.04256556429689
 20
120.7682122036688
 30
0.0
 40
12.5
 50
90.0
 51
180.0
  0
LINE
  5
E3
  8
1
 10
170.54256556429689
 20
92.268212203668767
 30
0.0
 11
170.54256556429689
 21
120.7682122036688
 31
0.0
  0
INSERT
  5
E4
  8
3
  2
*X0
 10
55.482864507768959
 20
18.515686992614601
 30
0.0
  0
INSERT
  5
E5
  8
3
  2
*X0
 10
55.482864507768959
 20
80.793772780767299
 30
0.0
  0
LINE
  5
F4
  8
0
 10
165.54256556429689
 20
105.2682122036688
 30
0.0
 11
175.54256556429689
 21
105.2682122036688
 31
0.0
  0
LINE
  5
F5
  8
2
 10
165.54256556429689
 20
105.2682122036688
 30
0.0
 11
165.54256556429689
 21
98.268212203668796
 31
0.0
  0
LINE
  5
F6
  8
2
 10
175.54256556429681
 20
105.2682122036688
 30
0.0
 11
175.54256556429681
 21
98.268212203668796
 31
0.0
  0
LINE
  5
F7
  8
2
 10
220.54256556429689
 20
105.2682122036688
 30
0.0
 11
220.54256556429689
 21
98.268212203668796
 31
0.0
  0
LINE
  5
F8
  8
2
 10
230.54256556429681
 20
105.2682122036688
 30
0.0
 11
230.54256556429681
 21
98.268212203668796
 31
0.0
  0
LINE
  5
F9
  8
2
 10
223.04256556429689
 20
97.268212203668796
 30
0.0
 11
223.04256556429689
 21
98.268212203668796
 31
0.0
  0
LINE
  5
FA
  8
2
 10
228.04256556429689
 20
97.268212203668796
 30
0.0
 11
228.04256556429689
 21
98.268212203668796
 31
0.0
  0
LINE
  5
FB
  8
2
 10
230.54256556429681
 20
98.268212203668796
 30
0.0
 11
220.54256556429681
 21
98.268212203668796
 31
0.0
  0
LINE
  5
FC
  8
2
 10
223.47556556429669
 20
99.168212203668872
 30
0.0
 11
222.5755655642966
 21
98.268212203668796
 31
0.0
  0
LINE
  5
FD
  8
2
 10
227.60956556429699
 20
99.168212203668773
 30
0.0
 11
223.47556556429669
 21
99.168212203668872
 31
0.0
  0
LINE
  5
FE
  8
2
 10
228.50956556429711
 20
98.268212203668796
 30
0.0
 11
227.60956556429699
 21
99.168212203668773
 31
0.0
  0
LINE
  5
FF
  8
2
 10
228.04256556429669
 20
108.2682122036688
 30
0.0
 11
227.6095655642969
 21
109.0181902033457
 31
0.0
  0
LINE
  5
100
  8
2
 10
223.04256556429681
 20
108.2682122036688
 30
0.0
 11
223.47556556429669
 21
109.0181902033457
 31
0.0
  0
LINE
  5
101
  8
2
 10
227.60956556429699
 20
111.2682122036688
 30
0.0
 11
223.47556556429669
 21
111.2682122036688
 31
0.0
  0
LINE
  5
102
  8
2
 10
228.04256556429681
 20
108.2682122036688
 30
0.0
 11
223.04256556429681
 21
108.2682122036688
 31
0.0
  0
LINE
  5
103
  8
2
 10
223.47556556429669
 20
111.2682122036688
 30
0.0
 11
225.54256556429681
 21
112.51019110319891
 31
0.0
  0
LINE
  5
104
  8
2
 10
227.60956556429699
 20
111.2682122036689
 30
0.0
 11
225.54256556429681
 21
112.51019110319891
 31
0.0
  0
LINE
  5
105
  8
2
 10
223.04256556429681
 20
98.735212203668993
 30
0.0
 11
223.04256556429681
 21
108.2682122036688
 31
0.0
  0
LINE
  5
106
  8
2
 10
223.47556556429669
 20
99.168212203668773
 30
0.0
 11
223.47556556429669
 21
111.2682122036688
 31
0.0
  0
LINE
  5
107
  8
2
 10
227.60956556429699
 20
99.168212203668773
 30
0.0
 11
227.60956556429699
 21
111.2682122036688
 31
0.0
  0
LINE
  5
108
  8
2
 10
228.04256556429681
 20
98.735212203668993
 30
0.0
 11
228.04256556429681
 21
108.2682122036688
 31
0.0
  0
TEXT
  5
224
  8
0
 62
     3
 10
0.0
 20
0.0
 30
0.0
 40
10.0
  1
RD6-55SP
  7
STANDARD1
  0
ENDSEC
  0
EOF
