  0
SECTION
  2
HEADER
  9
$ACADVER
  1
AC1009
  9
$INSBASE
 10
0.0
 20
0.0
 30
0.0
  9
$EXTMIN
 10
0.0
 20
-2.960436562073669
 30
0.0
  9
$EXTMAX
 10
264.23681496671571
 20
189.99282793139031
 30
0.0
  9
$LIMMIN
 10
0.0
 20
0.0
  9
$LIMMAX
 10
375.0
 20
270.0
  9
$ORTHOMODE
 70
     1
  9
$REGENMODE
 70
     1
  9
$FILLMODE
 70
     1
  9
$QTEXTMODE
 70
     0
  9
$MIRRTEXT
 70
     0
  9
$DRAGMODE
 70
     2
  9
$LTSCALE
 40
5.0
  9
$OSMODE
 70
    55
  9
$ATTMODE
 70
     1
  9
$TEXTSIZE
 40
4.0
  9
$TRACEWID
 40
0.05
  9
$TEXTSTYLE
  7
STANDARD
  9
$CLAYER
  8
4
  9
$CELTYPE
  6
BYLAYER
  9
$CECOLOR
 62
   256
  9
$DIMSCALE
 40
1.0
  9
$DIMASZ
 40
3.0
  9
$DIMEXO
 40
2.0
  9
$DIMDLI
 40
0.38
  9
$DIMRND
 40
0.0
  9
$DIMDLE
 40
0.0
  9
$DIMEXE
 40
2.0
  9
$DIMTP
 40
0.0
  9
$DIMTM
 40
0.0
  9
$DIMTXT
 40
3.2000000000000002
  9
$DIMCEN
 40
0.0
  9
$DIMTSZ
 40
0.0
  9
$DIMTOL
 70
     0
  9
$DIMLIM
 70
     0
  9
$DIMTIH
 70
     0
  9
$DIMTOH
 70
     0
  9
$DIMSE1
 70
     0
  9
$DIMSE2
 70
     0
  9
$DIMTAD
 70
     1
  9
$DIMZIN
 70
     0
  9
$DIMBLK
  1

  9
$DIMASO
 70
     1
  9
$DIMSHO
 70
     0
  9
$DIMPOST
  1

  9
$DIMAPOST
  1

  9
$DIMALT
 70
     0
  9
$DIMALTD
 70
     2
  9
$DIMALTF
 40
25.399999999999999
  9
$DIMLFAC
 40
1.0
  9
$DIMTOFL
 70
     0
  9
$DIMTVP
 40
1.6000000000000001
  9
$DIMTIX
 70
     1
  9
$DIMSOXD
 70
     0
  9
$DIMSAH
 70
     0
  9
$DIMBLK1
  1

  9
$DIMBLK2
  1

  9
$DIMSTYLE
  2
STANDARD
  9
$DIMCLRD
 70
     4
  9
$DIMCLRE
 70
     4
  9
$DIMCLRT
 70
     4
  9
$DIMTFAC
 40
1.0
  9
$DIMGAP
 40
0.09
  9
$LUNITS
 70
     2
  9
$LUPREC
 70
     1
  9
$SKETCHINC
 40
0.1
  9
$FILLETRAD
 40
0.0
  9
$AUNITS
 70
     0
  9
$AUPREC
 70
     0
  9
$MENU
  1
E:\r13\win\SUPPORT\ACAD
  9
$ELEVATION
 40
0.0
  9
$PELEVATION
 40
0.0
  9
$THICKNESS
 40
0.0
  9
$LIMCHECK
 70
     0
  9
$BLIPMODE
 70
     0
  9
$CHAMFERA
 40
3.0
  9
$CHAMFERB
 40
3.0
  9
$SKPOLY
 70
     0
  9
$TDCREATE
 40
2449930.6740740738
  9
$TDUPDATE
 40
2456598.592285173
  9
$TDINDWG
 40
0.0009304051
  9
$TDUSRTIMER
 40
0.0009304051
  9
$USRTIMER
 70
     1
  9
$ANGBASE
 50
0.0
  9
$ANGDIR
 70
     0
  9
$PDMODE
 70
     0
  9
$PDSIZE
 40
0.0
  9
$PLINEWID
 40
0.0
  9
$COORDS
 70
     1
  9
$SPLFRAME
 70
     0
  9
$SPLINETYPE
 70
     6
  9
$SPLINESEGS
 70
     8
  9
$ATTDIA
 70
     0
  9
$ATTREQ
 70
     1
  9
$HANDLING
 70
     1
  9
$HANDSEED
  5
389
  9
$SURFTAB1
 70
     6
  9
$SURFTAB2
 70
     6
  9
$SURFTYPE
 70
     6
  9
$SURFU
 70
     6
  9
$SURFV
 70
     6
  9
$UCSNAME
  2

  9
$UCSORG
 10
0.0
 20
0.0
 30
0.0
  9
$UCSXDIR
 10
1.0
 20
0.0
 30
0.0
  9
$UCSYDIR
 10
0.0
 20
1.0
 30
0.0
  9
$PUCSNAME
  2

  9
$PUCSORG
 10
0.0
 20
0.0
 30
0.0
  9
$PUCSXDIR
 10
1.0
 20
0.0
 30
0.0
  9
$PUCSYDIR
 10
0.0
 20
1.0
 30
0.0
  9
$USERI1
 70
     0
  9
$USERI2
 70
     1
  9
$USERI3
 70
     1
  9
$USERI4
 70
     0
  9
$USERI5
 70
     0
  9
$USERR1
 40
0.0
  9
$USERR2
 40
0.0
  9
$USERR3
 40
0.0
  9
$USERR4
 40
0.0
  9
$USERR5
 40
0.0
  9
$WORLDVIEW
 70
     1
  9
$SHADEDGE
 70
     3
  9
$SHADEDIF
 70
    70
  9
$TILEMODE
 70
     1
  9
$MAXACTVP
 70
    16
  9
$PLIMCHECK
 70
     0
  9
$PEXTMIN
 10
1.0000000000000000E+020
 20
1.0000000000000000E+020
 30
1.0000000000000000E+020
  9
$PEXTMAX
 10
-1.0000000000000000E+020
 20
-1.0000000000000000E+020
 30
-1.0000000000000000E+020
  9
$PLIMMIN
 10
0.0
 20
0.0
  9
$PLIMMAX
 10
12.0
 20
9.0
  9
$UNITMODE
 70
     0
  9
$VISRETAIN
 70
     0
  9
$PLINEGEN
 70
     0
  9
$PSLTSCALE
 70
     0
  0
ENDSEC
  0
SECTION
  2
TABLES
  0
TABLE
  2
VPORT
 70
     1
  0
VPORT
  2
*ACTIVE
 70
     0
 10
0.0
 20
0.0
 11
1.0
 21
1.0
 12
187.49427839065231
 22
194.785247995265
 13
0.0
 23
0.0
 14
10.0
 24
10.0
 15
10.0
 25
10.0
 16
0.0
 26
0.0
 36
1.0
 17
0.0
 27
0.0
 37
0.0
 40
399.3463374158577
 41
1.7807262569832401
 42
50.0
 43
0.0
 44
0.0
 50
0.0
 51
0.0
 71
     0
 72
   500
 73
     1
 74
     0
 75
     0
 76
     0
 77
     0
 78
     2
  0
ENDTAB
  0
TABLE
  2
LTYPE
 70
     4
  0
LTYPE
  2
CONTINUOUS
 70
     0
  3
Solid Line
 72
    65
 73
     0
 40
0.0
  0
LTYPE
  2
CENTER
 70
     0
  3
____ _ ____ _ ____ _ ____ _ ____ _ ____ _ ____
 72
    65
 73
     4
 40
2.0
 49
1.25
 49
-0.25
 49
0.25
 49
-0.25
  0
LTYPE
  2
HIDDEN
 70
     0
  3
_ _ _ _ _ _ _ _ _ _ _ _ _ _ _ _ _ _ _ _ _ _ _
 72
    65
 73
     2
 40
0.375
 49
0.25
 49
-0.125
  0
LTYPE
  2
PHANTOM2
 70
     0
  3
___ _ _ ___ _ _ ___ _ _ ___ _ _
 72
    65
 73
     6
 40
1.25
 49
0.625
 49
-0.125
 49
0.125
 49
-0.125
 49
0.125
 49
-0.125
  0
ENDTAB
  0
TABLE
  2
LAYER
 70
     5
  0
LAYER
  2
0
 70
     0
 62
     7
  6
CONTINUOUS
  0
LAYER
  2
1
 70
     0
 62
     1
  6
CENTER
  0
LAYER
  2
3
 70
     0
 62
     3
  6
CONTINUOUS
  0
LAYER
  2
4
 70
     0
 62
     4
  6
CONTINUOUS
  0
LAYER
  2
2
 70
     0
 62
     2
  6
HIDDEN
  0
ENDTAB
  0
TABLE
  2
STYLE
 70
     2
  0
STYLE
  2
STANDARD
 70
     0
 40
0.0
 41
1.0
 50
0.0
 71
     0
 42
4.0
  3
SIMPLEX
  4
BIGFONT
  0
STYLE
  2
STANDARD1
 70
     0
 40
0.0
 41
1.0
 50
0.0
 71
     0
 42
3.0
  3
txt
  4

  0
ENDTAB
  0
TABLE
  2
VIEW
 70
     1
  0
VIEW
  2
ALL
 70
     0
 40
270.0
 10
220.78595317725751
 20
135.0
 41
441.57190635451502
 11
0.0
 21
0.0
 31
1.0
 12
0.0
 22
0.0
 32
0.0
 42
50.0
 43
0.0
 44
0.0
 50
0.0
 71
     0
  0
ENDTAB
  0
TABLE
  2
UCS
 70
     0
  0
ENDTAB
  0
TABLE
  2
APPID
 70
     3
  0
APPID
  2
ACAD
 70
     0
  0
APPID
  2
ACAD_MLEADERVER
 70
     0
  0
APPID
  2
ACAD_NAV_VCDISPLAY
 70
     0
  0
ENDTAB
  0
TABLE
  2
DIMSTYLE
 70
     1
  0
DIMSTYLE
  2
STANDARD
 70
     0
  3

  4

  5

  6

  7

 40
1.0
 41
0.18
 42
0.0625
 43
0.38
 44
0.18
 45
0.0
 46
0.0
 47
0.0
 48
0.0
140
0.18
141
0.09
142
0.0
143
25.399999999999999
144
1.0
145
0.0
146
1.0
147
0.09
 71
     0
 72
     0
 73
     1
 74
     1
 75
     0
 76
     0
 77
     0
 78
     0
170
     0
171
     2
172
     0
173
     0
174
     0
175
     0
176
     0
177
     0
178
     0
  0
ENDTAB
  0
ENDSEC
  0
SECTION
  2
BLOCKS
  0
BLOCK
  8
0
  2
$MODEL_SPACE
 70
     0
 10
0.0
 20
0.0
 30
0.0
  3
$MODEL_SPACE
  1

  0
ENDBLK
  5
19B
  8
0
  0
BLOCK
 67
     1
  8
0
  2
$PAPER_SPACE
 70
     0
 10
0.0
 20
0.0
 30
0.0
  3
$PAPER_SPACE
  1

  0
ENDBLK
  5
199
 67
     1
  8
0
  0
BLOCK
  8
0
  2
*X0
 70
     1
 10
0.0
 20
0.0
 30
0.0
  3
*X0
  1

  0
LINE
  5
2F
  8
0
 62
     0
 10
153.0035160297208
 20
112.69842950208761
 30
0.0
 11
164.5035160297208
 21
124.19842950208761
 31
0.0
  0
LINE
  5
30
  8
0
 62
     0
 10
152.29640924853419
 20
112.69842950208761
 30
0.0
 11
163.79640924853419
 21
124.19842950208761
 31
0.0
  0
LINE
  5
31
  8
0
 62
     0
 10
151.58930246734769
 20
112.69842950208761
 30
0.0
 11
163.08930246734769
 21
124.19842950208761
 31
0.0
  0
LINE
  5
32
  8
0
 62
     0
 10
150.88219568616111
 20
112.69842950208761
 30
0.0
 11
162.38219568616111
 21
124.19842950208761
 31
0.0
  0
LINE
  5
33
  8
0
 62
     0
 10
150.17508890497459
 20
112.69842950208761
 30
0.0
 11
161.67508890497459
 21
124.19842950208761
 31
0.0
  0
LINE
  5
34
  8
0
 62
     0
 10
149.467982123788
 20
112.69842950208761
 30
0.0
 11
160.967982123788
 21
124.19842950208761
 31
0.0
  0
LINE
  5
35
  8
0
 62
     0
 10
148.76087534260151
 20
112.69842950208761
 30
0.0
 11
160.26087534260151
 21
124.19842950208761
 31
0.0
  0
LINE
  5
36
  8
0
 62
     0
 10
148.0537685614149
 20
112.69842950208761
 30
0.0
 11
159.5537685614149
 21
124.19842950208761
 31
0.0
  0
LINE
  5
37
  8
0
 62
     0
 10
147.3466617802284
 20
112.69842950208761
 30
0.0
 11
158.8466617802284
 21
124.19842950208761
 31
0.0
  0
LINE
  5
38
  8
0
 62
     0
 10
146.63955499904191
 20
112.69842950208761
 30
0.0
 11
158.13955499904191
 21
124.19842950208761
 31
0.0
  0
LINE
  5
39
  8
0
 62
     0
 10
145.9324482178553
 20
112.69842950208761
 30
0.0
 11
157.4324482178553
 21
124.19842950208761
 31
0.0
  0
LINE
  5
3A
  8
0
 62
     0
 10
145.22534143666871
 20
112.69842950208761
 30
0.0
 11
156.72534143666871
 21
124.19842950208761
 31
0.0
  0
LINE
  5
3B
  8
0
 62
     0
 10
144.51823465548219
 20
112.69842950208761
 30
0.0
 11
156.01823465548219
 21
124.19842950208761
 31
0.0
  0
LINE
  5
3C
  8
0
 62
     0
 10
143.81112787429569
 20
112.69842950208761
 30
0.0
 11
155.31112787429569
 21
124.19842950208761
 31
0.0
  0
LINE
  5
3D
  8
0
 62
     0
 10
143.10402109310911
 20
112.69842950208761
 30
0.0
 11
154.60402109310911
 21
124.19842950208761
 31
0.0
  0
LINE
  5
3E
  8
0
 62
     0
 10
142.39691431192259
 20
112.69842950208761
 30
0.0
 11
153.89691431192259
 21
124.19842950208761
 31
0.0
  0
LINE
  5
3F
  8
0
 62
     0
 10
141.689807530736
 20
112.69842950208761
 30
0.0
 11
153.189807530736
 21
124.19842950208761
 31
0.0
  0
LINE
  5
40
  8
0
 62
     0
 10
140.98270074954951
 20
112.69842950208761
 30
0.0
 11
152.48270074954951
 21
124.19842950208761
 31
0.0
  0
LINE
  5
41
  8
0
 62
     0
 10
140.2755939683629
 20
112.69842950208761
 30
0.0
 11
151.7755939683629
 21
124.19842950208761
 31
0.0
  0
LINE
  5
42
  8
0
 62
     0
 10
139.5684871871764
 20
112.69842950208761
 30
0.0
 11
151.0684871871764
 21
124.19842950208761
 31
0.0
  0
LINE
  5
43
  8
0
 62
     0
 10
138.86138040598979
 20
112.69842950208761
 30
0.0
 11
150.36138040598979
 21
124.19842950208761
 31
0.0
  0
LINE
  5
44
  8
0
 62
     0
 10
138.1542736248033
 20
112.69842950208761
 30
0.0
 11
149.6542736248033
 21
124.19842950208761
 31
0.0
  0
LINE
  5
45
  8
0
 62
     0
 10
137.44716684361671
 20
112.69842950208761
 30
0.0
 11
148.94716684361671
 21
124.19842950208761
 31
0.0
  0
LINE
  5
46
  8
0
 62
     0
 10
136.74006006243019
 20
112.69842950208761
 30
0.0
 11
148.24006006243019
 21
124.19842950208761
 31
0.0
  0
LINE
  5
47
  8
0
 62
     0
 10
136.03295328124361
 20
112.69842950208761
 30
0.0
 11
147.53295328124361
 21
124.19842950208761
 31
0.0
  0
LINE
  5
48
  8
0
 62
     0
 10
135.32584650005711
 20
112.69842950208761
 30
0.0
 11
146.82584650005711
 21
124.19842950208761
 31
0.0
  0
LINE
  5
49
  8
0
 62
     0
 10
134.6187397188705
 20
112.69842950208761
 30
0.0
 11
146.1187397188705
 21
124.19842950208761
 31
0.0
  0
LINE
  5
4A
  8
0
 62
     0
 10
133.911632937684
 20
112.69842950208761
 30
0.0
 11
145.411632937684
 21
124.19842950208761
 31
0.0
  0
LINE
  5
4B
  8
0
 62
     0
 10
133.20452615649739
 20
112.69842950208761
 30
0.0
 11
144.70452615649751
 21
124.19842950208761
 31
0.0
  0
LINE
  5
4C
  8
0
 62
     0
 10
132.4974193753109
 20
112.69842950208761
 30
0.0
 11
143.9974193753109
 21
124.19842950208761
 31
0.0
  0
LINE
  5
4D
  8
0
 62
     0
 10
131.79031259412429
 20
112.69842950208761
 30
0.0
 11
143.29031259412429
 21
124.19842950208761
 31
0.0
  0
LINE
  5
4E
  8
0
 62
     0
 10
131.08320581293779
 20
112.69842950208761
 30
0.0
 11
142.58320581293779
 21
124.19842950208761
 31
0.0
  0
LINE
  5
4F
  8
0
 62
     0
 10
130.37609903175121
 20
112.69842950208761
 30
0.0
 11
141.87609903175129
 21
124.19842950208761
 31
0.0
  0
LINE
  5
50
  8
0
 62
     0
 10
130.05970105652781
 20
113.08913830805071
 30
0.0
 11
141.16899225056471
 21
124.19842950208761
 31
0.0
  0
LINE
  5
51
  8
0
 62
     0
 10
130.05970105652781
 20
113.7962450892372
 30
0.0
 11
140.46188546937819
 21
124.19842950208761
 31
0.0
  0
LINE
  5
52
  8
0
 62
     0
 10
130.05970105652781
 20
114.5033518704238
 30
0.0
 11
139.75477868819161
 21
124.19842950208761
 31
0.0
  0
LINE
  5
53
  8
0
 62
     0
 10
130.05970105652781
 20
115.2104586516103
 30
0.0
 11
139.04767190700511
 21
124.19842950208761
 31
0.0
  0
LINE
  5
54
  8
0
 62
     0
 10
130.05970105652781
 20
115.91756543279691
 30
0.0
 11
138.3405651258185
 21
124.19842950208761
 31
0.0
  0
LINE
  5
55
  8
0
 62
     0
 10
130.05970105652781
 20
116.6246722139834
 30
0.0
 11
137.633458344632
 21
124.19842950208761
 31
0.0
  0
LINE
  5
56
  8
0
 62
     0
 10
130.05970105652781
 20
117.33177899517
 30
0.0
 11
136.92635156344539
 21
124.19842950208761
 31
0.0
  0
LINE
  5
57
  8
0
 62
     0
 10
130.05970105652781
 20
118.03888577635649
 30
0.0
 11
136.2192447822589
 21
124.19842950208761
 31
0.0
  0
LINE
  5
58
  8
0
 62
     0
 10
130.05970105652781
 20
118.7459925575431
 30
0.0
 11
135.51213800107229
 21
124.19842950208761
 31
0.0
  0
LINE
  5
59
  8
0
 62
     0
 10
130.05970105652781
 20
119.4530993387296
 30
0.0
 11
134.80503121988579
 21
124.19842950208761
 31
0.0
  0
LINE
  5
5A
  8
0
 62
     0
 10
130.05970105652781
 20
120.1602061199162
 30
0.0
 11
134.09792443869929
 21
124.19842950208761
 31
0.0
  0
LINE
  5
5B
  8
0
 62
     0
 10
130.05970105652781
 20
120.86731290110269
 30
0.0
 11
133.39081765751271
 21
124.19842950208761
 31
0.0
  0
LINE
  5
5C
  8
0
 62
     0
 10
130.05970105652781
 20
121.5744196822893
 30
0.0
 11
132.6837108763261
 21
124.19842950208761
 31
0.0
  0
LINE
  5
5D
  8
0
 62
     0
 10
130.05970105652781
 20
122.2815264634758
 30
0.0
 11
131.97660409513961
 21
124.19842950208761
 31
0.0
  0
LINE
  5
5E
  8
0
 62
     0
 10
130.05970105652781
 20
122.9886332446624
 30
0.0
 11
131.269497313953
 21
124.19842950208761
 31
0.0
  0
LINE
  5
5F
  8
0
 62
     0
 10
130.05970105652781
 20
123.69574002584891
 30
0.0
 11
130.5623905327665
 21
124.19842950208761
 31
0.0
  0
LINE
  5
60
  8
0
 62
     0
 10
153.7106228109073
 20
112.69842950208761
 30
0.0
 11
165.2106228109073
 21
124.19842950208761
 31
0.0
  0
LINE
  5
61
  8
0
 62
     0
 10
154.41772959209379
 20
112.69842950208761
 30
0.0
 11
165.91772959209391
 21
124.19842950208761
 31
0.0
  0
LINE
  5
62
  8
0
 62
     0
 10
155.1248363732804
 20
112.69842950208761
 30
0.0
 11
166.6248363732804
 21
124.19842950208761
 31
0.0
  0
LINE
  5
63
  8
0
 62
     0
 10
155.83194315446701
 20
112.69842950208761
 30
0.0
 11
167.3319431544669
 21
124.19842950208761
 31
0.0
  0
LINE
  5
64
  8
0
 62
     0
 10
156.53904993565351
 20
112.69842950208761
 30
0.0
 11
168.03904993565351
 21
124.19842950208761
 31
0.0
  0
LINE
  5
65
  8
0
 62
     0
 10
157.24615671684009
 20
112.69842950208761
 30
0.0
 11
168.74615671684009
 21
124.19842950208761
 31
0.0
  0
LINE
  5
66
  8
0
 62
     0
 10
157.95326349802659
 20
112.69842950208761
 30
0.0
 11
169.45326349802659
 21
124.19842950208761
 31
0.0
  0
LINE
  5
67
  8
0
 62
     0
 10
158.6603702792132
 20
112.69842950208761
 30
0.0
 11
170.1603702792132
 21
124.19842950208761
 31
0.0
  0
LINE
  5
68
  8
0
 62
     0
 10
159.36747706039969
 20
112.69842950208761
 30
0.0
 11
170.86747706039969
 21
124.19842950208761
 31
0.0
  0
LINE
  5
69
  8
0
 62
     0
 10
160.07458384158619
 20
112.69842950208761
 30
0.0
 11
171.5745838415863
 21
124.19842950208761
 31
0.0
  0
LINE
  5
6A
  8
0
 62
     0
 10
160.7816906227728
 20
112.69842950208761
 30
0.0
 11
172.2816906227728
 21
124.19842950208761
 31
0.0
  0
LINE
  5
6B
  8
0
 62
     0
 10
161.4887974039593
 20
112.69842950208761
 30
0.0
 11
172.9887974039593
 21
124.19842950208761
 31
0.0
  0
LINE
  5
6C
  8
0
 62
     0
 10
162.19590418514591
 20
112.69842950208761
 30
0.0
 11
173.69590418514591
 21
124.19842950208761
 31
0.0
  0
LINE
  5
6D
  8
0
 62
     0
 10
162.9030109663324
 20
112.69842950208761
 30
0.0
 11
174.4030109663324
 21
124.19842950208761
 31
0.0
  0
LINE
  5
6E
  8
0
 62
     0
 10
163.61011774751901
 20
112.69842950208761
 30
0.0
 11
175.11011774751901
 21
124.19842950208761
 31
0.0
  0
LINE
  5
6F
  8
0
 62
     0
 10
164.31722452870551
 20
112.69842950208761
 30
0.0
 11
175.81722452870551
 21
124.19842950208761
 31
0.0
  0
LINE
  5
70
  8
0
 62
     0
 10
165.02433130989209
 20
112.69842950208761
 30
0.0
 11
176.52433130989209
 21
124.19842950208761
 31
0.0
  0
LINE
  5
71
  8
0
 62
     0
 10
165.73143809107859
 20
112.69842950208761
 30
0.0
 11
177.23143809107859
 21
124.19842950208761
 31
0.0
  0
LINE
  5
72
  8
0
 62
     0
 10
166.4385448722652
 20
112.69842950208761
 30
0.0
 11
177.9385448722652
 21
124.19842950208761
 31
0.0
  0
LINE
  5
73
  8
0
 62
     0
 10
167.14565165345169
 20
112.69842950208761
 30
0.0
 11
178.64565165345169
 21
124.19842950208761
 31
0.0
  0
LINE
  5
74
  8
0
 62
     0
 10
167.8527584346383
 20
112.69842950208761
 30
0.0
 11
179.3527584346383
 21
124.19842950208761
 31
0.0
  0
LINE
  5
75
  8
0
 62
     0
 10
168.5598652158248
 20
112.69842950208761
 30
0.0
 11
180.0598652158248
 21
124.19842950208761
 31
0.0
  0
LINE
  5
76
  8
0
 62
     0
 10
169.26697199701141
 20
112.69842950208761
 30
0.0
 11
180.76697199701141
 21
124.19842950208761
 31
0.0
  0
LINE
  5
77
  8
0
 62
     0
 10
169.97407877819791
 20
112.69842950208761
 30
0.0
 11
181.47407877819791
 21
124.19842950208761
 31
0.0
  0
LINE
  5
78
  8
0
 62
     0
 10
170.68118555938449
 20
112.69842950208761
 30
0.0
 11
182.18118555938449
 21
124.19842950208761
 31
0.0
  0
LINE
  5
79
  8
0
 62
     0
 10
171.38829234057101
 20
112.69842950208761
 30
0.0
 11
182.88829234057101
 21
124.19842950208761
 31
0.0
  0
LINE
  5
7A
  8
0
 62
     0
 10
172.09539912175759
 20
112.69842950208761
 30
0.0
 11
183.59539912175751
 21
124.19842950208761
 31
0.0
  0
LINE
  5
7B
  8
0
 62
     0
 10
172.80250590294409
 20
112.69842950208761
 30
0.0
 11
184.30250590294409
 21
124.19842950208761
 31
0.0
  0
LINE
  5
7C
  8
0
 62
     0
 10
173.50961268413059
 20
112.69842950208761
 30
0.0
 11
185.00961268413059
 21
124.19842950208761
 31
0.0
  0
LINE
  5
7D
  8
0
 62
     0
 10
174.2167194653172
 20
112.69842950208761
 30
0.0
 11
185.7167194653172
 21
124.19842950208761
 31
0.0
  0
LINE
  5
7E
  8
0
 62
     0
 10
174.92382624650369
 20
112.69842950208761
 30
0.0
 11
186.42382624650381
 21
124.19842950208761
 31
0.0
  0
LINE
  5
7F
  8
0
 62
     0
 10
175.6309330276903
 20
112.69842950208761
 30
0.0
 11
187.1309330276903
 21
124.19842950208761
 31
0.0
  0
LINE
  5
80
  8
0
 62
     0
 10
176.3380398088768
 20
112.69842950208761
 30
0.0
 11
187.8380398088768
 21
124.19842950208761
 31
0.0
  0
LINE
  5
81
  8
0
 62
     0
 10
177.04514659006341
 20
112.69842950208761
 30
0.0
 11
188.0597010565279
 21
123.71298396855209
 31
0.0
  0
LINE
  5
82
  8
0
 62
     0
 10
177.75225337124991
 20
112.69842950208761
 30
0.0
 11
188.0597010565279
 21
123.0058771873655
 31
0.0
  0
LINE
  5
83
  8
0
 62
     0
 10
178.45936015243649
 20
112.69842950208761
 30
0.0
 11
188.0597010565279
 21
122.298770406179
 31
0.0
  0
LINE
  5
84
  8
0
 62
     0
 10
179.16646693362301
 20
112.69842950208761
 30
0.0
 11
188.0597010565279
 21
121.59166362499241
 31
0.0
  0
LINE
  5
85
  8
0
 62
     0
 10
179.8735737148096
 20
112.69842950208761
 30
0.0
 11
188.0597010565279
 21
120.8845568438059
 31
0.0
  0
LINE
  5
86
  8
0
 62
     0
 10
180.58068049599609
 20
112.69842950208761
 30
0.0
 11
188.0597010565279
 21
120.1774500626193
 31
0.0
  0
LINE
  5
87
  8
0
 62
     0
 10
181.2877872771827
 20
112.69842950208761
 30
0.0
 11
188.0597010565279
 21
119.4703432814328
 31
0.0
  0
LINE
  5
88
  8
0
 62
     0
 10
181.9948940583692
 20
112.69842950208761
 30
0.0
 11
188.0597010565279
 21
118.76323650024619
 31
0.0
  0
LINE
  5
89
  8
0
 62
     0
 10
182.70200083955581
 20
112.69842950208761
 30
0.0
 11
188.0597010565279
 21
118.0561297190597
 31
0.0
  0
LINE
  5
8A
  8
0
 62
     0
 10
183.4091076207423
 20
112.69842950208761
 30
0.0
 11
188.0597010565279
 21
117.3490229378731
 31
0.0
  0
LINE
  5
8B
  8
0
 62
     0
 10
184.11621440192889
 20
112.69842950208761
 30
0.0
 11
188.0597010565279
 21
116.64191615668661
 31
0.0
  0
LINE
  5
8C
  8
0
 62
     0
 10
184.82332118311541
 20
112.69842950208761
 30
0.0
 11
188.0597010565279
 21
115.9348093755
 31
0.0
  0
LINE
  5
8D
  8
0
 62
     0
 10
185.53042796430191
 20
112.69842950208761
 30
0.0
 11
188.0597010565279
 21
115.2277025943135
 31
0.0
  0
LINE
  5
8E
  8
0
 62
     0
 10
186.23753474548849
 20
112.69842950208761
 30
0.0
 11
188.0597010565279
 21
114.5205958131269
 31
0.0
  0
LINE
  5
8F
  8
0
 62
     0
 10
186.94464152667501
 20
112.69842950208761
 30
0.0
 11
188.0597010565279
 21
113.81348903194041
 31
0.0
  0
LINE
  5
90
  8
0
 62
     0
 10
187.6517483078616
 20
112.69842950208761
 30
0.0
 11
188.0597010565279
 21
113.1063822507538
 31
0.0
  0
LINE
  5
91
  8
0
 62
     0
 10
164.48742872303899
 20
112.69842950208761
 30
0.0
 11
152.98742872303899
 21
124.19842950208761
 31
0.0
  0
LINE
  5
92
  8
0
 62
     0
 10
163.78032194185241
 20
112.69842950208761
 30
0.0
 11
152.28032194185241
 21
124.19842950208761
 31
0.0
  0
LINE
  5
93
  8
0
 62
     0
 10
163.07321516066591
 20
112.69842950208761
 30
0.0
 11
151.57321516066591
 21
124.19842950208761
 31
0.0
  0
LINE
  5
94
  8
0
 62
     0
 10
162.3661083794793
 20
112.69842950208761
 30
0.0
 11
150.8661083794793
 21
124.19842950208761
 31
0.0
  0
LINE
  5
95
  8
0
 62
     0
 10
161.6590015982928
 20
112.69842950208761
 30
0.0
 11
150.1590015982928
 21
124.19842950208761
 31
0.0
  0
LINE
  5
96
  8
0
 62
     0
 10
160.95189481710619
 20
112.69842950208761
 30
0.0
 11
149.45189481710619
 21
124.19842950208761
 31
0.0
  0
LINE
  5
97
  8
0
 62
     0
 10
160.2447880359197
 20
112.69842950208761
 30
0.0
 11
148.7447880359197
 21
124.19842950208761
 31
0.0
  0
LINE
  5
98
  8
0
 62
     0
 10
159.53768125473309
 20
112.69842950208761
 30
0.0
 11
148.0376812547332
 21
124.19842950208761
 31
0.0
  0
LINE
  5
99
  8
0
 62
     0
 10
158.83057447354659
 20
112.69842950208761
 30
0.0
 11
147.33057447354659
 21
124.19842950208761
 31
0.0
  0
LINE
  5
9A
  8
0
 62
     0
 10
158.12346769236001
 20
112.69842950208761
 30
0.0
 11
146.62346769236001
 21
124.19842950208761
 31
0.0
  0
LINE
  5
9B
  8
0
 62
     0
 10
157.41636091117351
 20
112.69842950208761
 30
0.0
 11
145.91636091117351
 21
124.19842950208761
 31
0.0
  0
LINE
  5
9C
  8
0
 62
     0
 10
156.70925412998699
 20
112.69842950208761
 30
0.0
 11
145.2092541299869
 21
124.19842950208761
 31
0.0
  0
LINE
  5
9D
  8
0
 62
     0
 10
156.00214734880041
 20
112.69842950208761
 30
0.0
 11
144.50214734880041
 21
124.19842950208761
 31
0.0
  0
LINE
  5
9E
  8
0
 62
     0
 10
155.29504056761391
 20
112.69842950208761
 30
0.0
 11
143.7950405676138
 21
124.19842950208761
 31
0.0
  0
LINE
  5
9F
  8
0
 62
     0
 10
154.5879337864273
 20
112.69842950208761
 30
0.0
 11
143.0879337864273
 21
124.19842950208761
 31
0.0
  0
LINE
  5
A0
  8
0
 62
     0
 10
153.88082700524069
 20
112.69842950208761
 30
0.0
 11
142.38082700524069
 21
124.19842950208761
 31
0.0
  0
LINE
  5
A1
  8
0
 62
     0
 10
153.17372022405419
 20
112.69842950208761
 30
0.0
 11
141.67372022405419
 21
124.19842950208761
 31
0.0
  0
LINE
  5
A2
  8
0
 62
     0
 10
152.4666134428677
 20
112.69842950208761
 30
0.0
 11
140.9666134428677
 21
124.19842950208761
 31
0.0
  0
LINE
  5
A3
  8
0
 62
     0
 10
151.75950666168109
 20
112.69842950208761
 30
0.0
 11
140.25950666168109
 21
124.19842950208761
 31
0.0
  0
LINE
  5
A4
  8
0
 62
     0
 10
151.05239988049459
 20
112.69842950208761
 30
0.0
 11
139.55239988049459
 21
124.19842950208761
 31
0.0
  0
LINE
  5
A5
  8
0
 62
     0
 10
150.34529309930801
 20
112.69842950208761
 30
0.0
 11
138.84529309930801
 21
124.19842950208761
 31
0.0
  0
LINE
  5
A6
  8
0
 62
     0
 10
149.63818631812151
 20
112.69842950208761
 30
0.0
 11
138.13818631812151
 21
124.19842950208761
 31
0.0
  0
LINE
  5
A7
  8
0
 62
     0
 10
148.9310795369349
 20
112.69842950208761
 30
0.0
 11
137.4310795369349
 21
124.19842950208761
 31
0.0
  0
LINE
  5
A8
  8
0
 62
     0
 10
148.22397275574841
 20
112.69842950208761
 30
0.0
 11
136.72397275574841
 21
124.19842950208761
 31
0.0
  0
LINE
  5
A9
  8
0
 62
     0
 10
147.5168659745618
 20
112.69842950208761
 30
0.0
 11
136.0168659745618
 21
124.19842950208761
 31
0.0
  0
LINE
  5
AA
  8
0
 62
     0
 10
146.8097591933753
 20
112.69842950208761
 30
0.0
 11
135.3097591933753
 21
124.19842950208761
 31
0.0
  0
LINE
  5
AB
  8
0
 62
     0
 10
146.1026524121888
 20
112.69842950208761
 30
0.0
 11
134.60265241218869
 21
124.19842950208761
 31
0.0
  0
LINE
  5
AC
  8
0
 62
     0
 10
145.39554563100219
 20
112.69842950208761
 30
0.0
 11
133.89554563100219
 21
124.19842950208761
 31
0.0
  0
LINE
  5
AD
  8
0
 62
     0
 10
144.6884388498157
 20
112.69842950208761
 30
0.0
 11
133.18843884981561
 21
124.19842950208761
 31
0.0
  0
LINE
  5
AE
  8
0
 62
     0
 10
143.98133206862909
 20
112.69842950208761
 30
0.0
 11
132.48133206862909
 21
124.19842950208761
 31
0.0
  0
LINE
  5
AF
  8
0
 62
     0
 10
143.2742252874425
 20
112.69842950208761
 30
0.0
 11
131.7742252874425
 21
124.19842950208761
 31
0.0
  0
LINE
  5
B0
  8
0
 62
     0
 10
142.56711850625601
 20
112.69842950208761
 30
0.0
 11
131.06711850625601
 21
124.19842950208761
 31
0.0
  0
LINE
  5
B1
  8
0
 62
     0
 10
141.86001172506951
 20
112.69842950208761
 30
0.0
 11
130.36001172506951
 21
124.19842950208761
 31
0.0
  0
LINE
  5
B2
  8
0
 62
     0
 10
141.1529049438829
 20
112.69842950208761
 30
0.0
 11
130.05970105652781
 21
123.79163338944259
 31
0.0
  0
LINE
  5
B3
  8
0
 62
     0
 10
140.44579816269641
 20
112.69842950208761
 30
0.0
 11
130.05970105652781
 21
123.0845266082561
 31
0.0
  0
LINE
  5
B4
  8
0
 62
     0
 10
139.7386913815098
 20
112.69842950208761
 30
0.0
 11
130.05970105652781
 21
122.3774198270695
 31
0.0
  0
LINE
  5
B5
  8
0
 62
     0
 10
139.0315846003233
 20
112.69842950208761
 30
0.0
 11
130.05970105652781
 21
121.67031304588301
 31
0.0
  0
LINE
  5
B6
  8
0
 62
     0
 10
138.32447781913669
 20
112.69842950208761
 30
0.0
 11
130.05970105652781
 21
120.9632062646964
 31
0.0
  0
LINE
  5
B7
  8
0
 62
     0
 10
137.61737103795019
 20
112.69842950208761
 30
0.0
 11
130.05970105652781
 21
120.2560994835099
 31
0.0
  0
LINE
  5
B8
  8
0
 62
     0
 10
136.91026425676361
 20
112.69842950208761
 30
0.0
 11
130.05970105652781
 21
119.5489927023233
 31
0.0
  0
LINE
  5
B9
  8
0
 62
     0
 10
136.20315747557709
 20
112.69842950208761
 30
0.0
 11
130.05970105652781
 21
118.84188592113679
 31
0.0
  0
LINE
  5
BA
  8
0
 62
     0
 10
135.4960506943905
 20
112.69842950208761
 30
0.0
 11
130.05970105652781
 21
118.1347791399502
 31
0.0
  0
LINE
  5
BB
  8
0
 62
     0
 10
134.78894391320401
 20
112.69842950208761
 30
0.0
 11
130.05970105652781
 21
117.4276723587637
 31
0.0
  0
LINE
  5
BC
  8
0
 62
     0
 10
134.0818371320174
 20
112.69842950208761
 30
0.0
 11
130.05970105652781
 21
116.7205655775771
 31
0.0
  0
LINE
  5
BD
  8
0
 62
     0
 10
133.3747303508309
 20
112.69842950208761
 30
0.0
 11
130.05970105652781
 21
116.01345879639059
 31
0.0
  0
LINE
  5
BE
  8
0
 62
     0
 10
132.66762356964429
 20
112.69842950208761
 30
0.0
 11
130.05970105652781
 21
115.3063520152041
 31
0.0
  0
LINE
  5
BF
  8
0
 62
     0
 10
131.9605167884578
 20
112.69842950208761
 30
0.0
 11
130.05970105652781
 21
114.5992452340175
 31
0.0
  0
LINE
  5
C0
  8
0
 62
     0
 10
131.25341000727121
 20
112.69842950208761
 30
0.0
 11
130.05970105652781
 21
113.89213845283101
 31
0.0
  0
LINE
  5
C1
  8
0
 62
     0
 10
130.54630322608469
 20
112.69842950208761
 30
0.0
 11
130.05970105652781
 21
113.1850316716444
 31
0.0
  0
LINE
  5
C2
  8
0
 62
     0
 10
165.19453550422551
 20
112.69842950208761
 30
0.0
 11
153.69453550422551
 21
124.19842950208761
 31
0.0
  0
LINE
  5
C3
  8
0
 62
     0
 10
165.90164228541209
 20
112.69842950208761
 30
0.0
 11
154.40164228541209
 21
124.19842950208761
 31
0.0
  0
LINE
  5
C4
  8
0
 62
     0
 10
166.60874906659859
 20
112.69842950208761
 30
0.0
 11
155.10874906659859
 21
124.19842950208761
 31
0.0
  0
LINE
  5
C5
  8
0
 62
     0
 10
167.3158558477852
 20
112.69842950208761
 30
0.0
 11
155.81585584778509
 21
124.19842950208761
 31
0.0
  0
LINE
  5
C6
  8
0
 62
     0
 10
168.0229626289717
 20
112.69842950208761
 30
0.0
 11
156.5229626289717
 21
124.19842950208761
 31
0.0
  0
LINE
  5
C7
  8
0
 62
     0
 10
168.73006941015831
 20
112.69842950208761
 30
0.0
 11
157.23006941015831
 21
124.19842950208761
 31
0.0
  0
LINE
  5
C8
  8
0
 62
     0
 10
169.4371761913448
 20
112.69842950208761
 30
0.0
 11
157.9371761913448
 21
124.19842950208761
 31
0.0
  0
LINE
  5
C9
  8
0
 62
     0
 10
170.14428297253141
 20
112.69842950208761
 30
0.0
 11
158.64428297253141
 21
124.19842950208761
 31
0.0
  0
LINE
  5
CA
  8
0
 62
     0
 10
170.85138975371791
 20
112.69842950208761
 30
0.0
 11
159.35138975371791
 21
124.19842950208761
 31
0.0
  0
LINE
  5
CB
  8
0
 62
     0
 10
171.55849653490441
 20
112.69842950208761
 30
0.0
 11
160.05849653490441
 21
124.19842950208761
 31
0.0
  0
LINE
  5
CC
  8
0
 62
     0
 10
172.26560331609099
 20
112.69842950208761
 30
0.0
 11
160.76560331609099
 21
124.19842950208761
 31
0.0
  0
LINE
  5
CD
  8
0
 62
     0
 10
172.97271009727751
 20
112.69842950208761
 30
0.0
 11
161.47271009727751
 21
124.19842950208761
 31
0.0
  0
LINE
  5
CE
  8
0
 62
     0
 10
173.67981687846409
 20
112.69842950208761
 30
0.0
 11
162.17981687846409
 21
124.19842950208761
 31
0.0
  0
LINE
  5
CF
  8
0
 62
     0
 10
174.38692365965059
 20
112.69842950208761
 30
0.0
 11
162.88692365965059
 21
124.19842950208761
 31
0.0
  0
LINE
  5
D0
  8
0
 62
     0
 10
175.0940304408372
 20
112.69842950208761
 30
0.0
 11
163.5940304408372
 21
124.19842950208761
 31
0.0
  0
LINE
  5
D1
  8
0
 62
     0
 10
175.8011372220237
 20
112.69842950208761
 30
0.0
 11
164.3011372220237
 21
124.19842950208761
 31
0.0
  0
LINE
  5
D2
  8
0
 62
     0
 10
176.50824400321031
 20
112.69842950208761
 30
0.0
 11
165.00824400321031
 21
124.19842950208761
 31
0.0
  0
LINE
  5
D3
  8
0
 62
     0
 10
177.2153507843968
 20
112.69842950208761
 30
0.0
 11
165.7153507843968
 21
124.19842950208761
 31
0.0
  0
LINE
  5
D4
  8
0
 62
     0
 10
177.92245756558339
 20
112.69842950208761
 30
0.0
 11
166.42245756558339
 21
124.19842950208761
 31
0.0
  0
LINE
  5
D5
  8
0
 62
     0
 10
178.62956434676991
 20
112.69842950208761
 30
0.0
 11
167.12956434676991
 21
124.19842950208761
 31
0.0
  0
LINE
  5
D6
  8
0
 62
     0
 10
179.33667112795649
 20
112.69842950208761
 30
0.0
 11
167.83667112795649
 21
124.19842950208761
 31
0.0
  0
LINE
  5
D7
  8
0
 62
     0
 10
180.04377790914299
 20
112.69842950208761
 30
0.0
 11
168.54377790914299
 21
124.19842950208761
 31
0.0
  0
LINE
  5
D8
  8
0
 62
     0
 10
180.7508846903296
 20
112.69842950208761
 30
0.0
 11
169.2508846903296
 21
124.19842950208761
 31
0.0
  0
LINE
  5
D9
  8
0
 62
     0
 10
181.4579914715161
 20
112.69842950208761
 30
0.0
 11
169.9579914715161
 21
124.19842950208761
 31
0.0
  0
LINE
  5
DA
  8
0
 62
     0
 10
182.16509825270271
 20
112.69842950208761
 30
0.0
 11
170.66509825270271
 21
124.19842950208761
 31
0.0
  0
LINE
  5
DB
  8
0
 62
     0
 10
182.8722050338892
 20
112.69842950208761
 30
0.0
 11
171.3722050338892
 21
124.19842950208761
 31
0.0
  0
LINE
  5
DC
  8
0
 62
     0
 10
183.57931181507581
 20
112.69842950208761
 30
0.0
 11
172.07931181507581
 21
124.19842950208761
 31
0.0
  0
LINE
  5
DD
  8
0
 62
     0
 10
184.28641859626231
 20
112.69842950208761
 30
0.0
 11
172.78641859626231
 21
124.19842950208761
 31
0.0
  0
LINE
  5
DE
  8
0
 62
     0
 10
184.99352537744889
 20
112.69842950208761
 30
0.0
 11
173.4935253774488
 21
124.19842950208761
 31
0.0
  0
LINE
  5
DF
  8
0
 62
     0
 10
185.70063215863539
 20
112.69842950208761
 30
0.0
 11
174.20063215863539
 21
124.19842950208761
 31
0.0
  0
LINE
  5
E0
  8
0
 62
     0
 10
186.40773893982191
 20
112.69842950208761
 30
0.0
 11
174.90773893982191
 21
124.19842950208761
 31
0.0
  0
LINE
  5
E1
  8
0
 62
     0
 10
187.11484572100849
 20
112.69842950208761
 30
0.0
 11
175.61484572100849
 21
124.19842950208761
 31
0.0
  0
LINE
  5
E2
  8
0
 62
     0
 10
187.8219525021951
 20
112.69842950208761
 30
0.0
 11
176.32195250219499
 21
124.19842950208761
 31
0.0
  0
LINE
  5
E3
  8
0
 62
     0
 10
188.0597010565279
 20
113.16778772894131
 30
0.0
 11
177.0290592833816
 21
124.19842950208761
 31
0.0
  0
LINE
  5
E4
  8
0
 62
     0
 10
188.0597010565279
 20
113.8748945101278
 30
0.0
 11
177.7361660645681
 21
124.19842950208761
 31
0.0
  0
LINE
  5
E5
  8
0
 62
     0
 10
188.0597010565279
 20
114.5820012913144
 30
0.0
 11
178.44327284575471
 21
124.19842950208761
 31
0.0
  0
LINE
  5
E6
  8
0
 62
     0
 10
188.0597010565279
 20
115.28910807250089
 30
0.0
 11
179.1503796269412
 21
124.19842950208761
 31
0.0
  0
LINE
  5
E7
  8
0
 62
     0
 10
188.0597010565279
 20
115.9962148536875
 30
0.0
 11
179.85748640812781
 21
124.19842950208761
 31
0.0
  0
LINE
  5
E8
  8
0
 62
     0
 10
188.0597010565279
 20
116.703321634874
 30
0.0
 11
180.56459318931431
 21
124.19842950208761
 31
0.0
  0
LINE
  5
E9
  8
0
 62
     0
 10
188.0597010565279
 20
117.4104284160606
 30
0.0
 11
181.27169997050089
 21
124.19842950208761
 31
0.0
  0
LINE
  5
EA
  8
0
 62
     0
 10
188.0597010565279
 20
118.11753519724709
 30
0.0
 11
181.97880675168739
 21
124.19842950208761
 31
0.0
  0
LINE
  5
EB
  8
0
 62
     0
 10
188.0597010565279
 20
118.8246419784337
 30
0.0
 11
182.685913532874
 21
124.19842950208761
 31
0.0
  0
LINE
  5
EC
  8
0
 62
     0
 10
188.0597010565279
 20
119.5317487596202
 30
0.0
 11
183.39302031406049
 21
124.19842950208761
 31
0.0
  0
LINE
  5
ED
  8
0
 62
     0
 10
188.0597010565279
 20
120.2388555408067
 30
0.0
 11
184.1001270952471
 21
124.19842950208761
 31
0.0
  0
LINE
  5
EE
  8
0
 62
     0
 10
188.0597010565279
 20
120.94596232199331
 30
0.0
 11
184.8072338764336
 21
124.19842950208761
 31
0.0
  0
LINE
  5
EF
  8
0
 62
     0
 10
188.0597010565279
 20
121.6530691031799
 30
0.0
 11
185.51434065762021
 21
124.19842950208761
 31
0.0
  0
LINE
  5
F0
  8
0
 62
     0
 10
188.0597010565279
 20
122.3601758843664
 30
0.0
 11
186.22144743880671
 21
124.19842950208761
 31
0.0
  0
LINE
  5
F1
  8
0
 62
     0
 10
188.0597010565279
 20
123.06728266555299
 30
0.0
 11
186.9285542199932
 21
124.19842950208761
 31
0.0
  0
LINE
  5
F2
  8
0
 62
     0
 10
188.0597010565279
 20
123.77438944673951
 30
0.0
 11
187.63566100117981
 21
124.19842950208761
 31
0.0
  0
ENDBLK
  5
F3
  8
0
  0
ENDSEC
  0
SECTION
  2
ENTITIES
  0
LINE
  5
102
  8
0
 10
178.7368149667156
 20
127.21391811833379
 30
0.0
 11
181.2368149667156
 21
127.21391811833379
 31
0.0
  0
LINE
  5
103
  8
0
 10
259.2368149667156
 20
109.71391811833379
 30
0.0
 11
259.2368149667156
 21
94.213918118333865
 31
0.0
  0
LINE
  5
104
  8
0
 10
249.2368149667156
 20
109.71391811833379
 30
0.0
 11
249.2368149667156
 21
94.213918118333865
 31
0.0
  0
LINE
  5
105
  8
0
 10
178.7368149667156
 20
117.21391811833379
 30
0.0
 11
181.2368149667156
 21
117.21391811833379
 31
0.0
  0
ARC
  5
106
  8
0
 10
241.7368149667156
 20
109.71391811833379
 30
0.0
 40
7.5
 50
0.0
 51
90.0
  0
ARC
  5
107
  8
0
 10
178.7368149667156
 20
109.71391811833379
 30
0.0
 40
7.5
 50
90.0
 51
180.0
  0
ARC
  5
108
  8
0
 10
241.7368149667156
 20
109.71391811833379
 30
0.0
 40
17.5
 50
0.0
 51
90.0
  0
ARC
  5
109
  8
0
 10
178.7368149667156
 20
109.71391811833379
 30
0.0
 40
17.5
 50
90.0
 51
180.0
  0
ARC
  5
10A
  8
0
 10
259.2368149667156
 20
92.213918118333865
 30
0.0
 40
2.0
 50
0.0000000000004071
 51
90.0
  0
ARC
  5
10B
  8
0
 10
249.2368149667156
 20
92.213918118333865
 30
0.0
 40
2.0
 50
90.0
 51
179.9999999999996
  0
LINE
  5
10C
  8
0
 10
261.2368149667156
 20
86.213918118333808
 30
0.0
 11
261.2368149667156
 21
92.213918118333865
 31
0.0
  0
LINE
  5
10D
  8
0
 10
247.2368149667156
 20
86.213918118333808
 30
0.0
 11
247.2368149667156
 21
92.213918118333865
 31
0.0
  0
LINE
  5
10E
  8
0
 10
261.2368149667156
 20
86.213918118333808
 30
0.0
 11
247.2368149667156
 21
86.213918118333808
 31
0.0
  0
LINE
  5
10F
  8
0
 10
249.2368149667156
 20
94.213918118333865
 30
0.0
 11
259.2368149667156
 21
94.213918118333865
 31
0.0
  0
LINE
  5
110
  8
0
 10
181.2368149667156
 20
127.96391811833379
 30
0.0
 11
181.2368149667156
 21
116.46391811833379
 31
0.0
  0
LINE
  5
111
  8
0
 10
239.2368149667156
 20
127.96391811833379
 30
0.0
 11
239.2368149667156
 21
116.46391811833379
 31
0.0
  0
LINE
  5
112
  8
0
 10
181.2368149667156
 20
127.96391811833379
 30
0.0
 11
239.2368149667156
 21
127.96391811833379
 31
0.0
  0
LINE
  5
113
  8
0
 10
181.2368149667156
 20
116.46391811833379
 30
0.0
 11
239.2368149667156
 21
116.46391811833379
 31
0.0
  0
LINE
  5
114
  8
0
 10
239.2368149667156
 20
127.21391811833379
 30
0.0
 11
241.7368149667156
 21
127.21391811833379
 31
0.0
  0
LINE
  5
115
  8
0
 10
239.2368149667156
 20
117.21391811833379
 30
0.0
 11
241.7368149667156
 21
117.21391811833379
 31
0.0
  0
LINE
  5
116
  8
0
 10
166.2368149667156
 20
174.99282793139031
 30
0.0
 11
181.23681496671551
 21
174.99282793139031
 31
0.0
  0
LINE
  5
117
  8
0
 10
166.2368149667156
 20
184.99282793139031
 30
0.0
 11
181.23681496671551
 21
184.99282793139031
 31
0.0
  0
LINE
  5
118
  8
1
 10
156.2368149667156
 20
179.99282793139031
 30
0.0
 11
264.23681496671571
 21
179.99282793139031
 31
0.0
  0
ARC
  5
119
  8
0
 10
166.2368149667156
 20
179.99282793139031
 30
0.0
 40
5.0
 50
90.0
 51
270.0
  0
ARC
  5
11A
  8
2
 10
166.2368149667156
 20
179.99282793139031
 30
0.0
 40
5.0
 50
270.0
 51
90.0
  0
ARC
  5
11B
  8
0
 10
254.23681496671551
 20
179.99282793139031
 30
0.0
 40
5.0
 50
270.0
 51
90.0
  0
ARC
  5
11C
  8
2
 10
254.2368149667156
 20
179.99282793139031
 30
0.0
 40
5.0
 50
90.0
 51
270.0
  0
LINE
  5
11D
  8
1
 10
166.2368149667156
 20
189.99282793139031
 30
0.0
 11
166.2368149667156
 21
169.99282793139031
 31
0.0
  0
LINE
  5
11E
  8
1
 10
254.23681496671551
 20
189.99282793139031
 30
0.0
 11
254.23681496671551
 21
169.99282793139031
 31
0.0
  0
ARC
  5
11F
  8
0
 10
166.2368149667156
 20
179.99282793139031
 30
0.0
 40
7.0
 50
45.584691402806932
 51
314.41530859719308
  0
ARC
  5
120
  8
0
 10
254.23681496671551
 20
179.99282793139031
 30
0.0
 40
7.0
 50
225.5846914028069
 51
134.4153085971931
  0
LINE
  5
121
  8
0
 10
239.23681496671571
 20
174.24282793139031
 30
0.0
 11
239.23681496671571
 21
185.74282793139031
 31
0.0
  0
LINE
  5
122
  8
0
 10
181.2368149667156
 20
174.24282793139031
 30
0.0
 11
181.2368149667156
 21
185.74282793139031
 31
0.0
  0
LINE
  5
123
  8
0
 10
181.23681496671551
 20
185.74282793139031
 30
0.0
 11
239.23681496671571
 21
185.74282793139031
 31
0.0
  0
LINE
  5
124
  8
0
 10
181.23681496671551
 20
174.24282793139031
 30
0.0
 11
239.23681496671571
 21
174.24282793139031
 31
0.0
  0
LINE
  5
125
  8
0
 10
239.2368149667156
 20
184.99282793139031
 30
0.0
 11
254.23681496671551
 21
184.99282793139031
 31
0.0
  0
LINE
  5
126
  8
0
 10
239.2368149667156
 20
174.99282793139031
 30
0.0
 11
254.23681496671551
 21
174.99282793139031
 31
0.0
  0
LINE
  5
127
  8
0
 10
89.578978699059334
 20
122.21391811833379
 30
0.0
 11
89.578978699059334
 21
94.213918118333865
 31
0.0
  0
LINE
  5
128
  8
0
 10
99.578978699059334
 20
122.21391811833379
 30
0.0
 11
99.578978699059334
 21
94.213918118333865
 31
0.0
  0
LINE
  5
129
  8
1
 10
94.578978699059249
 20
132.21391811833379
 30
0.0
 11
94.578978699059249
 21
81.213918118333808
 31
0.0
  0
ARC
  5
12A
  8
0
 10
94.578978699059249
 20
122.21391811833379
 30
0.0
 40
5.0
 50
0.0
 51
180.0
  0
ARC
  5
12B
  8
2
 10
94.578978699059249
 20
122.21391811833379
 30
0.0
 40
5.0
 50
180.0
 51
0.0
  0
LINE
  5
12C
  8
0
 10
89.578978699059249
 20
94.213918118333865
 30
0.0
 11
99.578978699059263
 21
94.213918118333865
 31
0.0
  0
LINE
  5
12D
  8
0
 10
101.57897869905921
 20
86.213918118333808
 30
0.0
 11
87.578978699059263
 21
86.213918118333808
 31
0.0
  0
LINE
  5
12E
  8
0
 10
87.578978699059206
 20
86.213918118333808
 30
0.0
 11
87.578978699059263
 21
92.213918118333865
 31
0.0
  0
LINE
  5
12F
  8
0
 10
101.57897869905921
 20
86.213918118333808
 30
0.0
 11
101.57897869905921
 21
92.213918118333865
 31
0.0
  0
ARC
  5
130
  8
0
 10
89.578978699059249
 20
92.213918118333865
 30
0.0
 40
2.0
 50
90.0
 51
179.9999999999996
  0
ARC
  5
131
  8
0
 10
99.578978699059206
 20
92.213918118333865
 30
0.0
 40
2.0
 50
0.0000000000004071
 51
90.0
  0
LINE
  5
132
  8
1
 10
254.2368149667156
 20
109.71391811833379
 30
0.0
 11
254.2368149667156
 21
81.213918118333808
 31
0.0
  0
ARC
  5
133
  8
1
 10
241.7368149667156
 20
109.71391811833379
 30
0.0
 40
12.5
 50
0.0
 51
90.0
  0
LINE
  5
134
  8
1
 10
178.7368149667156
 20
122.21391811833379
 30
0.0
 11
241.7368149667156
 21
122.21391811833379
 31
0.0
  0
ARC
  5
135
  8
1
 10
178.7368149667156
 20
109.71391811833379
 30
0.0
 40
12.5
 50
90.0
 51
180.0
  0
LINE
  5
136
  8
1
 10
166.2368149667156
 20
81.213918118333808
 30
0.0
 11
166.2368149667156
 21
109.71391811833379
 31
0.0
  0
INSERT
  5
137
  8
3
  2
*X0
 10
51.1771139101877
 20
3.7654886162462158
 30
0.0
  0
INSERT
  5
138
  8
3
  2
*X0
 10
51.1771139101877
 20
61.544398429302667
 30
0.0
  0
LINE
  5
139
  8
0
 10
171.23681496671551
 20
94.213918118333865
 30
0.0
 11
161.23681496671551
 21
94.213918118333865
 31
0.0
  0
LINE
  5
13A
  8
0
 10
159.2368149667156
 20
86.213918118333808
 30
0.0
 11
173.23681496671551
 21
86.213918118333808
 31
0.0
  0
LINE
  5
13B
  8
0
 10
173.2368149667156
 20
86.213918118333808
 30
0.0
 11
173.23681496671551
 21
92.213918118333865
 31
0.0
  0
LINE
  5
13C
  8
0
 10
159.2368149667156
 20
86.213918118333808
 30
0.0
 11
159.23681496671551
 21
92.213918118333865
 31
0.0
  0
ARC
  5
13D
  8
0
 10
171.23681496671551
 20
92.213918118333865
 30
0.0
 40
2.0
 50
0.0000000000004071
 51
90.0
  0
ARC
  5
13E
  8
0
 10
161.2368149667156
 20
92.213918118333865
 30
0.0
 40
2.0
 50
90.0
 51
179.9999999999996
  0
LINE
  5
13F
  8
0
 10
171.23681496671551
 20
109.71391811833379
 30
0.0
 11
171.23681496671551
 21
94.213918118333865
 31
0.0
  0
LINE
  5
140
  8
0
 10
161.23681496671551
 20
109.71391811833379
 30
0.0
 11
161.23681496671551
 21
94.213918118333865
 31
0.0
  0
LINE
  5
141
  8
2
 10
256.7368149667156
 20
87.680918118333977
 30
0.0
 11
256.7368149667156
 21
97.213918118333766
 31
0.0
  0
LINE
  5
142
  8
2
 10
256.30381496671578
 20
88.113918118333757
 30
0.0
 11
256.30381496671578
 21
100.21391811833379
 31
0.0
  0
LINE
  5
143
  8
2
 10
252.16981496671539
 20
88.113918118333757
 30
0.0
 11
252.16981496671539
 21
100.21391811833379
 31
0.0
  0
LINE
  5
144
  8
2
 10
251.73681496671551
 20
87.680918118333977
 30
0.0
 11
251.73681496671551
 21
97.213918118333766
 31
0.0
  0
LINE
  5
145
  8
2
 10
256.30381496671578
 20
100.21391811833389
 30
0.0
 11
254.23681496671551
 21
101.4558970178639
 31
0.0
  0
LINE
  5
146
  8
2
 10
252.16981496671539
 20
100.21391811833379
 30
0.0
 11
254.23681496671551
 21
101.4558970178639
 31
0.0
  0
LINE
  5
147
  8
2
 10
256.7368149667156
 20
97.213918118333766
 30
0.0
 11
251.73681496671551
 21
97.213918118333766
 31
0.0
  0
LINE
  5
148
  8
2
 10
256.30381496671578
 20
100.21391811833379
 30
0.0
 11
252.16981496671539
 21
100.21391811833379
 31
0.0
  0
LINE
  5
149
  8
2
 10
251.73681496671551
 20
97.213918118333766
 30
0.0
 11
252.16981496671539
 21
97.963896118010751
 31
0.0
  0
LINE
  5
14A
  8
2
 10
256.73681496671537
 20
97.213918118333766
 30
0.0
 11
256.30381496671572
 21
97.963896118010751
 31
0.0
  0
LINE
  5
14B
  8
2
 10
257.20381496671592
 20
87.213918118333766
 30
0.0
 11
256.30381496671578
 21
88.113918118333757
 31
0.0
  0
LINE
  5
14C
  8
2
 10
256.30381496671578
 20
88.113918118333757
 30
0.0
 11
252.16981496671539
 21
88.113918118333856
 31
0.0
  0
LINE
  5
14D
  8
2
 10
252.16981496671539
 20
88.113918118333856
 30
0.0
 11
251.2698149667153
 21
87.213918118333766
 31
0.0
  0
LINE
  5
14E
  8
2
 10
259.2368149667156
 20
87.213918118333766
 30
0.0
 11
249.2368149667156
 21
87.213918118333766
 31
0.0
  0
LINE
  5
14F
  8
2
 10
256.7368149667156
 20
86.21391811833378
 30
0.0
 11
256.7368149667156
 21
87.213918118333766
 31
0.0
  0
LINE
  5
150
  8
2
 10
251.7368149667156
 20
86.21391811833378
 30
0.0
 11
251.7368149667156
 21
87.213918118333766
 31
0.0
  0
LINE
  5
151
  8
2
 10
259.2368149667156
 20
94.213918118333794
 30
0.0
 11
259.2368149667156
 21
87.213918118333766
 31
0.0
  0
LINE
  5
152
  8
2
 10
249.2368149667156
 20
94.213918118333794
 30
0.0
 11
249.2368149667156
 21
87.213918118333766
 31
0.0
  0
LINE
  5
153
  8
2
 10
168.73681496671551
 20
87.680918118333977
 30
0.0
 11
168.73681496671551
 21
97.213918118333766
 31
0.0
  0
LINE
  5
154
  8
2
 10
168.30381496671569
 20
88.113918118333757
 30
0.0
 11
168.30381496671569
 21
100.21391811833379
 31
0.0
  0
LINE
  5
155
  8
2
 10
164.16981496671539
 20
88.113918118333757
 30
0.0
 11
164.16981496671539
 21
100.21391811833379
 31
0.0
  0
LINE
  5
156
  8
2
 10
163.73681496671551
 20
87.680918118333977
 30
0.0
 11
163.73681496671551
 21
97.213918118333766
 31
0.0
  0
LINE
  5
157
  8
2
 10
168.30381496671569
 20
100.21391811833389
 30
0.0
 11
166.23681496671551
 21
101.4558970178639
 31
0.0
  0
LINE
  5
158
  8
2
 10
164.16981496671539
 20
100.21391811833379
 30
0.0
 11
166.23681496671551
 21
101.4558970178639
 31
0.0
  0
LINE
  5
159
  8
2
 10
168.73681496671551
 20
97.213918118333766
 30
0.0
 11
163.73681496671551
 21
97.213918118333766
 31
0.0
  0
LINE
  5
15A
  8
2
 10
168.30381496671569
 20
100.21391811833379
 30
0.0
 11
164.16981496671539
 21
100.21391811833379
 31
0.0
  0
LINE
  5
15B
  8
2
 10
163.73681496671551
 20
97.213918118333766
 30
0.0
 11
164.16981496671539
 21
97.963896118010751
 31
0.0
  0
LINE
  5
15C
  8
2
 10
168.7368149667154
 20
97.213918118333766
 30
0.0
 11
168.30381496671561
 21
97.963896118010751
 31
0.0
  0
LINE
  5
15D
  8
2
 10
169.20381496671581
 20
87.213918118333766
 30
0.0
 11
168.30381496671569
 21
88.113918118333757
 31
0.0
  0
LINE
  5
15E
  8
2
 10
168.30381496671569
 20
88.113918118333757
 30
0.0
 11
164.16981496671539
 21
88.113918118333856
 31
0.0
  0
LINE
  5
15F
  8
2
 10
164.16981496671539
 20
88.113918118333856
 30
0.0
 11
163.2698149667153
 21
87.213918118333766
 31
0.0
  0
LINE
  5
160
  8
2
 10
171.23681496671551
 20
87.213918118333766
 30
0.0
 11
161.2368149667156
 21
87.213918118333766
 31
0.0
  0
LINE
  5
161
  8
2
 10
168.7368149667156
 20
86.21391811833378
 30
0.0
 11
168.7368149667156
 21
87.213918118333766
 31
0.0
  0
LINE
  5
162
  8
2
 10
163.7368149667156
 20
86.21391811833378
 30
0.0
 11
163.7368149667156
 21
87.213918118333766
 31
0.0
  0
LINE
  5
163
  8
2
 10
171.23681496671551
 20
94.213918118333794
 30
0.0
 11
171.23681496671551
 21
87.213918118333766
 31
0.0
  0
LINE
  5
164
  8
2
 10
161.2368149667156
 20
94.213918118333794
 30
0.0
 11
161.2368149667156
 21
87.213918118333766
 31
0.0
  0
TEXT
  5
2F1
  8
0
 62
     3
 10
0.0
 20
0.0
 30
0.0
 40
10.0
  1
RD6-88SP
  7
STANDARD1
  0
ENDSEC
  0
EOF
